  0
SECTION
  2
HEADER
  9
$ACADVER
  1
AC1004
  9
$ANGBASE
 50
0.0000000000
  9
$ANGDIR
 70
     0
  9
$ATTDIA
 70
     0
  9
$ATTMODE
 70
     1
  9
$ATTREQ
 70
     1
  9
$AUNITS
 70
     0
  9
$AUPREC
 70
     0
  9
$AXISMODE
 70
     0
  9
$AXISUNIT
 10
0.0000000000
 20
0.0000000000
  9
$BLIPMODE
 70
     1
  9
$CECOLOR
 62
   256
  9
$CELTYPE
  6
BYLAYER
  9
$CHAMFERA
 40
0.0000000000
  9
$CHAMFERB
 40
0.0000000000
  9
$CLAYER
  8
0
  9
$COORDS
 70
     0
  9
$DIMALT
 70
     0
  9
$DIMALTD
 70
     2
  9
$DIMALTF
 40
25.4000000000
  9
$DIMAPOST
  1

  9
$DIMASO
 70
     1
  9
$DIMASZ
 40
1.9727878460
  9
$DIMBLK
  1

  9
$DIMBLK1
  1

  9
$DIMBLK2
  1

  9
$DIMCEN
 40
9.0000000000E-02
  9
$DIMDLE
 40
0.0000000000
  9
$DIMDLI
 40
0.3800000000
  9
$DIMEXE
 40
3.8099999428
  9
$DIMEXO
 40
2.5399999619
  9
$DIMLFAC
 40
1.0000000000
  9
$DIMLIM
 70
     0
  9
$DIMPOST
  1

  9
$DIMRND
 40
0.0000000000
  9
$DIMSCALE
 40
1.0000000000
  9
$DIMSE1
 70
     0
  9
$DIMSE2
 70
     0
  9
$DIMSHO
 70
     0
  9
$DIMTAD
 70
     0
  9
$DIMTIH
 70
     0
  9
$DIMTM
 40
0.0000000000
  9
$DIMTOH
 70
     1
  9
$DIMTOL
 70
     0
  9
$DIMTP
 40
0.0000000000
  9
$DIMTSZ
 40
0.0000000000
  9
$DIMTXT
 40
2.9999940395
  9
$DIMZIN
 70
     0
  9
$DRAGMODE
 70
     1
  9
$ELEVATION
 40
0.0000000000
  9
$EXTMAX
 10
3.1750000000
 20
241.1927459717
 30
0.0000000000
  9
$EXTMIN
 10
-235.8702209473
 20
-3.7425647855
 30
0.0000000000
  9
$FASTZOOM
 70
     1
  9
$FILLETRAD
 40
6.2500000000E-02
  9
$FILLMODE
 70
     1
  9
$GRIDMODE
 70
     0
  9
$GRIDUNIT
 10
0.0000000000
 20
0.0000000000
  9
$INSBASE
 10
0.0000000000
 20
0.0000000000
 30
0.0000000000
  9
$LIMCHECK
 70
     0
  9
$LIMMAX
 10
3.1750000000
 20
241.1927459717
  9
$LIMMIN
 10
-235.8702209473
 20
-3.7425647855
  9
$LTSCALE
 40
1.0000000000
  9
$LUNITS
 70
     2
  9
$LUPREC
 70
     3
  9
$MEASUREMENT
 70
     0
  9
$MENU
  1
ACAD
  9
$MIRRTEXT
 70
     0
  9
$ORTHOMODE
 70
     0
  9
$OSMODE
 70
     0
  9
$PDMODE
 70
     0
  9
$PDSIZE
 40
0.0000000000
  9
$PLINEWID
 40
0.0000000000
  9
$PROXYGRAPHICS
 70
     0
  9
$QTEXTMODE
 70
     0
  9
$REGENMODE
 70
     1
  9
$SKETCHINC
 40
0.1000000000
  9
$SKPOLY
 70
     0
  9
$SNAPANG
 50
0.0000000000
  9
$SNAPBASE
 10
0.0000000000
 20
0.0000000000
  9
$SNAPISOPAIR
 70
     0
  9
$SNAPMODE
 70
     0
  9
$SNAPSTYLE
 70
     0
  9
$SNAPUNIT
 10
1.0000000000
 20
1.0000000000
  9
$SPLFRAME
 70
     0
  9
$SPLINESEGS
 70
     8
  9
$TDCREATE
 40
2454685.6781018568
  9
$TDINDWG
 40
0.0000000000
  9
$TDUPDATE
 40
2454685.6781018568
  9
$TDUSRTIMER
 40
0.0000000000
  9
$TEXTSIZE
 40
2.9999940395
  9
$TEXTSTYLE
  7
STANDARD
  9
$THICKNESS
 40
0.0000000000
  9
$TRACEWID
 40
5.0000000000E-02
  9
$USERI1
 70
     0
  9
$USERI2
 70
     0
  9
$USERI3
 70
     0
  9
$USERI4
 70
     0
  9
$USERI5
 70
     0
  9
$USERR1
 40
0.0000000000
  9
$USERR2
 40
0.0000000000
  9
$USERR3
 40
0.0000000000
  9
$USERR4
 40
0.0000000000
  9
$USERR5
 40
0.0000000000
  9
$USRTIMER
 70
     1
  9
$VIEWCTR
 10
-116.3476104736
 20
118.7250905931
  9
$VIEWDIR
 10
0.0000000000
 20
0.0000000000
 30
1.0000000000
  9
$VIEWSIZE
 40
244.9353107572
  0
ENDSEC
  0
SECTION
  2
TABLES
  0
TABLE
  2
LTYPE
 70
     2
  0
LTYPE
  2
SOLID
  3
Solid
 70
    64
 72
    65
 73
     0
 40
0.0000000000
  0
LTYPE
  2
CENTER
  3
Center
 70
    64
 72
    65
 73
     4
 40
9.1000000238
 49
6.5000000000
 49
-0.8000000119
 49
1.0000000000
 49
-0.8000000119
  0
ENDTAB
  0
TABLE
  2
LAYER
 70
     4
  0
LAYER
  2
Layer0$C$L0
 70
     0
  6
SOLID
 62
     3
  0
LAYER
  2
Layer1$C$L1
 70
     0
  6
SOLID
 62
     3
  0
LAYER
  2
Layer6$C$L6
 70
     0
  6
SOLID
 62
    31
  0
LAYER
  2
Layer8$C$L8
 70
     0
  6
SOLID
 62
     7
  0
ENDTAB
  0
TABLE
  2
STYLE
 70
     1
  0
STYLE
  2
STANDARD
  3
txt
  4

 40
0.0000000000
 41
1.0000000000
 42
3.0000000000
 50
0.0000000000
 70
     0
 71
     0
  0
ENDTAB
  0
ENDSEC
  0
SECTION
  2
BLOCKS
  0
ENDSEC
  0
SECTION
  2
ENTITIES
  0
TEXT
  8
Layer8$C$L8
 62
     5
 10
-45.3302187069
 20
-0.5675647616
 40
2.9999941014
  1
MA4-H01800B
 41
0.8524508279
 72
     5
 11
-19.7567441513
 21
-0.5675647616
  0
TEXT
  8
Layer8$C$L8
 10
-44.9248133015
 20
14.4324352384
 40
2.9999941014
  1
XA1E-BV4U###*
 41
0.8418761343
 72
     5
 11
-14.6173320563
 21
14.4324352384
  0
CIRCLE
  8
Layer1$C$L1
 62
     3
 10
-91.5300683551
 20
139.8829317891
 40
8.8500000000
  0
CIRCLE
  8
Layer1$C$L1
 62
     3
 10
-91.5300683551
 20
139.8829317891
 40
9.2000000000
  0
CIRCLE
  8
Layer1$C$L1
 62
     3
 10
-91.5300683551
 20
139.8829317891
 40
8.5000000000
  0
ARC
  8
Layer1$C$L1
 62
     3
 10
-216.8584291591
 20
140.4308709704
 40
4.6384501075
 50
318.2377880243
 51
328.0224166840
  0
LINE
  8
Layer1$C$L1
 62
     3
 10
-206.2138121438
 20
138.0365750900
 11
-205.9822415546
 21
138.0365750900
  0
LINE
  8
Layer1$C$L1
 62
     3
 10
-213.6952242933
 20
138.1615750900
 11
-212.6864896735
 21
138.1615750900
  0
LINE
  8
Layer1$C$L1
 62
     3
 10
-212.6864896735
 20
138.0040747680
 11
-212.6864896735
 21
138.1615750900
  0
LINE
  8
Layer1$C$L1
 62
     3
 10
-213.6952242933
 20
137.9744061028
 11
-213.6952242933
 21
138.1615750900
  0
LINE
  8
Layer1$C$L1
 62
     3
 10
-213.6952242933
 20
137.9744061028
 11
-212.9238389958
 21
137.9744061028
  0
LINE
  8
Layer1$C$L1
 62
     3
 10
-212.9436181060
 20
136.8667759319
 11
-212.7260478939
 21
136.8667759319
  0
LINE
  8
Layer1$C$L1
 62
     3
 10
-205.9822415546
 20
136.5188636228
 11
-205.6952244863
 21
136.5188636228
  0
LINE
  8
Layer1$C$L1
 62
     3
 10
-205.9822415546
 20
136.5188636228
 11
-205.9822415546
 21
138.0365750900
  0
LINE
  8
Layer1$C$L1
 62
     3
 10
-205.6952244863
 20
136.4032595258
 11
-205.6952244863
 21
136.5188636228
  0
LINE
  8
Layer1$C$L1
 62
     3
 10
-206.2138121438
 20
136.1292886879
 11
-206.2138121438
 21
138.0365750900
  0
LINE
  8
Layer1$C$L1
 62
     3
 10
-206.2138121438
 20
136.1292886879
 11
-206.0963960704
 21
136.1292886879
  0
POLYLINE
  8
Layer1$C$L1
 62
     3
 66
     1
  0
VERTEX
  8
Layer1$C$L1
 62
     3
 10
-205.6952244863
 20
136.4032595258
  0
VERTEX
  8
Layer1$C$L1
 62
     3
 10
-205.7944705672
 20
136.3965391444
  0
VERTEX
  8
Layer1$C$L1
 62
     3
 10
-205.8910638131
 20
136.3731421767
  0
VERTEX
  8
Layer1$C$L1
 62
     3
 10
-205.9785032404
 20
136.3262824254
  0
VERTEX
  8
Layer1$C$L1
 62
     3
 10
-206.0556369108
 20
136.2388330641
  0
VERTEX
  8
Layer1$C$L1
 62
     3
 10
-206.0963960704
 20
136.1292886879
  0
SEQEND
  8
Layer1$C$L1
 62
     3
  0
POLYLINE
  8
Layer1$C$L1
 62
     3
 66
     1
  0
VERTEX
  8
Layer1$C$L1
 62
     3
 10
-213.6655556280
 20
136.7481012708
  0
VERTEX
  8
Layer1$C$L1
 62
     3
 10
-213.6385522450
 20
136.9316920991
  0
VERTEX
  8
Layer1$C$L1
 62
     3
 10
-213.5672862795
 20
137.1032719022
  0
VERTEX
  8
Layer1$C$L1
 62
     3
 10
-213.4895743896
 20
137.2270854024
  0
VERTEX
  8
Layer1$C$L1
 62
     3
 10
-213.3985376404
 20
137.3414745766
  0
SEQEND
  8
Layer1$C$L1
 62
     3
  0
POLYLINE
  8
Layer1$C$L1
 62
     3
 66
     1
  0
VERTEX
  8
Layer1$C$L1
 62
     3
 10
-213.2501943140
 20
137.1931312501
  0
VERTEX
  8
Layer1$C$L1
 62
     3
 10
-213.3341726295
 20
137.0801899963
  0
VERTEX
  8
Layer1$C$L1
 62
     3
 10
-213.3974880873
 20
136.9545952153
  0
VERTEX
  8
Layer1$C$L1
 62
     3
 10
-213.4278585173
 20
136.8482866848
  0
VERTEX
  8
Layer1$C$L1
 62
     3
 10
-213.4380958608
 20
136.7382117157
  0
SEQEND
  8
Layer1$C$L1
 62
     3
  0
POLYLINE
  8
Layer1$C$L1
 62
     3
 66
     1
  0
VERTEX
  8
Layer1$C$L1
 62
     3
 10
-213.4380958608
 20
136.7382117157
  0
VERTEX
  8
Layer1$C$L1
 62
     3
 10
-213.4327675636
 20
136.6602289797
  0
VERTEX
  8
Layer1$C$L1
 62
     3
 10
-213.4138222657
 20
136.5844675408
  0
VERTEX
  8
Layer1$C$L1
 62
     3
 10
-213.3871120613
 20
136.5292147596
  0
VERTEX
  8
Layer1$C$L1
 62
     3
 10
-213.3490898649
 20
136.4810832832
  0
SEQEND
  8
Layer1$C$L1
 62
     3
  0
POLYLINE
  8
Layer1$C$L1
 62
     3
 66
     1
  0
VERTEX
  8
Layer1$C$L1
 62
     3
 10
-212.7260478939
 20
136.8667759319
  0
VERTEX
  8
Layer1$C$L1
 62
     3
 10
-212.7386740250
 20
136.7123160753
  0
VERTEX
  8
Layer1$C$L1
 62
     3
 10
-212.7726082512
 20
136.5611874297
  0
VERTEX
  8
Layer1$C$L1
 62
     3
 10
-212.8210868965
 20
136.4495912020
  0
VERTEX
  8
Layer1$C$L1
 62
     3
 10
-212.8941703305
 20
136.3525190669
  0
SEQEND
  8
Layer1$C$L1
 62
     3
  0
POLYLINE
  8
Layer1$C$L1
 62
     3
 66
     1
  0
VERTEX
  8
Layer1$C$L1
 62
     3
 10
-213.5271018567
 20
136.3624086220
  0
VERTEX
  8
Layer1$C$L1
 62
     3
 10
-213.5979422920
 20
136.4561533787
  0
VERTEX
  8
Layer1$C$L1
 62
     3
 10
-213.6427051165
 20
136.5648495327
  0
VERTEX
  8
Layer1$C$L1
 62
     3
 10
-213.6602152573
 20
136.6557142658
  0
VERTEX
  8
Layer1$C$L1
 62
     3
 10
-213.6655556280
 20
136.7481012708
  0
SEQEND
  8
Layer1$C$L1
 62
     3
  0
POLYLINE
  8
Layer1$C$L1
 62
     3
 66
     1
  0
VERTEX
  8
Layer1$C$L1
 62
     3
 10
-213.2106360936
 20
136.2338444058
  0
VERTEX
  8
Layer1$C$L1
 62
     3
 10
-213.3083088461
 20
136.2433712434
  0
VERTEX
  8
Layer1$C$L1
 62
     3
 10
-213.4015667219
 20
136.2737540852
  0
VERTEX
  8
Layer1$C$L1
 62
     3
 10
-213.4683066300
 20
136.3124395471
  0
VERTEX
  8
Layer1$C$L1
 62
     3
 10
-213.5271018567
 20
136.3624086220
  0
SEQEND
  8
Layer1$C$L1
 62
     3
  0
POLYLINE
  8
Layer1$C$L1
 62
     3
 66
     1
  0
VERTEX
  8
Layer1$C$L1
 62
     3
 10
-213.0326241019
 20
136.5008623934
  0
VERTEX
  8
Layer1$C$L1
 62
     3
 10
-212.9786599974
 20
136.5932057069
  0
VERTEX
  8
Layer1$C$L1
 62
     3
 10
-212.9541321850
 20
136.6979581514
  0
VERTEX
  8
Layer1$C$L1
 62
     3
 10
-212.9436181060
 20
136.8667759319
  0
SEQEND
  8
Layer1$C$L1
 62
     3
  0
POLYLINE
  8
Layer1$C$L1
 62
     3
 66
     1
  0
VERTEX
  8
Layer1$C$L1
 62
     3
 10
-212.6864896735
 20
138.0040747680
  0
VERTEX
  8
Layer1$C$L1
 62
     3
 10
-212.8253303585
 20
137.7642991148
  0
VERTEX
  8
Layer1$C$L1
 62
     3
 10
-212.9795835325
 20
137.5341259467
  0
VERTEX
  8
Layer1$C$L1
 62
     3
 10
-213.2501943140
 20
137.1931312501
  0
SEQEND
  8
Layer1$C$L1
 62
     3
  0
POLYLINE
  8
Layer1$C$L1
 62
     3
 66
     1
  0
VERTEX
  8
Layer1$C$L1
 62
     3
 10
-213.1908569834
 20
136.4217459526
  0
VERTEX
  8
Layer1$C$L1
 62
     3
 10
-213.1407703479
 20
136.4293926527
  0
VERTEX
  8
Layer1$C$L1
 62
     3
 10
-213.0946642635
 20
136.4509233628
  0
VERTEX
  8
Layer1$C$L1
 62
     3
 10
-213.0326241019
 20
136.5008623934
  0
SEQEND
  8
Layer1$C$L1
 62
     3
  0
POLYLINE
  8
Layer1$C$L1
 62
     3
 66
     1
  0
VERTEX
  8
Layer1$C$L1
 62
     3
 10
-212.8941703305
 20
136.3525190669
  0
VERTEX
  8
Layer1$C$L1
 62
     3
 10
-212.9708019255
 20
136.2930815428
  0
VERTEX
  8
Layer1$C$L1
 62
     3
 10
-213.0597854967
 20
136.2544732380
  0
VERTEX
  8
Layer1$C$L1
 62
     3
 10
-213.2106360936
 20
136.2338444058
  0
SEQEND
  8
Layer1$C$L1
 62
     3
  0
POLYLINE
  8
Layer1$C$L1
 62
     3
 66
     1
  0
VERTEX
  8
Layer1$C$L1
 62
     3
 10
-213.3490898649
 20
136.4810832832
  0
VERTEX
  8
Layer1$C$L1
 62
     3
 10
-213.3108377696
 20
136.4512481885
  0
VERTEX
  8
Layer1$C$L1
 62
     3
 10
-213.2663082567
 20
136.4318405153
  0
VERTEX
  8
Layer1$C$L1
 62
     3
 10
-213.1908569834
 20
136.4217459526
  0
SEQEND
  8
Layer1$C$L1
 62
     3
  0
POLYLINE
  8
Layer1$C$L1
 62
     3
 66
     1
  0
VERTEX
  8
Layer1$C$L1
 62
     3
 10
-206.0413589350
 20
143.2847802950
  0
VERTEX
  8
Layer1$C$L1
 62
     3
 10
-206.0796110303
 20
143.3146153897
  0
VERTEX
  8
Layer1$C$L1
 62
     3
 10
-206.1241405433
 20
143.3340230629
  0
VERTEX
  8
Layer1$C$L1
 62
     3
 10
-206.1995918165
 20
143.3441176256
  0
SEQEND
  8
Layer1$C$L1
 62
     3
  0
POLYLINE
  8
Layer1$C$L1
 62
     3
 66
     1
  0
VERTEX
  8
Layer1$C$L1
 62
     3
 10
-206.4962784694
 20
143.4133445113
  0
VERTEX
  8
Layer1$C$L1
 62
     3
 10
-206.4196468744
 20
143.4727820354
  0
VERTEX
  8
Layer1$C$L1
 62
     3
 10
-206.3306633033
 20
143.5113903402
  0
VERTEX
  8
Layer1$C$L1
 62
     3
 10
-206.1798127063
 20
143.5320191724
  0
SEQEND
  8
Layer1$C$L1
 62
     3
  0
POLYLINE
  8
Layer1$C$L1
 62
     3
 66
     1
  0
VERTEX
  8
Layer1$C$L1
 62
     3
 10
-206.1995918165
 20
143.3441176256
  0
VERTEX
  8
Layer1$C$L1
 62
     3
 10
-206.2496784520
 20
143.3364709254
  0
VERTEX
  8
Layer1$C$L1
 62
     3
 10
-206.2957845364
 20
143.3149402154
  0
VERTEX
  8
Layer1$C$L1
 62
     3
 10
-206.3578246981
 20
143.2650011848
  0
SEQEND
  8
Layer1$C$L1
 62
     3
  0
POLYLINE
  8
Layer1$C$L1
 62
     3
 66
     1
  0
VERTEX
  8
Layer1$C$L1
 62
     3
 10
-206.7039591264
 20
141.7617888101
  0
VERTEX
  8
Layer1$C$L1
 62
     3
 10
-206.5651184414
 20
142.0015644634
  0
VERTEX
  8
Layer1$C$L1
 62
     3
 10
-206.4108652674
 20
142.2317376315
  0
VERTEX
  8
Layer1$C$L1
 62
     3
 10
-206.1402544859
 20
142.5727323281
  0
SEQEND
  8
Layer1$C$L1
 62
     3
  0
POLYLINE
  8
Layer1$C$L1
 62
     3
 66
     1
  0
VERTEX
  8
Layer1$C$L1
 62
     3
 10
-206.3578246981
 20
143.2650011848
  0
VERTEX
  8
Layer1$C$L1
 62
     3
 10
-206.4117888025
 20
143.1726578713
  0
VERTEX
  8
Layer1$C$L1
 62
     3
 10
-206.4363166149
 20
143.0679054268
  0
VERTEX
  8
Layer1$C$L1
 62
     3
 10
-206.4468306939
 20
142.8990876462
  0
SEQEND
  8
Layer1$C$L1
 62
     3
  0
POLYLINE
  8
Layer1$C$L1
 62
     3
 66
     1
  0
VERTEX
  8
Layer1$C$L1
 62
     3
 10
-206.1798127063
 20
143.5320191724
  0
VERTEX
  8
Layer1$C$L1
 62
     3
 10
-206.0821399538
 20
143.5224923348
  0
VERTEX
  8
Layer1$C$L1
 62
     3
 10
-205.9888820780
 20
143.4921094930
  0
VERTEX
  8
Layer1$C$L1
 62
     3
 10
-205.9221421699
 20
143.4534240311
  0
VERTEX
  8
Layer1$C$L1
 62
     3
 10
-205.8633469432
 20
143.4034549562
  0
SEQEND
  8
Layer1$C$L1
 62
     3
  0
POLYLINE
  8
Layer1$C$L1
 62
     3
 66
     1
  0
VERTEX
  8
Layer1$C$L1
 62
     3
 10
-205.8633469432
 20
143.4034549562
  0
VERTEX
  8
Layer1$C$L1
 62
     3
 10
-205.7925065079
 20
143.3097101995
  0
VERTEX
  8
Layer1$C$L1
 62
     3
 10
-205.7477436834
 20
143.2010140455
  0
VERTEX
  8
Layer1$C$L1
 62
     3
 10
-205.7302335426
 20
143.1101493124
  0
VERTEX
  8
Layer1$C$L1
 62
     3
 10
-205.7248931719
 20
143.0177623074
  0
SEQEND
  8
Layer1$C$L1
 62
     3
  0
POLYLINE
  8
Layer1$C$L1
 62
     3
 66
     1
  0
VERTEX
  8
Layer1$C$L1
 62
     3
 10
-206.6644009060
 20
142.8990876462
  0
VERTEX
  8
Layer1$C$L1
 62
     3
 10
-206.6517747749
 20
143.0535475029
  0
VERTEX
  8
Layer1$C$L1
 62
     3
 10
-206.6178405487
 20
143.2046761485
  0
VERTEX
  8
Layer1$C$L1
 62
     3
 10
-206.5693619035
 20
143.3162723762
  0
VERTEX
  8
Layer1$C$L1
 62
     3
 10
-206.4962784694
 20
143.4133445113
  0
SEQEND
  8
Layer1$C$L1
 62
     3
  0
POLYLINE
  8
Layer1$C$L1
 62
     3
 66
     1
  0
VERTEX
  8
Layer1$C$L1
 62
     3
 10
-205.9523529391
 20
143.0276518625
  0
VERTEX
  8
Layer1$C$L1
 62
     3
 10
-205.9576812363
 20
143.1056345985
  0
VERTEX
  8
Layer1$C$L1
 62
     3
 10
-205.9766265342
 20
143.1813960374
  0
VERTEX
  8
Layer1$C$L1
 62
     3
 10
-206.0033367387
 20
143.2366488186
  0
VERTEX
  8
Layer1$C$L1
 62
     3
 10
-206.0413589350
 20
143.2847802950
  0
SEQEND
  8
Layer1$C$L1
 62
     3
  0
POLYLINE
  8
Layer1$C$L1
 62
     3
 66
     1
  0
VERTEX
  8
Layer1$C$L1
 62
     3
 10
-206.1402544859
 20
142.5727323281
  0
VERTEX
  8
Layer1$C$L1
 62
     3
 10
-206.0562761704
 20
142.6856735819
  0
VERTEX
  8
Layer1$C$L1
 62
     3
 10
-205.9929607126
 20
142.8112683628
  0
VERTEX
  8
Layer1$C$L1
 62
     3
 10
-205.9625902826
 20
142.9175768934
  0
VERTEX
  8
Layer1$C$L1
 62
     3
 10
-205.9523529391
 20
143.0276518625
  0
SEQEND
  8
Layer1$C$L1
 62
     3
  0
POLYLINE
  8
Layer1$C$L1
 62
     3
 66
     1
  0
VERTEX
  8
Layer1$C$L1
 62
     3
 10
-205.7248931719
 20
143.0177623074
  0
VERTEX
  8
Layer1$C$L1
 62
     3
 10
-205.7518965549
 20
142.8341714791
  0
VERTEX
  8
Layer1$C$L1
 62
     3
 10
-205.8231625204
 20
142.6625916760
  0
VERTEX
  8
Layer1$C$L1
 62
     3
 10
-205.9008744103
 20
142.5387781758
  0
VERTEX
  8
Layer1$C$L1
 62
     3
 10
-205.9919111595
 20
142.4243890016
  0
SEQEND
  8
Layer1$C$L1
 62
     3
  0
POLYLINE
  8
Layer1$C$L1
 62
     3
 66
     1
  0
VERTEX
  8
Layer1$C$L1
 62
     3
 10
-213.6952243136
 20
143.3626040524
  0
VERTEX
  8
Layer1$C$L1
 62
     3
 10
-213.5959782327
 20
143.3693244338
  0
VERTEX
  8
Layer1$C$L1
 62
     3
 10
-213.4993849868
 20
143.3927214015
  0
VERTEX
  8
Layer1$C$L1
 62
     3
 10
-213.4119455595
 20
143.4395811528
  0
VERTEX
  8
Layer1$C$L1
 62
     3
 10
-213.3348118891
 20
143.5270305141
  0
VERTEX
  8
Layer1$C$L1
 62
     3
 10
-213.2940527295
 20
143.6365748903
  0
SEQEND
  8
Layer1$C$L1
 62
     3
  0
LINE
  8
Layer1$C$L1
 62
     3
 10
-213.1766366561
 20
143.6365748903
 11
-213.2940527295
 21
143.6365748903
  0
LINE
  8
Layer1$C$L1
 62
     3
 10
-213.1766366561
 20
143.6365748903
 11
-213.1766366561
 21
141.7292884882
  0
LINE
  8
Layer1$C$L1
 62
     3
 10
-213.6952243136
 20
143.3626040524
 11
-213.6952243136
 21
143.2469999554
  0
LINE
  8
Layer1$C$L1
 62
     3
 10
-213.4082072453
 20
143.2469999554
 11
-213.4082072453
 21
141.7292884882
  0
LINE
  8
Layer1$C$L1
 62
     3
 10
-213.4082072453
 20
143.2469999554
 11
-213.6952243136
 21
143.2469999554
  0
LINE
  8
Layer1$C$L1
 62
     3
 10
-206.4468306939
 20
142.8990876462
 11
-206.6644009060
 21
142.8990876462
  0
LINE
  8
Layer1$C$L1
 62
     3
 10
-205.6952245066
 20
141.7914574754
 11
-206.4666098041
 21
141.7914574754
  0
LINE
  8
Layer1$C$L1
 62
     3
 10
-205.6952245066
 20
141.7914574754
 11
-205.6952245066
 21
141.6042884882
  0
LINE
  8
Layer1$C$L1
 62
     3
 10
-206.7039591264
 20
141.7617888101
 11
-206.7039591264
 21
141.6042884882
  0
LINE
  8
Layer1$C$L1
 62
     3
 10
-205.6952245066
 20
141.6042884882
 11
-206.7039591264
 21
141.6042884882
  0
LINE
  8
Layer1$C$L1
 62
     3
 10
-213.1766366561
 20
141.7292884882
 11
-213.4082072453
 21
141.7292884882
  0
ARC
  8
Layer1$C$L1
 62
     3
 10
-202.5320196408
 20
139.3349926078
 40
4.6384501075
 50
138.2377880243
 51
148.0224166840
  0
LINE
  8
Layer0$C$L0
 62
     3
 10
-101.1467205793
 20
149.4995840132
 11
-100.2981924418
 21
148.6510558758
  0
ARC
  8
Layer0$C$L0
 62
     3
 10
-91.5300683551
 20
139.8829317891
 40
12.4000000000
 50
65.0000000000
 51
135.0000000000
  0
POLYLINE
  8
Layer0$C$L0
 62
     3
 66
     1
  0
VERTEX
  8
Layer0$C$L0
 62
     3
 10
-86.2896019094
 20
151.1211482116
  0
VERTEX
  8
Layer0$C$L0
 62
     3
 10
-86.3423487604
 20
151.0080325656
  0
VERTEX
  8
Layer0$C$L0
 62
     3
 10
-86.3951193602
 20
150.8948656969
  0
VERTEX
  8
Layer0$C$L0
 62
     3
 10
-86.4479127773
 20
150.7816494682
  0
VERTEX
  8
Layer0$C$L0
 62
     3
 10
-86.5007294775
 20
150.6683838793
  0
VERTEX
  8
Layer0$C$L0
 62
     3
 10
-86.5535685294
 20
150.5550698616
  0
VERTEX
  8
Layer0$C$L0
 62
     3
 10
-86.6064303987
 20
150.4417074152
  0
VERTEX
  8
Layer0$C$L0
 62
     3
 10
-86.6593141542
 20
150.3282974713
  0
VERTEX
  8
Layer0$C$L0
 62
     3
 10
-86.7122202613
 20
150.2148409613
  0
SEQEND
  8
Layer0$C$L0
 62
     3
  0
POLYLINE
  8
Layer0$C$L0
 62
     3
 66
     1
  0
VERTEX
  8
Layer0$C$L0
 62
     3
 10
-86.7122202613
 20
150.2148409613
  0
VERTEX
  8
Layer0$C$L0
 62
     3
 10
-86.1642267988
 20
150.0720943563
  0
VERTEX
  8
Layer0$C$L0
 62
     3
 10
-85.6164684952
 20
149.9294092186
  0
VERTEX
  8
Layer0$C$L0
 62
     3
 10
-85.0689951763
 20
149.7867976554
  0
VERTEX
  8
Layer0$C$L0
 62
     3
 10
-84.5218580649
 20
149.6442745679
  0
VERTEX
  8
Layer0$C$L0
 62
     3
 10
-83.9751074523
 20
149.5018520632
  0
VERTEX
  8
Layer0$C$L0
 62
     3
 10
-83.4287940957
 20
149.3595431798
  0
VERTEX
  8
Layer0$C$L0
 62
     3
 10
-82.8829682865
 20
149.2173618876
  0
VERTEX
  8
Layer0$C$L0
 62
     3
 10
-82.3376798504
 20
149.0753202938
  0
SEQEND
  8
Layer0$C$L0
 62
     3
  0
POLYLINE
  8
Layer0$C$L0
 62
     3
 66
     1
  0
VERTEX
  8
Layer0$C$L0
 62
     3
 10
-82.3376798504
 20
149.0753202938
  0
VERTEX
  8
Layer0$C$L0
 62
     3
 10
-82.7163658538
 20
149.5815071516
  0
VERTEX
  8
Layer0$C$L0
 62
     3
 10
-83.0948786312
 20
150.0874630415
  0
VERTEX
  8
Layer0$C$L0
 62
     3
 10
-83.4731734791
 20
150.5931274273
  0
VERTEX
  8
Layer0$C$L0
 62
     3
 10
-83.8512066253
 20
151.0984416359
  0
VERTEX
  8
Layer0$C$L0
 62
     3
 10
-84.2289342978
 20
151.6033479252
  0
VERTEX
  8
Layer0$C$L0
 62
     3
 10
-84.6063117930
 20
152.1077866905
  0
VERTEX
  8
Layer0$C$L0
 62
     3
 10
-84.9832953387
 20
152.6116983273
  0
VERTEX
  8
Layer0$C$L0
 62
     3
 10
-85.3598416284
 20
153.1150250935
  0
SEQEND
  8
Layer0$C$L0
 62
     3
  0
POLYLINE
  8
Layer0$C$L0
 62
     3
 66
     1
  0
VERTEX
  8
Layer0$C$L0
 62
     3
 10
-85.3598416284
 20
153.1150250935
  0
VERTEX
  8
Layer0$C$L0
 62
     3
 10
-85.4125721813
 20
153.0019439065
  0
VERTEX
  8
Layer0$C$L0
 62
     3
 10
-85.4653311395
 20
152.8888031148
  0
VERTEX
  8
Layer0$C$L0
 62
     3
 10
-85.5181175717
 20
152.7756017872
  0
VERTEX
  8
Layer0$C$L0
 62
     3
 10
-85.5709319436
 20
152.6623408549
  0
VERTEX
  8
Layer0$C$L0
 62
     3
 10
-85.6237733238
 20
152.5490221807
  0
VERTEX
  8
Layer0$C$L0
 62
     3
 10
-85.6766421781
 20
152.4356448331
  0
VERTEX
  8
Layer0$C$L0
 62
     3
 10
-85.7295375750
 20
152.3222097435
  0
VERTEX
  8
Layer0$C$L0
 62
     3
 10
-85.7824599803
 20
152.2087178432
  0
SEQEND
  8
Layer0$C$L0
 62
     3
  0
ARC
  8
Layer0$C$L0
 62
     3
 10
-91.5300683551
 20
139.8829317891
 40
13.6000000000
 50
65.0000000000
 51
135.0000000000
  0
POLYLINE
  8
Layer0$C$L0
 62
     3
 66
     1
  0
VERTEX
  8
Layer0$C$L0
 62
     3
 10
-95.0500073810
 20
126.7463409581
  0
VERTEX
  8
Layer0$C$L0
 62
     3
 10
-95.0112627321
 20
126.8909381010
  0
VERTEX
  8
Layer0$C$L0
 62
     3
 10
-94.9724950329
 20
127.0356199943
  0
VERTEX
  8
Layer0$C$L0
 62
     3
 10
-94.9337049820
 20
127.1803875693
  0
VERTEX
  8
Layer0$C$L0
 62
     3
 10
-94.8948925794
 20
127.3252371006
  0
VERTEX
  8
Layer0$C$L0
 62
     3
 10
-94.8560580578
 20
127.4701695197
  0
VERTEX
  8
Layer0$C$L0
 62
     3
 10
-94.8172016502
 20
127.6151838951
  0
VERTEX
  8
Layer0$C$L0
 62
     3
 10
-94.7783238222
 20
127.7602774330
  0
VERTEX
  8
Layer0$C$L0
 62
     3
 10
-94.7394245737
 20
127.9054519959
  0
SEQEND
  8
Layer0$C$L0
 62
     3
  0
ARC
  8
Layer0$C$L0
 62
     3
 10
-91.5300683551
 20
139.8829317891
 40
12.4000000000
 50
185.0000000000
 51
255.0000000000
  0
POLYLINE
  8
Layer0$C$L0
 62
     3
 66
     1
  0
VERTEX
  8
Layer0$C$L0
 62
     3
 10
-103.8828823217
 20
138.8022006263
  0
VERTEX
  8
Layer0$C$L0
 62
     3
 10
-103.7585479640
 20
138.8130784739
  0
VERTEX
  8
Layer0$C$L0
 62
     3
 10
-103.6341577270
 20
138.8239612111
  0
VERTEX
  8
Layer0$C$L0
 62
     3
 10
-103.5097125419
 20
138.8348487212
  0
VERTEX
  8
Layer0$C$L0
 62
     3
 10
-103.3852133401
 20
138.8457410044
  0
VERTEX
  8
Layer0$C$L0
 62
     3
 10
-103.2606610530
 20
138.8566379442
  0
VERTEX
  8
Layer0$C$L0
 62
     3
 10
-103.1360556804
 20
138.8675394241
  0
VERTEX
  8
Layer0$C$L0
 62
     3
 10
-103.0113981538
 20
138.8784456772
  0
VERTEX
  8
Layer0$C$L0
 62
     3
 10
-102.8866875418
 20
138.8893563539
  0
SEQEND
  8
Layer0$C$L0
 62
     3
  0
POLYLINE
  8
Layer0$C$L0
 62
     3
 66
     1
  0
VERTEX
  8
Layer0$C$L0
 62
     3
 10
-102.8866875418
 20
138.8893563539
  0
VERTEX
  8
Layer0$C$L0
 62
     3
 10
-103.0370626100
 20
139.4353056507
  0
VERTEX
  8
Layer0$C$L0
 62
     3
 10
-103.1873724856
 20
139.9810210983
  0
VERTEX
  8
Layer0$C$L0
 62
     3
 10
-103.3376050615
 20
140.5264522304
  0
VERTEX
  8
Layer0$C$L0
 62
     3
 10
-103.4877445050
 20
141.0715486395
  0
VERTEX
  8
Layer0$C$L0
 62
     3
 10
-103.6377777778
 20
141.6162598884
  0
VERTEX
  8
Layer0$C$L0
 62
     3
 10
-103.7876918413
 20
142.1605356277
  0
VERTEX
  8
Layer0$C$L0
 62
     3
 10
-103.9374717944
 20
142.7043255658
  0
VERTEX
  8
Layer0$C$L0
 62
     3
 10
-104.0871036672
 20
143.2475792949
  0
SEQEND
  8
Layer0$C$L0
 62
     3
  0
POLYLINE
  8
Layer0$C$L0
 62
     3
 66
     1
  0
VERTEX
  8
Layer0$C$L0
 62
     3
 10
-104.0871036672
 20
143.2475792949
  0
VERTEX
  8
Layer0$C$L0
 62
     3
 10
-104.3361318731
 20
142.6665338927
  0
VERTEX
  8
Layer0$C$L0
 62
     3
 10
-104.5850464576
 20
142.0857548487
  0
VERTEX
  8
Layer0$C$L0
 62
     3
 10
-104.8338166871
 20
141.5053095675
  0
VERTEX
  8
Layer0$C$L0
 62
     3
 10
-105.0824155533
 20
140.9252659191
  0
VERTEX
  8
Layer0$C$L0
 62
     3
 10
-105.3308132537
 20
140.3456914827
  0
VERTEX
  8
Layer0$C$L0
 62
     3
 10
-105.5789809176
 20
139.7666536845
  0
VERTEX
  8
Layer0$C$L0
 62
     3
 10
-105.8268896737
 20
139.1882200382
  0
VERTEX
  8
Layer0$C$L0
 62
     3
 10
-106.0745106512
 20
138.6104579556
  0
SEQEND
  8
Layer0$C$L0
 62
     3
  0
POLYLINE
  8
Layer0$C$L0
 62
     3
 66
     1
  0
VERTEX
  8
Layer0$C$L0
 62
     3
 10
-106.0745106512
 20
138.6104579556
  0
VERTEX
  8
Layer0$C$L0
 62
     3
 10
-105.9502144777
 20
138.6213324272
  0
VERTEX
  8
Layer0$C$L0
 62
     3
 10
-105.8258521803
 20
138.6322128360
  0
VERTEX
  8
Layer0$C$L0
 62
     3
 10
-105.7014237591
 20
138.6430988327
  0
VERTEX
  8
Layer0$C$L0
 62
     3
 10
-105.5769301452
 20
138.6539906502
  0
VERTEX
  8
Layer0$C$L0
 62
     3
 10
-105.4523722701
 20
138.6648880557
  0
VERTEX
  8
Layer0$C$L0
 62
     3
 10
-105.3277501338
 20
138.6757910491
  0
VERTEX
  8
Layer0$C$L0
 62
     3
 10
-105.2030646675
 20
138.6866996304
  0
VERTEX
  8
Layer0$C$L0
 62
     3
 10
-105.0783158713
 20
138.6976136832
  0
SEQEND
  8
Layer0$C$L0
 62
     3
  0
ARC
  8
Layer0$C$L0
 62
     3
 10
-91.5300683551
 20
139.8829317891
 40
13.6000000000
 50
185.0000000000
 51
255.0000000000
  0
POLYLINE
  8
Layer0$C$L0
 62
     3
 66
     1
  0
VERTEX
  8
Layer0$C$L0
 62
     3
 10
-78.3934775241
 20
143.4028708149
  0
VERTEX
  8
Layer0$C$L0
 62
     3
 10
-78.5380746671
 20
143.3641261660
  0
VERTEX
  8
Layer0$C$L0
 62
     3
 10
-78.6827565604
 20
143.3253584669
  0
VERTEX
  8
Layer0$C$L0
 62
     3
 10
-78.8275241353
 20
143.2865684160
  0
VERTEX
  8
Layer0$C$L0
 62
     3
 10
-78.9723736667
 20
143.2477560133
  0
VERTEX
  8
Layer0$C$L0
 62
     3
 10
-79.1173060857
 20
143.2089214918
  0
VERTEX
  8
Layer0$C$L0
 62
     3
 10
-79.2623204612
 20
143.1700650842
  0
VERTEX
  8
Layer0$C$L0
 62
     3
 10
-79.4074139991
 20
143.1311872561
  0
VERTEX
  8
Layer0$C$L0
 62
     3
 10
-79.5525885620
 20
143.0922880077
  0
SEQEND
  8
Layer0$C$L0
 62
     3
  0
ARC
  8
Layer0$C$L0
 62
     3
 10
-91.5300683551
 20
139.8829317891
 40
12.4000000000
 50
305.0000000000
 51
375.0000000000
  0
POLYLINE
  8
Layer0$C$L0
 62
     3
 66
     1
  0
VERTEX
  8
Layer0$C$L0
 62
     3
 10
-84.4177203686
 20
129.7254462965
  0
VERTEX
  8
Layer0$C$L0
 62
     3
 10
-84.4893083409
 20
129.8276850261
  0
VERTEX
  8
Layer0$C$L0
 62
     3
 10
-84.5609284439
 20
129.9299684592
  0
VERTEX
  8
Layer0$C$L0
 62
     3
 10
-84.6325797462
 20
130.0322965958
  0
VERTEX
  8
Layer0$C$L0
 62
     3
 10
-84.7042622478
 20
130.1346703672
  0
VERTEX
  8
Layer0$C$L0
 62
     3
 10
-84.7759754830
 20
130.2370869794
  0
VERTEX
  8
Layer0$C$L0
 62
     3
 10
-84.8477189862
 20
130.3395482951
  0
VERTEX
  8
Layer0$C$L0
 62
     3
 10
-84.9194932231
 20
130.4420515203
  0
VERTEX
  8
Layer0$C$L0
 62
     3
 10
-84.9912967966
 20
130.5445985176
  0
SEQEND
  8
Layer0$C$L0
 62
     3
  0
POLYLINE
  8
Layer0$C$L0
 62
     3
 66
     1
  0
VERTEX
  8
Layer0$C$L0
 62
     3
 10
-84.9912967966
 20
130.5445985176
  0
VERTEX
  8
Layer0$C$L0
 62
     3
 10
-85.3889156566
 20
130.1413954475
  0
VERTEX
  8
Layer0$C$L0
 62
     3
 10
-85.7863640846
 20
129.7383656033
  0
VERTEX
  8
Layer0$C$L0
 62
     3
 10
-86.1836052933
 20
129.3355453067
  0
VERTEX
  8
Layer0$C$L0
 62
     3
 10
-86.5806024954
 20
128.9329718106
  0
VERTEX
  8
Layer0$C$L0
 62
     3
 10
-86.9773193695
 20
128.5306832992
  0
VERTEX
  8
Layer0$C$L0
 62
     3
 10
-87.3737191283
 20
128.1287160941
  0
VERTEX
  8
Layer0$C$L0
 62
     3
 10
-87.7697652173
 20
127.7271083795
  0
VERTEX
  8
Layer0$C$L0
 62
     3
 10
-88.1654208493
 20
127.3258964770
  0
SEQEND
  8
Layer0$C$L0
 62
     3
  0
POLYLINE
  8
Layer0$C$L0
 62
     3
 66
     1
  0
VERTEX
  8
Layer0$C$L0
 62
     3
 10
-88.1654208493
 20
127.3258964770
  0
VERTEX
  8
Layer0$C$L0
 62
     3
 10
-87.5377064072
 20
127.4007543229
  0
VERTEX
  8
Layer0$C$L0
 62
     3
 10
-86.9102799766
 20
127.4755777099
  0
VERTEX
  8
Layer0$C$L0
 62
     3
 10
-86.2832144336
 20
127.5503582560
  0
VERTEX
  8
Layer0$C$L0
 62
     3
 10
-85.6565824211
 20
127.6250875794
  0
VERTEX
  8
Layer0$C$L0
 62
     3
 10
-85.0304575139
 20
127.6997563668
  0
VERTEX
  8
Layer0$C$L0
 62
     3
 10
-84.4049118892
 20
127.7743553051
  0
VERTEX
  8
Layer0$C$L0
 62
     3
 10
-83.7800195873
 20
127.8488769435
  0
VERTEX
  8
Layer0$C$L0
 62
     3
 10
-83.1558523201
 20
127.9233119690
  0
SEQEND
  8
Layer0$C$L0
 62
     3
  0
POLYLINE
  8
Layer0$C$L0
 62
     3
 66
     1
  0
VERTEX
  8
Layer0$C$L0
 62
     3
 10
-83.1558523201
 20
127.9233119690
  0
VERTEX
  8
Layer0$C$L0
 62
     3
 10
-83.2274179407
 20
128.0255190336
  0
VERTEX
  8
Layer0$C$L0
 62
     3
 10
-83.2990226769
 20
128.1277801149
  0
VERTEX
  8
Layer0$C$L0
 62
     3
 10
-83.3706637346
 20
128.2300952130
  0
VERTEX
  8
Layer0$C$L0
 62
     3
 10
-83.4423429766
 20
128.3324633964
  0
VERTEX
  8
Layer0$C$L0
 62
     3
 10
-83.5140594714
 20
128.4348855965
  0
VERTEX
  8
Layer0$C$L0
 62
     3
 10
-83.5858132192
 20
128.5373590194
  0
VERTEX
  8
Layer0$C$L0
 62
     3
 10
-83.6576032885
 20
128.6398855277
  0
VERTEX
  8
Layer0$C$L0
 62
     3
 10
-83.7294287481
 20
128.7424641900
  0
SEQEND
  8
Layer0$C$L0
 62
     3
  0
ARC
  8
Layer0$C$L0
 62
     3
 10
-91.5300683551
 20
139.8829317891
 40
13.6000000000
 50
305.0000000000
 51
375.0000000000
  0
ARC
  8
Layer0$C$L0
 62
     3
 10
-104.5539214134
 20
138.3375030152
 40
0.8183691948
 50
34.9637515306
 51
52.5430062674
  0
ARC
  8
Layer0$C$L0
 62
     3
 10
-103.7225872749
 20
138.0938142155
 40
1.1556419068
 50
43.7385672941
 51
57.6766445962
  0
ARC
  8
Layer0$C$L0
 62
     3
 10
-83.6794342601
 20
129.3765635044
 40
0.8187057128
 50
154.9673901240
 51
172.5394243127
  0
ARC
  8
Layer0$C$L0
 62
     3
 10
-83.8836710794
 20
130.2183422114
 40
1.1563627692
 50
163.7429090224
 51
177.6722901326
  0
ARC
  8
Layer0$C$L0
 62
     3
 10
-86.3568901866
 20
151.9361427883
 40
0.8199041640
 50
274.9802272463
 51
292.5263124591
  0
ARC
  8
Layer0$C$L0
 62
     3
 10
-86.9834927562
 20
151.3372158000
 40
1.1563786587
 50
283.7430370631
 51
297.6721990498
  0
ARC
  8
Layer0$C$L0
 62
     3
 10
-107.1189651737
 20
142.9603175506
 40
3.0499922941
 50
353.8709122025
 51
364.9379464805
  0
ARC
  8
Layer0$C$L0
 62
     3
 10
-81.0709822715
 20
151.8438437235
 40
3.0490961364
 50
233.8692498024
 51
244.9395365842
  0
ARC
  8
Layer0$C$L0
 62
     3
 10
-86.4012692745
 20
124.8448436640
 40
3.0488664695
 50
113.8688702366
 51
124.9400003018
  0
ARC
  8
Layer0$C$L0
 62
     3
 10
-100.8946303232
 20
150.4655770887
 40
1.0009670390
 50
255.6291579452
 51
273.5978550308
  0
ARC
  8
Layer0$C$L0
 62
     3
 10
-101.2109119962
 20
148.8801258205
 40
0.9432388977
 50
346.1348621153
 51
361.3719706198
  0
ARC
  8
Layer0$C$L0
 62
     3
 10
-96.0118440235
 20
126.4820188943
 40
1.0001163680
 50
15.6214720473
 51
33.6055640412
  0
ARC
  8
Layer0$C$L0
 62
     3
 10
-94.4815496515
 20
127.0007121090
 40
0.9429849192
 50
106.1326791771
 51
121.3739454967
  0
ARC
  8
Layer0$C$L0
 62
     3
 10
-77.6830751509
 20
142.7016472711
 40
1.0008132966
 50
135.6277158525
 51
153.5992040359
  0
ARC
  8
Layer0$C$L0
 62
     3
 10
-78.8986808058
 20
143.7670567199
 40
0.9418437362
 50
226.1235122785
 51
241.3833848322
  0
ARC
  8
Layer0$C$L0
 62
     3
 10
-107.0147167106
 20
140.4636892763
 40
2.0800491241
 50
297.0341223058
 51
308.7851631734
  0
ARC
  8
Layer0$C$L0
 62
     3
 10
-83.2861922556
 20
153.0025827319
 40
2.0786556923
 50
177.0302202747
 51
188.7891625573
  0
ARC
  8
Layer0$C$L0
 62
     3
 10
-84.2909891904
 20
126.1818823819
 40
2.0806886103
 50
57.0359024787
 51
68.7832914389
  0
ARC
  8
Layer0$C$L0
 62
     3
 10
-84.7887944745
 20
152.3021431097
 40
1.0006699681
 50
185.6264468628
 51
203.6005304467
  0
ARC
  8
Layer0$C$L0
 62
     3
 10
-105.6558710501
 20
139.5112500439
 40
1.0004063232
 50
305.6241049143
 51
323.6029530828
  0
ARC
  8
Layer0$C$L0
 62
     3
 10
-84.1452069325
 20
127.8357402135
 40
1.0001283183
 50
65.6215578367
 51
83.6054379143
  0
ARC
  8
Layer0$C$L0
 62
     3
 10
-78.2243648905
 20
155.7400517149
 40
1.5000001267
 50
169.6702786918
 51
290.3297271204
  0
ARC
  8
Layer0$C$L0
 62
     3
 10
-91.5300683551
 20
139.8829317891
 40
20.0000000000
 50
33.7364205665
 51
46.2635794335
  0
ARC
  8
Layer0$C$L0
 62
     3
 10
-73.6033422710
 20
150.2329316705
 40
1.4999997051
 50
149.6702559681
 51
270.3297163193
  0
ARC
  8
Layer0$C$L0
 62
     3
 10
-91.5300683551
 20
139.8829317891
 40
20.0000000000
 50
13.7364205665
 51
26.2635794335
  0
ARC
  8
Layer0$C$L0
 62
     3
 10
-71.1445466387
 20
143.4774488577
 40
1.5000003498
 50
129.6702974481
 51
250.3296502260
  0
ARC
  8
Layer0$C$L0
 62
     3
 10
-91.5300683551
 20
139.8829317891
 40
20.0000000000
 50
353.7364205666
 51
366.2635794335
  0
ARC
  8
Layer0$C$L0
 62
     3
 10
-71.1445486339
 20
136.2884150723
 40
1.4999993469
 50
109.6702825342
 51
230.3297697918
  0
ARC
  8
Layer0$C$L0
 62
     3
 10
-91.5300683551
 20
139.8829317891
 40
20.0000000000
 50
333.7364205666
 51
346.2635794335
  0
ARC
  8
Layer0$C$L0
 62
     3
 10
-73.6033451589
 20
129.5329335751
 40
1.4999980544
 50
89.6701730035
 51
210.3298547091
  0
ARC
  8
Layer0$C$L0
 62
     3
 10
-91.5300683551
 20
139.8829317891
 40
20.0000000000
 50
313.7364205666
 51
326.2635794335
  0
ARC
  8
Layer0$C$L0
 62
     3
 10
-78.2243649191
 20
124.0258118973
 40
1.5000001046
 50
69.6702714027
 51
190.3297227851
  0
ARC
  8
Layer0$C$L0
 62
     3
 10
-91.5300683551
 20
139.8829317891
 40
20.0000000000
 50
293.7364205666
 51
306.2635794335
  0
ARC
  8
Layer0$C$L0
 62
     3
 10
-84.4502519688
 20
120.4312950687
 40
1.4999994475
 50
49.6702547618
 51
170.3297060192
  0
ARC
  8
Layer0$C$L0
 62
     3
 10
-91.5300683551
 20
139.8829317891
 40
20.0000000000
 50
273.7364205666
 51
286.2635794335
  0
ARC
  8
Layer0$C$L0
 62
     3
 10
-91.5300683551
 20
119.1829314504
 40
1.4999999688
 50
29.6702757325
 51
150.3297242675
  0
ARC
  8
Layer0$C$L0
 62
     3
 10
-91.5300683551
 20
139.8829317891
 40
20.0000000000
 50
253.7364205666
 51
266.2635794335
  0
ARC
  8
Layer0$C$L0
 62
     3
 10
-98.6098853508
 20
120.4312933944
 40
1.5000003295
 50
9.6703531141
 51
130.3296861049
  0
ARC
  8
Layer0$C$L0
 62
     3
 10
-91.5300683551
 20
139.8829317891
 40
20.0000000000
 50
233.7364205666
 51
246.2635794335
  0
ARC
  8
Layer0$C$L0
 62
     3
 10
-104.8357718197
 20
124.0258118632
 40
1.5000001267
 50
349.6702786918
 51
470.3297271204
  0
ARC
  8
Layer0$C$L0
 62
     3
 10
-91.5300683551
 20
139.8829317891
 40
20.0000000000
 50
213.7364205665
 51
226.2635794335
  0
ARC
  8
Layer0$C$L0
 62
     3
 10
-109.4567944393
 20
129.5329319077
 40
1.4999997051
 50
329.6702559681
 51
450.3297163193
  0
ARC
  8
Layer0$C$L0
 62
     3
 10
-91.5300683551
 20
139.8829317891
 40
20.0000000000
 50
193.7364205665
 51
206.2635794335
  0
ARC
  8
Layer0$C$L0
 62
     3
 10
-111.9155900715
 20
136.2884147205
 40
1.5000003498
 50
309.6702974481
 51
430.3296502260
  0
ARC
  8
Layer0$C$L0
 62
     3
 10
-91.5300683551
 20
139.8829317891
 40
20.0000000000
 50
173.7364205665
 51
186.2635794335
  0
ARC
  8
Layer0$C$L0
 62
     3
 10
-111.9155880763
 20
143.4774485059
 40
1.4999993469
 50
289.6702825342
 51
410.3297697918
  0
ARC
  8
Layer0$C$L0
 62
     3
 10
-91.5300683551
 20
139.8829317891
 40
20.0000000000
 50
153.7364205665
 51
166.2635794335
  0
ARC
  8
Layer0$C$L0
 62
     3
 10
-109.4567915513
 20
150.2329300031
 40
1.4999980544
 50
269.6701730035
 51
390.3298547091
  0
ARC
  8
Layer0$C$L0
 62
     3
 10
-91.5300683551
 20
139.8829317891
 40
20.0000000000
 50
133.7364205665
 51
146.2635794335
  0
ARC
  8
Layer0$C$L0
 62
     3
 10
-104.8357717911
 20
155.7400516808
 40
1.5000001046
 50
249.6702714027
 51
370.3297227851
  0
ARC
  8
Layer0$C$L0
 62
     3
 10
-91.5300683551
 20
139.8829317891
 40
20.0000000000
 50
113.7364205665
 51
126.2635794335
  0
ARC
  8
Layer0$C$L0
 62
     3
 10
-98.6098847415
 20
159.3345685095
 40
1.4999994475
 50
229.6702547618
 51
350.3297060192
  0
ARC
  8
Layer0$C$L0
 62
     3
 10
-91.5300683551
 20
139.8829317891
 40
20.0000000000
 50
93.7364205665
 51
106.2635794335
  0
ARC
  8
Layer0$C$L0
 62
     3
 10
-91.5300683551
 20
160.5829321278
 40
1.4999999688
 50
209.6702757325
 51
330.3297242675
  0
ARC
  8
Layer0$C$L0
 62
     3
 10
-91.5300683551
 20
139.8829317891
 40
20.0000000000
 50
73.7364205665
 51
86.2635794335
  0
ARC
  8
Layer0$C$L0
 62
     3
 10
-84.4502513594
 20
159.3345701837
 40
1.5000003295
 50
189.6703531141
 51
310.3296861049
  0
ARC
  8
Layer0$C$L0
 62
     3
 10
-91.5300683551
 20
139.8829317891
 40
20.0000000000
 50
53.7364205665
 51
66.2635794335
  0
ARC
  8
Layer0$C$L0
 62
     3
 10
-91.5300683551
 20
139.8829317891
 40
19.9885792271
 50
186.2796726746
 51
193.7203273254
  0
ARC
  8
Layer0$C$L0
 62
     3
 10
-91.5300683551
 20
139.8829317891
 40
19.9885792271
 50
206.2796726746
 51
213.7203273254
  0
ARC
  8
Layer0$C$L0
 62
     3
 10
-91.5300683551
 20
139.8829317891
 40
19.9885792271
 50
226.2796726746
 51
233.7203273254
  0
ARC
  8
Layer0$C$L0
 62
     3
 10
-91.5300683551
 20
139.8829317891
 40
19.9885792271
 50
246.2796726746
 51
253.7203273254
  0
ARC
  8
Layer0$C$L0
 62
     3
 10
-91.5300683551
 20
139.8829317891
 40
19.9885792271
 50
266.2796726746
 51
273.7203273254
  0
ARC
  8
Layer0$C$L0
 62
     3
 10
-91.5300683551
 20
139.8829317891
 40
19.9885792271
 50
286.2796726746
 51
293.7203273254
  0
ARC
  8
Layer0$C$L0
 62
     3
 10
-91.5300683551
 20
139.8829317891
 40
19.9885792271
 50
306.2796726746
 51
313.7203273254
  0
ARC
  8
Layer0$C$L0
 62
     3
 10
-91.5300683551
 20
139.8829317891
 40
19.9885792271
 50
326.2796726746
 51
333.7203273254
  0
ARC
  8
Layer0$C$L0
 62
     3
 10
-91.5300683551
 20
139.8829317891
 40
19.9885792271
 50
346.2796726746
 51
353.7203273254
  0
ARC
  8
Layer0$C$L0
 62
     3
 10
-91.5300683551
 20
139.8829317891
 40
19.9885792271
 50
6.2796726746
 51
13.7203273254
  0
ARC
  8
Layer0$C$L0
 62
     3
 10
-91.5300683551
 20
139.8829317891
 40
19.9885792271
 50
26.2796726746
 51
33.7203273254
  0
ARC
  8
Layer0$C$L0
 62
     3
 10
-91.5300683551
 20
139.8829317891
 40
19.9885792271
 50
46.2796726746
 51
53.7203273254
  0
ARC
  8
Layer0$C$L0
 62
     3
 10
-91.5300683551
 20
139.8829317891
 40
19.9885792271
 50
66.2796726746
 51
73.7203273254
  0
ARC
  8
Layer0$C$L0
 62
     3
 10
-91.5300683551
 20
139.8829317891
 40
19.9885792271
 50
86.2796726746
 51
93.7203273254
  0
ARC
  8
Layer0$C$L0
 62
     3
 10
-91.5300683551
 20
139.8829317891
 40
19.9885792271
 50
106.2796726746
 51
113.7203273254
  0
ARC
  8
Layer0$C$L0
 62
     3
 10
-91.5300683551
 20
139.8829317891
 40
19.9885792271
 50
126.2796726746
 51
133.7203273254
  0
ARC
  8
Layer0$C$L0
 62
     3
 10
-91.5300683551
 20
139.8829317891
 40
19.9885792271
 50
146.2796726746
 51
153.7203273254
  0
ARC
  8
Layer0$C$L0
 62
     3
 10
-91.5300683551
 20
139.8829317891
 40
19.9885792271
 50
166.2796726746
 51
173.7203273254
  0
ARC
  8
Layer0$C$L0
 62
     3
 10
-133.3987190884
 20
124.1644138350
 40
4.0000000000
 50
306.6681322734
 51
343.3984504010
  0
ARC
  8
Layer0$C$L0
 62
     3
 10
-133.3987190884
 20
156.1644138350
 40
4.0000000000
 50
16.6015495990
 51
53.3278348706
  0
ARC
  8
Layer0$C$L0
 62
     3
 10
-134.8521871736
 20
158.6644138350
 40
1.5000000000
 50
97.0748247805
 51
130.3645365731
  0
ARC
  8
Layer0$C$L0
 62
     3
 10
-134.8521871736
 20
121.6644138350
 40
1.5000000000
 50
229.6354634269
 51
262.9251752195
  0
LINE
  8
Layer0$C$L0
 62
     3
 10
-135.8236598037
 20
159.8073228117
 11
-143.3330824014
 21
153.4243136036
  0
LINE
  8
Layer0$C$L0
 62
     3
 10
-143.3330824014
 20
126.9045140664
 11
-135.8236598037
 21
120.5215048584
  0
LINE
  8
Layer0$C$L0
 62
     3
 10
-136.9742338592
 20
142.8700493539
 11
-136.9742338592
 21
137.4540663635
  0
LINE
  8
Layer0$C$L0
 62
     3
 10
-136.9710932215
 20
143.8574424210
 11
-142.6216219281
 21
143.0231536470
  0
LINE
  8
Layer0$C$L0
 62
     3
 10
-136.9742338592
 20
148.9446010084
 11
-136.9742338592
 21
143.8552175775
  0
LINE
  8
Layer0$C$L0
 62
     3
 10
-142.6239912127
 20
137.3055974218
 11
-136.9710596939
 21
136.4711913011
  0
LINE
  8
Layer0$C$L0
 62
     3
 10
-136.9742338592
 20
136.4700464053
 11
-136.9742338592
 21
131.3843196771
  0
ARC
  8
Layer0$C$L0
 62
     3
 10
-187.0643505484
 20
140.1644138350
 40
60.0000000000
 50
343.3984504010
 51
349.9782549779
  0
ARC
  8
Layer0$C$L0
 62
     3
 10
-187.0643505484
 20
140.1644138350
 40
60.0000000000
 50
13.1009035343
 51
16.6015495990
  0
ARC
  8
Layer0$C$L0
 62
     3
 10
-187.0643505484
 20
140.1644138350
 40
60.0000000000
 50
10.0217450221
 51
11.9270815557
  0
LINE
  8
Layer0$C$L0
 62
     3
 10
-136.9484872286
 20
149.8519949346
 11
-142.7366961454
 21
147.3912236943
  0
LINE
  8
Layer0$C$L0
 62
     3
 10
-136.9742338592
 20
153.9589076152
 11
-136.9742338592
 21
149.8111443197
  0
LINE
  8
Layer0$C$L0
 62
     3
 10
-142.7394039658
 20
132.9375187597
 11
-136.9483866458
 21
130.4762534528
  0
LINE
  8
Layer0$C$L0
 62
     3
 10
-136.9742338592
 20
130.4718722796
 11
-136.9742338592
 21
126.3707968955
  0
ARC
  8
Layer0$C$L0
 62
     3
 10
-143.2035527174
 20
153.2719257401
 40
0.2000000000
 50
130.3645365731
 51
180.0000000000
  0
ARC
  8
Layer0$C$L0
 62
     3
 10
-143.2035527174
 20
127.0569019300
 40
0.2000000000
 50
180.0000000000
 51
229.6354634269
  0
LINE
  8
Layer0$C$L0
 62
     3
 10
-136.9067909856
 20
154.7343203529
 11
-142.8149011646
 21
150.8861029252
  0
LINE
  8
Layer0$C$L0
 62
     3
 10
-136.9742338592
 20
157.3088534367
 11
-136.9742338592
 21
154.7159478716
  0
LINE
  8
Layer0$C$L0
 62
     3
 10
-142.7962276813
 20
129.4286627053
 11
-136.9069195081
 21
125.5937836795
  0
LINE
  8
Layer0$C$L0
 62
     3
 10
-136.9742338592
 20
125.6217514366
 11
-136.9742338592
 21
123.0201215780
  0
ARC
  8
Layer0$C$L0
 62
     3
 10
-132.9035527174
 20
149.7356195224
 40
5.0000000000
 50
0.0000000000
 51
10.0217450221
  0
ARC
  8
Layer0$C$L0
 62
     3
 10
-132.9035527174
 20
130.5932081477
 40
5.0000000000
 50
349.9782549779
 51
360.0000000000
  0
LINE
  8
Layer0$C$L0
 62
     3
 10
-128.3596658972
 20
152.5644138350
 11
-128.6260061626
 21
152.5644141912
  0
LINE
  8
Layer0$C$L0
 62
     3
 10
-136.8536459942
 20
157.9087799146
 11
-142.8704540905
 21
153.1013942986
  0
LINE
  8
Layer0$C$L0
 62
     3
 10
-136.9742338592
 20
158.5912997987
 11
-136.9742338592
 21
157.8421934111
  0
LINE
  8
Layer0$C$L0
 62
     3
 10
-142.8719302368
 20
127.2262710809
 11
-136.8537707914
 21
122.4191741749
  0
LINE
  8
Layer0$C$L0
 62
     3
 10
-136.9742338592
 20
122.4936317166
 11
-136.9742338592
 21
121.7374431812
  0
ARC
  8
Layer0$C$L0
 62
     3
 10
-135.1035527174
 20
159.9644138350
 40
0.2000000000
 50
49.4032897297
 51
70.5437552471
  0
ARC
  8
Layer0$C$L0
 62
     3
 10
-135.1035527174
 20
120.3644138350
 40
0.2000000000
 50
289.4562447529
 51
310.1568059714
  0
LINE
  8
Layer0$C$L0
 62
     3
 10
-152.0846166652
 20
150.8921529459
 11
-152.8035527174
 21
149.3644138350
  0
LINE
  8
Layer0$C$L0
 62
     3
 10
-152.8035527174
 20
130.9644138350
 11
-152.0846166652
 21
129.4366747241
  0
ARC
  8
Layer0$C$L0
 62
     3
 10
-151.9054480445
 20
143.3372345822
 40
0.1699036220
 50
94.2882039226
 51
123.9341402511
  0
POLYLINE
  8
Layer0$C$L0
 62
     3
 66
     1
  0
VERTEX
  8
Layer0$C$L0
 62
     3
 10
-151.8131824870
 20
143.5175285406
  0
VERTEX
  8
Layer0$C$L0
 62
     3
 10
-151.8487338637
 20
143.5171210869
  0
VERTEX
  8
Layer0$C$L0
 62
     3
 10
-151.9181523201
 20
143.5066625672
  0
SEQEND
  8
Layer0$C$L0
 62
     3
  0
LINE
  8
Layer0$C$L0
 62
     3
 10
-151.8131708455
 20
136.8106155387
 11
-149.3035527174
 21
136.8106154941
  0
LINE
  8
Layer0$C$L0
 62
     3
 10
-149.3035527174
 20
143.5182121759
 11
-151.8131708455
 21
143.5182121313
  0
ARC
  8
Layer0$C$L0
 62
     3
 10
-151.8463198177
 20
134.5336452700
 40
0.2601836099
 50
219.7427184071
 51
277.3149690334
  0
ARC
  8
Layer0$C$L0
 62
     3
 10
-151.8193591706
 20
145.7270794752
 40
0.3308354591
 50
83.8241569273
 51
133.8166559287
  0
LINE
  8
Layer0$C$L0
 62
     3
 10
-151.8131708455
 20
134.2717431217
 11
-149.3035527174
 21
134.2717432983
  0
LINE
  8
Layer0$C$L0
 62
     3
 10
-149.3035527174
 20
146.0570843718
 11
-151.8131708455
 21
146.0570845484
  0
LINE
  8
Layer0$C$L0
 62
     3
 10
-153.5035527174
 20
130.9644138350
 11
-152.8035527174
 21
130.9644138350
  0
LINE
  8
Layer0$C$L0
 62
     3
 10
-152.8035527174
 20
149.3644138350
 11
-153.5035527174
 21
149.3644138350
  0
LINE
  8
Layer0$C$L0
 62
     3
 10
-152.0844679055
 20
134.4008607521
 11
-152.0492867296
 21
134.3634607001
  0
LINE
  8
Layer0$C$L0
 62
     3
 10
-152.0469952104
 20
145.9646675467
 11
-152.0816953582
 21
145.9277606300
  0
ARC
  8
Layer0$C$L0
 62
     3
 10
-151.8422950275
 20
132.3824664965
 40
0.2585410973
 50
209.9963003184
 51
276.4693438492
  0
ARC
  8
Layer0$C$L0
 62
     3
 10
-151.8262237803
 20
147.9273458666
 40
0.2829981989
 50
80.1274365308
 51
148.3206735020
  0
LINE
  8
Layer0$C$L0
 62
     3
 10
-151.8131708455
 20
132.1208173140
 11
-149.3035527174
 21
132.1208171919
  0
LINE
  8
Layer0$C$L0
 62
     3
 10
-149.3035527174
 20
148.2080104782
 11
-151.8131708455
 21
148.2080103560
  0
LINE
  8
Layer0$C$L0
 62
     3
 10
-152.1269026873
 20
132.3360534116
 11
-152.0701357824
 21
132.2507098048
  0
LINE
  8
Layer0$C$L0
 62
     3
 10
-152.0693194781
 20
148.0777928337
 11
-152.1259178136
 21
147.9926904394
  0
ARC
  8
Layer0$C$L0
 62
     3
 10
-151.8390165933
 20
130.7673944240
 40
0.2591636925
 50
204.2277565128
 51
275.7222375075
  0
ARC
  8
Layer0$C$L0
 62
     3
 10
-151.8366039948
 20
149.5573003185
 40
0.2640653816
 50
84.8986331430
 51
158.5061042457
  0
LINE
  8
Layer0$C$L0
 62
     3
 10
-151.8131708455
 20
130.5044194414
 11
-149.3035527174
 21
130.5044192346
  0
LINE
  8
Layer0$C$L0
 62
     3
 10
-149.3035527174
 20
149.8244084355
 11
-151.8131708455
 21
149.8244082286
  0
LINE
  8
Layer0$C$L0
 62
     3
 10
-152.1509866890
 20
130.7906446709
 11
-152.0793623951
 21
130.6587619438
  0
LINE
  8
Layer0$C$L0
 62
     3
 10
-152.0786094208
 20
149.6697351067
 11
-152.1501945992
 21
149.5379110529
  0
LINE
  8
Layer0$C$L0
 62
     3
 10
-151.8131710546
 20
129.5327042759
 11
-149.3035527174
 21
129.5327042759
  0
LINE
  8
Layer0$C$L0
 62
     3
 10
-149.3035527174
 20
150.7961233941
 11
-151.8131710546
 21
150.7961233941
  0
LINE
  8
Layer0$C$L0
 62
     3
 10
-152.1678124283
 20
129.8739913582
 11
-152.0834761911
 21
129.7006650806
  0
LINE
  8
Layer0$C$L0
 62
     3
 10
-152.0827016522
 20
150.6278089910
 11
-152.1772644211
 21
150.4335853933
  0
ARC
  8
Layer0$C$L0
 62
     3
 10
-151.8131710546
 20
150.7644138350
 40
0.3000000000
 50
90.0000000000
 51
154.7988763545
  0
ARC
  8
Layer0$C$L0
 62
     3
 10
-151.8131710546
 20
129.5644138350
 40
0.3000000000
 50
205.2011236455
 51
270.0000000000
  0
LINE
  8
Layer0$C$L0
 62
     3
 10
-151.8131710546
 20
129.2644138350
 11
-149.3035527174
 21
129.2644138350
  0
LINE
  8
Layer0$C$L0
 62
     3
 10
-149.3035527174
 20
151.0644138350
 11
-151.8131710546
 21
151.0644138350
  0
LINE
  8
Layer0$C$L0
 62
     3
 10
-161.2035527174
 20
147.5644138350
 11
-164.2035527174
 21
147.5644138350
  0
LINE
  8
Layer0$C$L0
 62
     3
 10
-164.2035527174
 20
147.5644138350
 11
-164.4035527174
 21
147.3644138350
  0
LINE
  8
Layer0$C$L0
 62
     3
 10
-164.4035527174
 20
132.9644138350
 11
-164.2035527174
 21
132.7644138350
  0
LINE
  8
Layer0$C$L0
 62
     3
 10
-164.2035527174
 20
132.7644138350
 11
-161.2035527174
 21
132.7644138350
  0
LINE
  8
Layer0$C$L0
 62
     3
 10
-148.5035527174
 20
128.7144138350
 11
-147.9035527174
 21
128.7144137277
  0
LINE
  8
Layer0$C$L0
 62
     3
 10
-147.9035527174
 20
151.6144139423
 11
-148.5035527174
 21
151.6144138350
  0
LINE
  8
Layer0$C$L0
 62
     3
 10
-146.3035527174
 20
152.7144138350
 11
-147.9035527174
 21
152.7144138350
  0
LINE
  8
Layer0$C$L0
 62
     3
 10
-147.9035527174
 20
127.6144138350
 11
-146.3035527174
 21
127.6144138350
  0
LINE
  8
Layer0$C$L0
 62
     3
 10
-148.6035527174
 20
132.2644138350
 11
-148.5035527459
 21
132.2644142165
  0
LINE
  8
Layer0$C$L0
 62
     3
 10
-157.3685384084
 20
147.5644138373
 11
-159.3035527174
 21
147.5644138350
  0
LINE
  8
Layer0$C$L0
 62
     3
 10
-159.3035527174
 20
132.7644138350
 11
-157.3685300265
 21
132.7644138328
  0
LINE
  8
Layer0$C$L0
 62
     3
 10
-146.2589989844
 20
152.6698603957
 11
-146.3035527174
 21
152.7144138350
  0
LINE
  8
Layer0$C$L0
 62
     3
 10
-146.3035527174
 20
127.6144138350
 11
-146.2589989844
 21
127.6589672743
  0
LINE
  8
Layer0$C$L0
 62
     3
 10
-148.5035527459
 20
149.4644138693
 11
-149.3035526675
 21
149.4644138693
  0
POLYLINE
  8
Layer0$C$L0
 62
     3
 66
     1
  0
VERTEX
  8
Layer0$C$L0
 62
     3
 10
-133.3987186392
 20
144.9135270632
  0
VERTEX
  8
Layer0$C$L0
 62
     3
 10
-132.8084175204
 20
144.8822104103
  0
VERTEX
  8
Layer0$C$L0
 62
     3
 10
-132.2360546057
 20
144.7764750301
  0
VERTEX
  8
Layer0$C$L0
 62
     3
 10
-131.6427648728
 20
144.5331004179
  0
VERTEX
  8
Layer0$C$L0
 62
     3
 10
-131.2828291868
 20
144.2340881295
  0
VERTEX
  8
Layer0$C$L0
 62
     3
 10
-131.0927592878
 20
143.9349936518
  0
VERTEX
  8
Layer0$C$L0
 62
     3
 10
-131.0086329196
 20
143.6409248236
  0
VERTEX
  8
Layer0$C$L0
 62
     3
 10
-131.0115814869
 20
143.3392077415
  0
VERTEX
  8
Layer0$C$L0
 62
     3
 10
-131.0939681445
 20
143.0815494350
  0
VERTEX
  8
Layer0$C$L0
 62
     3
 10
-131.2524066036
 20
142.8563044137
  0
VERTEX
  8
Layer0$C$L0
 62
     3
 10
-131.6009224121
 20
142.6112569134
  0
VERTEX
  8
Layer0$C$L0
 62
     3
 10
-131.9174081747
 20
142.4951200570
  0
VERTEX
  8
Layer0$C$L0
 62
     3
 10
-132.2596450065
 20
142.4219337023
  0
VERTEX
  8
Layer0$C$L0
 62
     3
 10
-132.8208115612
 20
142.3622361581
  0
VERTEX
  8
Layer0$C$L0
 62
     3
 10
-133.3987186392
 20
142.3464632790
  0
SEQEND
  8
Layer0$C$L0
 62
     3
  0
LINE
  8
Layer0$C$L0
 62
     3
 10
-133.3987186392
 20
142.3464632790
 11
-134.8521872152
 21
142.3464632790
  0
LINE
  8
Layer0$C$L0
 62
     3
 10
-135.0369353390
 20
142.3507979710
 11
-134.8521872152
 21
142.3464632790
  0
POLYLINE
  8
Layer0$C$L0
 62
     3
 66
     1
  0
VERTEX
  8
Layer0$C$L0
 62
     3
 10
-134.9035524492
 20
142.4413224413
  0
VERTEX
  8
Layer0$C$L0
 62
     3
 10
-134.9219367568
 20
142.3964620299
  0
VERTEX
  8
Layer0$C$L0
 62
     3
 10
-134.9600818668
 20
142.3708928014
  0
VERTEX
  8
Layer0$C$L0
 62
     3
 10
-135.0184227069
 20
142.3537501796
  0
VERTEX
  8
Layer0$C$L0
 62
     3
 10
-135.0369355370
 20
142.3507978871
  0
SEQEND
  8
Layer0$C$L0
 62
     3
  0
ARC
  8
Layer0$C$L0
 62
     3
 10
-135.0644035916
 20
144.7467906353
 40
0.1609320556
 50
1.8169563217
 51
80.1725800753
  0
LINE
  8
Layer0$C$L0
 62
     3
 10
-134.8521872152
 20
144.9135270632
 11
-135.0369353390
 21
144.9053613468
  0
LINE
  8
Layer0$C$L0
 62
     3
 10
-134.8521872152
 20
144.9135270632
 11
-133.3987186392
 21
144.9135270632
  0
POLYLINE
  8
Layer0$C$L0
 62
     3
 66
     1
  0
VERTEX
  8
Layer0$C$L0
 62
     3
 10
-133.3987186392
 20
120.2069254323
  0
VERTEX
  8
Layer0$C$L0
 62
     3
 10
-132.8173870881
 20
120.2479148015
  0
VERTEX
  8
Layer0$C$L0
 62
     3
 10
-132.2360546057
 20
120.3730677917
  0
VERTEX
  8
Layer0$C$L0
 62
     3
 10
-131.6427648728
 20
120.5952422424
  0
VERTEX
  8
Layer0$C$L0
 62
     3
 10
-131.2828291868
 20
120.7830415770
  0
VERTEX
  8
Layer0$C$L0
 62
     3
 10
-131.0927592878
 20
120.9008408441
  0
VERTEX
  8
Layer0$C$L0
 62
     3
 10
-131.0100112771
 20
120.9565860882
  0
SEQEND
  8
Layer0$C$L0
 62
     3
  0
POLYLINE
  8
Layer0$C$L0
 62
     3
 66
     1
  0
VERTEX
  8
Layer0$C$L0
 62
     3
 10
-133.3987186392
 20
121.8562753602
  0
VERTEX
  8
Layer0$C$L0
 62
     3
 10
-132.8084175204
 20
121.8881750210
  0
VERTEX
  8
Layer0$C$L0
 62
     3
 10
-132.2360546057
 20
121.9748196854
  0
VERTEX
  8
Layer0$C$L0
 62
     3
 10
-131.6427648728
 20
122.1124710246
  0
VERTEX
  8
Layer0$C$L0
 62
     3
 10
-131.2828291868
 20
122.1964241668
  0
VERTEX
  8
Layer0$C$L0
 62
     3
 10
-131.0927592878
 20
122.2103493019
  0
VERTEX
  8
Layer0$C$L0
 62
     3
 10
-131.0086329196
 20
122.1649175241
  0
VERTEX
  8
Layer0$C$L0
 62
     3
 10
-131.0115814869
 20
122.0580948248
  0
VERTEX
  8
Layer0$C$L0
 62
     3
 10
-131.0939681445
 20
121.9131586804
  0
VERTEX
  8
Layer0$C$L0
 62
     3
 10
-131.2524066036
 20
121.7358628019
  0
VERTEX
  8
Layer0$C$L0
 62
     3
 10
-131.6009224121
 20
121.4646504923
  0
VERTEX
  8
Layer0$C$L0
 62
     3
 10
-131.9174081747
 20
121.2894351884
  0
VERTEX
  8
Layer0$C$L0
 62
     3
 10
-132.2596450065
 20
121.1503067716
  0
VERTEX
  8
Layer0$C$L0
 62
     3
 10
-132.8208115612
 20
121.0111876681
  0
VERTEX
  8
Layer0$C$L0
 62
     3
 10
-133.3987186392
 20
120.9647444739
  0
SEQEND
  8
Layer0$C$L0
 62
     3
  0
POLYLINE
  8
Layer0$C$L0
 62
     3
 66
     1
  0
VERTEX
  8
Layer0$C$L0
 62
     3
 10
-133.3987186392
 20
125.7138572364
  0
VERTEX
  8
Layer0$C$L0
 62
     3
 10
-132.8084175204
 20
125.7310336187
  0
VERTEX
  8
Layer0$C$L0
 62
     3
 10
-132.2360546057
 20
125.7705049320
  0
VERTEX
  8
Layer0$C$L0
 62
     3
 10
-131.6427648728
 20
125.8070314034
  0
VERTEX
  8
Layer0$C$L0
 62
     3
 10
-131.2828291868
 20
125.7770130142
  0
VERTEX
  8
Layer0$C$L0
 62
     3
 10
-131.0927592878
 20
125.6853839113
  0
VERTEX
  8
Layer0$C$L0
 62
     3
 10
-131.0086329196
 20
125.5433022707
  0
VERTEX
  8
Layer0$C$L0
 62
     3
 10
-131.0115814869
 20
125.3445785224
  0
VERTEX
  8
Layer0$C$L0
 62
     3
 10
-131.0939681445
 20
125.1276390358
  0
VERTEX
  8
Layer0$C$L0
 62
     3
 10
-131.2524066036
 20
124.8935008152
  0
VERTEX
  8
Layer0$C$L0
 62
     3
 10
-131.6009224121
 20
124.5698978855
  0
VERTEX
  8
Layer0$C$L0
 62
     3
 10
-131.9174081747
 20
124.3754824354
  0
VERTEX
  8
Layer0$C$L0
 62
     3
 10
-132.2596450065
 20
124.2277169331
  0
VERTEX
  8
Layer0$C$L0
 62
     3
 10
-132.8208115612
 20
124.0846452965
  0
VERTEX
  8
Layer0$C$L0
 62
     3
 10
-133.3987186392
 20
124.0383250370
  0
SEQEND
  8
Layer0$C$L0
 62
     3
  0
POLYLINE
  8
Layer0$C$L0
 62
     3
 66
     1
  0
VERTEX
  8
Layer0$C$L0
 62
     3
 10
-133.3987186392
 20
131.3143888219
  0
VERTEX
  8
Layer0$C$L0
 62
     3
 10
-132.8084175204
 20
131.3147697329
  0
VERTEX
  8
Layer0$C$L0
 62
     3
 10
-132.2360546057
 20
131.3023077055
  0
VERTEX
  8
Layer0$C$L0
 62
     3
 10
-131.6427648728
 20
131.2333032220
  0
VERTEX
  8
Layer0$C$L0
 62
     3
 10
-131.2828291868
 20
131.0929333522
  0
VERTEX
  8
Layer0$C$L0
 62
     3
 10
-131.0927592878
 20
130.9068020164
  0
VERTEX
  8
Layer0$C$L0
 62
     3
 10
-131.0086329196
 20
130.6852087109
  0
VERTEX
  8
Layer0$C$L0
 62
     3
 10
-131.0115814869
 20
130.4185533627
  0
VERTEX
  8
Layer0$C$L0
 62
     3
 10
-131.0939681445
 20
130.1557779043
  0
VERTEX
  8
Layer0$C$L0
 62
     3
 10
-131.2524066036
 20
129.8930378362
  0
VERTEX
  8
Layer0$C$L0
 62
     3
 10
-131.6009224121
 20
129.5560732215
  0
VERTEX
  8
Layer0$C$L0
 62
     3
 10
-131.9174081747
 20
129.3659073963
  0
VERTEX
  8
Layer0$C$L0
 62
     3
 10
-132.2596450065
 20
129.2273275285
  0
VERTEX
  8
Layer0$C$L0
 62
     3
 10
-132.8208115612
 20
129.0975598349
  0
VERTEX
  8
Layer0$C$L0
 62
     3
 10
-133.3987186392
 20
129.0569504454
  0
SEQEND
  8
Layer0$C$L0
 62
     3
  0
POLYLINE
  8
Layer0$C$L0
 62
     3
 66
     1
  0
VERTEX
  8
Layer0$C$L0
 62
     3
 10
-133.3987186392
 20
137.9823643911
  0
VERTEX
  8
Layer0$C$L0
 62
     3
 10
-132.8084175204
 20
137.9659037302
  0
VERTEX
  8
Layer0$C$L0
 62
     3
 10
-132.2360546057
 20
137.9030122153
  0
VERTEX
  8
Layer0$C$L0
 62
     3
 10
-131.6427648728
 20
137.7367986097
  0
VERTEX
  8
Layer0$C$L0
 62
     3
 10
-131.2828291868
 20
137.5030084710
  0
VERTEX
  8
Layer0$C$L0
 62
     3
 10
-131.0927592878
 20
137.2448251314
  0
VERTEX
  8
Layer0$C$L0
 62
     3
 10
-131.0086329196
 20
136.9704472563
  0
VERTEX
  8
Layer0$C$L0
 62
     3
 10
-131.0115814869
 20
136.6680221363
  0
VERTEX
  8
Layer0$C$L0
 62
     3
 10
-131.0939681445
 20
136.3911052431
  0
VERTEX
  8
Layer0$C$L0
 62
     3
 10
-131.2524066036
 20
136.1314536735
  0
VERTEX
  8
Layer0$C$L0
 62
     3
 10
-131.6009224121
 20
135.8217716879
  0
VERTEX
  8
Layer0$C$L0
 62
     3
 10
-131.9174081747
 20
135.6587916344
  0
VERTEX
  8
Layer0$C$L0
 62
     3
 10
-132.2596450065
 20
135.5461132444
  0
VERTEX
  8
Layer0$C$L0
 62
     3
 10
-132.8208115612
 20
135.4453003696
  0
VERTEX
  8
Layer0$C$L0
 62
     3
 10
-133.3987186392
 20
135.4153006069
  0
SEQEND
  8
Layer0$C$L0
 62
     3
  0
POLYLINE
  8
Layer0$C$L0
 62
     3
 66
     1
  0
VERTEX
  8
Layer0$C$L0
 62
     3
 10
-133.3987186392
 20
151.2718772247
  0
VERTEX
  8
Layer0$C$L0
 62
     3
 10
-132.8084175204
 20
151.2294815584
  0
VERTEX
  8
Layer0$C$L0
 62
     3
 10
-132.2360546057
 20
151.0936546802
  0
VERTEX
  8
Layer0$C$L0
 62
     3
 10
-131.6427648728
 20
150.8024738832
  0
VERTEX
  8
Layer0$C$L0
 62
     3
 10
-131.2828291868
 20
150.4743056103
  0
VERTEX
  8
Layer0$C$L0
 62
     3
 10
-131.0927592878
 20
150.1703750073
  0
VERTEX
  8
Layer0$C$L0
 62
     3
 10
-131.0086329196
 20
149.8920837148
  0
VERTEX
  8
Layer0$C$L0
 62
     3
 10
-131.0115814869
 20
149.6274661004
  0
VERTEX
  8
Layer0$C$L0
 62
     3
 10
-131.0939681445
 20
149.4201443820
  0
VERTEX
  8
Layer0$C$L0
 62
     3
 10
-131.2524066036
 20
149.2564737528
  0
VERTEX
  8
Layer0$C$L0
 62
     3
 10
-131.6009224121
 20
149.1056162595
  0
VERTEX
  8
Layer0$C$L0
 62
     3
 10
-131.9174081747
 20
149.0503310888
  0
VERTEX
  8
Layer0$C$L0
 62
     3
 10
-132.2596450065
 20
149.0254638448
  0
VERTEX
  8
Layer0$C$L0
 62
     3
 10
-132.8208115612
 20
149.0140821516
  0
VERTEX
  8
Layer0$C$L0
 62
     3
 10
-133.3987186392
 20
149.0144388481
  0
SEQEND
  8
Layer0$C$L0
 62
     3
  0
POLYLINE
  8
Layer0$C$L0
 62
     3
 66
     1
  0
VERTEX
  8
Layer0$C$L0
 62
     3
 10
-133.3987186392
 20
156.2905026331
  0
VERTEX
  8
Layer0$C$L0
 62
     3
 10
-132.8084175204
 20
156.2421409144
  0
VERTEX
  8
Layer0$C$L0
 62
     3
 10
-132.2360546057
 20
156.0926077618
  0
VERTEX
  8
Layer0$C$L0
 62
     3
 10
-131.6427648728
 20
155.7887404888
  0
VERTEX
  8
Layer0$C$L0
 62
     3
 10
-131.2828291868
 20
155.4709974407
  0
VERTEX
  8
Layer0$C$L0
 62
     3
 10
-131.0927592878
 20
155.1988891988
  0
VERTEX
  8
Layer0$C$L0
 62
     3
 10
-131.0086329196
 20
154.9699431016
  0
VERTEX
  8
Layer0$C$L0
 62
     3
 10
-131.0115814869
 20
154.7743411466
  0
VERTEX
  8
Layer0$C$L0
 62
     3
 10
-131.0939681445
 20
154.6423606305
  0
VERTEX
  8
Layer0$C$L0
 62
     3
 10
-131.2524066036
 20
154.5600056379
  0
VERTEX
  8
Layer0$C$L0
 62
     3
 10
-131.6009224121
 20
154.5215354963
  0
VERTEX
  8
Layer0$C$L0
 62
     3
 10
-131.9174081747
 20
154.5337693497
  0
VERTEX
  8
Layer0$C$L0
 62
     3
 10
-132.2596450065
 20
154.5602207734
  0
VERTEX
  8
Layer0$C$L0
 62
     3
 10
-132.8208115612
 20
154.5985270023
  0
VERTEX
  8
Layer0$C$L0
 62
     3
 10
-133.3987186392
 20
154.6149704336
  0
SEQEND
  8
Layer0$C$L0
 62
     3
  0
POLYLINE
  8
Layer0$C$L0
 62
     3
 66
     1
  0
VERTEX
  8
Layer0$C$L0
 62
     3
 10
-133.3987186392
 20
159.3640831961
  0
VERTEX
  8
Layer0$C$L0
 62
     3
 10
-132.8084175204
 20
159.3155910923
  0
VERTEX
  8
Layer0$C$L0
 62
     3
 10
-132.2360546057
 20
159.1703848644
  0
VERTEX
  8
Layer0$C$L0
 62
     3
 10
-131.6427648728
 20
158.8904833152
  0
VERTEX
  8
Layer0$C$L0
 62
     3
 10
-131.2828291868
 20
158.6214894160
  0
VERTEX
  8
Layer0$C$L0
 62
     3
 10
-131.0927592878
 20
158.4140242740
  0
VERTEX
  8
Layer0$C$L0
 62
     3
 10
-131.0086329196
 20
158.2620361551
  0
VERTEX
  8
Layer0$C$L0
 62
     3
 10
-131.0115814869
 20
158.1590430542
  0
VERTEX
  8
Layer0$C$L0
 62
     3
 10
-131.0939681445
 20
158.1183237686
  0
VERTEX
  8
Layer0$C$L0
 62
     3
 10
-131.2524066036
 20
158.1272178992
  0
VERTEX
  8
Layer0$C$L0
 62
     3
 10
-131.6009224121
 20
158.2057730957
  0
VERTEX
  8
Layer0$C$L0
 62
     3
 10
-131.9174081747
 20
158.2840507581
  0
VERTEX
  8
Layer0$C$L0
 62
     3
 10
-132.2596450065
 20
158.3586310699
  0
VERTEX
  8
Layer0$C$L0
 62
     3
 10
-132.8208115612
 20
158.4420049294
  0
VERTEX
  8
Layer0$C$L0
 62
     3
 10
-133.3987186392
 20
158.4725523098
  0
SEQEND
  8
Layer0$C$L0
 62
     3
  0
ARC
  8
Layer0$C$L0
 62
     3
 10
-133.4103748399
 20
155.9042602843
 40
4.2176580604
 50
55.3109512117
 51
89.8416533656
  0
LINE
  8
Layer0$C$L0
 62
     3
 10
-133.3987186392
 20
135.4153006069
 11
-134.8521872152
 21
135.4153006069
  0
LINE
  8
Layer0$C$L0
 62
     3
 10
-135.0369353390
 20
135.4234663233
 11
-134.8521872152
 21
135.4153006069
  0
ARC
  8
Layer0$C$L0
 62
     3
 10
-135.0675084360
 20
135.5847355371
 40
0.1641414720
 50
280.7345694644
 51
357.2758941388
  0
POLYLINE
  8
Layer0$C$L0
 62
     3
 66
     1
  0
VERTEX
  8
Layer0$C$L0
 62
     3
 10
-135.0369355370
 20
137.9780297830
  0
VERTEX
  8
Layer0$C$L0
 62
     3
 10
-134.9888327260
 20
137.9682173683
  0
VERTEX
  8
Layer0$C$L0
 62
     3
 10
-134.9456752379
 20
137.9506449412
  0
VERTEX
  8
Layer0$C$L0
 62
     3
 10
-134.9157741954
 20
137.9249537095
  0
VERTEX
  8
Layer0$C$L0
 62
     3
 10
-134.9035524492
 20
137.8875052287
  0
SEQEND
  8
Layer0$C$L0
 62
     3
  0
LINE
  8
Layer0$C$L0
 62
     3
 10
-134.8521872152
 20
137.9823643911
 11
-135.0369353390
 21
137.9780296990
  0
LINE
  8
Layer0$C$L0
 62
     3
 10
-134.8521872152
 20
137.9823643911
 11
-133.3987186392
 21
137.9823643911
  0
LINE
  8
Layer0$C$L0
 62
     3
 10
-135.0369353390
 20
137.9780296990
 11
-135.0369353390
 21
135.4234663233
  0
LINE
  8
Layer0$C$L0
 62
     3
 10
-134.8521872152
 20
131.3143888219
 11
-135.0369353390
 21
131.3144082456
  0
LINE
  8
Layer0$C$L0
 62
     3
 10
-135.0369353390
 20
131.3144082456
 11
-135.0369353390
 21
129.0679629143
  0
LINE
  8
Layer0$C$L0
 62
     3
 10
-135.0369353390
 20
129.0679629143
 11
-134.8521872152
 21
129.0569504454
  0
LINE
  8
Layer0$C$L0
 62
     3
 10
-134.8521872152
 20
125.7138572364
 11
-135.0369353390
 21
125.7182280785
  0
LINE
  8
Layer0$C$L0
 62
     3
 10
-135.0369353390
 20
125.7182280785
 11
-135.0369353390
 21
124.0508552526
  0
LINE
  8
Layer0$C$L0
 62
     3
 10
-135.0369353390
 20
124.0508552526
 11
-134.8521872152
 21
124.0383250370
  0
LINE
  8
Layer0$C$L0
 62
     3
 10
-134.8521872152
 20
121.8562753602
 11
-135.0369353390
 21
121.8644711166
  0
LINE
  8
Layer0$C$L0
 62
     3
 10
-135.0369353390
 20
121.8644711166
 11
-135.0369353390
 21
120.9772805667
  0
LINE
  8
Layer0$C$L0
 62
     3
 10
-135.0369353390
 20
120.9772805667
 11
-134.8521872152
 21
120.9647444739
  0
LINE
  8
Layer0$C$L0
 62
     3
 10
-134.8521872152
 20
120.2069254323
 11
-135.0369353390
 21
120.2179573249
  0
LINE
  8
Layer0$C$L0
 62
     3
 10
-135.0369353390
 20
120.2179573249
 11
-135.0369353390
 21
120.1758346079
  0
LINE
  8
Layer0$C$L0
 62
     3
 10
-135.0369353390
 20
160.1529930621
 11
-135.0369353390
 21
160.1108703451
  0
LINE
  8
Layer0$C$L0
 62
     3
 10
-135.0369353390
 20
160.1108703451
 11
-134.8521872152
 21
160.1219022377
  0
LINE
  8
Layer0$C$L0
 62
     3
 10
-134.8521872152
 20
159.3640831961
 11
-135.0369353390
 21
159.3515471033
  0
LINE
  8
Layer0$C$L0
 62
     3
 10
-135.0369353390
 20
159.3515471033
 11
-135.0369353390
 21
158.4643565535
  0
LINE
  8
Layer0$C$L0
 62
     3
 10
-135.0369353390
 20
158.4643565535
 11
-134.8521872152
 21
158.4725523098
  0
LINE
  8
Layer0$C$L0
 62
     3
 10
-134.8521872152
 20
156.2905026331
 11
-135.0369353390
 21
156.2779724174
  0
LINE
  8
Layer0$C$L0
 62
     3
 10
-135.0369353390
 20
156.2779724174
 11
-135.0369353390
 21
154.6105995916
  0
LINE
  8
Layer0$C$L0
 62
     3
 10
-135.0369353390
 20
154.6105995916
 11
-134.8521872152
 21
154.6149704336
  0
LINE
  8
Layer0$C$L0
 62
     3
 10
-134.8521872152
 20
151.2718772247
 11
-135.0369353390
 21
151.2608647557
  0
LINE
  8
Layer0$C$L0
 62
     3
 10
-135.0369353390
 20
151.2608647557
 11
-135.0369353390
 21
149.0144194244
  0
LINE
  8
Layer0$C$L0
 62
     3
 10
-135.0369353390
 20
149.0144194244
 11
-134.8521872152
 21
149.0144388481
  0
LINE
  8
Layer0$C$L0
 62
     3
 10
-135.0369353390
 20
144.9053613468
 11
-135.0369353390
 21
142.3507979710
  0
LINE
  8
Layer0$C$L0
 62
     3
 10
-134.9035527174
 20
144.7518932898
 11
-134.9035527174
 21
142.4413223426
  0
LINE
  8
Layer0$C$L0
 62
     3
 10
-134.9035527174
 20
137.8875053274
 11
-134.9035527174
 21
135.5769343803
  0
LINE
  8
Layer0$C$L0
 62
     3
 10
-133.3987186392
 20
149.0144388481
 11
-134.8521872152
 21
149.0144388481
  0
LINE
  8
Layer0$C$L0
 62
     3
 10
-134.8521872152
 20
131.3143888219
 11
-133.3987186392
 21
131.3143888219
  0
ARC
  8
Layer0$C$L0
 62
     3
 10
-136.4604831773
 20
142.7197055905
 40
0.5338469305
 50
129.2232798253
 51
163.9572332732
  0
ARC
  8
Layer0$C$L0
 62
     3
 10
-136.4081952479
 20
137.6436123758
 40
0.5939244711
 50
197.8467680980
 51
228.9727188034
  0
ARC
  8
Layer0$C$L0
 62
     3
 10
-142.3025637656
 20
142.7610760212
 40
0.8096688235
 50
221.0312075612
 51
233.5320195958
  0
POLYLINE
  8
Layer0$C$L0
 62
     3
 66
     1
  0
VERTEX
  8
Layer0$C$L0
 62
     3
 10
-142.5554044274
 20
142.0432005507
  0
VERTEX
  8
Layer0$C$L0
 62
     3
 10
-142.7061063898
 20
142.0688024919
  0
VERTEX
  8
Layer0$C$L0
 62
     3
 10
-142.7838094261
 20
142.1099491381
  0
SEQEND
  8
Layer0$C$L0
 62
     3
  0
ARC
  8
Layer0$C$L0
 62
     3
 10
-142.3025637656
 20
137.5677516488
 40
0.8096688235
 50
126.4679804042
 51
138.9687924388
  0
POLYLINE
  8
Layer0$C$L0
 62
     3
 66
     1
  0
VERTEX
  8
Layer0$C$L0
 62
     3
 10
-142.7838094261
 20
138.2188785319
  0
VERTEX
  8
Layer0$C$L0
 62
     3
 10
-142.6933170025
 20
138.2644674705
  0
VERTEX
  8
Layer0$C$L0
 62
     3
 10
-142.5554044274
 20
138.2856271193
  0
SEQEND
  8
Layer0$C$L0
 62
     3
  0
ARC
  8
Layer0$C$L0
 62
     3
 10
-135.6561017699
 20
145.4845020302
 40
2.0942595016
 50
231.1181503347
 51
236.9562473061
  0
ARC
  8
Layer0$C$L0
 62
     3
 10
-142.4287574687
 20
142.4915891294
 40
0.5894096067
 50
127.0409573202
 51
145.3003589726
  0
POLYLINE
  8
Layer0$C$L0
 62
     3
 66
     1
  0
VERTEX
  8
Layer0$C$L0
 62
     3
 10
-142.7838094261
 20
142.9620588861
  0
VERTEX
  8
Layer0$C$L0
 62
     3
 10
-142.6933170025
 20
143.0071144096
  0
VERTEX
  8
Layer0$C$L0
 62
     3
 10
-142.6208559153
 20
143.0180923744
  0
SEQEND
  8
Layer0$C$L0
 62
     3
  0
ARC
  8
Layer0$C$L0
 62
     3
 10
-136.3468753235
 20
148.8692383639
 40
0.6297686628
 50
135.7602102355
 51
174.3088617910
  0
ARC
  8
Layer0$C$L0
 62
     3
 10
-142.4287574687
 20
137.8372385407
 40
0.5894096067
 50
214.6996410274
 51
232.9590426798
  0
POLYLINE
  8
Layer0$C$L0
 62
     3
 66
     1
  0
VERTEX
  8
Layer0$C$L0
 62
     3
 10
-136.7980581437
 20
136.5998479269
  0
VERTEX
  8
Layer0$C$L0
 62
     3
 10
-136.8009117161
 20
136.5979294024
  0
VERTEX
  8
Layer0$C$L0
 62
     3
 10
-136.8300229971
 20
136.5778952568
  0
VERTEX
  8
Layer0$C$L0
 62
     3
 10
-136.9307567094
 20
136.5021358906
  0
VERTEX
  8
Layer0$C$L0
 62
     3
 10
-136.9687798162
 20
136.4730958558
  0
VERTEX
  8
Layer0$C$L0
 62
     3
 10
-136.9706508432
 20
136.4745452265
  0
SEQEND
  8
Layer0$C$L0
 62
     3
  0
POLYLINE
  8
Layer0$C$L0
 62
     3
 66
     1
  0
VERTEX
  8
Layer0$C$L0
 62
     3
 10
-142.6228987713
 20
137.3121420584
  0
VERTEX
  8
Layer0$C$L0
 62
     3
 10
-142.7061063898
 20
137.3261011868
  0
VERTEX
  8
Layer0$C$L0
 62
     3
 10
-142.7838094261
 20
137.3667687840
  0
SEQEND
  8
Layer0$C$L0
 62
     3
  0
ARC
  8
Layer0$C$L0
 62
     3
 10
-136.3119490618
 20
131.4758500666
 40
0.6662566617
 50
186.7848329582
 51
223.1460950153
  0
LINE
  8
Layer0$C$L0
 62
     3
 10
-142.5554044274
 20
138.2856271193
 11
-136.9742336412
 21
138.2856271193
  0
LINE
  8
Layer0$C$L0
 62
     3
 10
-142.5554044274
 20
142.0432005507
 11
-136.9742336412
 21
142.0432005507
  0
ARC
  8
Layer0$C$L0
 62
     3
 10
-135.0054645009
 20
149.3046936432
 40
0.2919753860
 50
263.8122611989
 51
290.4288101321
  0
ARC
  8
Layer0$C$L0
 62
     3
 10
-135.1040105278
 20
151.0717566926
 40
0.2006508283
 50
357.4884097808
 51
430.4708050991
  0
LINE
  8
Layer0$C$L0
 62
     3
 10
-134.8521872152
 20
151.2718772247
 11
-133.3987186392
 21
151.2718772247
  0
LINE
  8
Layer0$C$L0
 62
     3
 10
-133.3987186392
 20
129.0569504454
 11
-134.8521872152
 21
129.0569504454
  0
ARC
  8
Layer0$C$L0
 62
     3
 10
-135.1030688402
 20
129.2564362887
 40
0.1997390000
 50
289.3354695681
 51
362.7053155520
  0
ARC
  8
Layer0$C$L0
 62
     3
 10
-134.9977321231
 20
131.0860323795
 40
0.2317164326
 50
66.0183743012
 51
99.7405543679
  0
LINE
  8
Layer0$C$L0
 62
     3
 10
-134.9035527174
 20
151.0629635259
 11
-134.9035527174
 21
149.0310815354
  0
LINE
  8
Layer0$C$L0
 62
     3
 10
-134.9035527174
 20
131.2977461346
 11
-134.9035527174
 21
129.2658641441
  0
ARC
  8
Layer0$C$L0
 62
     3
 10
-159.1520126980
 20
139.7333677523
 40
32.1371019521
 50
16.6334423191
 51
18.2190677646
  0
LINE
  8
Layer0$C$L0
 62
     3
 10
-128.3596658972
 20
148.9325379217
 11
-128.3596658972
 21
152.5644138350
  0
LINE
  8
Layer0$C$L0
 62
     3
 10
-128.6260069716
 20
153.7644138350
 11
-128.6260069716
 21
149.7810660592
  0
ARC
  8
Layer0$C$L0
 62
     3
 10
-183.3179337444
 20
140.2050466259
 40
56.2569654797
 50
346.4535997754
 51
347.6649008038
  0
LINE
  8
Layer0$C$L0
 62
     3
 10
-128.3596658972
 20
128.1869335890
 11
-128.3596658972
 21
139.0836826250
  0
ARC
  8
Layer0$C$L0
 62
     3
 10
-130.9999219544
 20
145.4924316441
 40
6.9313066644
 50
292.3905210736
 51
294.2119148645
  0
ARC
  8
Layer0$C$L0
 62
     3
 10
-182.9431265888
 20
137.1852932855
 40
54.8217897588
 50
2.0756024550
 51
6.6449348888
  0
ARC
  8
Layer0$C$L0
 62
     3
 10
-178.0513582958
 20
145.2370269223
 40
49.5911668699
 50
352.6489731789
 51
358.0262901182
  0
ARC
  8
Layer0$C$L0
 62
     3
 10
-132.3858039101
 20
149.0302923348
 40
10.7313853862
 50
289.1368187400
 51
290.5090483903
  0
LINE
  8
Layer0$C$L0
 62
     3
 10
-128.6260069716
 20
138.9790957337
 11
-128.6260069716
 21
127.0278225975
  0
LINE
  8
Layer0$C$L0
 62
     3
 10
-133.3987186392
 20
154.6149704336
 11
-134.8521872152
 21
154.6149704336
  0
LINE
  8
Layer0$C$L0
 62
     3
 10
-134.8521872152
 20
125.7138572364
 11
-133.3987186392
 21
125.7138572364
  0
ARC
  8
Layer0$C$L0
 62
     3
 10
-140.9771066982
 20
130.9674103631
 40
3.2844999594
 50
123.3717701770
 51
126.1219610641
  0
POLYLINE
  8
Layer0$C$L0
 62
     3
 66
     1
  0
VERTEX
  8
Layer0$C$L0
 62
     3
 10
-142.7838094261
 20
133.7103586375
  0
VERTEX
  8
Layer0$C$L0
 62
     3
 10
-142.6933170025
 20
133.7509819969
  0
VERTEX
  8
Layer0$C$L0
 62
     3
 10
-142.5554044274
 20
133.7698552488
  0
SEQEND
  8
Layer0$C$L0
 62
     3
  0
ARC
  8
Layer0$C$L0
 62
     3
 10
-140.9771066982
 20
149.3614173069
 40
3.2844999594
 50
233.8780389359
 51
236.6282298230
  0
POLYLINE
  8
Layer0$C$L0
 62
     3
 66
     1
  0
VERTEX
  8
Layer0$C$L0
 62
     3
 10
-142.5554044274
 20
146.5589724212
  0
VERTEX
  8
Layer0$C$L0
 62
     3
 10
-142.7061063898
 20
146.5818065881
  0
VERTEX
  8
Layer0$C$L0
 62
     3
 10
-142.7838094261
 20
146.6184690326
  0
SEQEND
  8
Layer0$C$L0
 62
     3
  0
LINE
  8
Layer0$C$L0
 62
     3
 10
-142.5554044274
 20
133.7698552488
 11
-136.9742336412
 21
133.7698552488
  0
LINE
  8
Layer0$C$L0
 62
     3
 10
-142.5554044274
 20
146.5589724212
 11
-136.9742336412
 21
146.5589724212
  0
ARC
  8
Layer0$C$L0
 62
     3
 10
-136.9005135149
 20
149.5625511424
 40
0.2887025103
 50
69.2137774217
 51
99.2073960101
  0
ARC
  8
Layer0$C$L0
 62
     3
 10
-142.5215868515
 20
146.9847030216
 40
0.4642471334
 50
124.3907661635
 51
147.5483269480
  0
LINE
  8
Layer0$C$L0
 62
     3
 10
-142.7838094261
 20
147.3678018629
 11
-142.7355822836
 21
147.3886336862
  0
ARC
  8
Layer0$C$L0
 62
     3
 10
-136.2798777605
 20
153.9194681904
 40
0.6939280499
 50
138.3083421098
 51
178.4135047416
  0
ARC
  8
Layer0$C$L0
 62
     3
 10
-142.5215868515
 20
133.3441246485
 40
0.4642471334
 50
212.4516730520
 51
235.6092338365
  0
ARC
  8
Layer0$C$L0
 62
     3
 10
-136.9008133329
 20
130.7673043251
 40
0.2897698218
 50
260.9414977728
 51
290.7695256173
  0
LINE
  8
Layer0$C$L0
 62
     3
 10
-142.7381639098
 20
132.9402992233
 11
-142.7838094261
 21
132.9610258072
  0
ARC
  8
Layer0$C$L0
 62
     3
 10
-136.2615442697
 20
126.4166326899
 40
0.7124879759
 50
182.1303473059
 51
221.1478058427
  0
LINE
  8
Layer0$C$L0
 62
     3
 10
-128.8566239838
 20
138.9790957292
 11
-128.6260069716
 21
138.9790957337
  0
POLYLINE
  8
Layer0$C$L0
 62
     3
 66
     1
  0
VERTEX
  8
Layer0$C$L0
 62
     3
 10
-128.6969710802
 20
139.3518644582
  0
VERTEX
  8
Layer0$C$L0
 62
     3
 10
-128.7168045257
 20
139.7981685841
  0
VERTEX
  8
Layer0$C$L0
 62
     3
 10
-128.7304856543
 20
140.0665137226
  0
SEQEND
  8
Layer0$C$L0
 62
     3
  0
ARC
  8
Layer0$C$L0
 62
     3
 10
-135.1276206923
 20
156.0726543491
 40
0.2244535350
 50
356.6423801362
 51
426.1698688401
  0
LINE
  8
Layer0$C$L0
 62
     3
 10
-134.8521872152
 20
156.2905026331
 11
-133.3987186392
 21
156.2905026331
  0
LINE
  8
Layer0$C$L0
 62
     3
 10
-133.3987186392
 20
124.0383250370
 11
-134.8521872152
 21
124.0383250370
  0
ARC
  8
Layer0$C$L0
 62
     3
 10
-135.1244329014
 20
124.2542270173
 40
0.2213954505
 50
293.2789784397
 51
363.9087725841
  0
LINE
  8
Layer0$C$L0
 62
     3
 10
-134.9035527174
 20
156.0595078239
 11
-134.9035527174
 21
154.6179151367
  0
LINE
  8
Layer0$C$L0
 62
     3
 10
-134.9035527174
 20
125.7109125334
 11
-134.9035527174
 21
124.2693198461
  0
LINE
  8
Layer0$C$L0
 62
     3
 10
-143.4035527174
 20
127.0569019300
 11
-143.4035527174
 21
153.2719257401
  0
ARC
  8
Layer0$C$L0
 62
     3
 10
-128.4505351670
 20
139.4292047504
 40
0.2582870111
 50
197.4236992324
 51
260.7572762286
  0
LINE
  8
Layer0$C$L0
 62
     3
 10
-128.4539461796
 20
139.1708383999
 11
-128.1573051294
 21
139.1708383677
  0
LINE
  8
Layer0$C$L0
 62
     3
 10
-128.4920205091
 20
139.1742711385
 11
-128.4539461796
 21
139.1708383999
  0
LINE
  8
Layer0$C$L0
 62
     3
 10
-128.6556073193
 20
139.0836826722
 11
-128.6977217262
 21
139.0879581413
  0
ARC
  8
Layer0$C$L0
 62
     3
 10
-128.6561617552
 20
139.3150074268
 40
0.2308215961
 50
219.3160738110
 51
259.6271909036
  0
ARC
  8
Layer0$C$L0
 62
     3
 10
-143.0342528002
 20
130.4439695441
 40
0.5269898189
 50
283.2642261441
 51
298.3745737991
  0
POLYLINE
  8
Layer0$C$L0
 62
     3
 66
     1
  0
VERTEX
  8
Layer0$C$L0
 62
     3
 10
-142.7838094261
 20
129.9802925169
  0
VERTEX
  8
Layer0$C$L0
 62
     3
 10
-142.6933170025
 20
130.0110513075
  0
VERTEX
  8
Layer0$C$L0
 62
     3
 10
-142.5554044274
 20
130.0253610789
  0
SEQEND
  8
Layer0$C$L0
 62
     3
  0
ARC
  8
Layer0$C$L0
 62
     3
 10
-143.0342528002
 20
149.8848581259
 40
0.5269898189
 50
61.6254262009
 51
76.7357738559
  0
POLYLINE
  8
Layer0$C$L0
 62
     3
 66
     1
  0
VERTEX
  8
Layer0$C$L0
 62
     3
 10
-142.5554044274
 20
150.3034665912
  0
VERTEX
  8
Layer0$C$L0
 62
     3
 10
-142.7061063898
 20
150.3207780152
  0
VERTEX
  8
Layer0$C$L0
 62
     3
 10
-142.7838094261
 20
150.3485351532
  0
SEQEND
  8
Layer0$C$L0
 62
     3
  0
LINE
  8
Layer0$C$L0
 62
     3
 10
-128.6556073193
 20
139.0836826722
 11
-128.3596658972
 21
139.0836826250
  0
LINE
  8
Layer0$C$L0
 62
     3
 10
-128.6260061626
 20
128.1869340419
 11
-128.3596658972
 21
128.1869335890
  0
LINE
  8
Layer0$C$L0
 62
     3
 10
-142.5554044274
 20
130.0253610789
 11
-136.9742336412
 21
130.0253610789
  0
LINE
  8
Layer0$C$L0
 62
     3
 10
-142.5554044274
 20
150.3034665912
 11
-136.9742336412
 21
150.3034665912
  0
ARC
  8
Layer0$C$L0
 62
     3
 10
-136.7750787818
 20
154.5525583427
 40
0.2184897683
 50
96.0371701887
 51
125.9223162686
  0
ARC
  8
Layer0$C$L0
 62
     3
 10
-142.6607869803
 20
150.6255491016
 40
0.3001939577
 50
120.5752452658
 51
147.2773024969
  0
ARC
  8
Layer0$C$L0
 62
     3
 10
-136.3222535761
 20
157.2938606538
 40
0.6513565335
 50
136.9268613911
 51
180.8418241213
  0
ARC
  8
Layer0$C$L0
 62
     3
 10
-142.6211487902
 20
129.7345910102
 40
0.3505025891
 50
213.5262799120
 51
242.3494143029
  0
ARC
  8
Layer0$C$L0
 62
     3
 10
-136.7751578724
 20
125.7757429736
 40
0.2179580168
 50
234.0982222271
 51
263.9689530839
  0
ARC
  8
Layer0$C$L0
 62
     3
 10
-136.3169811797
 20
123.0370031202
 40
0.6566018473
 50
179.3425890848
 51
222.8887254028
  0
LINE
  8
Layer0$C$L0
 62
     3
 10
-133.3987186392
 20
158.4725523098
 11
-134.8521872152
 21
158.4725523098
  0
LINE
  8
Layer0$C$L0
 62
     3
 10
-134.8521872152
 20
121.8562753602
 11
-133.3987186392
 21
121.8562753602
  0
LINE
  8
Layer0$C$L0
 62
     3
 10
-127.9035527174
 20
149.7356195224
 11
-127.9035527174
 21
130.5932081477
  0
ARC
  8
Layer0$C$L0
 62
     3
 10
-142.8528591063
 20
152.6475169207
 40
0.2141651781
 50
71.1910721256
 51
106.4034447437
  0
ARC
  8
Layer0$C$L0
 62
     3
 10
-142.8528591063
 20
127.6813107493
 40
0.2141651781
 50
253.5965552563
 51
288.8089278744
  0
POLYLINE
  8
Layer0$C$L0
 62
     3
 66
     1
  0
VERTEX
  8
Layer0$C$L0
 62
     3
 10
-142.7838094261
 20
127.4785821988
  0
VERTEX
  8
Layer0$C$L0
 62
     3
 10
-142.6933170025
 20
127.4957660317
  0
VERTEX
  8
Layer0$C$L0
 62
     3
 10
-142.5554044274
 20
127.5037875130
  0
SEQEND
  8
Layer0$C$L0
 62
     3
  0
LINE
  8
Layer0$C$L0
 62
     3
 10
-142.5554044274
 20
127.5037875130
 11
-139.8401534845
 21
127.5037875130
  0
POLYLINE
  8
Layer0$C$L0
 62
     3
 66
     1
  0
VERTEX
  8
Layer0$C$L0
 62
     3
 10
-142.5554044274
 20
152.8250401571
  0
VERTEX
  8
Layer0$C$L0
 62
     3
 10
-142.7061063898
 20
152.8347426756
  0
VERTEX
  8
Layer0$C$L0
 62
     3
 10
-142.7838094261
 20
152.8502454712
  0
SEQEND
  8
Layer0$C$L0
 62
     3
  0
LINE
  8
Layer0$C$L0
 62
     3
 10
-142.5554044274
 20
152.8250401571
 11
-139.8380803604
 21
152.8250401571
  0
ARC
  8
Layer0$C$L0
 62
     3
 10
-135.1247217245
 20
159.1483263437
 40
0.2213713880
 50
357.5514627448
 51
426.6369368457
  0
LINE
  8
Layer0$C$L0
 62
     3
 10
-134.8521872152
 20
159.3640831961
 11
-133.3987186392
 21
159.3640831961
  0
LINE
  8
Layer0$C$L0
 62
     3
 10
-133.3987186392
 20
120.9647444739
 11
-134.8521872152
 21
120.9647444739
  0
ARC
  8
Layer0$C$L0
 62
     3
 10
-135.1221867632
 20
121.1789115058
 40
0.2189132366
 50
292.9189928076
 51
362.8926076019
  0
LINE
  8
Layer0$C$L0
 62
     3
 10
-134.9035527174
 20
159.1388692002
 11
-134.9035527174
 21
158.4883547319
  0
LINE
  8
Layer0$C$L0
 62
     3
 10
-134.9035527174
 20
121.8404729381
 11
-134.9035527174
 21
121.1899584698
  0
ARC
  8
Layer0$C$L0
 62
     3
 10
-136.7309675447
 20
157.8037780408
 40
0.1568725577
 50
115.3201517228
 51
139.8277811229
  0
POLYLINE
  8
Layer0$C$L0
 62
     3
 66
     1
  0
VERTEX
  8
Layer0$C$L0
 62
     3
 10
-142.9133391668
 20
153.0604999243
  0
VERTEX
  8
Layer0$C$L0
 62
     3
 10
-142.9117931713
 20
153.0623746767
  0
VERTEX
  8
Layer0$C$L0
 62
     3
 10
-142.8702184659
 20
153.1011111765
  0
SEQEND
  8
Layer0$C$L0
 62
     3
  0
ARC
  8
Layer0$C$L0
 62
     3
 10
-136.4645988550
 20
158.5912745127
 40
0.5096191515
 50
130.8688946496
 51
182.9562560788
  0
POLYLINE
  8
Layer0$C$L0
 62
     3
 66
     1
  0
VERTEX
  8
Layer0$C$L0
 62
     3
 10
-142.9133391668
 20
127.2683277457
  0
VERTEX
  8
Layer0$C$L0
 62
     3
 10
-142.9117931713
 20
127.2664529934
  0
VERTEX
  8
Layer0$C$L0
 62
     3
 10
-142.8705053133
 20
127.2279837831
  0
SEQEND
  8
Layer0$C$L0
 62
     3
  0
ARC
  8
Layer0$C$L0
 62
     3
 10
-136.7312019588
 20
122.5246457294
 40
0.1564072113
 50
220.2699102018
 51
244.6941921668
  0
ARC
  8
Layer0$C$L0
 62
     3
 10
-136.4650379125
 20
121.7373659973
 40
0.5091903739
 50
177.0201641376
 51
229.1546851340
  0
LINE
  8
Layer0$C$L0
 62
     3
 10
-133.3987186392
 20
160.1219022377
 11
-134.8521872152
 21
160.1219022377
  0
LINE
  8
Layer0$C$L0
 62
     3
 10
-134.8521872152
 20
120.2069254323
 11
-133.3987186392
 21
120.2069254323
  0
ARC
  8
Layer0$C$L0
 62
     3
 10
-142.7894852806
 20
153.6263956244
 40
0.1955438271
 50
88.3366992837
 51
129.3000629953
  0
ARC
  8
Layer0$C$L0
 62
     3
 10
-142.7894852806
 20
126.7024320457
 40
0.1955438271
 50
230.6999370047
 51
271.6633007163
  0
POLYLINE
  8
Layer0$C$L0
 62
     3
 66
     1
  0
VERTEX
  8
Layer0$C$L0
 62
     3
 10
-142.7838094261
 20
126.5069706096
  0
VERTEX
  8
Layer0$C$L0
 62
     3
 10
-142.6933170025
 20
126.5085063606
  0
VERTEX
  8
Layer0$C$L0
 62
     3
 10
-142.5554044274
 20
126.5092709764
  0
SEQEND
  8
Layer0$C$L0
 62
     3
  0
LINE
  8
Layer0$C$L0
 62
     3
 10
-142.5554044274
 20
126.5092709764
 11
-141.9742949967
 21
126.5092709764
  0
POLYLINE
  8
Layer0$C$L0
 62
     3
 66
     1
  0
VERTEX
  8
Layer0$C$L0
 62
     3
 10
-142.5554044274
 20
153.8195566936
  0
VERTEX
  8
Layer0$C$L0
 62
     3
 10
-142.7061063898
 20
153.8204777717
  0
VERTEX
  8
Layer0$C$L0
 62
     3
 10
-142.7838094261
 20
153.8218570604
  0
SEQEND
  8
Layer0$C$L0
 62
     3
  0
LINE
  8
Layer0$C$L0
 62
     3
 10
-142.5554044274
 20
153.8195566936
 11
-141.9716193070
 21
153.8195566936
  0
LINE
  8
Layer0$C$L0
 62
     3
 10
-167.5006081079
 20
138.7644138849
 11
-167.5006081079
 21
135.9644139848
  0
ARC
  8
Layer0$C$L0
 62
     3
 10
-165.8035527174
 20
137.3644138350
 40
2.2000000000
 50
140.4788036414
 51
219.5211963586
  0
LINE
  8
Layer0$C$L0
 62
     3
 10
-163.4035524641
 20
135.9644139848
 11
-167.5006081079
 21
135.9644139848
  0
ARC
  8
Layer0$C$L0
 62
     3
 10
-166.6035527174
 20
137.3644138350
 40
0.6000000000
 50
90.0000000000
 51
270.0000000000
  0
LINE
  8
Layer0$C$L0
 62
     3
 10
-166.6035527174
 20
136.7644138350
 11
-165.2035527174
 21
136.7644138350
  0
ARC
  8
Layer0$C$L0
 62
     3
 10
-165.2035527174
 20
137.3644138350
 40
0.6000000000
 50
270.0000000000
 51
450.0000000000
  0
LINE
  8
Layer0$C$L0
 62
     3
 10
-165.2035527174
 20
137.9644138350
 11
-166.6035527174
 21
137.9644138350
  0
LINE
  8
Layer0$C$L0
 62
     3
 10
-163.4035524641
 20
138.7644138849
 11
-167.5006081079
 21
138.7644138849
  0
LINE
  8
Layer0$C$L0
 62
     3
 10
-163.4035524641
 20
141.5644137851
 11
-167.5006081079
 21
141.5644137851
  0
LINE
  8
Layer0$C$L0
 62
     3
 10
-167.5006081079
 20
144.3644136853
 11
-167.5006081079
 21
141.5644137851
  0
LINE
  8
Layer0$C$L0
 62
     3
 10
-163.4035524641
 20
144.3644136853
 11
-167.5006081079
 21
144.3644136853
  0
ARC
  8
Layer0$C$L0
 62
     3
 10
-166.6035527174
 20
142.9644138350
 40
0.6000000000
 50
90.0000000000
 51
270.0000000000
  0
LINE
  8
Layer0$C$L0
 62
     3
 10
-166.6035527174
 20
142.3644138350
 11
-165.2035527174
 21
142.3644138350
  0
ARC
  8
Layer0$C$L0
 62
     3
 10
-165.2035527174
 20
142.9644138350
 40
0.6000000000
 50
270.0000000000
 51
450.0000000000
  0
LINE
  8
Layer0$C$L0
 62
     3
 10
-165.2035527174
 20
143.5644138350
 11
-166.6035527174
 21
143.5644138350
  0
ARC
  8
Layer0$C$L0
 62
     3
 10
-165.8035527174
 20
142.9644138350
 40
2.2000000000
 50
140.4788036414
 51
219.5211963586
  0
LINE
  8
Layer0$C$L0
 62
     3
 10
-149.3035527174
 20
139.5644138065
 11
-151.8553914231
 21
139.5644138065
  0
LINE
  8
Layer0$C$L0
 62
     3
 10
-151.8553914231
 20
139.5644138065
 11
-151.9072889079
 21
139.5667960133
  0
LINE
  8
Layer0$C$L0
 62
     3
 10
-151.9860876453
 20
139.5863638572
 11
-151.9072889079
 21
139.5667960133
  0
LINE
  8
Layer0$C$L0
 62
     3
 10
-151.9072889079
 20
140.7620316568
 11
-151.9860876453
 21
140.7424638128
  0
LINE
  8
Layer0$C$L0
 62
     3
 10
-151.9072889079
 20
140.7620316568
 11
-151.8553914231
 21
140.7644138635
  0
LINE
  8
Layer0$C$L0
 62
     3
 10
-151.8553914231
 20
140.7644138635
 11
-149.3035527174
 21
140.7644138635
  0
LINE
  8
Layer0$C$L0
 62
     3
 10
-149.3035527174
 20
144.9910589680
 11
-149.3035527174
 21
132.7504668931
  0
LINE
  8
Layer0$C$L0
 62
     3
 10
-152.8035527174
 20
130.9644138350
 11
-152.8035527174
 21
149.3644138350
  0
ARC
  8
Layer0$C$L0
 62
     3
 10
-151.8398729115
 20
139.9410772588
 40
0.3836669723
 50
207.9669723514
 51
247.5982851907
  0
ARC
  8
Layer0$C$L0
 62
     3
 10
-151.8398729115
 20
140.3877504113
 40
0.3836669723
 50
112.4017148093
 51
152.0330276486
  0
LINE
  8
Layer0$C$L0
 62
     3
 10
-151.9860876453
 20
142.3686497110
 11
-151.9072889079
 21
142.3522002260
  0
ARC
  8
Layer0$C$L0
 62
     3
 10
-151.8776754938
 20
142.7388567643
 40
0.3857543997
 50
218.6989175256
 51
253.6777560600
  0
LINE
  8
Layer0$C$L0
 62
     3
 10
-151.9072889079
 20
137.9766274440
 11
-151.9860876453
 21
137.9601779590
  0
ARC
  8
Layer0$C$L0
 62
     3
 10
-151.8776754938
 20
137.5899709057
 40
0.3857543997
 50
106.3222439400
 51
141.3010824744
  0
LINE
  8
Layer0$C$L0
 62
     3
 10
-151.8553914231
 20
137.9789629682
 11
-149.3035527174
 21
137.9789629415
  0
LINE
  8
Layer0$C$L0
 62
     3
 10
-151.9072889079
 20
137.9766274440
 11
-151.8553914231
 21
137.9789629682
  0
LINE
  8
Layer0$C$L0
 62
     3
 10
-151.8553914231
 20
142.3498647018
 11
-149.3035527174
 21
142.3498647286
  0
LINE
  8
Layer0$C$L0
 62
     3
 10
-151.8553914231
 20
142.3498647018
 11
-151.9072889079
 21
142.3522002260
  0
LINE
  8
Layer0$C$L0
 62
     3
 10
-151.8553914231
 20
136.8198519304
 11
-151.9072889079
 21
136.8221183038
  0
LINE
  8
Layer0$C$L0
 62
     3
 10
-151.9860876453
 20
136.8434712022
 11
-151.9072889079
 21
136.8221183038
  0
ARC
  8
Layer0$C$L0
 62
     3
 10
-151.8016643772
 20
137.2070161048
 40
0.4076479339
 50
202.3331994018
 51
243.1017031351
  0
ARC
  8
Layer0$C$L0
 62
     3
 10
-151.8016643772
 20
143.1218115653
 40
0.4076479339
 50
116.8982968649
 51
157.6668005982
  0
LINE
  8
Layer0$C$L0
 62
     3
 10
-151.9072889079
 20
135.3403170324
 11
-151.9860876453
 21
135.3281069278
  0
ARC
  8
Layer0$C$L0
 62
     3
 10
-151.8691755453
 20
134.7392127602
 40
0.6003871915
 50
101.2288251095
 51
121.0374939188
  0
LINE
  8
Layer0$C$L0
 62
     3
 10
-151.9860876453
 20
145.0007207423
 11
-151.9072889079
 21
144.9885106376
  0
ARC
  8
Layer0$C$L0
 62
     3
 10
-151.8691755453
 20
145.5896149099
 40
0.6003871915
 50
238.9625060812
 51
258.7711748905
  0
LINE
  8
Layer0$C$L0
 62
     3
 10
-151.8553914231
 20
135.3424469671
 11
-149.3035527174
 21
135.3424469147
  0
LINE
  8
Layer0$C$L0
 62
     3
 10
-151.9072889079
 20
135.3403170324
 11
-151.8553914231
 21
135.3424469671
  0
LINE
  8
Layer0$C$L0
 62
     3
 10
-151.8553914231
 20
144.9863807029
 11
-149.3035527174
 21
144.9863807554
  0
LINE
  8
Layer0$C$L0
 62
     3
 10
-151.8553914231
 20
144.9863807029
 11
-151.9072889079
 21
144.9885106376
  0
LINE
  8
Layer0$C$L0
 62
     3
 10
-149.3035527174
 20
151.0644138350
 11
-149.3035527174
 21
144.9910589680
  0
LINE
  8
Layer0$C$L0
 62
     3
 10
-154.4035527174
 20
131.4672878730
 11
-154.4035527174
 21
137.1644138350
  0
LINE
  8
Layer0$C$L0
 62
     3
 10
-153.5035527174
 20
137.1644138350
 11
-154.4035527174
 21
137.1644138350
  0
LINE
  8
Layer0$C$L0
 62
     3
 10
-153.5035527174
 20
137.1644138350
 11
-153.5035527174
 21
143.1644138350
  0
LINE
  8
Layer0$C$L0
 62
     3
 10
-153.5035527174
 20
143.1644138350
 11
-154.4035527174
 21
143.1644138350
  0
LINE
  8
Layer0$C$L0
 62
     3
 10
-154.4035527174
 20
143.1644138350
 11
-154.4035527174
 21
148.8615397971
  0
LINE
  8
Layer0$C$L0
 62
     3
 10
-153.5035527174
 20
148.8615397971
 11
-154.4035527174
 21
148.8615397971
  0
LINE
  8
Layer0$C$L0
 62
     3
 10
-153.5035527174
 20
148.8615397971
 11
-153.5035527174
 21
149.3644138350
  0
LINE
  8
Layer0$C$L0
 62
     3
 10
-153.5035527174
 20
130.9644138350
 11
-153.5035527174
 21
131.4672878730
  0
LINE
  8
Layer0$C$L0
 62
     3
 10
-153.5035527174
 20
131.4672878730
 11
-154.4035527174
 21
131.4672878730
  0
ARC
  8
Layer0$C$L0
 62
     3
 10
-151.7809563609
 20
134.7000978349
 40
0.4233567533
 50
200.0186149028
 51
224.6510125124
  0
ARC
  8
Layer0$C$L0
 62
     3
 10
-151.7784092994
 20
145.6276533710
 40
0.4261184489
 50
135.2907220545
 51
159.9626277132
  0
LINE
  8
Layer0$C$L0
 62
     3
 10
-151.9072889079
 20
133.0327609285
 11
-151.9860876453
 21
133.0256228066
  0
ARC
  8
Layer0$C$L0
 62
     3
 10
-152.1588465602
 20
134.0109800413
 40
1.0003871863
 50
268.8608701758
 51
279.9443776213
  0
LINE
  8
Layer0$C$L0
 62
     3
 10
-151.9860876453
 20
147.3032048634
 11
-151.9072889079
 21
147.2960667416
  0
ARC
  8
Layer0$C$L0
 62
     3
 10
-152.1588465602
 20
146.3178476288
 40
1.0003871863
 50
80.0556223787
 51
91.1391298242
  0
LINE
  8
Layer0$C$L0
 62
     3
 10
-151.8553914231
 20
133.0345397546
 11
-149.3035527174
 21
133.0345399648
  0
LINE
  8
Layer0$C$L0
 62
     3
 10
-151.9072889079
 20
133.0327609285
 11
-151.8553914231
 21
133.0345397546
  0
LINE
  8
Layer0$C$L0
 62
     3
 10
-151.8553914231
 20
147.2942879154
 11
-149.3035527174
 21
147.2942877052
  0
LINE
  8
Layer0$C$L0
 62
     3
 10
-151.8553914231
 20
147.2942879154
 11
-151.9072889079
 21
147.2960667416
  0
LINE
  8
Layer0$C$L0
 62
     3
 10
-149.3035527174
 20
132.7504668931
 11
-149.3035527174
 21
129.2644138350
  0
ARC
  8
Layer0$C$L0
 62
     3
 10
-151.8838303415
 20
132.5360548339
 40
0.3100011942
 50
197.9547783035
 51
219.4944460580
  0
ARC
  8
Layer0$C$L0
 62
     3
 10
-151.8831711022
 20
147.7924940338
 40
0.3107142801
 50
140.4478029634
 51
162.0337882418
  0
LINE
  8
Layer0$C$L0
 62
     3
 10
-151.9072889079
 20
131.2112150445
 11
-151.9860876453
 21
131.2096345901
  0
ARC
  8
Layer0$C$L0
 62
     3
 10
-152.0202972896
 20
131.4937403833
 40
0.2861580010
 50
236.3808137645
 51
276.8660226659
  0
LINE
  8
Layer0$C$L0
 62
     3
 10
-151.9860876453
 20
149.1191930800
 11
-151.9072889079
 21
149.1176126256
  0
ARC
  8
Layer0$C$L0
 62
     3
 10
-152.0202972896
 20
148.8350872867
 40
0.2861580010
 50
83.1339773341
 51
123.6191862355
  0
LINE
  8
Layer0$C$L0
 62
     3
 10
-151.8553914231
 20
131.2125216900
 11
-149.3035527174
 21
131.2125221366
  0
LINE
  8
Layer0$C$L0
 62
     3
 10
-151.9072889079
 20
131.2112150445
 11
-151.8553914231
 21
131.2125216900
  0
LINE
  8
Layer0$C$L0
 62
     3
 10
-151.8553914231
 20
149.1163059800
 11
-149.3035527174
 21
149.1163055335
  0
LINE
  8
Layer0$C$L0
 62
     3
 10
-151.8553914231
 20
149.1163059800
 11
-151.9072889079
 21
149.1176126256
  0
POLYLINE
  8
Layer0$C$L0
 62
     3
 66
     1
  0
VERTEX
  8
Layer0$C$L0
 62
     3
 10
-152.0846164514
 20
149.6499445020
  0
VERTEX
  8
Layer0$C$L0
 62
     3
 10
-152.0825740610
 20
149.6625788241
  0
VERTEX
  8
Layer0$C$L0
 62
     3
 10
-152.0793735710
 20
149.6701560645
  0
SEQEND
  8
Layer0$C$L0
 62
     3
  0
POLYLINE
  8
Layer0$C$L0
 62
     3
 66
     1
  0
VERTEX
  8
Layer0$C$L0
 62
     3
 10
-152.1787345138
 20
130.8521846040
  0
VERTEX
  8
Layer0$C$L0
 62
     3
 10
-152.1775624444
 20
130.8490097254
  0
VERTEX
  8
Layer0$C$L0
 62
     3
 10
-152.1509433825
 20
130.7906651600
  0
SEQEND
  8
Layer0$C$L0
 62
     3
  0
POLYLINE
  8
Layer0$C$L0
 62
     3
 66
     1
  0
VERTEX
  8
Layer0$C$L0
 62
     3
 10
-152.1509024043
 20
149.5382528483
  0
VERTEX
  8
Layer0$C$L0
 62
     3
 10
-152.1775624444
 20
149.4798179447
  0
VERTEX
  8
Layer0$C$L0
 62
     3
 10
-152.1787345138
 20
149.4766430660
  0
SEQEND
  8
Layer0$C$L0
 62
     3
  0
LINE
  8
Layer0$C$L0
 62
     3
 10
-151.9072889079
 20
129.9998158320
 11
-151.9860876453
 21
130.0039006128
  0
ARC
  8
Layer0$C$L0
 62
     3
 10
-151.9734935518
 20
130.2586253379
 40
0.2550358734
 50
216.4135626340
 51
267.1694883915
  0
LINE
  8
Layer0$C$L0
 62
     3
 10
-151.9860876453
 20
150.3249270572
 11
-151.9072889079
 21
150.3290118381
  0
ARC
  8
Layer0$C$L0
 62
     3
 10
-151.9734935518
 20
150.0702023322
 40
0.2550358734
 50
92.8305116085
 51
143.5864373660
  0
LINE
  8
Layer0$C$L0
 62
     3
 10
-151.8553914231
 20
130.0005608901
 11
-149.3035527174
 21
130.0005609339
  0
LINE
  8
Layer0$C$L0
 62
     3
 10
-151.9072889079
 20
129.9998158320
 11
-151.8553914231
 21
130.0005608901
  0
LINE
  8
Layer0$C$L0
 62
     3
 10
-151.8553914231
 20
150.3282667800
 11
-149.3035527174
 21
150.3282667362
  0
LINE
  8
Layer0$C$L0
 62
     3
 10
-151.8553914231
 20
150.3282667800
 11
-151.9072889079
 21
150.3290118381
  0
ARC
  8
Layer0$C$L0
 62
     3
 10
-151.8155214609
 20
150.4911883990
 40
0.2999297661
 50
89.5509558083
 51
153.7915629453
  0
ARC
  8
Layer0$C$L0
 62
     3
 10
-151.8146823490
 20
129.8389994346
 40
0.3012845100
 50
206.3700348960
 51
270.2874463503
  0
LINE
  8
Layer0$C$L0
 62
     3
 10
-152.0834761911
 20
129.7006650806
 11
-152.0846166652
 21
129.7051790744
  0
LINE
  8
Layer0$C$L0
 62
     3
 10
-151.8131710546
 20
129.5327042759
 11
-151.8131710546
 21
129.5377190505
  0
LINE
  8
Layer0$C$L0
 62
     3
 10
-151.8131710546
 20
150.7911086195
 11
-151.8131710546
 21
150.7961233941
  0
LINE
  8
Layer0$C$L0
 62
     3
 10
-152.0846166652
 20
150.6236485956
 11
-152.0834682576
 21
150.6281788646
  0
POLYLINE
  8
Layer0$C$L0
 62
     3
 66
     1
  0
VERTEX
  8
Layer0$C$L0
 62
     3
 10
-152.1787345138
 20
129.8984897985
  0
VERTEX
  8
Layer0$C$L0
 62
     3
 10
-152.1775624444
 20
129.8956157371
  0
VERTEX
  8
Layer0$C$L0
 62
     3
 10
-152.1668340740
 20
129.8744737833
  0
SEQEND
  8
Layer0$C$L0
 62
     3
  0
LINE
  8
Layer0$C$L0
 62
     3
 10
-151.9072889079
 20
129.4811157241
 11
-151.9860876453
 21
129.4905882060
  0
ARC
  8
Layer0$C$L0
 62
     3
 10
-151.9190118102
 20
129.7721484819
 40
0.2894397289
 50
206.1908141031
 51
256.6002472953
  0
LINE
  8
Layer0$C$L0
 62
     3
 10
-151.9860876453
 20
150.8382394641
 11
-151.9072889079
 21
150.8477119460
  0
ARC
  8
Layer0$C$L0
 62
     3
 10
-151.9190118102
 20
150.5566791881
 40
0.2894397289
 50
103.3997527047
 51
153.8091858969
  0
LINE
  8
Layer0$C$L0
 62
     3
 10
-151.8553914231
 20
129.4812498345
 11
-149.3035527174
 21
129.4812495098
  0
LINE
  8
Layer0$C$L0
 62
     3
 10
-151.9072889079
 20
129.4811157241
 11
-151.8553914231
 21
129.4812498345
  0
LINE
  8
Layer0$C$L0
 62
     3
 10
-151.8553914231
 20
150.8475778355
 11
-149.3035527174
 21
150.8475781603
  0
LINE
  8
Layer0$C$L0
 62
     3
 10
-151.8553914231
 20
150.8475778355
 11
-151.9072889079
 21
150.8477119460
  0
LINE
  8
Layer0$C$L0
 62
     3
 10
-163.4035527174
 20
132.7644138350
 11
-163.4035527174
 21
147.5644138350
  0
LINE
  8
Layer0$C$L0
 62
     3
 10
-163.4035527174
 20
144.7600639523
 11
-164.2035527174
 21
144.7600639523
  0
LINE
  8
Layer0$C$L0
 62
     3
 10
-164.2035527174
 20
147.5644138350
 11
-164.2035527174
 21
144.7600639523
  0
LINE
  8
Layer0$C$L0
 62
     3
 10
-164.2035527174
 20
144.7600639523
 11
-164.4035527174
 21
144.4305596366
  0
LINE
  8
Layer0$C$L0
 62
     3
 10
-164.4035527174
 20
144.3644136853
 11
-164.4035527174
 21
147.3644138350
  0
LINE
  8
Layer0$C$L0
 62
     3
 10
-163.4035524641
 20
144.4144140660
 11
-164.4035526280
 21
144.4144140660
  0
LINE
  8
Layer0$C$L0
 62
     3
 10
-164.4035527174
 20
135.8982680335
 11
-164.2035527174
 21
135.5687637178
  0
LINE
  8
Layer0$C$L0
 62
     3
 10
-164.2035527174
 20
135.5687637178
 11
-164.2035527174
 21
132.7644138350
  0
LINE
  8
Layer0$C$L0
 62
     3
 10
-164.4035527174
 20
132.9644138350
 11
-164.4035527174
 21
135.9644139848
  0
LINE
  8
Layer0$C$L0
 62
     3
 10
-163.4035527174
 20
135.5687637178
 11
-164.2035527174
 21
135.5687637178
  0
LINE
  8
Layer0$C$L0
 62
     3
 10
-163.4035524641
 20
135.9144136041
 11
-164.4035526280
 21
135.9144136041
  0
LINE
  8
Layer0$C$L0
 62
     3
 10
-164.4035527174
 20
138.7644138849
 11
-164.4035527174
 21
141.5644137851
  0
POLYLINE
  8
Layer0$C$L0
 62
     3
 66
     1
  0
VERTEX
  8
Layer0$C$L0
 62
     3
 10
-163.6035521244
 20
140.7144138320
  0
VERTEX
  8
Layer0$C$L0
 62
     3
 10
-163.5036053796
 20
140.6144665343
  0
VERTEX
  8
Layer0$C$L0
 62
     3
 10
-163.4035524641
 20
140.5144138225
  0
SEQEND
  8
Layer0$C$L0
 62
     3
  0
LINE
  8
Layer0$C$L0
 62
     3
 10
-164.4035527174
 20
140.7144138350
 11
-163.6035521244
 21
140.7144138320
  0
LINE
  8
Layer0$C$L0
 62
     3
 10
-164.4035527174
 20
141.5144138350
 11
-163.4035524641
 21
141.5144138700
  0
LINE
  8
Layer0$C$L0
 62
     3
 10
-163.4035524641
 20
138.8144138000
 11
-164.4035527174
 21
138.8144138350
  0
LINE
  8
Layer0$C$L0
 62
     3
 10
-164.4035527174
 20
139.6144138350
 11
-163.6035521244
 21
139.6144138380
  0
POLYLINE
  8
Layer0$C$L0
 62
     3
 66
     1
  0
VERTEX
  8
Layer0$C$L0
 62
     3
 10
-163.4035524641
 20
139.8144138475
  0
VERTEX
  8
Layer0$C$L0
 62
     3
 10
-163.5036053796
 20
139.7143611357
  0
VERTEX
  8
Layer0$C$L0
 62
     3
 10
-163.6035521244
 20
139.6144138380
  0
SEQEND
  8
Layer0$C$L0
 62
     3
  0
LINE
  8
Layer0$C$L0
 62
     3
 10
-157.2455535372
 20
146.4144139282
 11
-157.8035526638
 21
146.4144139282
  0
LINE
  8
Layer0$C$L0
 62
     3
 10
-157.2455535372
 20
133.9144137419
 11
-157.8035526638
 21
133.9144137419
  0
LINE
  8
Layer0$C$L0
 62
     3
 10
-148.5035527174
 20
151.6144138350
 11
-148.5035527174
 21
128.7144138350
  0
LINE
  8
Layer0$C$L0
 62
     3
 10
-147.9035527174
 20
152.7144138350
 11
-147.9035527174
 21
127.6144138350
  0
LINE
  8
Layer0$C$L0
 62
     3
 10
-146.3035527174
 20
152.6698601331
 11
-146.3035527174
 21
152.7144138350
  0
LINE
  8
Layer0$C$L0
 62
     3
 10
-143.4035529111
 20
152.6698603957
 11
-146.3035527174
 21
152.6698601331
  0
LINE
  8
Layer0$C$L0
 62
     3
 10
-143.4035529111
 20
152.2770536794
 11
-146.3035527174
 21
152.2770532487
  0
LINE
  8
Layer0$C$L0
 62
     3
 10
-146.3035527174
 20
151.5543256332
 11
-146.3035527174
 21
152.2770532487
  0
LINE
  8
Layer0$C$L0
 62
     3
 10
-143.4035529111
 20
151.5543259411
 11
-146.3035527174
 21
151.5543256332
  0
LINE
  8
Layer0$C$L0
 62
     3
 10
-143.4035529111
 20
150.4232831030
 11
-146.3035527174
 21
150.4232832874
  0
LINE
  8
Layer0$C$L0
 62
     3
 10
-146.3035527174
 20
149.0649996733
 11
-146.3035527174
 21
150.4232832874
  0
LINE
  8
Layer0$C$L0
 62
     3
 10
-143.4035529111
 20
149.0649994194
 11
-146.3035527174
 21
149.0649996733
  0
LINE
  8
Layer0$C$L0
 62
     3
 10
-143.4035529111
 20
147.3321424528
 11
-146.3035527174
 21
147.3321422655
  0
LINE
  8
Layer0$C$L0
 62
     3
 10
-146.3035527174
 20
145.5021317026
 11
-146.3035527174
 21
147.3321422655
  0
LINE
  8
Layer0$C$L0
 62
     3
 10
-143.4035529111
 20
145.5021317779
 11
-146.3035527174
 21
145.5021317026
  0
LINE
  8
Layer0$C$L0
 62
     3
 10
-143.4035529111
 20
143.3764673966
 11
-146.3035527174
 21
143.3764674104
  0
LINE
  8
Layer0$C$L0
 62
     3
 10
-146.3035527174
 20
141.2954561808
 11
-146.3035527174
 21
143.3764674104
  0
LINE
  8
Layer0$C$L0
 62
     3
 10
-143.4035529111
 20
141.2954562075
 11
-146.3035527174
 21
141.2954561808
  0
LINE
  8
Layer0$C$L0
 62
     3
 10
-143.4035529111
 20
139.0333714626
 11
-146.3035527174
 21
139.0333714893
  0
LINE
  8
Layer0$C$L0
 62
     3
 10
-146.3035527174
 20
136.9523602597
 11
-146.3035527174
 21
139.0333714893
  0
LINE
  8
Layer0$C$L0
 62
     3
 10
-143.4035529111
 20
136.9523602734
 11
-146.3035527174
 21
136.9523602597
  0
LINE
  8
Layer0$C$L0
 62
     3
 10
-143.4035529111
 20
134.8266958921
 11
-146.3035527174
 21
134.8266959674
  0
LINE
  8
Layer0$C$L0
 62
     3
 10
-146.3035527174
 20
132.9966854046
 11
-146.3035527174
 21
134.8266959674
  0
LINE
  8
Layer0$C$L0
 62
     3
 10
-143.4035529111
 20
132.9966852172
 11
-146.3035527174
 21
132.9966854046
  0
LINE
  8
Layer0$C$L0
 62
     3
 10
-143.4035529111
 20
131.2638282507
 11
-146.3035527174
 21
131.2638279968
  0
LINE
  8
Layer0$C$L0
 62
     3
 10
-146.3035527174
 20
129.9055443826
 11
-146.3035527174
 21
131.2638279968
  0
LINE
  8
Layer0$C$L0
 62
     3
 10
-143.4035529111
 20
129.9055445670
 11
-146.3035527174
 21
129.9055443826
  0
LINE
  8
Layer0$C$L0
 62
     3
 10
-143.4035529111
 20
128.7745017289
 11
-146.3035527174
 21
128.7745020368
  0
LINE
  8
Layer0$C$L0
 62
     3
 10
-146.3035527174
 20
128.0517744214
 11
-146.3035527174
 21
128.7745020368
  0
LINE
  8
Layer0$C$L0
 62
     3
 10
-143.4035529111
 20
128.0517739906
 11
-146.3035527174
 21
128.0517744214
  0
LINE
  8
Layer0$C$L0
 62
     3
 10
-143.4035529111
 20
127.6589672743
 11
-146.3035527174
 21
127.6589675370
  0
LINE
  8
Layer0$C$L0
 62
     3
 10
-146.3035527174
 20
127.6144138350
 11
-146.3035527174
 21
127.6589675370
  0
LINE
  8
Layer0$C$L0
 62
     3
 10
-146.1388074987
 20
141.9722249230
 11
-146.3035527174
 21
141.2954561808
  0
LINE
  8
Layer0$C$L0
 62
     3
 10
-146.3035527174
 20
143.3764674104
 11
-146.1388074987
 21
142.6562651723
  0
LINE
  8
Layer0$C$L0
 62
     3
 10
-146.1388074987
 20
142.6562651723
 11
-146.1035527483
 21
142.3089689306
  0
LINE
  8
Layer0$C$L0
 62
     3
 10
-146.1035527483
 20
142.3089689306
 11
-146.1388074987
 21
141.9722249230
  0
LINE
  8
Layer0$C$L0
 62
     3
 10
-146.3035527174
 20
139.0333714893
 11
-146.1388074987
 21
138.3566027471
  0
LINE
  8
Layer0$C$L0
 62
     3
 10
-146.1388074987
 20
138.3566027471
 11
-146.1035527483
 21
138.0198587394
  0
LINE
  8
Layer0$C$L0
 62
     3
 10
-146.1035527483
 20
138.0198587394
 11
-146.1388074987
 21
137.6725624978
  0
LINE
  8
Layer0$C$L0
 62
     3
 10
-146.1388074987
 20
137.6725624978
 11
-146.3035527174
 21
136.9523602597
  0
LINE
  8
Layer0$C$L0
 62
     3
 10
-146.3035527174
 20
147.3321422655
 11
-146.1388074987
 21
146.6553736209
  0
LINE
  8
Layer0$C$L0
 62
     3
 10
-146.1388074987
 20
146.6553736209
 11
-146.1035527483
 21
146.3394140556
  0
LINE
  8
Layer0$C$L0
 62
     3
 10
-146.1035527483
 20
146.3394140556
 11
-146.1388074987
 21
146.0538384236
  0
LINE
  8
Layer0$C$L0
 62
     3
 10
-146.1388074987
 20
146.0538384236
 11
-146.3035527174
 21
145.5021317026
  0
LINE
  8
Layer0$C$L0
 62
     3
 10
-146.3035527174
 20
134.8266959674
 11
-146.1388074987
 21
134.2749892465
  0
LINE
  8
Layer0$C$L0
 62
     3
 10
-146.1388074987
 20
134.2749892465
 11
-146.1035527483
 21
133.9894136145
  0
LINE
  8
Layer0$C$L0
 62
     3
 10
-146.1035527483
 20
133.9894136145
 11
-146.1388074987
 21
133.6734540491
  0
LINE
  8
Layer0$C$L0
 62
     3
 10
-146.1388074987
 20
133.6734540491
 11
-146.3035527174
 21
132.9966854046
  0
LINE
  8
Layer0$C$L0
 62
     3
 10
-146.3035527174
 20
150.4232832874
 11
-146.1388074987
 21
149.8715759917
  0
LINE
  8
Layer0$C$L0
 62
     3
 10
-146.1388074987
 20
149.8715759917
 11
-146.1035527483
 21
149.6250623568
  0
LINE
  8
Layer0$C$L0
 62
     3
 10
-146.1035527483
 20
149.6250623568
 11
-146.1388074987
 21
149.4251008808
  0
LINE
  8
Layer0$C$L0
 62
     3
 10
-146.1388074987
 20
149.4251008808
 11
-146.3035527174
 21
149.0649996733
  0
LINE
  8
Layer0$C$L0
 62
     3
 10
-146.3035527174
 20
131.2638279968
 11
-146.1388074987
 21
130.9037267893
  0
LINE
  8
Layer0$C$L0
 62
     3
 10
-146.1388074987
 20
130.9037267893
 11
-146.1035527483
 21
130.7037653132
  0
LINE
  8
Layer0$C$L0
 62
     3
 10
-146.1035527483
 20
130.7037653132
 11
-146.1388074987
 21
130.4572516783
  0
LINE
  8
Layer0$C$L0
 62
     3
 10
-146.1388074987
 20
130.4572516783
 11
-146.3035527174
 21
129.9055443826
  0
LINE
  8
Layer0$C$L0
 62
     3
 10
-157.1432691921
 20
148.0008671144
 11
-157.1432691921
 21
147.5886983123
  0
LINE
  8
Layer0$C$L0
 62
     3
 10
-154.4035528515
 20
148.0008674516
 11
-157.1432691921
 21
148.0008671144
  0
LINE
  8
Layer0$C$L0
 62
     3
 10
-149.3035526675
 20
148.0185532673
 11
-148.5035527459
 21
148.0185532673
  0
LINE
  8
Layer0$C$L0
 62
     3
 10
-148.6035527174
 20
132.3279605556
 11
-148.6035527174
 21
132.2644138350
  0
LINE
  8
Layer0$C$L0
 62
     3
 10
-148.6035527174
 20
132.3279605556
 11
-149.3035526675
 21
132.3279602184
  0
LINE
  8
Layer0$C$L0
 62
     3
 10
-154.4035528515
 20
132.3279602184
 11
-157.1432691921
 21
132.3279605556
  0
LINE
  8
Layer0$C$L0
 62
     3
 10
-157.1432691921
 20
132.7401293577
 11
-157.1432691921
 21
132.3279605556
  0
LINE
  8
Layer0$C$L0
 62
     3
 10
-155.9035530974
 20
132.7401291310
 11
-157.1432691921
 21
132.7401293577
  0
POLYLINE
  8
Layer0$C$L0
 62
     3
 66
     1
  0
VERTEX
  8
Layer0$C$L0
 62
     3
 10
-155.7035525058
 20
132.8159443765
  0
VERTEX
  8
Layer0$C$L0
 62
     3
 10
-155.7161197727
 20
132.7887893385
  0
VERTEX
  8
Layer0$C$L0
 62
     3
 10
-155.7531743039
 20
132.7652659929
  0
VERTEX
  8
Layer0$C$L0
 62
     3
 10
-155.8086783354
 20
132.7488775096
  0
VERTEX
  8
Layer0$C$L0
 62
     3
 10
-155.8727160756
 20
132.7409994519
  0
VERTEX
  8
Layer0$C$L0
 62
     3
 10
-155.9035530974
 20
132.7401291310
  0
SEQEND
  8
Layer0$C$L0
 62
     3
  0
LINE
  8
Layer0$C$L0
 62
     3
 10
-155.7035527174
 20
133.5371972247
 11
-155.7035527174
 21
132.8159446067
  0
ARC
  8
Layer0$C$L0
 62
     3
 10
-155.8773972052
 20
133.4941705669
 40
0.1790901586
 50
13.9014239202
 51
98.3980141605
  0
LINE
  8
Layer0$C$L0
 62
     3
 10
-157.1432691921
 20
133.6713406027
 11
-155.9035530974
 21
133.6713404126
  0
LINE
  8
Layer0$C$L0
 62
     3
 10
-157.1432691921
 20
137.3985504978
 11
-157.1432691921
 21
133.6713406027
  0
LINE
  8
Layer0$C$L0
 62
     3
 10
-157.1432691921
 20
137.3985504978
 11
-153.5035525177
 21
137.3985503997
  0
LINE
  8
Layer0$C$L0
 62
     3
 10
-149.3035526675
 20
137.3985503997
 11
-148.6035527174
 21
137.3985504978
  0
LINE
  8
Layer0$C$L0
 62
     3
 10
-148.6035527174
 20
137.3985504978
 11
-148.6035527174
 21
142.9302771722
  0
LINE
  8
Layer0$C$L0
 62
     3
 10
-157.1432691921
 20
142.9302771722
 11
-153.5035525177
 21
142.9302772704
  0
LINE
  8
Layer0$C$L0
 62
     3
 10
-149.3035526675
 20
142.9302772704
 11
-148.6035527174
 21
142.9302771722
  0
LINE
  8
Layer0$C$L0
 62
     3
 10
-157.1432691921
 20
146.6574870673
 11
-157.1432691921
 21
142.9302771722
  0
LINE
  8
Layer0$C$L0
 62
     3
 10
-155.9035530974
 20
146.6574872575
 11
-157.1432691921
 21
146.6574870673
  0
POLYLINE
  8
Layer0$C$L0
 62
     3
 66
     1
  0
VERTEX
  8
Layer0$C$L0
 62
     3
 10
-155.7035525058
 20
146.7916303045
  0
VERTEX
  8
Layer0$C$L0
 62
     3
 10
-155.7218380933
 20
146.7366692341
  0
VERTEX
  8
Layer0$C$L0
 62
     3
 10
-155.7713267122
 20
146.6918190672
  0
VERTEX
  8
Layer0$C$L0
 62
     3
 10
-155.8235021968
 20
146.6690421767
  0
VERTEX
  8
Layer0$C$L0
 62
     3
 10
-155.8868358572
 20
146.6579720109
  0
VERTEX
  8
Layer0$C$L0
 62
     3
 10
-155.9035530974
 20
146.6574872575
  0
SEQEND
  8
Layer0$C$L0
 62
     3
  0
LINE
  8
Layer0$C$L0
 62
     3
 10
-155.7035527174
 20
147.5128830634
 11
-155.7035527174
 21
146.7916304453
  0
POLYLINE
  8
Layer0$C$L0
 62
     3
 66
     1
  0
VERTEX
  8
Layer0$C$L0
 62
     3
 10
-155.9035530974
 20
147.5886985391
  0
VERTEX
  8
Layer0$C$L0
 62
     3
 10
-155.8403786932
 20
147.5849662638
  0
VERTEX
  8
Layer0$C$L0
 62
     3
 10
-155.7843633656
 20
147.5742527946
  0
VERTEX
  8
Layer0$C$L0
 62
     3
 10
-155.7400892218
 20
147.5573222815
  0
VERTEX
  8
Layer0$C$L0
 62
     3
 10
-155.7115879570
 20
147.5347833439
  0
VERTEX
  8
Layer0$C$L0
 62
     3
 10
-155.7035525058
 20
147.5128832935
  0
SEQEND
  8
Layer0$C$L0
 62
     3
  0
LINE
  8
Layer0$C$L0
 62
     3
 10
-157.1432691921
 20
147.5886983123
 11
-155.9035530974
 21
147.5886985391
  0
LINE
  8
Layer0$C$L0
 62
     3
 10
-159.3035527174
 20
132.8322927231
 11
-159.3035527174
 21
132.7644138350
  0
ARC
  8
Layer0$C$L0
 62
     3
 10
-159.4493817206
 20
132.5424742236
 40
0.3244392961
 50
63.2897062101
 51
99.6115552366
  0
LINE
  8
Layer0$C$L0
 62
     3
 10
-161.0035528158
 20
132.8623591653
 11
-159.5035525699
 21
132.8623591653
  0
ARC
  8
Layer0$C$L0
 62
     3
 10
-161.0427897861
 20
132.4431349127
 40
0.4210564259
 50
84.6530223981
 51
112.4457161552
  0
LINE
  8
Layer0$C$L0
 62
     3
 10
-161.2035527174
 20
132.7644138350
 11
-161.2035527174
 21
132.8322927231
  0
LINE
  8
Layer0$C$L0
 62
     3
 10
-161.2035527174
 20
147.4965349470
 11
-161.2035527174
 21
147.5644138350
  0
ARC
  8
Layer0$C$L0
 62
     3
 10
-161.0577239455
 20
147.7863515814
 40
0.3244375040
 50
243.2896023941
 51
279.6116590526
  0
LINE
  8
Layer0$C$L0
 62
     3
 10
-159.5035525699
 20
147.4664685047
 11
-161.0035528158
 21
147.4664685047
  0
ARC
  8
Layer0$C$L0
 62
     3
 10
-159.4643155996
 20
147.8856927574
 40
0.4210564259
 50
264.6530223981
 51
292.4457161552
  0
LINE
  8
Layer0$C$L0
 62
     3
 10
-159.3035527174
 20
147.5644138350
 11
-159.3035527174
 21
147.4965349470
  0
LINE
  8
Layer0$C$L0
 62
     3
 10
-157.4035527174
 20
146.0389350921
 11
-157.4035527174
 21
134.2898925779
  0
LINE
  8
Layer0$C$L0
 62
     3
 10
-157.6035530035
 20
134.2898927360
 11
-157.4035527174
 21
134.2898925779
  0
POLYLINE
  8
Layer0$C$L0
 62
     3
 66
     1
  0
VERTEX
  8
Layer0$C$L0
 62
     3
 10
-157.8035526638
 20
134.1419558703
  0
VERTEX
  8
Layer0$C$L0
 62
     3
 10
-157.7864200537
 20
134.2006138257
  0
VERTEX
  8
Layer0$C$L0
 62
     3
 10
-157.7355484207
 20
134.2521206207
  0
VERTEX
  8
Layer0$C$L0
 62
     3
 10
-157.6842930828
 20
134.2768924042
  0
VERTEX
  8
Layer0$C$L0
 62
     3
 10
-157.6214576800
 20
134.2892775974
  0
VERTEX
  8
Layer0$C$L0
 62
     3
 10
-157.6035530035
 20
134.2898927360
  0
SEQEND
  8
Layer0$C$L0
 62
     3
  0
LINE
  8
Layer0$C$L0
 62
     3
 10
-157.8035527174
 20
133.3563304043
 11
-157.8035527174
 21
134.1419558651
  0
POLYLINE
  8
Layer0$C$L0
 62
     3
 66
     1
  0
VERTEX
  8
Layer0$C$L0
 62
     3
 10
-157.6035530035
 20
133.2745662621
  0
VERTEX
  8
Layer0$C$L0
 62
     3
 10
-157.6662924801
 20
133.2785309023
  0
VERTEX
  8
Layer0$C$L0
 62
     3
 10
-157.7219138582
 20
133.2898911751
  0
VERTEX
  8
Layer0$C$L0
 62
     3
 10
-157.7660995264
 20
133.3078638381
  0
VERTEX
  8
Layer0$C$L0
 62
     3
 10
-157.7949919467
 20
133.3319613441
  0
VERTEX
  8
Layer0$C$L0
 62
     3
 10
-157.8035526638
 20
133.3563303306
  0
SEQEND
  8
Layer0$C$L0
 62
     3
  0
LINE
  8
Layer0$C$L0
 62
     3
 10
-157.4035527174
 20
133.2745662315
 11
-157.6035530035
 21
133.2745662621
  0
LINE
  8
Layer0$C$L0
 62
     3
 10
-157.4035527174
 20
133.2745662315
 11
-157.4035527174
 21
132.8322927231
  0
LINE
  8
Layer0$C$L0
 62
     3
 10
-157.4035527174
 20
147.4965349470
 11
-157.4035527174
 21
147.0542614386
  0
LINE
  8
Layer0$C$L0
 62
     3
 10
-157.6035530035
 20
147.0542614079
 11
-157.4035527174
 21
147.0542614386
  0
POLYLINE
  8
Layer0$C$L0
 62
     3
 66
     1
  0
VERTEX
  8
Layer0$C$L0
 62
     3
 10
-157.8035526638
 20
146.9724973395
  0
VERTEX
  8
Layer0$C$L0
 62
     3
 10
-157.7907637422
 20
147.0020449451
  0
VERTEX
  8
Layer0$C$L0
 62
     3
 10
-157.7529222433
 20
147.0276279106
  0
VERTEX
  8
Layer0$C$L0
 62
     3
 10
-157.6965623264
 20
147.0452261820
  0
VERTEX
  8
Layer0$C$L0
 62
     3
 10
-157.6323075880
 20
147.0534469663
  0
VERTEX
  8
Layer0$C$L0
 62
     3
 10
-157.6035530035
 20
147.0542614079
  0
SEQEND
  8
Layer0$C$L0
 62
     3
  0
LINE
  8
Layer0$C$L0
 62
     3
 10
-157.8035527174
 20
146.1868718050
 11
-157.8035527174
 21
146.9724972658
  0
ARC
  8
Layer0$C$L0
 62
     3
 10
-157.6277832767
 20
146.2153381832
 40
0.1780595755
 50
189.1993503403
 51
277.8210516821
  0
LINE
  8
Layer0$C$L0
 62
     3
 10
-157.4035527174
 20
146.0389350921
 11
-157.6035530035
 21
146.0389349341
  0
POLYLINE
  8
Layer0$C$L0
 62
     3
 66
     1
  0
VERTEX
  8
Layer0$C$L0
 62
     3
 10
-157.4035524120
 20
140.1644138350
  0
VERTEX
  8
Layer0$C$L0
 62
     3
 10
-157.3368604024
 20
138.7814821174
  0
VERTEX
  8
Layer0$C$L0
 62
     3
 10
-157.1432691728
 20
137.3985503997
  0
SEQEND
  8
Layer0$C$L0
 62
     3
  0
LINE
  8
Layer0$C$L0
 62
     3
 10
-157.1432691921
 20
133.6713406027
 11
-157.4035527174
 21
134.2898925779
  0
POLYLINE
  8
Layer0$C$L0
 62
     3
 66
     1
  0
VERTEX
  8
Layer0$C$L0
 62
     3
 10
-157.1432691728
 20
142.9302772704
  0
VERTEX
  8
Layer0$C$L0
 62
     3
 10
-157.3357698236
 20
141.5587107149
  0
VERTEX
  8
Layer0$C$L0
 62
     3
 10
-157.4035524120
 20
140.1644138350
  0
SEQEND
  8
Layer0$C$L0
 62
     3
  0
LINE
  8
Layer0$C$L0
 62
     3
 10
-157.4035527174
 20
146.0389350921
 11
-157.1432691921
 21
146.6574870673
  0
LINE
  8
Layer0$C$L0
 62
     3
 10
-146.1388074987
 20
151.6793876617
 11
-146.3035527174
 21
151.5543256332
  0
LINE
  8
Layer0$C$L0
 62
     3
 10
-146.3035527174
 20
152.2770532487
 11
-146.1388074987
 21
151.9169522180
  0
LINE
  8
Layer0$C$L0
 62
     3
 10
-146.1388074987
 20
151.9169522180
 11
-146.1035527483
 21
151.7696179181
  0
LINE
  8
Layer0$C$L0
 62
     3
 10
-146.1035527483
 20
151.7696179181
 11
-146.1388074987
 21
151.6793876617
  0
LINE
  8
Layer0$C$L0
 62
     3
 10
-146.3035527174
 20
128.7745020368
 11
-146.1388074987
 21
128.6494400083
  0
LINE
  8
Layer0$C$L0
 62
     3
 10
-146.1388074987
 20
128.6494400083
 11
-146.1035527483
 21
128.5592097520
  0
LINE
  8
Layer0$C$L0
 62
     3
 10
-146.1035527483
 20
128.5592097520
 11
-146.1388074987
 21
128.4118754520
  0
LINE
  8
Layer0$C$L0
 62
     3
 10
-146.1388074987
 20
128.4118754520
 11
-146.3035527174
 21
128.0517744214
  0
LINE
  8
Layer0$C$L0
 62
     3
 10
-157.1432691921
 20
147.5886983123
 11
-157.4035527174
 21
147.0542614386
  0
LINE
  8
Layer0$C$L0
 62
     3
 10
-157.4035527174
 20
133.2745662315
 11
-157.1432691921
 21
132.7401293577
  0
POLYLINE
  8
Layer0$C$L0
 62
     3
 66
     1
  0
VERTEX
  8
Layer0$C$L0
 62
     3
 10
-157.1432691728
 20
132.3279602184
  0
VERTEX
  8
Layer0$C$L0
 62
     3
 10
-157.2614363124
 20
132.5568536959
  0
VERTEX
  8
Layer0$C$L0
 62
     3
 10
-157.4035524120
 20
132.8322928130
  0
SEQEND
  8
Layer0$C$L0
 62
     3
  0
POLYLINE
  8
Layer0$C$L0
 62
     3
 66
     1
  0
VERTEX
  8
Layer0$C$L0
 62
     3
 10
-157.4035524120
 20
147.4965348571
  0
VERTEX
  8
Layer0$C$L0
 62
     3
 10
-157.3641919260
 20
147.5728395126
  0
VERTEX
  8
Layer0$C$L0
 62
     3
 10
-157.1432691728
 20
148.0008674516
  0
SEQEND
  8
Layer0$C$L0
 62
     3
  0
LINE
  8
Layer0$C$L0
 62
     3
 10
-149.3035526675
 20
149.2003345593
 11
-148.5035527459
 21
149.2003345593
  0
CIRCLE
  8
Layer0$C$L0
 62
     3
 10
-209.6952244000
 20
139.8829317891
 40
12.9000000000
  0
CIRCLE
  8
Layer0$C$L0
 62
     3
 10
-209.6952244000
 20
139.8829317891
 40
12.7000000000
  0
ARC
  8
Layer0$C$L0
 62
     3
 10
-222.9522566828
 20
138.0071520255
 40
0.2769763146
 50
194.5868106322
 51
223.1307399765
  0
ARC
  8
Layer0$C$L0
 62
     3
 10
-227.7269807388
 20
136.5426057599
 40
0.6613782209
 50
105.4418912527
 51
145.8293272923
  0
LINE
  8
Layer0$C$L0
 62
     3
 10
-227.9030799226
 20
137.1801088803
 11
-223.2297386334
 21
138.0041450734
  0
ARC
  8
Layer0$C$L0
 62
     3
 10
-227.7158205886
 20
143.2388257007
 40
0.6793878075
 50
214.7283142951
 51
254.0004671600
  0
ARC
  8
Layer0$C$L0
 62
     3
 10
-222.9522566828
 20
141.7587115527
 40
0.2769763146
 50
136.8692600235
 51
165.4131893678
  0
LINE
  8
Layer0$C$L0
 62
     3
 10
-223.2297386334
 20
141.7617185048
 11
-227.9030799226
 21
142.5857546978
  0
ARC
  8
Layer0$C$L0
 62
     3
 10
-227.7768978936
 20
136.8727850379
 40
0.6791446946
 50
234.7209765941
 51
274.0077848713
  0
ARC
  8
Layer0$C$L0
 62
     3
 10
-222.7941914885
 20
137.1113977285
 40
0.2770964790
 50
156.8757763742
 51
185.4070425594
  0
LINE
  8
Layer0$C$L0
 62
     3
 10
-223.0560907454
 20
137.0193372254
 11
-227.7294311033
 21
136.1953011487
  0
ARC
  8
Layer0$C$L0
 62
     3
 10
-222.7941914885
 20
142.6544658496
 40
0.2770964790
 50
174.5929574406
 51
203.1242236258
  0
ARC
  8
Layer0$C$L0
 62
     3
 10
-227.7820613015
 20
142.9115275010
 40
0.6611330990
 50
85.4340778381
 51
125.8371606965
  0
LINE
  8
Layer0$C$L0
 62
     3
 10
-227.7294311033
 20
143.5705624294
 11
-223.0560907454
 21
142.7465263528
  0
ARC
  8
Layer0$C$L0
 62
     3
 10
-221.5111219557
 20
133.5861996639
 40
0.2771000700
 50
214.5933513046
 51
243.1244135745
  0
ARC
  8
Layer0$C$L0
 62
     3
 10
-225.4972556878
 20
130.5769538078
 40
0.6611704654
 50
125.4353661426
 51
165.8359956745
  0
LINE
  8
Layer0$C$L0
 62
     3
 10
-225.8805918799
 20
131.1156557181
 11
-221.7709251971
 21
133.4883732029
  0
ARC
  8
Layer0$C$L0
 62
     3
 10
-225.4814314667
 20
149.1997303722
 40
0.6791936592
 50
194.7224234332
 51
234.0062147497
  0
ARC
  8
Layer0$C$L0
 62
     3
 10
-221.5111219557
 20
146.1796639142
 40
0.2771000700
 50
116.8755864255
 51
145.4066486954
  0
LINE
  8
Layer0$C$L0
 62
     3
 10
-221.7709251971
 20
146.2774903753
 11
-225.8805918799
 21
148.6502078601
  0
ARC
  8
Layer0$C$L0
 62
     3
 10
-221.0562531296
 20
146.9674223149
 40
0.2771493272
 50
154.5957847879
 51
183.1215257316
  0
ARC
  8
Layer0$C$L0
 62
     3
 10
-225.6554487334
 20
148.9149526032
 40
0.6611245113
 50
65.4338865479
 51
105.8375922323
  0
LINE
  8
Layer0$C$L0
 62
     3
 10
-225.3805908666
 20
149.5162335464
 11
-221.2709251152
 21
147.1435160615
  0
ARC
  8
Layer0$C$L0
 62
     3
 10
-225.6569068594
 20
130.8700168070
 40
0.6791393662
 50
254.7206595785
 51
294.0078616413
  0
ARC
  8
Layer0$C$L0
 62
     3
 10
-221.0562531296
 20
132.7984412632
 40
0.2771493272
 50
176.8784742684
 51
205.4042152121
  0
LINE
  8
Layer0$C$L0
 62
     3
 10
-221.2709251152
 20
132.6223475166
 11
-225.3805908666
 21
130.2496300318
  0
ARC
  8
Layer0$C$L0
 62
     3
 10
-209.6952244000
 20
139.8829317891
 40
13.6642936907
 50
171.8143542431
 51
188.1856457569
  0
ARC
  8
Layer0$C$L0
 62
     3
 10
-209.6952244000
 20
139.8829317891
 40
13.6642936907
 50
191.8143542431
 51
208.1856457569
  0
ARC
  8
Layer0$C$L0
 62
     3
 10
-209.6952244000
 20
139.8829317891
 40
13.6642936907
 50
151.8143542431
 51
168.1856457569
  0
ARC
  8
Layer0$C$L0
 62
     3
 10
-221.3428926254
 20
154.0370550813
 40
0.6791759360
 50
174.7218797483
 51
214.0067632816
  0
ARC
  8
Layer0$C$L0
 62
     3
 10
-218.6449237211
 20
149.8411940769
 40
0.2771060984
 50
96.8761351174
 51
125.4063717584
  0
LINE
  8
Layer0$C$L0
 62
     3
 10
-218.8556033478
 20
150.0219845452
 11
-221.9059101598
 21
153.6571982556
  0
ARC
  8
Layer0$C$L0
 62
     3
 10
-218.6449237211
 20
129.9246695013
 40
0.2771060984
 50
234.5936282416
 51
263.1238648826
  0
ARC
  8
Layer0$C$L0
 62
     3
 10
-221.3614596359
 20
125.7335633729
 40
0.6611564456
 50
145.4349038321
 51
185.8364531381
  0
LINE
  8
Layer0$C$L0
 62
     3
 10
-221.9059101598
 20
126.1086653226
 11
-218.8556033478
 21
129.7438790329
  0
ARC
  8
Layer0$C$L0
 62
     3
 10
-209.6952244000
 20
139.8829317891
 40
13.6642936907
 50
131.8143542431
 51
148.1856457569
  0
ARC
  8
Layer0$C$L0
 62
     3
 10
-217.9481270688
 20
150.4259172837
 40
0.2770736599
 50
134.5920987748
 51
163.1257618918
  0
ARC
  8
Layer0$C$L0
 62
     3
 10
-221.6038500549
 20
153.8288586910
 40
0.6612430487
 50
45.4376454204
 51
85.8336602806
  0
LINE
  8
Layer0$C$L0
 62
     3
 10
-221.1398656772
 20
154.2999859207
 11
-218.0895588652
 21
150.6647722103
  0
ARC
  8
Layer0$C$L0
 62
     3
 10
-221.6117525107
 20
125.9544546086
 40
0.6792529874
 50
274.7242311173
 51
314.0044631817
  0
ARC
  8
Layer0$C$L0
 62
     3
 10
-217.9481270688
 20
129.3399462945
 40
0.2770736599
 50
196.8742381082
 51
225.4079012252
  0
LINE
  8
Layer0$C$L0
 62
     3
 10
-218.0895588652
 20
129.1010913678
 11
-221.1398656772
 21
125.4658776574
  0
ARC
  8
Layer0$C$L0
 62
     3
 10
-209.6952244000
 20
139.8829317891
 40
13.6642936907
 50
211.8143542431
 51
228.1856457569
  0
ARC
  8
Layer0$C$L0
 62
     3
 10
-214.6992655962
 20
152.3016025565
 40
0.2771177710
 50
76.8765597154
 51
105.4055275089
  0
ARC
  8
Layer0$C$L0
 62
     3
 10
-209.6952244000
 20
139.8829317891
 40
13.6642936907
 50
111.8143542431
 51
128.1856457569
  0
ARC
  8
Layer0$C$L0
 62
     3
 10
-214.6992655962
 20
127.4642610216
 40
0.2771177710
 50
254.5944724911
 51
283.1234402846
  0
ARC
  8
Layer0$C$L0
 62
     3
 10
-209.6952244000
 20
139.8829317891
 40
13.6642936907
 50
231.8143542431
 51
248.1856457569
  0
ARC
  8
Layer0$C$L0
 62
     3
 10
-215.8184618380
 20
122.5967938789
 40
0.6612208337
 50
165.4369460149
 51
205.8343508286
  0
LINE
  8
Layer0$C$L0
 62
     3
 10
-216.4584386454
 20
122.7630547487
 11
-214.8354046338
 21
127.2223054670
  0
ARC
  8
Layer0$C$L0
 62
     3
 10
-215.7993905510
 20
157.1671877626
 40
0.6792384150
 50
154.7238096686
 51
194.0048934879
  0
LINE
  8
Layer0$C$L0
 62
     3
 10
-214.8354046338
 20
152.5435581111
 11
-216.4584386454
 21
157.0028088295
  0
ARC
  8
Layer0$C$L0
 62
     3
 10
-216.1293381746
 20
122.7188127509
 40
0.6793331678
 50
294.7267130986
 51
334.0021728361
  0
ARC
  8
Layer0$C$L0
 62
     3
 10
-213.8444672999
 20
127.1531532764
 40
0.2771302418
 50
216.8775041072
 51
245.4052491604
  0
LINE
  8
Layer0$C$L0
 62
     3
 10
-213.8957117976
 20
126.8802847021
 11
-215.5187462748
 21
122.4210358464
  0
ARC
  8
Layer0$C$L0
 62
     3
 10
-213.8444672999
 20
152.6127103018
 40
0.2771302418
 50
114.5947508396
 51
143.1224958928
  0
ARC
  8
Layer0$C$L0
 62
     3
 10
-216.1159369497
 20
157.0607527074
 40
0.6613133310
 50
25.4397617232
 51
65.8313523422
  0
LINE
  8
Layer0$C$L0
 62
     3
 10
-215.5187462748
 20
157.3448277318
 11
-213.8957117976
 21
152.8855788761
  0
ARC
  8
Layer0$C$L0
 62
     3
 10
-210.1500556062
 20
126.5017375413
 40
0.2771398667
 50
274.5953262822
 51
303.1220158340
  0
ARC
  8
Layer0$C$L0
 62
     3
 10
-209.6952244000
 20
139.8829317891
 40
13.6642936907
 50
251.8143542431
 51
268.1856457569
  0
ARC
  8
Layer0$C$L0
 62
     3
 10
-210.1500556062
 20
153.2641260368
 40
0.2771398667
 50
56.8779841660
 51
85.4046737178
  0
ARC
  8
Layer0$C$L0
 62
     3
 10
-209.6952244000
 20
139.8829317891
 40
13.6642936907
 50
91.8143542431
 51
108.1856457569
  0
ARC
  8
Layer0$C$L0
 62
     3
 10
-209.5370303034
 20
121.5449804076
 40
0.6611668261
 50
185.4352674393
 51
225.8360935949
  0
LINE
  8
Layer0$C$L0
 62
     3
 10
-210.1952244237
 20
121.4823539608
 11
-210.1952244237
 21
126.2277889305
  0
ARC
  8
Layer0$C$L0
 62
     3
 10
-209.5197651254
 20
158.2125978594
 40
0.6791713636
 50
134.7217697149
 51
174.0068692510
  0
LINE
  8
Layer0$C$L0
 62
     3
 10
-210.1952244237
 20
153.5380746477
 11
-210.1952244237
 21
158.2835096174
  0
ARC
  8
Layer0$C$L0
 62
     3
 10
-209.2403931937
 20
153.2641260368
 40
0.2771398667
 50
94.5953262822
 51
123.1220158340
  0
ARC
  8
Layer0$C$L0
 62
     3
 10
-209.8534184966
 20
158.2208831705
 40
0.6611668261
 50
5.4352674393
 51
45.8360935949
  0
LINE
  8
Layer0$C$L0
 62
     3
 10
-209.1952243762
 20
158.2835096174
 11
-209.1952243762
 21
153.5380746477
  0
ARC
  8
Layer0$C$L0
 62
     3
 10
-209.8706836745
 20
121.5532657187
 40
0.6791713636
 50
314.7217697149
 51
354.0068692510
  0
ARC
  8
Layer0$C$L0
 62
     3
 10
-209.2403931937
 20
126.5017375413
 40
0.2771398667
 50
236.8779841660
 51
265.4046737178
  0
LINE
  8
Layer0$C$L0
 62
     3
 10
-209.1952243762
 20
126.2277889305
 11
-209.1952243762
 21
121.4823539608
  0
ARC
  8
Layer0$C$L0
 62
     3
 10
-205.5459815001
 20
152.6127103018
 40
0.2771302418
 50
36.8775041072
 51
65.4052491604
  0
ARC
  8
Layer0$C$L0
 62
     3
 10
-209.6952244000
 20
139.8829317891
 40
13.6642936907
 50
71.8143542431
 51
88.1856457569
  0
ARC
  8
Layer0$C$L0
 62
     3
 10
-205.5459815001
 20
127.1531532764
 40
0.2771302418
 50
294.5947508396
 51
323.1224958928
  0
ARC
  8
Layer0$C$L0
 62
     3
 10
-209.6952244000
 20
139.8829317891
 40
13.6642936907
 50
271.8143542431
 51
288.1856457569
  0
ARC
  8
Layer0$C$L0
 62
     3
 10
-203.2745118502
 20
122.7051108708
 40
0.6613133310
 50
205.4397617232
 51
245.8313523422
  0
LINE
  8
Layer0$C$L0
 62
     3
 10
-203.8717025251
 20
122.4210358464
 11
-205.4947370024
 21
126.8802847021
  0
ARC
  8
Layer0$C$L0
 62
     3
 10
-203.2611106253
 20
157.0470508273
 40
0.6793331678
 50
114.7267130986
 51
154.0021728361
  0
LINE
  8
Layer0$C$L0
 62
     3
 10
-205.4947370024
 20
152.8855788761
 11
-203.8717025251
 21
157.3448277318
  0
ARC
  8
Layer0$C$L0
 62
     3
 10
-204.6911832037
 20
152.3016025565
 40
0.2771177710
 50
74.5944724911
 51
103.1234402846
  0
ARC
  8
Layer0$C$L0
 62
     3
 10
-203.5719869620
 20
157.1690696993
 40
0.6612208337
 50
345.4369460149
 51
385.8343508286
  0
LINE
  8
Layer0$C$L0
 62
     3
 10
-202.9320101545
 20
157.0028088295
 11
-204.5550441661
 21
152.5435581111
  0
ARC
  8
Layer0$C$L0
 62
     3
 10
-201.4423217311
 20
150.4259172837
 40
0.2770736599
 50
16.8742381082
 51
45.4079012252
  0
ARC
  8
Layer0$C$L0
 62
     3
 10
-209.6952244000
 20
139.8829317891
 40
13.6642936907
 50
51.8143542431
 51
68.1856457569
  0
ARC
  8
Layer0$C$L0
 62
     3
 10
-204.6911832037
 20
127.4642610216
 40
0.2771177710
 50
256.8765597154
 51
285.4055275089
  0
ARC
  8
Layer0$C$L0
 62
     3
 10
-201.4423217311
 20
129.3399462945
 40
0.2770736599
 50
314.5920987748
 51
343.1257618918
  0
ARC
  8
Layer0$C$L0
 62
     3
 10
-209.6952244000
 20
139.8829317891
 40
13.6642936907
 50
291.8143542431
 51
308.1856457569
  0
ARC
  8
Layer0$C$L0
 62
     3
 10
-203.5910582489
 20
122.5986758155
 40
0.6792384150
 50
334.7238096686
 51
374.0048934879
  0
LINE
  8
Layer0$C$L0
 62
     3
 10
-204.5550441661
 20
127.2223054670
 11
-202.9320101545
 21
122.7630547487
  0
ARC
  8
Layer0$C$L0
 62
     3
 10
-197.7786962892
 20
153.8114089696
 40
0.6792529874
 50
94.7242311173
 51
134.0044631817
  0
LINE
  8
Layer0$C$L0
 62
     3
 10
-201.3008899347
 20
150.6647722103
 11
-198.2505831228
 21
154.2999859207
  0
ARC
  8
Layer0$C$L0
 62
     3
 10
-197.7865987450
 20
125.9370048872
 40
0.6612430487
 50
225.4376454204
 51
265.8336602806
  0
LINE
  8
Layer0$C$L0
 62
     3
 10
-198.2505831228
 20
125.4658776574
 11
-201.3008899347
 21
129.1010913678
  0
ARC
  8
Layer0$C$L0
 62
     3
 10
-198.3341956704
 20
146.9674223149
 40
0.2771493272
 50
356.8784742684
 51
385.4042152121
  0
ARC
  8
Layer0$C$L0
 62
     3
 10
-200.7455250789
 20
149.8411940769
 40
0.2771060984
 50
54.5936282416
 51
83.1238648826
  0
ARC
  8
Layer0$C$L0
 62
     3
 10
-209.6952244000
 20
139.8829317891
 40
13.6642936907
 50
31.8143542431
 51
48.1856457569
  0
ARC
  8
Layer0$C$L0
 62
     3
 10
-198.0289891641
 20
154.0323002053
 40
0.6611564456
 50
325.4349038321
 51
365.8364531381
  0
LINE
  8
Layer0$C$L0
 62
     3
 10
-197.4845386402
 20
153.6571982556
 11
-200.5348454521
 21
150.0219845452
  0
ARC
  8
Layer0$C$L0
 62
     3
 10
-200.7455250789
 20
129.9246695013
 40
0.2771060984
 50
276.8761351174
 51
305.4063717584
  0
ARC
  8
Layer0$C$L0
 62
     3
 10
-198.3341956704
 20
132.7984412632
 40
0.2771493272
 50
334.5957847879
 51
363.1215257316
  0
ARC
  8
Layer0$C$L0
 62
     3
 10
-209.6952244000
 20
139.8829317891
 40
13.6642936907
 50
311.8143542431
 51
328.1856457569
  0
ARC
  8
Layer0$C$L0
 62
     3
 10
-198.0475561745
 20
125.7288084969
 40
0.6791759360
 50
354.7218797483
 51
394.0067632816
  0
LINE
  8
Layer0$C$L0
 62
     3
 10
-200.5348454521
 20
129.7438790329
 11
-197.4845386402
 21
126.1086653226
  0
ARC
  8
Layer0$C$L0
 62
     3
 10
-193.7335419405
 20
148.8958467712
 40
0.6791393662
 50
74.7206595785
 51
114.0078616413
  0
LINE
  8
Layer0$C$L0
 62
     3
 10
-198.1195236848
 20
147.1435160615
 11
-194.0098579333
 21
149.5162335464
  0
ARC
  8
Layer0$C$L0
 62
     3
 10
-193.9090173332
 20
130.5661332060
 40
0.6791936592
 50
14.7224234332
 51
54.0062147497
  0
ARC
  8
Layer0$C$L0
 62
     3
 10
-197.8793268443
 20
133.5861996639
 40
0.2771000700
 50
296.8755864255
 51
325.4066486954
  0
LINE
  8
Layer0$C$L0
 62
     3
 10
-197.6195236028
 20
133.4883732029
 11
-193.5098569201
 21
131.1156557181
  0
ARC
  8
Layer0$C$L0
 62
     3
 10
-196.5962573115
 20
137.1113977285
 40
0.2770964790
 50
354.5929574406
 51
383.1242236258
  0
ARC
  8
Layer0$C$L0
 62
     3
 10
-209.6952244000
 20
139.8829317891
 40
13.6642936907
 50
331.8143542431
 51
348.1856457569
  0
ARC
  8
Layer0$C$L0
 62
     3
 10
-193.7350000666
 20
130.8509109749
 40
0.6611245113
 50
245.4338865480
 51
285.8375922323
  0
LINE
  8
Layer0$C$L0
 62
     3
 10
-194.0098579333
 20
130.2496300318
 11
-198.1195236848
 21
132.6223475166
  0
ARC
  8
Layer0$C$L0
 62
     3
 10
-196.5962573115
 20
142.6544658496
 40
0.2770964790
 50
336.8757763742
 51
365.4070425594
  0
ARC
  8
Layer0$C$L0
 62
     3
 10
-197.8793268443
 20
146.1796639142
 40
0.2771000700
 50
34.5933513046
 51
63.1244135745
  0
ARC
  8
Layer0$C$L0
 62
     3
 10
-209.6952244000
 20
139.8829317891
 40
13.6642936907
 50
11.8143542431
 51
28.1856457569
  0
ARC
  8
Layer0$C$L0
 62
     3
 10
-193.8931931122
 20
149.1889097704
 40
0.6611704654
 50
305.4353661426
 51
345.8359956745
  0
LINE
  8
Layer0$C$L0
 62
     3
 10
-193.5098569201
 20
148.6502078601
 11
-197.6195236028
 21
146.2774903753
  0
ARC
  8
Layer0$C$L0
 62
     3
 10
-191.6083874985
 20
136.8543360772
 40
0.6611330990
 50
265.4340778381
 51
305.8371606965
  0
LINE
  8
Layer0$C$L0
 62
     3
 10
-191.6610176967
 20
136.1953011487
 11
-196.3343580545
 21
137.0193372254
  0
ARC
  8
Layer0$C$L0
 62
     3
 10
-191.6746282114
 20
136.5270378775
 40
0.6793878075
 50
34.7283142951
 51
74.0004671600
  0
ARC
  8
Layer0$C$L0
 62
     3
 10
-196.4381921172
 20
138.0071520255
 40
0.2769763146
 50
316.8692600235
 51
345.4131893678
  0
LINE
  8
Layer0$C$L0
 62
     3
 10
-196.1607101665
 20
138.0041450734
 11
-191.4873688773
 21
137.1801088803
  0
ARC
  8
Layer0$C$L0
 62
     3
 10
-196.4381921172
 20
141.7587115527
 40
0.2769763146
 50
14.5868106322
 51
43.1307399765
  0
ARC
  8
Layer0$C$L0
 62
     3
 10
-209.6952244000
 20
139.8829317891
 40
13.6642936907
 50
351.8143542431
 51
368.1856457569
  0
ARC
  8
Layer0$C$L0
 62
     3
 10
-191.6634680611
 20
143.2232578183
 40
0.6613782209
 50
285.4418912527
 51
325.8293272923
  0
LINE
  8
Layer0$C$L0
 62
     3
 10
-191.4873688773
 20
142.5857546978
 11
-196.1607101665
 21
141.7617185048
  0
ARC
  8
Layer0$C$L0
 62
     3
 10
-191.6135509063
 20
142.8930785403
 40
0.6791446946
 50
54.7209765941
 51
94.0077848713
  0
LINE
  8
Layer0$C$L0
 62
     3
 10
-196.3343580545
 20
142.7465263528
 11
-191.6610176967
 21
143.5705624294
  0
ARC
  8
Layer0$C$L0
 62
     3
 10
-209.6952244000
 20
139.8829317891
 40
17.9337007921
 50
171.5976402651
 51
188.4023597349
  0
ARC
  8
Layer0$C$L0
 62
     3
 10
-209.6952244000
 20
139.8829317891
 40
17.9337007921
 50
191.5976402651
 51
208.4023597349
  0
ARC
  8
Layer0$C$L0
 62
     3
 10
-209.6952244000
 20
139.8829317891
 40
17.9337007921
 50
151.5976402651
 51
168.4023597349
  0
ARC
  8
Layer0$C$L0
 62
     3
 10
-209.6952244000
 20
139.8829317891
 40
17.9337007921
 50
211.5976402651
 51
228.4023597349
  0
ARC
  8
Layer0$C$L0
 62
     3
 10
-209.6952244000
 20
139.8829317891
 40
17.9337007921
 50
131.5976402651
 51
148.4023597349
  0
ARC
  8
Layer0$C$L0
 62
     3
 10
-209.6952244000
 20
139.8829317891
 40
17.9337007921
 50
111.5976402651
 51
128.4023597349
  0
ARC
  8
Layer0$C$L0
 62
     3
 10
-209.6952244000
 20
139.8829317891
 40
17.9337007921
 50
231.5976402651
 51
248.4023597349
  0
ARC
  8
Layer0$C$L0
 62
     3
 10
-209.6952244000
 20
139.8829317891
 40
17.9337007921
 50
251.5976402651
 51
268.4023597349
  0
ARC
  8
Layer0$C$L0
 62
     3
 10
-209.6952244000
 20
139.8829317891
 40
17.9337007921
 50
91.5976402651
 51
108.4023597349
  0
ARC
  8
Layer0$C$L0
 62
     3
 10
-209.6952244000
 20
139.8829317891
 40
17.9337007921
 50
71.5976402651
 51
88.4023597349
  0
ARC
  8
Layer0$C$L0
 62
     3
 10
-209.6952244000
 20
139.8829317891
 40
17.9337007921
 50
271.5976402651
 51
288.4023597349
  0
ARC
  8
Layer0$C$L0
 62
     3
 10
-209.6952244000
 20
139.8829317891
 40
17.9337007921
 50
51.5976402651
 51
68.4023597349
  0
ARC
  8
Layer0$C$L0
 62
     3
 10
-209.6952244000
 20
139.8829317891
 40
17.9337007921
 50
291.5976402651
 51
308.4023597349
  0
ARC
  8
Layer0$C$L0
 62
     3
 10
-209.6952244000
 20
139.8829317891
 40
17.9337007921
 50
31.5976402651
 51
48.4023597349
  0
ARC
  8
Layer0$C$L0
 62
     3
 10
-209.6952244000
 20
139.8829317891
 40
17.9337007921
 50
311.5976402651
 51
328.4023597349
  0
ARC
  8
Layer0$C$L0
 62
     3
 10
-209.6952244000
 20
139.8829317891
 40
17.9337007921
 50
331.5976402651
 51
348.4023597349
  0
ARC
  8
Layer0$C$L0
 62
     3
 10
-209.6952244000
 20
139.8829317891
 40
17.9337007921
 50
11.5976402651
 51
28.4023597349
  0
ARC
  8
Layer0$C$L0
 62
     3
 10
-209.6952244000
 20
139.8829317891
 40
17.9337007921
 50
351.5976402651
 51
368.4023597349
  0
ARC
  8
Layer0$C$L0
 62
     3
 10
-209.6952244000
 20
139.8829317891
 40
16.9300000000
 50
138.3076163062
 51
141.6923836938
  0
POLYLINE
  8
Layer0$C$L0
 62
     3
 66
     1
  0
VERTEX
  8
Layer0$C$L0
 62
     3
 10
-222.9800929607
 20
150.3775569849
  0
VERTEX
  8
Layer0$C$L0
 62
     3
 10
-222.9887281836
 20
150.3848017432
  0
VERTEX
  8
Layer0$C$L0
 62
     3
 10
-223.0136559637
 20
150.4057192483
  0
VERTEX
  8
Layer0$C$L0
 62
     3
 10
-223.0520711572
 20
150.4379532539
  0
VERTEX
  8
Layer0$C$L0
 62
     3
 10
-223.0996589468
 20
150.4778846406
  0
VERTEX
  8
Layer0$C$L0
 62
     3
 10
-223.1333681674
 20
150.5061698385
  0
SEQEND
  8
Layer0$C$L0
 62
     3
  0
POLYLINE
  8
Layer0$C$L0
 62
     3
 66
     1
  0
VERTEX
  8
Layer0$C$L0
 62
     3
 10
-222.4905805023
 20
151.2722143211
  0
VERTEX
  8
Layer0$C$L0
 62
     3
 10
-222.4398299412
 20
151.2296286651
  0
VERTEX
  8
Layer0$C$L0
 62
     3
 10
-222.3948004947
 20
151.1918449082
  0
VERTEX
  8
Layer0$C$L0
 62
     3
 10
-222.3605799780
 20
151.1631303706
  0
VERTEX
  8
Layer0$C$L0
 62
     3
 10
-222.3410305859
 20
151.1467269861
  0
VERTEX
  8
Layer0$C$L0
 62
     3
 10
-222.3373062269
 20
151.1436014675
  0
SEQEND
  8
Layer0$C$L0
 62
     3
  0
LINE
  8
Layer0$C$L0
 62
     3
 10
-223.1333681674
 20
150.5061698385
 11
-223.7492899702
 21
151.0229886749
  0
LINE
  8
Layer0$C$L0
 62
     3
 10
-223.1065023051
 20
151.7890331574
 11
-222.4905805023
 21
151.2722143211
  0
ARC
  8
Layer0$C$L0
 62
     3
 10
-209.6952244000
 20
139.8829317891
 40
19.9885792271
 50
346.2796726746
 51
353.7203273254
  0
LINE
  8
Layer0$C$L0
 62
     3
 10
-190.2770186072
 20
135.1419842773
 11
-190.2672568905
 21
135.1338183506
  0
ARC
  8
Layer0$C$L0
 62
     3
 10
-209.6952244000
 20
139.8829317891
 40
20.0000000000
 50
333.7364205665
 51
346.2635794335
  0
LINE
  8
Layer0$C$L0
 62
     3
 10
-191.7598665730
 20
131.0329069519
 11
-191.7725934384
 21
131.0329261997
  0
ARC
  8
Layer0$C$L0
 62
     3
 10
-209.6952244000
 20
139.8829317891
 40
19.9885792271
 50
326.2796726746
 51
333.7203273254
  0
LINE
  8
Layer0$C$L0
 62
     3
 10
-193.0695792551
 20
128.7864808684
 11
-193.0631991534
 21
128.7754687035
  0
ARC
  8
Layer0$C$L0
 62
     3
 10
-209.6952244000
 20
139.8829317891
 40
20.0000000000
 50
313.7364205665
 51
326.2635794335
  0
LINE
  8
Layer0$C$L0
 62
     3
 10
-195.8683877621
 20
125.4323751012
 11
-195.8803405204
 21
125.4367460325
  0
ARC
  8
Layer0$C$L0
 62
     3
 10
-209.6952244000
 20
139.8829317891
 40
19.9885792271
 50
306.2796726746
 51
313.7203273254
  0
LINE
  8
Layer0$C$L0
 62
     3
 10
-197.8674380759
 20
123.7693732067
 11
-197.8652091235
 21
123.7568430333
  0
ARC
  8
Layer0$C$L0
 62
     3
 10
-209.6952244000
 20
139.8829317891
 40
20.0000000000
 50
293.7364205665
 51
306.2635794335
  0
LINE
  8
Layer0$C$L0
 62
     3
 10
-201.6446295120
 20
121.5747936546
 11
-201.6543664843
 21
121.5829890706
  0
ARC
  8
Layer0$C$L0
 62
     3
 10
-209.6952244000
 20
139.8829317891
 40
19.9885792271
 50
286.2796726746
 51
293.7203273254
  0
LINE
  8
Layer0$C$L0
 62
     3
 10
-204.0919024868
 20
120.6957985208
 11
-204.0940935284
 21
120.6832616627
  0
ARC
  8
Layer0$C$L0
 62
     3
 10
-209.6952244000
 20
139.8829317891
 40
20.0000000000
 50
273.7364205665
 51
286.2635794335
  0
LINE
  8
Layer0$C$L0
 62
     3
 10
-208.3918918196
 20
119.9254438664
 11
-208.3982385832
 21
119.9364752790
  0
ARC
  8
Layer0$C$L0
 62
     3
 10
-209.6952244000
 20
139.8829317891
 40
19.9885792271
 50
266.2796726746
 51
273.7203273254
  0
LINE
  8
Layer0$C$L0
 62
     3
 10
-210.9922102167
 20
119.9364752790
 11
-210.9985569804
 21
119.9254438664
  0
ARC
  8
Layer0$C$L0
 62
     3
 10
-209.6952244000
 20
139.8829317891
 40
20.0000000000
 50
253.7364205665
 51
266.2635794335
  0
LINE
  8
Layer0$C$L0
 62
     3
 10
-215.2963552715
 20
120.6832616627
 11
-215.2985463131
 21
120.6957985208
  0
ARC
  8
Layer0$C$L0
 62
     3
 10
-209.6952244000
 20
139.8829317891
 40
19.9885792271
 50
246.2796726746
 51
253.7203273254
  0
LINE
  8
Layer0$C$L0
 62
     3
 10
-217.7360823157
 20
121.5829890706
 11
-217.7458192879
 21
121.5747936546
  0
ARC
  8
Layer0$C$L0
 62
     3
 10
-209.6952244000
 20
139.8829317891
 40
20.0000000000
 50
233.7364205665
 51
246.2635794335
  0
LINE
  8
Layer0$C$L0
 62
     3
 10
-221.5252396764
 20
123.7568430333
 11
-221.5230107241
 21
123.7693732067
  0
ARC
  8
Layer0$C$L0
 62
     3
 10
-209.6952244000
 20
139.8829317891
 40
19.9885792271
 50
226.2796726746
 51
233.7203273254
  0
LINE
  8
Layer0$C$L0
 62
     3
 10
-223.5101082795
 20
125.4367460325
 11
-223.5220610379
 21
125.4323751012
  0
ARC
  8
Layer0$C$L0
 62
     3
 10
-209.6952244000
 20
139.8829317891
 40
20.0000000000
 50
213.7364205665
 51
226.2635794335
  0
LINE
  8
Layer0$C$L0
 62
     3
 10
-226.3272496466
 20
128.7754687035
 11
-226.3208695448
 21
128.7864808684
  0
ARC
  8
Layer0$C$L0
 62
     3
 10
-209.6952244000
 20
139.8829317891
 40
19.9885792271
 50
206.2796726746
 51
213.7203273254
  0
LINE
  8
Layer0$C$L0
 62
     3
 10
-227.6178553616
 20
131.0329261997
 11
-227.6305822269
 21
131.0329069519
  0
ARC
  8
Layer0$C$L0
 62
     3
 10
-209.6952244000
 20
139.8829317891
 40
20.0000000000
 50
193.7364205665
 51
206.2635794335
  0
LINE
  8
Layer0$C$L0
 62
     3
 10
-229.1231919094
 20
135.1338183506
 11
-229.1134301927
 21
135.1419842773
  0
ARC
  8
Layer0$C$L0
 62
     3
 10
-209.6952244000
 20
139.8829317891
 40
19.9885792271
 50
186.2796726746
 51
193.7203273254
  0
LINE
  8
Layer0$C$L0
 62
     3
 10
-229.5638686398
 20
137.6965476531
 11
-229.5758345644
 21
137.7008824104
  0
ARC
  8
Layer0$C$L0
 62
     3
 10
-209.6952244000
 20
139.8829317891
 40
20.0000000000
 50
173.7364205665
 51
186.2635794335
  0
LINE
  8
Layer0$C$L0
 62
     3
 10
-229.5758345644
 20
142.0649811678
 11
-229.5638686398
 21
142.0693159251
  0
ARC
  8
Layer0$C$L0
 62
     3
 10
-209.6952244000
 20
139.8829317891
 40
19.9885792271
 50
166.2796726746
 51
173.7203273254
  0
LINE
  8
Layer0$C$L0
 62
     3
 10
-229.1134301927
 20
144.6238793008
 11
-229.1231919094
 21
144.6320452276
  0
ARC
  8
Layer0$C$L0
 62
     3
 10
-209.6952244000
 20
139.8829317891
 40
20.0000000000
 50
153.7364205665
 51
166.2635794335
  0
LINE
  8
Layer0$C$L0
 62
     3
 10
-227.6305822269
 20
148.7329566262
 11
-227.6178553616
 21
148.7329373785
  0
ARC
  8
Layer0$C$L0
 62
     3
 10
-209.6952244000
 20
139.8829317891
 40
19.9885792271
 50
146.2796726746
 51
153.7203273254
  0
LINE
  8
Layer0$C$L0
 62
     3
 10
-226.3208695448
 20
150.9793827098
 11
-226.3272496466
 21
150.9903948746
  0
ARC
  8
Layer0$C$L0
 62
     3
 10
-209.6952244000
 20
139.8829317891
 40
20.0000000000
 50
133.7364205665
 51
146.2635794335
  0
LINE
  8
Layer0$C$L0
 62
     3
 10
-223.5220610379
 20
154.3334884769
 11
-223.5101082795
 21
154.3291175456
  0
ARC
  8
Layer0$C$L0
 62
     3
 10
-209.6952244000
 20
139.8829317891
 40
19.9885792271
 50
126.2796726746
 51
133.7203273254
  0
LINE
  8
Layer0$C$L0
 62
     3
 10
-221.5230107241
 20
155.9964903715
 11
-221.5252396764
 21
156.0090205448
  0
ARC
  8
Layer0$C$L0
 62
     3
 10
-209.6952244000
 20
139.8829317891
 40
20.0000000000
 50
113.7364205665
 51
126.2635794335
  0
LINE
  8
Layer0$C$L0
 62
     3
 10
-217.7458192879
 20
158.1910699235
 11
-217.7360823157
 21
158.1828745075
  0
ARC
  8
Layer0$C$L0
 62
     3
 10
-209.6952244000
 20
139.8829317891
 40
19.9885792271
 50
106.2796726746
 51
113.7203273254
  0
LINE
  8
Layer0$C$L0
 62
     3
 10
-215.2985463131
 20
159.0700650574
 11
-215.2963552715
 21
159.0826019154
  0
ARC
  8
Layer0$C$L0
 62
     3
 10
-209.6952244000
 20
139.8829317891
 40
20.0000000000
 50
93.7364205665
 51
106.2635794335
  0
LINE
  8
Layer0$C$L0
 62
     3
 10
-210.9985569804
 20
159.8404197118
 11
-210.9922102167
 21
159.8293882992
  0
ARC
  8
Layer0$C$L0
 62
     3
 10
-209.6952244000
 20
139.8829317891
 40
19.9885792271
 50
86.2796726746
 51
93.7203273254
  0
LINE
  8
Layer0$C$L0
 62
     3
 10
-208.3982385832
 20
159.8293882992
 11
-208.3918918196
 21
159.8404197118
  0
ARC
  8
Layer0$C$L0
 62
     3
 10
-209.6952244000
 20
139.8829317891
 40
20.0000000000
 50
73.7364205665
 51
86.2635794335
  0
LINE
  8
Layer0$C$L0
 62
     3
 10
-204.0940935284
 20
159.0826019154
 11
-204.0919024868
 21
159.0700650574
  0
ARC
  8
Layer0$C$L0
 62
     3
 10
-209.6952244000
 20
139.8829317891
 40
19.9885792271
 50
66.2796726746
 51
73.7203273254
  0
LINE
  8
Layer0$C$L0
 62
     3
 10
-201.6543664843
 20
158.1828745075
 11
-201.6446295120
 21
158.1910699235
  0
ARC
  8
Layer0$C$L0
 62
     3
 10
-209.6952244000
 20
139.8829317891
 40
20.0000000000
 50
53.7364205665
 51
66.2635794335
  0
LINE
  8
Layer0$C$L0
 62
     3
 10
-197.8652091235
 20
156.0090205448
 11
-197.8674380759
 21
155.9964903715
  0
ARC
  8
Layer0$C$L0
 62
     3
 10
-209.6952244000
 20
139.8829317891
 40
19.9885792271
 50
46.2796726746
 51
53.7203273254
  0
LINE
  8
Layer0$C$L0
 62
     3
 10
-195.8803405204
 20
154.3291175456
 11
-195.8683877621
 21
154.3334884769
  0
ARC
  8
Layer0$C$L0
 62
     3
 10
-209.6952244000
 20
139.8829317891
 40
20.0000000000
 50
33.7364205665
 51
46.2635794335
  0
LINE
  8
Layer0$C$L0
 62
     3
 10
-193.0631991534
 20
150.9903948746
 11
-193.0695792551
 21
150.9793827098
  0
ARC
  8
Layer0$C$L0
 62
     3
 10
-209.6952244000
 20
139.8829317891
 40
19.9885792271
 50
26.2796726746
 51
33.7203273254
  0
LINE
  8
Layer0$C$L0
 62
     3
 10
-191.7725934384
 20
148.7329373785
 11
-191.7598665730
 21
148.7329566262
  0
ARC
  8
Layer0$C$L0
 62
     3
 10
-209.6952244000
 20
139.8829317891
 40
20.0000000000
 50
13.7364205665
 51
26.2635794335
  0
LINE
  8
Layer0$C$L0
 62
     3
 10
-190.2672568905
 20
144.6320452276
 11
-190.2770186072
 21
144.6238793008
  0
ARC
  8
Layer0$C$L0
 62
     3
 10
-209.6952244000
 20
139.8829317891
 40
19.9885792271
 50
6.2796726746
 51
13.7203273254
  0
LINE
  8
Layer0$C$L0
 62
     3
 10
-189.8265801602
 20
142.0693159251
 11
-189.8146142356
 21
142.0649811678
  0
ARC
  8
Layer0$C$L0
 62
     3
 10
-209.6952244000
 20
139.8829317891
 40
20.0000000000
 50
353.7364205665
 51
366.2635794335
  0
LINE
  8
Layer0$C$L0
 62
     3
 10
-189.8146142356
 20
137.7008824104
 11
-189.8265801602
 21
137.6965476531
  0
LINE
  8
Layer0$C$L0
 62
     3
 10
-204.0952245997
 20
138.4829318390
 11
-204.5952242159
 21
138.4829318390
  0
POLYLINE
  8
Layer0$C$L0
 62
     3
 66
     1
  0
VERTEX
  8
Layer0$C$L0
 62
     3
 10
-204.0952244000
 20
138.4829317891
  0
VERTEX
  8
Layer0$C$L0
 62
     3
 10
-204.1397794113
 20
138.2790221420
  0
VERTEX
  8
Layer0$C$L0
 62
     3
 10
-204.1770642818
 20
138.0593219171
  0
VERTEX
  8
Layer0$C$L0
 62
     3
 10
-204.2065867829
 20
137.8267315590
  0
VERTEX
  8
Layer0$C$L0
 62
     3
 10
-204.2279571638
 20
137.5843216851
  0
VERTEX
  8
Layer0$C$L0
 62
     3
 10
-204.2408932964
 20
137.3352925486
  0
VERTEX
  8
Layer0$C$L0
 62
     3
 10
-204.2452244000
 20
137.0829317891
  0
VERTEX
  8
Layer0$C$L0
 62
     3
 10
-204.2408932964
 20
136.8305710296
  0
VERTEX
  8
Layer0$C$L0
 62
     3
 10
-204.2279571638
 20
136.5815418931
  0
VERTEX
  8
Layer0$C$L0
 62
     3
 10
-204.2065867829
 20
136.3391320192
  0
VERTEX
  8
Layer0$C$L0
 62
     3
 10
-204.1770642818
 20
136.1065416610
  0
VERTEX
  8
Layer0$C$L0
 62
     3
 10
-204.1397794113
 20
135.8868414362
  0
VERTEX
  8
Layer0$C$L0
 62
     3
 10
-204.0952244000
 20
135.6829317891
  0
SEQEND
  8
Layer0$C$L0
 62
     3
  0
LINE
  8
Layer0$C$L0
 62
     3
 10
-204.0952245997
 20
135.6829319388
 11
-204.6452245967
 21
135.6829319388
  0
POLYLINE
  8
Layer0$C$L0
 62
     3
 66
     1
  0
VERTEX
  8
Layer0$C$L0
 62
     3
 10
-204.5952243999
 20
135.6829317891
  0
VERTEX
  8
Layer0$C$L0
 62
     3
 10
-204.5506693886
 20
135.8868414362
  0
VERTEX
  8
Layer0$C$L0
 62
     3
 10
-204.5133845181
 20
136.1065416610
  0
VERTEX
  8
Layer0$C$L0
 62
     3
 10
-204.4838620170
 20
136.3391320192
  0
VERTEX
  8
Layer0$C$L0
 62
     3
 10
-204.4624916361
 20
136.5815418931
  0
VERTEX
  8
Layer0$C$L0
 62
     3
 10
-204.4495555036
 20
136.8305710296
  0
VERTEX
  8
Layer0$C$L0
 62
     3
 10
-204.4452243999
 20
137.0829317891
  0
VERTEX
  8
Layer0$C$L0
 62
     3
 10
-204.4495555036
 20
137.3352925486
  0
VERTEX
  8
Layer0$C$L0
 62
     3
 10
-204.4624916361
 20
137.5843216851
  0
VERTEX
  8
Layer0$C$L0
 62
     3
 10
-204.4838620170
 20
137.8267315590
  0
VERTEX
  8
Layer0$C$L0
 62
     3
 10
-204.5133845181
 20
138.0593219171
  0
VERTEX
  8
Layer0$C$L0
 62
     3
 10
-204.5506693886
 20
138.2790221420
  0
VERTEX
  8
Layer0$C$L0
 62
     3
 10
-204.5952243999
 20
138.4829317891
  0
SEQEND
  8
Layer0$C$L0
 62
     3
  0
LINE
  8
Layer0$C$L0
 62
     3
 10
-204.5952242159
 20
138.5329317541
 11
-204.5952242159
 21
135.6829319388
  0
LINE
  8
Layer0$C$L0
 62
     3
 10
-204.0952245997
 20
138.5329317541
 11
-204.0952245997
 21
135.6329315581
  0
POLYLINE
  8
Layer0$C$L0
 62
     3
 66
     1
  0
VERTEX
  8
Layer0$C$L0
 62
     3
 10
-204.5952243999
 20
141.2829317891
  0
VERTEX
  8
Layer0$C$L0
 62
     3
 10
-204.5506693886
 20
141.4868414362
  0
VERTEX
  8
Layer0$C$L0
 62
     3
 10
-204.5133845181
 20
141.7065416610
  0
VERTEX
  8
Layer0$C$L0
 62
     3
 10
-204.4838620170
 20
141.9391320192
  0
VERTEX
  8
Layer0$C$L0
 62
     3
 10
-204.4624916361
 20
142.1815418931
  0
VERTEX
  8
Layer0$C$L0
 62
     3
 10
-204.4495555036
 20
142.4305710296
  0
VERTEX
  8
Layer0$C$L0
 62
     3
 10
-204.4452243999
 20
142.6829317891
  0
VERTEX
  8
Layer0$C$L0
 62
     3
 10
-204.4495555036
 20
142.9352925486
  0
VERTEX
  8
Layer0$C$L0
 62
     3
 10
-204.4624916361
 20
143.1843216851
  0
VERTEX
  8
Layer0$C$L0
 62
     3
 10
-204.4838620170
 20
143.4267315590
  0
VERTEX
  8
Layer0$C$L0
 62
     3
 10
-204.5133845181
 20
143.6593219171
  0
VERTEX
  8
Layer0$C$L0
 62
     3
 10
-204.5506693886
 20
143.8790221420
  0
VERTEX
  8
Layer0$C$L0
 62
     3
 10
-204.5952243999
 20
144.0829317891
  0
SEQEND
  8
Layer0$C$L0
 62
     3
  0
LINE
  8
Layer0$C$L0
 62
     3
 10
-204.5952242159
 20
144.0829316393
 11
-204.5952242159
 21
141.2329318241
  0
LINE
  8
Layer0$C$L0
 62
     3
 10
-204.0952245997
 20
144.0829316393
 11
-204.6452245967
 21
144.0829316393
  0
POLYLINE
  8
Layer0$C$L0
 62
     3
 66
     1
  0
VERTEX
  8
Layer0$C$L0
 62
     3
 10
-204.0952244000
 20
144.0829317891
  0
VERTEX
  8
Layer0$C$L0
 62
     3
 10
-204.1397794113
 20
143.8790221420
  0
VERTEX
  8
Layer0$C$L0
 62
     3
 10
-204.1770642818
 20
143.6593219171
  0
VERTEX
  8
Layer0$C$L0
 62
     3
 10
-204.2065867829
 20
143.4267315590
  0
VERTEX
  8
Layer0$C$L0
 62
     3
 10
-204.2279571638
 20
143.1843216851
  0
VERTEX
  8
Layer0$C$L0
 62
     3
 10
-204.2408932964
 20
142.9352925486
  0
VERTEX
  8
Layer0$C$L0
 62
     3
 10
-204.2452244000
 20
142.6829317891
  0
VERTEX
  8
Layer0$C$L0
 62
     3
 10
-204.2408932964
 20
142.4305710296
  0
VERTEX
  8
Layer0$C$L0
 62
     3
 10
-204.2279571638
 20
142.1815418931
  0
VERTEX
  8
Layer0$C$L0
 62
     3
 10
-204.2065867829
 20
141.9391320192
  0
VERTEX
  8
Layer0$C$L0
 62
     3
 10
-204.1770642818
 20
141.7065416610
  0
VERTEX
  8
Layer0$C$L0
 62
     3
 10
-204.1397794113
 20
141.4868414362
  0
VERTEX
  8
Layer0$C$L0
 62
     3
 10
-204.0952244000
 20
141.2829317891
  0
SEQEND
  8
Layer0$C$L0
 62
     3
  0
LINE
  8
Layer0$C$L0
 62
     3
 10
-204.0952245997
 20
141.2829317392
 11
-204.5952242159
 21
141.2829317392
  0
LINE
  8
Layer0$C$L0
 62
     3
 10
-204.0952245997
 20
144.1329320200
 11
-204.0952245997
 21
141.2329318241
  0
LINE
  8
Layer0$C$L0
 62
     3
 10
-215.2952242003
 20
135.6829319388
 11
-214.7452242033
 21
135.6829319388
  0
POLYLINE
  8
Layer0$C$L0
 62
     3
 66
     1
  0
VERTEX
  8
Layer0$C$L0
 62
     3
 10
-215.2952243999
 20
135.6829317891
  0
VERTEX
  8
Layer0$C$L0
 62
     3
 10
-215.2506693886
 20
135.8868414362
  0
VERTEX
  8
Layer0$C$L0
 62
     3
 10
-215.2133845181
 20
136.1065416610
  0
VERTEX
  8
Layer0$C$L0
 62
     3
 10
-215.1838620170
 20
136.3391320192
  0
VERTEX
  8
Layer0$C$L0
 62
     3
 10
-215.1624916361
 20
136.5815418931
  0
VERTEX
  8
Layer0$C$L0
 62
     3
 10
-215.1495555036
 20
136.8305710296
  0
VERTEX
  8
Layer0$C$L0
 62
     3
 10
-215.1452243999
 20
137.0829317891
  0
VERTEX
  8
Layer0$C$L0
 62
     3
 10
-215.1495555036
 20
137.3352925486
  0
VERTEX
  8
Layer0$C$L0
 62
     3
 10
-215.1624916361
 20
137.5843216851
  0
VERTEX
  8
Layer0$C$L0
 62
     3
 10
-215.1838620170
 20
137.8267315590
  0
VERTEX
  8
Layer0$C$L0
 62
     3
 10
-215.2133845181
 20
138.0593219171
  0
VERTEX
  8
Layer0$C$L0
 62
     3
 10
-215.2506693886
 20
138.2790221420
  0
VERTEX
  8
Layer0$C$L0
 62
     3
 10
-215.2952243999
 20
138.4829317891
  0
SEQEND
  8
Layer0$C$L0
 62
     3
  0
LINE
  8
Layer0$C$L0
 62
     3
 10
-215.2952242003
 20
138.4829318390
 11
-214.7952245840
 21
138.4829318390
  0
POLYLINE
  8
Layer0$C$L0
 62
     3
 66
     1
  0
VERTEX
  8
Layer0$C$L0
 62
     3
 10
-214.7952244000
 20
138.4829317891
  0
VERTEX
  8
Layer0$C$L0
 62
     3
 10
-214.8397794113
 20
138.2790221420
  0
VERTEX
  8
Layer0$C$L0
 62
     3
 10
-214.8770642818
 20
138.0593219171
  0
VERTEX
  8
Layer0$C$L0
 62
     3
 10
-214.9065867829
 20
137.8267315590
  0
VERTEX
  8
Layer0$C$L0
 62
     3
 10
-214.9279571638
 20
137.5843216851
  0
VERTEX
  8
Layer0$C$L0
 62
     3
 10
-214.9408932964
 20
137.3352925486
  0
VERTEX
  8
Layer0$C$L0
 62
     3
 10
-214.9452244000
 20
137.0829317891
  0
VERTEX
  8
Layer0$C$L0
 62
     3
 10
-214.9408932964
 20
136.8305710296
  0
VERTEX
  8
Layer0$C$L0
 62
     3
 10
-214.9279571638
 20
136.5815418931
  0
VERTEX
  8
Layer0$C$L0
 62
     3
 10
-214.9065867829
 20
136.3391320192
  0
VERTEX
  8
Layer0$C$L0
 62
     3
 10
-214.8770642818
 20
136.1065416610
  0
VERTEX
  8
Layer0$C$L0
 62
     3
 10
-214.8397794113
 20
135.8868414362
  0
VERTEX
  8
Layer0$C$L0
 62
     3
 10
-214.7952244000
 20
135.6829317891
  0
SEQEND
  8
Layer0$C$L0
 62
     3
  0
LINE
  8
Layer0$C$L0
 62
     3
 10
-215.2952242003
 20
135.6329315581
 11
-215.2952242003
 21
138.5329317541
  0
LINE
  8
Layer0$C$L0
 62
     3
 10
-214.7952245840
 20
135.6829319388
 11
-214.7952245840
 21
138.5329317541
  0
LINE
  8
Layer0$C$L0
 62
     3
 10
-215.2952242003
 20
141.2329318241
 11
-215.2952242003
 21
144.1329320200
  0
POLYLINE
  8
Layer0$C$L0
 62
     3
 66
     1
  0
VERTEX
  8
Layer0$C$L0
 62
     3
 10
-215.2952243999
 20
141.2829317891
  0
VERTEX
  8
Layer0$C$L0
 62
     3
 10
-215.2506693886
 20
141.4868414362
  0
VERTEX
  8
Layer0$C$L0
 62
     3
 10
-215.2133845181
 20
141.7065416610
  0
VERTEX
  8
Layer0$C$L0
 62
     3
 10
-215.1838620170
 20
141.9391320192
  0
VERTEX
  8
Layer0$C$L0
 62
     3
 10
-215.1624916361
 20
142.1815418931
  0
VERTEX
  8
Layer0$C$L0
 62
     3
 10
-215.1495555036
 20
142.4305710296
  0
VERTEX
  8
Layer0$C$L0
 62
     3
 10
-215.1452243999
 20
142.6829317891
  0
VERTEX
  8
Layer0$C$L0
 62
     3
 10
-215.1495555036
 20
142.9352925486
  0
VERTEX
  8
Layer0$C$L0
 62
     3
 10
-215.1624916361
 20
143.1843216851
  0
VERTEX
  8
Layer0$C$L0
 62
     3
 10
-215.1838620170
 20
143.4267315590
  0
VERTEX
  8
Layer0$C$L0
 62
     3
 10
-215.2133845181
 20
143.6593219171
  0
VERTEX
  8
Layer0$C$L0
 62
     3
 10
-215.2506693886
 20
143.8790221420
  0
VERTEX
  8
Layer0$C$L0
 62
     3
 10
-215.2952243999
 20
144.0829317891
  0
SEQEND
  8
Layer0$C$L0
 62
     3
  0
POLYLINE
  8
Layer0$C$L0
 62
     3
 66
     1
  0
VERTEX
  8
Layer0$C$L0
 62
     3
 10
-214.7952244000
 20
144.0829317891
  0
VERTEX
  8
Layer0$C$L0
 62
     3
 10
-214.8397794113
 20
143.8790221420
  0
VERTEX
  8
Layer0$C$L0
 62
     3
 10
-214.8770642818
 20
143.6593219171
  0
VERTEX
  8
Layer0$C$L0
 62
     3
 10
-214.9065867829
 20
143.4267315590
  0
VERTEX
  8
Layer0$C$L0
 62
     3
 10
-214.9279571638
 20
143.1843216851
  0
VERTEX
  8
Layer0$C$L0
 62
     3
 10
-214.9408932964
 20
142.9352925486
  0
VERTEX
  8
Layer0$C$L0
 62
     3
 10
-214.9452244000
 20
142.6829317891
  0
VERTEX
  8
Layer0$C$L0
 62
     3
 10
-214.9408932964
 20
142.4305710296
  0
VERTEX
  8
Layer0$C$L0
 62
     3
 10
-214.9279571638
 20
142.1815418931
  0
VERTEX
  8
Layer0$C$L0
 62
     3
 10
-214.9065867829
 20
141.9391320192
  0
VERTEX
  8
Layer0$C$L0
 62
     3
 10
-214.8770642818
 20
141.7065416610
  0
VERTEX
  8
Layer0$C$L0
 62
     3
 10
-214.8397794113
 20
141.4868414362
  0
VERTEX
  8
Layer0$C$L0
 62
     3
 10
-214.7952244000
 20
141.2829317891
  0
SEQEND
  8
Layer0$C$L0
 62
     3
  0
LINE
  8
Layer0$C$L0
 62
     3
 10
-214.7952245840
 20
141.2329318241
 11
-214.7952245840
 21
144.0829316393
  0
LINE
  8
Layer0$C$L0
 62
     3
 10
-215.2952242003
 20
141.2829317392
 11
-214.7952245840
 21
141.2829317392
  0
LINE
  8
Layer0$C$L0
 62
     3
 10
-215.2952242003
 20
144.0829316393
 11
-214.7452242033
 21
144.0829316393
  0
LINE
  8
Layer0$C$L0
 62
     3
 10
-218.3923503620
 20
136.8829317891
 11
-217.1114228871
 21
136.8829317891
  0
CIRCLE
  8
Layer0$C$L0
 62
     3
 10
-209.6952244000
 20
139.8829317891
 40
8.0000000000
  0
LINE
  8
Layer0$C$L0
 62
     3
 10
-212.6952244000
 20
132.4667333020
 11
-212.6952244000
 21
131.1858058270
  0
ARC
  8
Layer0$C$L0
 62
     3
 10
-209.6952244000
 20
139.8829317891
 40
9.2000000000
 50
70.9685590749
 51
379.0314409251
  0
LINE
  8
Layer0$C$L0
 62
     3
 10
-212.6952244000
 20
148.5800577511
 11
-212.6952244000
 21
147.2991302762
  0
LINE
  8
Layer0$C$L0
 62
     3
 10
-217.1114228871
 20
142.8829317891
 11
-218.3923503620
 21
142.8829317891
  0
LINE
  8
Layer0$C$L0
 62
     3
 10
-202.2790259129
 20
136.8829317891
 11
-200.9980984379
 21
136.8829317891
  0
LINE
  8
Layer0$C$L0
 62
     3
 10
-206.6952244000
 20
131.1858058270
 11
-206.6952244000
 21
132.4667333020
  0
LINE
  8
Layer0$C$L0
 62
     3
 10
-200.9980984379
 20
142.8829317891
 11
-202.2790259129
 21
142.8829317891
  0
LINE
  8
Layer0$C$L0
 62
     3
 10
-206.6952244000
 20
147.2991302762
 11
-206.6952244000
 21
148.5800577511
  0
ARC
  8
Layer0$C$L0
 62
     3
 10
-209.6952244000
 20
139.8829317891
 40
9.2000000000
 50
19.0314409251
 51
70.9685590749
  0
ARC
  8
Layer0$C$L0
 62
     3
 10
-219.4788762260
 20
138.6766042751
 40
1.0895604903
 50
132.5188914617
 51
144.7858629330
  0
LINE
  8
Layer0$C$L0
 62
     3
 10
-220.3690500290
 20
140.4609817669
 11
-220.3785222493
 21
140.4805496118
  0
ARC
  8
Layer0$C$L0
 62
     3
 10
-209.6952244000
 20
139.8829317891
 40
10.7000000000
 50
168.2017575954
 51
176.7982424046
  0
LINE
  8
Layer0$C$L0
 62
     3
 10
-220.1691725768
 20
142.0707182478
 11
-220.1549585269
 21
142.0871676651
  0
ARC
  8
Layer0$C$L0
 62
     3
 10
-219.4579219106
 20
141.2501972110
 40
1.0892105331
 50
117.5169071706
 51
129.7878403815
  0
ARC
  8
Layer0$C$L0
 62
     3
 10
-219.4788762260
 20
141.0892593030
 40
1.0895604903
 50
215.2141370670
 51
227.4811085383
  0
LINE
  8
Layer0$C$L0
 62
     3
 10
-220.1549585269
 20
137.6786959131
 11
-220.1691725768
 21
137.6951453303
  0
ARC
  8
Layer0$C$L0
 62
     3
 10
-209.6952244000
 20
139.8829317891
 40
10.7000000000
 50
183.2017575954
 51
191.7982424046
  0
LINE
  8
Layer0$C$L0
 62
     3
 10
-220.3785222493
 20
139.2853139664
 11
-220.3690500290
 21
139.3048818113
  0
ARC
  8
Layer0$C$L0
 62
     3
 10
-219.4579219106
 20
138.5156663671
 40
1.0892105331
 50
230.2121596185
 51
242.4830928294
  0
ARC
  8
Layer0$C$L0
 62
     3
 10
-218.8337742852
 20
136.1857559481
 40
1.0890181307
 50
147.5158397863
 51
159.7889439888
  0
ARC
  8
Layer0$C$L0
 62
     3
 10
-218.8337742852
 20
143.5801076301
 40
1.0890181307
 50
200.2110560112
 51
212.4841602137
  0
LINE
  8
Layer0$C$L0
 62
     3
 10
-219.8557376222
 20
143.2038744219
 11
-219.8598228284
 21
143.2252272262
  0
ARC
  8
Layer0$C$L0
 62
     3
 10
-209.6952244000
 20
139.8829317891
 40
10.7000000000
 50
153.2017575954
 51
161.7982424046
  0
LINE
  8
Layer0$C$L0
 62
     3
 10
-219.2460406451
 20
144.7070284975
 11
-219.2280532153
 21
144.7192386963
  0
ARC
  8
Layer0$C$L0
 62
     3
 10
-218.7713128465
 20
143.7301457332
 40
1.0894570456
 50
102.5182684843
 51
114.7864060965
  0
LINE
  8
Layer0$C$L0
 62
     3
 10
-219.2280532153
 20
135.0466248818
 11
-219.2460406451
 21
135.0588350806
  0
ARC
  8
Layer0$C$L0
 62
     3
 10
-209.6952244000
 20
139.8829317891
 40
10.7000000000
 50
198.2017575954
 51
206.7982424046
  0
LINE
  8
Layer0$C$L0
 62
     3
 10
-219.8598228284
 20
136.5406363520
 11
-219.8557376222
 21
136.5619891562
  0
ARC
  8
Layer0$C$L0
 62
     3
 10
-218.7713128465
 20
136.0357178450
 40
1.0894570456
 50
245.2135939035
 51
257.4817315157
  0
ARC
  8
Layer0$C$L0
 62
     3
 10
-217.5647615601
 20
133.9463565997
 40
1.0897534430
 50
162.5199427307
 51
174.7847264136
  0
ARC
  8
Layer0$C$L0
 62
     3
 10
-217.5647615601
 20
145.8195069785
 40
1.0897534430
 50
185.2152735864
 51
197.4800572693
  0
LINE
  8
Layer0$C$L0
 62
     3
 10
-217.6515019790
 20
132.7441407607
 11
-217.6720363697
 21
132.7512790493
  0
ARC
  8
Layer0$C$L0
 62
     3
 10
-209.6952244000
 20
139.8829317891
 40
10.7000000000
 50
213.2017575954
 51
221.7982424046
  0
LINE
  8
Layer0$C$L0
 62
     3
 10
-218.6484228224
 20
134.0237306482
 11
-218.6500036449
 21
134.0454130673
  0
ARC
  8
Layer0$C$L0
 62
     3
 10
-217.4663123461
 20
133.8178343701
 40
1.0895472303
 50
260.2139630781
 51
272.4810852582
  0
LINE
  8
Layer0$C$L0
 62
     3
 10
-218.6500036449
 20
145.7204505109
 11
-218.6484228224
 21
145.7421329300
  0
ARC
  8
Layer0$C$L0
 62
     3
 10
-209.6952244000
 20
139.8829317891
 40
10.7000000000
 50
138.2017575954
 51
146.7982424046
  0
LINE
  8
Layer0$C$L0
 62
     3
 10
-217.6720363697
 20
147.0145845288
 11
-217.6515019790
 21
147.0217228175
  0
ARC
  8
Layer0$C$L0
 62
     3
 10
-217.4663123461
 20
145.9480292080
 40
1.0895472303
 50
87.5189147418
 51
99.7860369219
  0
ARC
  8
Layer0$C$L0
 62
     3
 10
-215.7603218189
 20
132.1118438430
 40
1.0895472303
 50
177.5189147418
 51
189.7860369219
  0
ARC
  8
Layer0$C$L0
 62
     3
 10
-215.7603218189
 20
147.6540197352
 40
1.0895472303
 50
170.2139630781
 51
182.4810852582
  0
LINE
  8
Layer0$C$L0
 62
     3
 10
-216.8340154284
 20
147.8392093681
 11
-216.8268771397
 21
147.8597437588
  0
ARC
  8
Layer0$C$L0
 62
     3
 10
-209.6952244000
 20
139.8829317891
 40
10.7000000000
 50
123.2017575954
 51
131.7982424046
  0
LINE
  8
Layer0$C$L0
 62
     3
 10
-215.5544255409
 20
148.8361302115
 11
-215.5327431218
 21
148.8377110340
  0
ARC
  8
Layer0$C$L0
 62
     3
 10
-215.6317995894
 20
147.7524689492
 40
1.0897534430
 50
72.5199427307
 51
84.7847264136
  0
LINE
  8
Layer0$C$L0
 62
     3
 10
-215.5327431218
 20
130.9281525441
 11
-215.5544255409
 21
130.9297333667
  0
ARC
  8
Layer0$C$L0
 62
     3
 10
-209.6952244000
 20
139.8829317891
 40
10.7000000000
 50
228.2017575954
 51
236.7982424046
  0
LINE
  8
Layer0$C$L0
 62
     3
 10
-216.8268771397
 20
131.9061198194
 11
-216.8340154284
 21
131.9266542100
  0
ARC
  8
Layer0$C$L0
 62
     3
 10
-215.6317995894
 20
132.0133946289
 40
1.0897534430
 50
275.2152735864
 51
287.4800572693
  0
ARC
  8
Layer0$C$L0
 62
     3
 10
-213.5424383441
 20
130.8068433426
 40
1.0894570456
 50
192.5182684843
 51
204.7864060965
  0
LINE
  8
Layer0$C$L0
 62
     3
 10
-213.0161670328
 20
129.7224185669
 11
-213.0375198371
 21
129.7183333607
  0
ARC
  8
Layer0$C$L0
 62
     3
 10
-209.6952244000
 20
139.8829317891
 40
10.7000000000
 50
243.2017575954
 51
251.7982424046
  0
LINE
  8
Layer0$C$L0
 62
     3
 10
-214.5193211084
 20
130.3321155440
 11
-214.5315313072
 21
130.3501029738
  0
ARC
  8
Layer0$C$L0
 62
     3
 10
-213.3924002410
 20
130.7443819039
 40
1.0890181307
 50
290.2110560112
 51
302.4841602137
  0
ARC
  8
Layer0$C$L0
 62
     3
 10
-213.5424383441
 20
148.9590202356
 40
1.0894570456
 50
155.2135939035
 51
167.4817315157
  0
LINE
  8
Layer0$C$L0
 62
     3
 10
-214.5315313072
 20
149.4157606044
 11
-214.5193211084
 21
149.4337480342
  0
ARC
  8
Layer0$C$L0
 62
     3
 10
-209.6952244000
 20
139.8829317891
 40
10.7000000000
 50
108.2017575954
 51
116.7982424046
  0
LINE
  8
Layer0$C$L0
 62
     3
 10
-213.0375198371
 20
150.0475302175
 11
-213.0161670328
 21
150.0434450113
  0
ARC
  8
Layer0$C$L0
 62
     3
 10
-213.3924002410
 20
149.0214816743
 40
1.0890181307
 50
57.5158397863
 51
69.7889439888
  0
ARC
  8
Layer0$C$L0
 62
     3
 10
-211.0624898219
 20
130.1202342785
 40
1.0892105331
 50
207.5169071706
 51
219.7878403815
  0
LINE
  8
Layer0$C$L0
 62
     3
 10
-210.2732743778
 20
129.2091061600
 11
-210.2928422227
 21
129.1996339397
  0
ARC
  8
Layer0$C$L0
 62
     3
 10
-209.6952244000
 20
139.8829317891
 40
10.7000000000
 50
258.2017575954
 51
266.7982424046
  0
LINE
  8
Layer0$C$L0
 62
     3
 10
-211.8830108587
 20
129.4089836122
 11
-211.8994602760
 21
129.4231976621
  0
ARC
  8
Layer0$C$L0
 62
     3
 10
-210.9015519139
 20
130.0992799630
 40
1.0895604903
 50
305.2141370670
 51
317.4811085383
  0
ARC
  8
Layer0$C$L0
 62
     3
 10
-211.0624898219
 20
149.6456292997
 40
1.0892105331
 50
140.2121596185
 51
152.4830928294
  0
LINE
  8
Layer0$C$L0
 62
     3
 10
-211.8994602760
 20
150.3426659160
 11
-211.8830108587
 21
150.3568799659
  0
ARC
  8
Layer0$C$L0
 62
     3
 10
-209.6952244000
 20
139.8829317891
 40
10.7000000000
 50
93.2017575954
 51
101.7982424046
  0
LINE
  8
Layer0$C$L0
 62
     3
 10
-210.2928422227
 20
150.5662296384
 11
-210.2732743778
 21
150.5567574181
  0
ARC
  8
Layer0$C$L0
 62
     3
 10
-210.9015519139
 20
149.6665836151
 40
1.0895604903
 50
42.5188914617
 51
54.7858629330
  0
LINE
  8
Layer0$C$L0
 62
     3
 10
-209.1171744222
 20
150.5567574181
 11
-209.0976065773
 21
150.5662296384
  0
ARC
  8
Layer0$C$L0
 62
     3
 10
-209.6952244000
 20
139.8829317891
 40
10.7000000000
 50
78.2017575954
 51
86.7982424046
  0
LINE
  8
Layer0$C$L0
 62
     3
 10
-207.5074379413
 20
150.3568799659
 11
-207.4909885240
 21
150.3426659160
  0
ARC
  8
Layer0$C$L0
 62
     3
 10
-208.3279589780
 20
149.6456292997
 40
1.0892105331
 50
27.5169071706
 51
39.7878403815
  0
ARC
  8
Layer0$C$L0
 62
     3
 10
-208.4888968860
 20
149.6665836151
 40
1.0895604903
 50
125.2141370670
 51
137.4811085383
  0
LINE
  8
Layer0$C$L0
 62
     3
 10
-207.4909885240
 20
129.4231976621
 11
-207.5074379412
 21
129.4089836122
  0
ARC
  8
Layer0$C$L0
 62
     3
 10
-209.6952244000
 20
139.8829317891
 40
10.7000000000
 50
273.2017575954
 51
281.7982424046
  0
LINE
  8
Layer0$C$L0
 62
     3
 10
-209.0976065773
 20
129.1996339397
 11
-209.1171744222
 21
129.2091061600
  0
ARC
  8
Layer0$C$L0
 62
     3
 10
-208.4888968860
 20
130.0992799630
 40
1.0895604903
 50
222.5188914617
 51
234.7858629330
  0
ARC
  8
Layer0$C$L0
 62
     3
 10
-208.3279589780
 20
130.1202342785
 40
1.0892105331
 50
320.2121596185
 51
332.4830928294
  0
LINE
  8
Layer0$C$L0
 62
     3
 10
-206.3742817671
 20
150.0434450113
 11
-206.3529289629
 21
150.0475302175
  0
ARC
  8
Layer0$C$L0
 62
     3
 10
-209.6952244000
 20
139.8829317891
 40
10.7000000000
 50
63.2017575954
 51
71.7982424046
  0
LINE
  8
Layer0$C$L0
 62
     3
 10
-204.8711276915
 20
149.4337480342
 11
-204.8589174927
 21
149.4157606044
  0
ARC
  8
Layer0$C$L0
 62
     3
 10
-205.8480104559
 20
148.9590202356
 40
1.0894570456
 50
12.5182684843
 51
24.7864060965
  0
ARC
  8
Layer0$C$L0
 62
     3
 10
-205.9980485590
 20
149.0214816743
 40
1.0890181307
 50
110.2110560112
 51
122.4841602137
  0
LINE
  8
Layer0$C$L0
 62
     3
 10
-204.8589174927
 20
130.3501029738
 11
-204.8711276915
 21
130.3321155440
  0
ARC
  8
Layer0$C$L0
 62
     3
 10
-209.6952244000
 20
139.8829317891
 40
10.7000000000
 50
288.2017575954
 51
296.7982424046
  0
LINE
  8
Layer0$C$L0
 62
     3
 10
-206.3529289629
 20
129.7183333607
 11
-206.3742817671
 21
129.7224185669
  0
ARC
  8
Layer0$C$L0
 62
     3
 10
-205.9980485590
 20
130.7443819039
 40
1.0890181307
 50
237.5158397863
 51
249.7889439888
  0
ARC
  8
Layer0$C$L0
 62
     3
 10
-205.8480104559
 20
130.8068433426
 40
1.0894570456
 50
335.2135939035
 51
347.4817315157
  0
ARC
  8
Layer0$C$L0
 62
     3
 10
-203.7586492106
 20
132.0133946289
 40
1.0897534430
 50
252.5199427307
 51
264.7847264136
  0
LINE
  8
Layer0$C$L0
 62
     3
 10
-203.8577056782
 20
148.8377110340
 11
-203.8360232591
 21
148.8361302115
  0
ARC
  8
Layer0$C$L0
 62
     3
 10
-209.6952244000
 20
139.8829317891
 40
10.7000000000
 50
48.2017575954
 51
56.7982424046
  0
LINE
  8
Layer0$C$L0
 62
     3
 10
-202.5635716602
 20
147.8597437588
 11
-202.5564333716
 21
147.8392093681
  0
ARC
  8
Layer0$C$L0
 62
     3
 10
-203.6301269810
 20
147.6540197352
 40
1.0895472303
 50
357.5189147418
 51
369.7860369219
  0
ARC
  8
Layer0$C$L0
 62
     3
 10
-203.7586492106
 20
147.7524689492
 40
1.0897534430
 50
95.2152735864
 51
107.4800572693
  0
LINE
  8
Layer0$C$L0
 62
     3
 10
-202.5564333716
 20
131.9266542100
 11
-202.5635716602
 21
131.9061198194
  0
ARC
  8
Layer0$C$L0
 62
     3
 10
-209.6952244000
 20
139.8829317891
 40
10.7000000000
 50
303.2017575954
 51
311.7982424046
  0
LINE
  8
Layer0$C$L0
 62
     3
 10
-203.8360232591
 20
130.9297333667
 11
-203.8577056782
 21
130.9281525441
  0
ARC
  8
Layer0$C$L0
 62
     3
 10
-203.6301269810
 20
132.1118438430
 40
1.0895472303
 50
350.2139630781
 51
362.4810852582
  0
LINE
  8
Layer0$C$L0
 62
     3
 10
-201.7389468209
 20
147.0217228175
 11
-201.7184124303
 21
147.0145845288
  0
ARC
  8
Layer0$C$L0
 62
     3
 10
-209.6952244000
 20
139.8829317891
 40
10.7000000000
 50
33.2017575954
 51
41.7982424046
  0
LINE
  8
Layer0$C$L0
 62
     3
 10
-200.7420259776
 20
145.7421329300
 11
-200.7404451550
 21
145.7204505109
  0
ARC
  8
Layer0$C$L0
 62
     3
 10
-201.8256872398
 20
145.8195069785
 40
1.0897534430
 50
342.5199427307
 51
354.7847264136
  0
ARC
  8
Layer0$C$L0
 62
     3
 10
-201.9241364539
 20
145.9480292080
 40
1.0895472303
 50
80.2139630781
 51
92.4810852582
  0
LINE
  8
Layer0$C$L0
 62
     3
 10
-200.7404451550
 20
134.0454130673
 11
-200.7420259776
 21
134.0237306482
  0
ARC
  8
Layer0$C$L0
 62
     3
 10
-209.6952244000
 20
139.8829317891
 40
10.7000000000
 50
318.2017575954
 51
326.7982424046
  0
LINE
  8
Layer0$C$L0
 62
     3
 10
-201.7184124303
 20
132.7512790493
 11
-201.7389468209
 21
132.7441407607
  0
ARC
  8
Layer0$C$L0
 62
     3
 10
-201.9241364539
 20
133.8178343701
 40
1.0895472303
 50
267.5189147418
 51
279.7860369219
  0
ARC
  8
Layer0$C$L0
 62
     3
 10
-201.8256872398
 20
133.9463565997
 40
1.0897534430
 50
5.2152735864
 51
17.4800572693
  0
LINE
  8
Layer0$C$L0
 62
     3
 10
-199.5347111778
 20
136.5619891562
 11
-199.5306259716
 21
136.5406363520
  0
ARC
  8
Layer0$C$L0
 62
     3
 10
-209.6952244000
 20
139.8829317891
 40
10.7000000000
 50
333.2017575954
 51
341.7982424046
  0
LINE
  8
Layer0$C$L0
 62
     3
 10
-200.1444081549
 20
135.0588350806
 11
-200.1623955847
 21
135.0466248818
  0
ARC
  8
Layer0$C$L0
 62
     3
 10
-200.6191359535
 20
136.0357178450
 40
1.0894570456
 50
282.5182684843
 51
294.7864060965
  0
ARC
  8
Layer0$C$L0
 62
     3
 10
-200.5566745148
 20
136.1857559481
 40
1.0890181307
 50
20.2110560112
 51
32.4841602137
  0
LINE
  8
Layer0$C$L0
 62
     3
 10
-200.1623955847
 20
144.7192386963
 11
-200.1444081549
 21
144.7070284975
  0
ARC
  8
Layer0$C$L0
 62
     3
 10
-209.6952244000
 20
139.8829317891
 40
10.7000000000
 50
18.2017575954
 51
26.7982424046
  0
LINE
  8
Layer0$C$L0
 62
     3
 10
-199.5306259716
 20
143.2252272262
 11
-199.5347111778
 21
143.2038744219
  0
ARC
  8
Layer0$C$L0
 62
     3
 10
-200.5566745148
 20
143.5801076301
 40
1.0890181307
 50
327.5158397863
 51
339.7889439888
  0
ARC
  8
Layer0$C$L0
 62
     3
 10
-200.6191359535
 20
143.7301457332
 40
1.0894570456
 50
65.2135939035
 51
77.4817315157
  0
ARC
  8
Layer0$C$L0
 62
     3
 10
-199.9325268894
 20
141.2501972110
 40
1.0892105331
 50
50.2121596185
 51
62.4830928294
  0
LINE
  8
Layer0$C$L0
 62
     3
 10
-199.0213987709
 20
139.3048818113
 11
-199.0119265506
 21
139.2853139664
  0
ARC
  8
Layer0$C$L0
 62
     3
 10
-209.6952244000
 20
139.8829317891
 40
10.7000000000
 50
348.2017575954
 51
356.7982424046
  0
LINE
  8
Layer0$C$L0
 62
     3
 10
-199.2212762231
 20
137.6951453304
 11
-199.2354902730
 21
137.6786959131
  0
ARC
  8
Layer0$C$L0
 62
     3
 10
-199.9325268894
 20
138.5156663671
 40
1.0892105331
 50
297.5169071706
 51
309.7878403815
  0
ARC
  8
Layer0$C$L0
 62
     3
 10
-199.9115725739
 20
138.6766042751
 40
1.0895604903
 50
35.2141370670
 51
47.4811085383
  0
LINE
  8
Layer0$C$L0
 62
     3
 10
-199.2354902730
 20
142.0871676651
 11
-199.2212762231
 21
142.0707182478
  0
ARC
  8
Layer0$C$L0
 62
     3
 10
-209.6952244000
 20
139.8829317891
 40
10.7000000000
 50
3.2017575954
 51
11.7982424046
  0
LINE
  8
Layer0$C$L0
 62
     3
 10
-199.0119265506
 20
140.4805496118
 11
-199.0213987709
 21
140.4609817669
  0
ARC
  8
Layer0$C$L0
 62
     3
 10
-199.9115725739
 20
141.0892593030
 40
1.0895604903
 50
312.5188914617
 51
324.7858629330
  0
LINE
  8
Layer0$C$L0
 62
     3
 10
-220.3877451505
 20
140.4829317891
 11
-220.3783884005
 21
140.4829318176
  0
ARC
  8
Layer0$C$L0
 62
     3
 10
-220.3877451505
 20
140.2829317891
 40
0.2000000000
 50
90.0000000000
 51
177.8576025019
  0
ARC
  8
Layer0$C$L0
 62
     3
 10
-220.3877451505
 20
139.4829317891
 40
0.2000000000
 50
182.1423974981
 51
270.0000000000
  0
LINE
  8
Layer0$C$L0
 62
     3
 10
-220.3783884005
 20
139.2829317606
 11
-220.3877451505
 21
139.2829317891
  0
ARC
  8
Layer0$C$L0
 62
     3
 10
-209.6952244000
 20
139.8829317891
 40
10.9000000000
 50
177.8576025019
 51
182.1423974981
  0
ARC
  8
Layer0$C$L0
 62
     3
 10
-209.6952244000
 20
139.8829317891
 40
10.9000000000
 50
192.8576025019
 51
197.1423974981
  0
ARC
  8
Layer0$C$L0
 62
     3
 10
-220.1269339591
 20
142.2639894689
 40
0.2000000000
 50
167.1423974981
 51
255.0000000000
  0
POLYLINE
  8
Layer0$C$L0
 62
     3
 66
     1
  0
VERTEX
  8
Layer0$C$L0
 62
     3
 10
-220.1696603851
 20
142.0683826559
  0
VERTEX
  8
Layer0$C$L0
 62
     3
 10
-220.1732543589
 20
142.0693458763
  0
VERTEX
  8
Layer0$C$L0
 62
     3
 10
-220.1786979393
 20
142.0708043274
  0
SEQEND
  8
Layer0$C$L0
 62
     3
  0
LINE
  8
Layer0$C$L0
 62
     3
 10
-220.1786979393
 20
137.6950592507
 11
-220.1696603851
 21
137.6974809223
  0
ARC
  8
Layer0$C$L0
 62
     3
 10
-220.1269339591
 20
137.5018741092
 40
0.2000000000
 50
105.0000000000
 51
192.8576025019
  0
ARC
  8
Layer0$C$L0
 62
     3
 10
-209.6952244000
 20
139.8829317891
 40
10.9000000000
 50
162.8576025019
 51
167.1423974981
  0
ARC
  8
Layer0$C$L0
 62
     3
 10
-219.9198787230
 20
136.7291334482
 40
0.2000000000
 50
197.1423974981
 51
285.0000000000
  0
POLYLINE
  8
Layer0$C$L0
 62
     3
 66
     1
  0
VERTEX
  8
Layer0$C$L0
 62
     3
 10
-219.8590773449
 20
136.5383698844
  0
VERTEX
  8
Layer0$C$L0
 62
     3
 10
-219.8626722501
 20
136.5374066640
  0
VERTEX
  8
Layer0$C$L0
 62
     3
 10
-219.8681148992
 20
136.5359482129
  0
SEQEND
  8
Layer0$C$L0
 62
     3
  0
LINE
  8
Layer0$C$L0
 62
     3
 10
-219.8681148992
 20
143.2299153653
 11
-219.8590773449
 21
143.2274936937
  0
ARC
  8
Layer0$C$L0
 62
     3
 10
-219.9198787230
 20
143.0367301300
 40
0.2000000000
 50
75.0000000000
 51
162.8576025019
  0
LINE
  8
Layer0$C$L0
 62
     3
 10
-219.2552189634
 20
135.0562868879
 11
-219.2471164570
 21
135.0609649212
  0
ARC
  8
Layer0$C$L0
 62
     3
 10
-219.1552190004
 20
134.8830815753
 40
0.2000000000
 50
120.0000000000
 51
207.8576025019
  0
ARC
  8
Layer0$C$L0
 62
     3
 10
-209.6952244000
 20
139.8829317891
 40
10.9000000000
 50
207.8576025019
 51
212.1423974981
  0
ARC
  8
Layer0$C$L0
 62
     3
 10
-209.6952244000
 20
139.8829317891
 40
10.9000000000
 50
147.8576025019
 51
152.1423974981
  0
ARC
  8
Layer0$C$L0
 62
     3
 10
-219.1552190004
 20
144.8827820028
 40
0.2000000000
 50
152.1423974981
 51
240.0000000000
  0
POLYLINE
  8
Layer0$C$L0
 62
     3
 66
     1
  0
VERTEX
  8
Layer0$C$L0
 62
     3
 10
-219.2471164570
 20
144.7048986570
  0
VERTEX
  8
Layer0$C$L0
 62
     3
 10
-219.2503388331
 20
144.7067594395
  0
VERTEX
  8
Layer0$C$L0
 62
     3
 10
-219.2552189634
 20
144.7095766903
  0
SEQEND
  8
Layer0$C$L0
 62
     3
  0
LINE
  8
Layer0$C$L0
 62
     3
 10
-218.6552190514
 20
145.7488074206
 11
-218.6471165450
 21
145.7441293874
  0
ARC
  8
Layer0$C$L0
 62
     3
 10
-218.7552190004
 20
145.5756023258
 40
0.2000000000
 50
60.0000000000
 51
147.8576025019
  0
ARC
  8
Layer0$C$L0
 62
     3
 10
-218.7552190004
 20
134.1902612523
 40
0.2000000000
 50
212.1423974981
 51
300.0000000000
  0
POLYLINE
  8
Layer0$C$L0
 62
     3
 66
     1
  0
VERTEX
  8
Layer0$C$L0
 62
     3
 10
-218.6471165450
 20
134.0217341908
  0
VERTEX
  8
Layer0$C$L0
 62
     3
 10
-218.6503389211
 20
134.0198738740
  0
VERTEX
  8
Layer0$C$L0
 62
     3
 10
-218.6552190514
 20
134.0170561575
  0
SEQEND
  8
Layer0$C$L0
 62
     3
  0
LINE
  8
Layer0$C$L0
 62
     3
 10
-217.6802425937
 20
132.7464420587
 11
-217.6736264781
 21
132.7530577087
  0
ARC
  8
Layer0$C$L0
 62
     3
 10
-217.5388210431
 20
132.6050205709
 40
0.2000000000
 50
135.0000000000
 51
222.8576025019
  0
ARC
  8
Layer0$C$L0
 62
     3
 10
-217.5388210431
 20
147.1608430073
 40
0.2000000000
 50
137.1423974981
 51
225.0000000000
  0
POLYLINE
  8
Layer0$C$L0
 62
     3
 66
     1
  0
VERTEX
  8
Layer0$C$L0
 62
     3
 10
-217.6736264781
 20
147.0128058695
  0
VERTEX
  8
Layer0$C$L0
 62
     3
 10
-217.6762574644
 20
147.0154373214
  0
VERTEX
  8
Layer0$C$L0
 62
     3
 10
-217.6802425937
 20
147.0194215194
  0
SEQEND
  8
Layer0$C$L0
 62
     3
  0
ARC
  8
Layer0$C$L0
 62
     3
 10
-209.6952244000
 20
139.8829317891
 40
10.9000000000
 50
132.8576025019
 51
137.1423974981
  0
ARC
  8
Layer0$C$L0
 62
     3
 10
-209.6952244000
 20
139.8829317891
 40
10.9000000000
 50
222.8576025019
 51
227.1423974981
  0
ARC
  8
Layer0$C$L0
 62
     3
 10
-216.9731356182
 20
132.0393351459
 40
0.2000000000
 50
227.1423974981
 51
315.0000000000
  0
POLYLINE
  8
Layer0$C$L0
 62
     3
 66
     1
  0
VERTEX
  8
Layer0$C$L0
 62
     3
 10
-216.8250984804
 20
131.9045297109
  0
VERTEX
  8
Layer0$C$L0
 62
     3
 10
-216.8277299323
 20
131.9018987247
  0
VERTEX
  8
Layer0$C$L0
 62
     3
 10
-216.8317141303
 20
131.8979135954
  0
SEQEND
  8
Layer0$C$L0
 62
     3
  0
LINE
  8
Layer0$C$L0
 62
     3
 10
-216.8317141303
 20
147.8679499828
 11
-216.8250984804
 21
147.8613338672
  0
ARC
  8
Layer0$C$L0
 62
     3
 10
-216.9731356182
 20
147.7265284322
 40
0.2000000000
 50
45.0000000000
 51
132.8576025019
  0
ARC
  8
Layer0$C$L0
 62
     3
 10
-209.6952244000
 20
139.8829317891
 40
10.9000000000
 50
117.8576025019
 51
122.1423974981
  0
LINE
  8
Layer0$C$L0
 62
     3
 10
-215.5611000315
 20
130.9229371377
 11
-215.5564219983
 21
130.9310396441
  0
ARC
  8
Layer0$C$L0
 62
     3
 10
-215.3878949367
 20
130.8229371886
 40
0.2000000000
 50
150.0000000000
 51
237.8576025019
  0
ARC
  8
Layer0$C$L0
 62
     3
 10
-215.3878949367
 20
148.9429263895
 40
0.2000000000
 50
122.1423974981
 51
210.0000000000
  0
POLYLINE
  8
Layer0$C$L0
 62
     3
 66
     1
  0
VERTEX
  8
Layer0$C$L0
 62
     3
 10
-215.5564219983
 20
148.8348239341
  0
VERTEX
  8
Layer0$C$L0
 62
     3
 10
-215.5582823151
 20
148.8380463102
  0
VERTEX
  8
Layer0$C$L0
 62
     3
 10
-215.5611000315
 20
148.8429264405
  0
SEQEND
  8
Layer0$C$L0
 62
     3
  0
ARC
  8
Layer0$C$L0
 62
     3
 10
-209.6952244000
 20
139.8829317891
 40
10.9000000000
 50
237.8576025019
 51
242.1423974981
  0
ARC
  8
Layer0$C$L0
 62
     3
 10
-214.6950746137
 20
130.4229371886
 40
0.2000000000
 50
242.1423974981
 51
330.0000000000
  0
POLYLINE
  8
Layer0$C$L0
 62
     3
 66
     1
  0
VERTEX
  8
Layer0$C$L0
 62
     3
 10
-214.5171912679
 20
130.3310397320
  0
VERTEX
  8
Layer0$C$L0
 62
     3
 10
-214.5190520504
 20
130.3278173559
  0
VERTEX
  8
Layer0$C$L0
 62
     3
 10
-214.5218693012
 20
130.3229372256
  0
SEQEND
  8
Layer0$C$L0
 62
     3
  0
LINE
  8
Layer0$C$L0
 62
     3
 10
-214.5218693012
 20
149.4429263525
 11
-214.5171912679
 21
149.4348238461
  0
ARC
  8
Layer0$C$L0
 62
     3
 10
-214.6950746137
 20
149.3429263895
 40
0.2000000000
 50
30.0000000000
 51
117.8576025019
  0
LINE
  8
Layer0$C$L0
 62
     3
 10
-213.0422079762
 20
129.7100412898
 11
-213.0397863046
 21
129.7190788441
  0
ARC
  8
Layer0$C$L0
 62
     3
 10
-212.8490227409
 20
129.6582774661
 40
0.2000000000
 50
165.0000000000
 51
252.8576025019
  0
ARC
  8
Layer0$C$L0
 62
     3
 10
-212.8490227409
 20
150.1075861121
 40
0.2000000000
 50
107.1423974981
 51
195.0000000000
  0
POLYLINE
  8
Layer0$C$L0
 62
     3
 66
     1
  0
VERTEX
  8
Layer0$C$L0
 62
     3
 10
-213.0397863046
 20
150.0467847340
  0
VERTEX
  8
Layer0$C$L0
 62
     3
 10
-213.0407495250
 20
150.0503796392
  0
VERTEX
  8
Layer0$C$L0
 62
     3
 10
-213.0422079762
 20
150.0558222883
  0
SEQEND
  8
Layer0$C$L0
 62
     3
  0
ARC
  8
Layer0$C$L0
 62
     3
 10
-209.6952244000
 20
139.8829317891
 40
10.9000000000
 50
252.8576025019
 51
257.1423974981
  0
ARC
  8
Layer0$C$L0
 62
     3
 10
-209.6952244000
 20
139.8829317891
 40
10.9000000000
 50
102.8576025019
 51
107.1423974981
  0
LINE
  8
Layer0$C$L0
 62
     3
 10
-211.8830969383
 20
150.3664053284
 11
-211.8806752668
 21
150.3573677742
  0
ARC
  8
Layer0$C$L0
 62
     3
 10
-212.0762820798
 20
150.3146413482
 40
0.2000000000
 50
15.0000000000
 51
102.8576025019
  0
ARC
  8
Layer0$C$L0
 62
     3
 10
-212.0762820798
 20
129.4512222300
 40
0.2000000000
 50
257.1423974981
 51
345.0000000000
  0
POLYLINE
  8
Layer0$C$L0
 62
     3
 66
     1
  0
VERTEX
  8
Layer0$C$L0
 62
     3
 10
-211.8806752668
 20
129.4084958040
  0
VERTEX
  8
Layer0$C$L0
 62
     3
 10
-211.8816384872
 20
129.4049018302
  0
VERTEX
  8
Layer0$C$L0
 62
     3
 10
-211.8830969383
 20
129.3994582497
  0
SEQEND
  8
Layer0$C$L0
 62
     3
  0
ARC
  8
Layer0$C$L0
 62
     3
 10
-210.0952244000
 20
150.5754525396
 40
0.2000000000
 50
92.1423974981
 51
180.0000000000
  0
LINE
  8
Layer0$C$L0
 62
     3
 10
-210.2952244285
 20
150.5660957896
 11
-210.2952244000
 21
150.5754525396
  0
LINE
  8
Layer0$C$L0
 62
     3
 10
-210.2952244000
 20
129.1904110386
 11
-210.2952244285
 21
129.1997677886
  0
ARC
  8
Layer0$C$L0
 62
     3
 10
-210.0952244000
 20
129.1904110386
 40
0.2000000000
 50
180.0000000000
 51
267.8576025019
  0
ARC
  8
Layer0$C$L0
 62
     3
 10
-209.6952244000
 20
139.8829317891
 40
10.9000000000
 50
267.8576025019
 51
272.1423974981
  0
ARC
  8
Layer0$C$L0
 62
     3
 10
-209.6952244000
 20
139.8829317891
 40
10.9000000000
 50
87.8576025019
 51
92.1423974981
  0
LINE
  8
Layer0$C$L0
 62
     3
 10
-209.0952244000
 20
150.5754525396
 11
-209.0952243715
 21
150.5660957896
  0
ARC
  8
Layer0$C$L0
 62
     3
 10
-209.2952244000
 20
150.5754525396
 40
0.2000000000
 50
0.0000000000
 51
87.8576025019
  0
ARC
  8
Layer0$C$L0
 62
     3
 10
-209.2952244000
 20
129.1904110386
 40
0.2000000000
 50
272.1423974981
 51
360.0000000000
  0
LINE
  8
Layer0$C$L0
 62
     3
 10
-209.0952243715
 20
129.1997677886
 11
-209.0952244000
 21
129.1904110386
  0
LINE
  8
Layer0$C$L0
 62
     3
 10
-207.5073518616
 20
129.3994582497
 11
-207.5097735332
 21
129.4084958040
  0
ARC
  8
Layer0$C$L0
 62
     3
 10
-207.3141667201
 20
129.4512222300
 40
0.2000000000
 50
195.0000000000
 51
282.8576025019
  0
ARC
  8
Layer0$C$L0
 62
     3
 10
-207.3141667201
 20
150.3146413482
 40
0.2000000000
 50
77.1423974981
 51
165.0000000000
  0
POLYLINE
  8
Layer0$C$L0
 62
     3
 66
     1
  0
VERTEX
  8
Layer0$C$L0
 62
     3
 10
-207.5097735332
 20
150.3573677742
  0
VERTEX
  8
Layer0$C$L0
 62
     3
 10
-207.5088103128
 20
150.3609617480
  0
VERTEX
  8
Layer0$C$L0
 62
     3
 10
-207.5073518616
 20
150.3664053284
  0
SEQEND
  8
Layer0$C$L0
 62
     3
  0
ARC
  8
Layer0$C$L0
 62
     3
 10
-209.6952244000
 20
139.8829317891
 40
10.9000000000
 50
282.8576025019
 51
287.1423974981
  0
ARC
  8
Layer0$C$L0
 62
     3
 10
-209.6952244000
 20
139.8829317891
 40
10.9000000000
 50
72.8576025019
 51
77.1423974981
  0
ARC
  8
Layer0$C$L0
 62
     3
 10
-206.5414260591
 20
129.6582774661
 40
0.2000000000
 50
287.1423974981
 51
375.0000000000
  0
POLYLINE
  8
Layer0$C$L0
 62
     3
 66
     1
  0
VERTEX
  8
Layer0$C$L0
 62
     3
 10
-206.3506624953
 20
129.7190788441
  0
VERTEX
  8
Layer0$C$L0
 62
     3
 10
-206.3496992749
 20
129.7154839390
  0
VERTEX
  8
Layer0$C$L0
 62
     3
 10
-206.3482408238
 20
129.7100412898
  0
SEQEND
  8
Layer0$C$L0
 62
     3
  0
LINE
  8
Layer0$C$L0
 62
     3
 10
-206.3482408238
 20
150.0558222883
 11
-206.3506624953
 21
150.0467847340
  0
ARC
  8
Layer0$C$L0
 62
     3
 10
-206.5414260591
 20
150.1075861121
 40
0.2000000000
 50
345.0000000000
 51
432.8576025019
  0
ARC
  8
Layer0$C$L0
 62
     3
 10
-204.6953741862
 20
149.3429263895
 40
0.2000000000
 50
62.1423974981
 51
150.0000000000
  0
POLYLINE
  8
Layer0$C$L0
 62
     3
 66
     1
  0
VERTEX
  8
Layer0$C$L0
 62
     3
 10
-204.8732575321
 20
149.4348238461
  0
VERTEX
  8
Layer0$C$L0
 62
     3
 10
-204.8713967496
 20
149.4380462222
  0
VERTEX
  8
Layer0$C$L0
 62
     3
 10
-204.8685794988
 20
149.4429263525
  0
SEQEND
  8
Layer0$C$L0
 62
     3
  0
LINE
  8
Layer0$C$L0
 62
     3
 10
-204.8685794988
 20
130.3229372256
 11
-204.8732575321
 21
130.3310397320
  0
ARC
  8
Layer0$C$L0
 62
     3
 10
-204.6953741862
 20
130.4229371886
 40
0.2000000000
 50
210.0000000000
 51
297.8576025019
  0
ARC
  8
Layer0$C$L0
 62
     3
 10
-209.6952244000
 20
139.8829317891
 40
10.9000000000
 50
297.8576025019
 51
302.1423974981
  0
ARC
  8
Layer0$C$L0
 62
     3
 10
-209.6952244000
 20
139.8829317891
 40
10.9000000000
 50
57.8576025019
 51
62.1423974981
  0
LINE
  8
Layer0$C$L0
 62
     3
 10
-203.8293487684
 20
148.8429264405
 11
-203.8340268017
 21
148.8348239341
  0
ARC
  8
Layer0$C$L0
 62
     3
 10
-204.0025538632
 20
148.9429263895
 40
0.2000000000
 50
330.0000000000
 51
417.8576025019
  0
ARC
  8
Layer0$C$L0
 62
     3
 10
-204.0025538632
 20
130.8229371886
 40
0.2000000000
 50
302.1423974981
 51
390.0000000000
  0
POLYLINE
  8
Layer0$C$L0
 62
     3
 66
     1
  0
VERTEX
  8
Layer0$C$L0
 62
     3
 10
-203.8340268017
 20
130.9310396441
  0
VERTEX
  8
Layer0$C$L0
 62
     3
 10
-203.8321664849
 20
130.9278172680
  0
VERTEX
  8
Layer0$C$L0
 62
     3
 10
-203.8293487684
 20
130.9229371377
  0
SEQEND
  8
Layer0$C$L0
 62
     3
  0
ARC
  8
Layer0$C$L0
 62
     3
 10
-202.4173131818
 20
147.7265284322
 40
0.2000000000
 50
47.1423974981
 51
135.0000000000
  0
POLYLINE
  8
Layer0$C$L0
 62
     3
 66
     1
  0
VERTEX
  8
Layer0$C$L0
 62
     3
 10
-202.5653503196
 20
147.8613338672
  0
VERTEX
  8
Layer0$C$L0
 62
     3
 10
-202.5627188676
 20
147.8639648535
  0
VERTEX
  8
Layer0$C$L0
 62
     3
 10
-202.5587346696
 20
147.8679499828
  0
SEQEND
  8
Layer0$C$L0
 62
     3
  0
LINE
  8
Layer0$C$L0
 62
     3
 10
-202.5587346696
 20
131.8979135954
 11
-202.5653503196
 21
131.9045297109
  0
ARC
  8
Layer0$C$L0
 62
     3
 10
-202.4173131818
 20
132.0393351459
 40
0.2000000000
 50
225.0000000000
 51
312.8576025019
  0
ARC
  8
Layer0$C$L0
 62
     3
 10
-209.6952244000
 20
139.8829317891
 40
10.9000000000
 50
312.8576025019
 51
317.1423974981
  0
ARC
  8
Layer0$C$L0
 62
     3
 10
-209.6952244000
 20
139.8829317891
 40
10.9000000000
 50
42.8576025019
 51
47.1423974981
  0
LINE
  8
Layer0$C$L0
 62
     3
 10
-201.7102062063
 20
147.0194215194
 11
-201.7168223218
 21
147.0128058695
  0
ARC
  8
Layer0$C$L0
 62
     3
 10
-201.8516277568
 20
147.1608430073
 40
0.2000000000
 50
315.0000000000
 51
402.8576025019
  0
ARC
  8
Layer0$C$L0
 62
     3
 10
-201.8516277568
 20
132.6050205709
 40
0.2000000000
 50
317.1423974981
 51
405.0000000000
  0
POLYLINE
  8
Layer0$C$L0
 62
     3
 66
     1
  0
VERTEX
  8
Layer0$C$L0
 62
     3
 10
-201.7168223218
 20
132.7530577087
  0
VERTEX
  8
Layer0$C$L0
 62
     3
 10
-201.7141913355
 20
132.7504262567
  0
VERTEX
  8
Layer0$C$L0
 62
     3
 10
-201.7102062063
 20
132.7464420587
  0
SEQEND
  8
Layer0$C$L0
 62
     3
  0
ARC
  8
Layer0$C$L0
 62
     3
 10
-200.6352297995
 20
145.5756023258
 40
0.2000000000
 50
32.1423974981
 51
120.0000000000
  0
POLYLINE
  8
Layer0$C$L0
 62
     3
 66
     1
  0
VERTEX
  8
Layer0$C$L0
 62
     3
 10
-200.7433322550
 20
145.7441293874
  0
VERTEX
  8
Layer0$C$L0
 62
     3
 10
-200.7401098789
 20
145.7459897042
  0
VERTEX
  8
Layer0$C$L0
 62
     3
 10
-200.7352297486
 20
145.7488074206
  0
SEQEND
  8
Layer0$C$L0
 62
     3
  0
LINE
  8
Layer0$C$L0
 62
     3
 10
-200.7352297486
 20
134.0170561575
 11
-200.7433322550
 21
134.0217341908
  0
ARC
  8
Layer0$C$L0
 62
     3
 10
-200.6352297995
 20
134.1902612523
 40
0.2000000000
 50
240.0000000000
 51
327.8576025019
  0
ARC
  8
Layer0$C$L0
 62
     3
 10
-209.6952244000
 20
139.8829317891
 40
10.9000000000
 50
27.8576025019
 51
32.1423974981
  0
ARC
  8
Layer0$C$L0
 62
     3
 10
-209.6952244000
 20
139.8829317891
 40
10.9000000000
 50
327.8576025019
 51
332.1423974981
  0
ARC
  8
Layer0$C$L0
 62
     3
 10
-200.2352297995
 20
134.8830815753
 40
0.2000000000
 50
332.1423974981
 51
420.0000000000
  0
POLYLINE
  8
Layer0$C$L0
 62
     3
 66
     1
  0
VERTEX
  8
Layer0$C$L0
 62
     3
 10
-200.1433323429
 20
135.0609649212
  0
VERTEX
  8
Layer0$C$L0
 62
     3
 10
-200.1401099668
 20
135.0591041387
  0
VERTEX
  8
Layer0$C$L0
 62
     3
 10
-200.1352298365
 20
135.0562868879
  0
SEQEND
  8
Layer0$C$L0
 62
     3
  0
LINE
  8
Layer0$C$L0
 62
     3
 10
-200.1352298365
 20
144.7095766903
 11
-200.1433323429
 21
144.7048986570
  0
ARC
  8
Layer0$C$L0
 62
     3
 10
-200.2352297995
 20
144.8827820028
 40
0.2000000000
 50
300.0000000000
 51
387.8576025019
  0
ARC
  8
Layer0$C$L0
 62
     3
 10
-209.6952244000
 20
139.8829317891
 40
10.9000000000
 50
342.8576025019
 51
347.1423974981
  0
ARC
  8
Layer0$C$L0
 62
     3
 10
-209.6952244000
 20
139.8829317891
 40
10.9000000000
 50
12.8576025019
 51
17.1423974981
  0
ARC
  8
Layer0$C$L0
 62
     3
 10
-199.4705700770
 20
143.0367301300
 40
0.2000000000
 50
17.1423974981
 51
105.0000000000
  0
POLYLINE
  8
Layer0$C$L0
 62
     3
 66
     1
  0
VERTEX
  8
Layer0$C$L0
 62
     3
 10
-199.5313714550
 20
143.2274936937
  0
VERTEX
  8
Layer0$C$L0
 62
     3
 10
-199.5277765499
 20
143.2284569141
  0
VERTEX
  8
Layer0$C$L0
 62
     3
 10
-199.5223339007
 20
143.2299153653
  0
SEQEND
  8
Layer0$C$L0
 62
     3
  0
LINE
  8
Layer0$C$L0
 62
     3
 10
-199.5223339007
 20
136.5359482129
 11
-199.5313714550
 21
136.5383698844
  0
ARC
  8
Layer0$C$L0
 62
     3
 10
-199.4705700770
 20
136.7291334482
 40
0.2000000000
 50
255.0000000000
 51
342.8576025019
  0
LINE
  8
Layer0$C$L0
 62
     3
 10
-199.2117508606
 20
142.0708043274
 11
-199.2207884149
 21
142.0683826559
  0
ARC
  8
Layer0$C$L0
 62
     3
 10
-199.2635148409
 20
142.2639894689
 40
0.2000000000
 50
285.0000000000
 51
372.8576025019
  0
ARC
  8
Layer0$C$L0
 62
     3
 10
-199.2635148409
 20
137.5018741092
 40
0.2000000000
 50
347.1423974981
 51
435.0000000000
  0
POLYLINE
  8
Layer0$C$L0
 62
     3
 66
     1
  0
VERTEX
  8
Layer0$C$L0
 62
     3
 10
-199.2207884149
 20
137.6974809223
  0
VERTEX
  8
Layer0$C$L0
 62
     3
 10
-199.2171944411
 20
137.6965177019
  0
VERTEX
  8
Layer0$C$L0
 62
     3
 10
-199.2117508606
 20
137.6950592507
  0
SEQEND
  8
Layer0$C$L0
 62
     3
  0
ARC
  8
Layer0$C$L0
 62
     3
 10
-199.0027036495
 20
140.2829317891
 40
0.2000000000
 50
2.1423974981
 51
90.0000000000
  0
LINE
  8
Layer0$C$L0
 62
     3
 10
-199.0120603995
 20
140.4829318176
 11
-199.0027036495
 21
140.4829317891
  0
LINE
  8
Layer0$C$L0
 62
     3
 10
-199.0027036495
 20
139.2829317891
 11
-199.0120603995
 21
139.2829317606
  0
ARC
  8
Layer0$C$L0
 62
     3
 10
-199.0027036495
 20
139.4829317891
 40
0.2000000000
 50
270.0000000000
 51
357.8576025019
  0
ARC
  8
Layer0$C$L0
 62
     3
 10
-209.6952244000
 20
139.8829317891
 40
10.9000000000
 50
357.8576025019
 51
362.1423974981
  0
ARC
  8
Layer0$C$L0
 62
     3
 10
-209.6952244000
 20
139.8829317891
 40
7.2000000000
 50
36.3360575146
 51
143.6639424854
  0
LINE
  8
Layer0$C$L0
 62
     3
 10
-215.4952244000
 20
144.1329320200
 11
-215.4952244000
 21
144.4785819063
  0
CIRCLE
  8
Layer0$C$L0
 62
     3
 10
-209.6952244000
 20
139.8829317891
 40
7.4000000000
  0
LINE
  8
Layer0$C$L0
 62
     3
 10
-203.8952244000
 20
144.4785819063
 11
-203.8952244000
 21
144.1329320200
  0
LINE
  8
Layer0$C$L0
 62
     3
 10
-214.7452242033
 20
137.7329317161
 11
-214.7452242033
 21
135.6329315581
  0
LINE
  8
Layer0$C$L0
 62
     3
 10
-213.7952244201
 20
137.7329317161
 11
-214.7952245840
 21
137.7329317161
  0
LINE
  8
Layer0$C$L0
 62
     3
 10
-213.7952244201
 20
137.7329317161
 11
-213.7952244201
 21
142.0329318621
  0
LINE
  8
Layer0$C$L0
 62
     3
 10
-213.1952245080
 20
139.3329317921
 11
-216.2220919488
 21
139.3329317921
  0
LINE
  8
Layer0$C$L0
 62
     3
 10
-213.1952245080
 20
140.4329317861
 11
-213.1952245080
 21
139.3329317921
  0
LINE
  8
Layer0$C$L0
 62
     3
 10
-216.2220919488
 20
140.4329317861
 11
-213.1952245080
 21
140.4329317861
  0
LINE
  8
Layer0$C$L0
 62
     3
 10
-214.7952245840
 20
142.0329318621
 11
-213.7952244201
 21
142.0329318621
  0
LINE
  8
Layer0$C$L0
 62
     3
 10
-214.7452242033
 20
144.1329320200
 11
-214.7452242033
 21
142.0329318621
  0
LINE
  8
Layer0$C$L0
 62
     3
 10
-203.8952244737
 20
144.1329320200
 11
-204.6452245967
 21
144.1329320200
  0
LINE
  8
Layer0$C$L0
 62
     3
 10
-204.6452245967
 20
142.0329318621
 11
-204.6452245967
 21
144.1329320200
  0
LINE
  8
Layer0$C$L0
 62
     3
 10
-205.5952243799
 20
142.0329318621
 11
-204.5952242159
 21
142.0329318621
  0
LINE
  8
Layer0$C$L0
 62
     3
 10
-205.5952243799
 20
142.0329318621
 11
-205.5952243799
 21
137.7329317161
  0
LINE
  8
Layer0$C$L0
 62
     3
 10
-206.1952242919
 20
140.4329317861
 11
-203.1683568511
 21
140.4329317861
  0
LINE
  8
Layer0$C$L0
 62
     3
 10
-206.1952242919
 20
139.3329317921
 11
-206.1952242919
 21
140.4329317861
  0
LINE
  8
Layer0$C$L0
 62
     3
 10
-203.1683568511
 20
139.3329317921
 11
-206.1952242919
 21
139.3329317921
  0
LINE
  8
Layer0$C$L0
 62
     3
 10
-204.5952242159
 20
137.7329317161
 11
-205.5952243799
 21
137.7329317161
  0
LINE
  8
Layer0$C$L0
 62
     3
 10
-204.6452245967
 20
135.6329315581
 11
-204.6452245967
 21
137.7329317161
  0
LINE
  8
Layer0$C$L0
 62
     3
 10
-204.6452245967
 20
135.6329315581
 11
-203.8952244737
 21
135.6329315581
  0
LINE
  8
Layer0$C$L0
 62
     3
 10
-203.8952244737
 20
135.6329315581
 11
-203.8952244000
 21
135.6167859875
  0
ARC
  8
Layer0$C$L0
 62
     3
 10
-209.6952244000
 20
139.8829317891
 40
7.2000000000
 50
216.3360575146
 51
323.6639424854
  0
LINE
  8
Layer0$C$L0
 62
     3
 10
-214.7452242033
 20
144.1329320200
 11
-215.4952243262
 21
144.1329320200
  0
LINE
  8
Layer0$C$L0
 62
     3
 10
-215.4952244000
 20
135.6167859875
 11
-215.4952243262
 21
135.6329315581
  0
LINE
  8
Layer0$C$L0
 62
     3
 10
-215.4952243262
 20
135.6329315581
 11
-214.7452242033
 21
135.6329315581
  0
LINE
  8
Layer0$C$L0
 62
     3
 10
-203.8952244000
 20
135.6167859875
 11
-203.8952244000
 21
135.2872816718
  0
LINE
  8
Layer0$C$L0
 62
     3
 10
-215.4952244000
 20
135.2872816718
 11
-215.4952244000
 21
135.6167859875
  0
LINE
  8
Layer0$C$L0
 62
     3
 10
-213.1952245080
 20
140.2329317766
 11
-216.2358665703
 21
140.2329317766
  0
LINE
  8
Layer0$C$L0
 62
     3
 10
-216.2358665703
 20
139.5329318016
 11
-213.1952245080
 21
139.5329318016
  0
LINE
  8
Layer0$C$L0
 62
     3
 10
-203.1545822297
 20
140.2329317766
 11
-206.1952242919
 21
140.2329317766
  0
LINE
  8
Layer0$C$L0
 62
     3
 10
-206.1952242919
 20
139.5329318016
 11
-203.1545822297
 21
139.5329318016
  0
LINE
  8
Layer0$C$L0
 62
     3
 10
-214.7952245840
 20
141.2329318241
 11
-216.1556810402
 21
141.2329317877
  0
ARC
  8
Layer0$C$L0
 62
     3
 10
-209.6952244000
 20
139.8829317891
 40
6.5500000000
 50
168.1056981490
 51
191.8943018510
  0
LINE
  8
Layer0$C$L0
 62
     3
 10
-216.1556810402
 20
138.5329317905
 11
-214.7952245840
 21
138.5329317541
  0
LINE
  8
Layer0$C$L0
 62
     3
 10
-203.2347677598
 20
141.2329317877
 11
-204.5952242159
 21
141.2329318241
  0
ARC
  8
Layer0$C$L0
 62
     3
 10
-209.6952244000
 20
139.8829317891
 40
6.5500000000
 50
4.8167677403
 51
11.8943018510
  0
LINE
  8
Layer0$C$L0
 62
     3
 10
-204.5952242159
 20
138.5329317541
 11
-203.2347677598
 21
138.5329317905
  0
ARC
  8
Layer0$C$L0
 62
     3
 10
-209.6952244000
 20
139.8829317891
 40
6.5500000000
 50
348.1056981490
 51
363.0630653875
  0
ARC
  8
Layer0$C$L0
 62
     3
 10
-209.6952244000
 20
139.8829317891
 40
6.5500000000
 50
3.0630653875
 51
4.8167677403
  0
LINE
  8
Layer0$C$L0
 62
     3
 10
-215.1452244551
 20
141.2829317392
 11
-215.1452244551
 21
141.2329318241
  0
LINE
  8
Layer0$C$L0
 62
     3
 10
-215.1452244551
 20
138.5329317541
 11
-215.1452244551
 21
138.4829318390
  0
LINE
  8
Layer0$C$L0
 62
     3
 10
-215.2452242852
 20
138.4829318390
 11
-215.2452242852
 21
138.5329317541
  0
LINE
  8
Layer0$C$L0
 62
     3
 10
-215.2452242852
 20
141.2329318241
 11
-215.2452242852
 21
141.2829317392
  0
LINE
  8
Layer0$C$L0
 62
     3
 10
-204.2452243448
 20
141.2329318241
 11
-204.2452243448
 21
141.2829317392
  0
LINE
  8
Layer0$C$L0
 62
     3
 10
-204.2452243448
 20
138.4829318390
 11
-204.2452243448
 21
138.5329317541
  0
LINE
  8
Layer0$C$L0
 62
     3
 10
-204.1452245147
 20
141.2829317392
 11
-204.1452245147
 21
141.2329318241
  0
LINE
  8
Layer0$C$L0
 62
     3
 10
-204.1452245147
 20
138.5329317541
 11
-204.1452245147
 21
138.4829318390
  0
ARC
  8
Layer0$C$L0
 62
     3
 10
-209.6952244000
 20
132.0829317891
 40
1.6000000000
 50
358.6225649282
 51
362.2731452279
  0
ARC
  8
Layer0$C$L0
 62
     3
 10
-209.6952244000
 20
132.0829317891
 40
1.6000000000
 50
177.7268547721
 51
181.3774350718
  0
ARC
  8
Layer0$C$L0
 62
     3
 10
-209.6952244000
 20
147.6829317891
 40
1.6000000000
 50
178.6225649282
 51
182.2731452279
  0
ARC
  8
Layer0$C$L0
 62
     3
 10
-209.6952244000
 20
147.6829317891
 40
1.6000000000
 50
357.7268547721
 51
361.3774350718
  0
CIRCLE
  8
Layer0$C$L0
 62
     3
 10
-209.6952244000
 20
139.8829317891
 40
11.4500000000
  0
ARC
  8
Layer0$C$L0
 62
     3
 10
-209.6952244000
 20
139.8829317891
 40
6.6000000000
 50
348.1971083097
 51
371.8028916903
  0
ARC
  8
Layer0$C$L0
 62
     3
 10
-209.6952244000
 20
139.8829317891
 40
6.6000000000
 50
168.1971083097
 51
191.8028916903
  0
LINE
  8
Layer0$C$L0
 62
     3
 10
-215.1352243790
 20
144.0829316393
 11
-215.0952245400
 21
144.1329320200
  0
LINE
  8
Layer0$C$L0
 62
     3
 10
-215.0952245400
 20
135.6329315581
 11
-215.1352243790
 21
135.6829319388
  0
LINE
  8
Layer0$C$L0
 62
     3
 10
-204.2552244210
 20
135.6829319388
 11
-204.2952242599
 21
135.6329315581
  0
LINE
  8
Layer0$C$L0
 62
     3
 10
-204.2952242599
 20
144.1329320200
 11
-204.2552244210
 21
144.0829316393
  0
LINE
  8
Layer0$C$L0
 62
     3
 10
-217.0952244045
 20
137.1170684519
 11
-217.0952244000
 21
142.6487951263
  0
ARC
  8
Layer0$C$L0
 62
     3
 10
-209.6952244000
 20
139.8829317891
 40
7.9000000000
 50
124.7237490966
 51
235.2762509034
  0
LINE
  8
Layer0$C$L0
 62
     3
 10
-214.1952244000
 20
146.3760050214
 11
-214.1952242063
 21
145.7574528881
  0
LINE
  8
Layer0$C$L0
 62
     3
 10
-214.1952242063
 20
134.0084106900
 11
-214.1952244000
 21
133.3898585568
  0
LINE
  8
Layer0$C$L0
 62
     3
 10
-210.6952244475
 20
132.5508107670
 11
-210.6952244000
 21
132.0464785097
  0
ARC
  8
Layer0$C$L0
 62
     3
 10
-209.6952244000
 20
139.8829317891
 40
7.9000000000
 50
250.0151200293
 51
289.9848799707
  0
LINE
  8
Layer0$C$L0
 62
     3
 10
-212.3952244000
 20
132.4586473118
 11
-212.3952244700
 21
132.9930842162
  0
ARC
  8
Layer0$C$L0
 62
     3
 10
-209.6952244000
 20
139.8829317891
 40
7.9000000000
 50
96.1766926843
 51
109.9848799707
  0
LINE
  8
Layer0$C$L0
 62
     3
 10
-210.6952244000
 20
147.7193850685
 11
-210.6952244475
 21
147.2150528111
  0
LINE
  8
Layer0$C$L0
 62
     3
 10
-212.3952244700
 20
146.7727793620
 11
-212.3952244000
 21
147.3072162664
  0
LINE
  8
Layer0$C$L0
 62
     3
 10
-202.2952244000
 20
142.6487951263
 11
-202.2952244000
 21
137.1170684519
  0
ARC
  8
Layer0$C$L0
 62
     3
 10
-209.6952244000
 20
139.8829317891
 40
7.9000000000
 50
304.7237490966
 51
380.4939995065
  0
LINE
  8
Layer0$C$L0
 62
     3
 10
-205.1952244000
 20
133.3898585568
 11
-205.1952245937
 21
134.0084106900
  0
ARC
  8
Layer0$C$L0
 62
     3
 10
-209.6952244000
 20
139.8829317891
 40
7.9000000000
 50
70.0151200293
 51
83.8233073157
  0
LINE
  8
Layer0$C$L0
 62
     3
 10
-208.6952243525
 20
147.2150528111
 11
-208.6952244000
 21
147.7193850685
  0
LINE
  8
Layer0$C$L0
 62
     3
 10
-206.9952244000
 20
147.3072162664
 11
-206.9952243299
 21
146.7727793620
  0
LINE
  8
Layer0$C$L0
 62
     3
 10
-208.6952244000
 20
132.0464785097
 11
-208.6952243525
 21
132.5508107670
  0
LINE
  8
Layer0$C$L0
 62
     3
 10
-206.9952243299
 20
132.9930842162
 11
-206.9952244000
 21
132.4586473118
  0
ARC
  8
Layer0$C$L0
 62
     3
 10
-209.6952244000
 20
139.8829317891
 40
7.9000000000
 50
20.4939995065
 51
55.2762509034
  0
LINE
  8
Layer0$C$L0
 62
     3
 10
-205.1952245937
 20
145.7574528881
 11
-205.1952244000
 21
146.3760050214
  0
ARC
  8
Layer0$C$L0
 62
     3
 10
-209.6720205951
 20
139.9175323256
 40
7.9416558868
 50
235.2808541063
 51
237.0183371233
  0
ARC
  8
Layer0$C$L0
 62
     3
 10
-209.7184282049
 20
139.8483312525
 40
7.9416558868
 50
55.2808541063
 51
57.0183371233
  0
ARC
  8
Layer0$C$L0
 62
     3
 10
-209.6934458221
 20
139.8802750486
 40
7.9031967564
 50
122.9774350150
 51
124.7233737553
  0
ARC
  8
Layer0$C$L0
 62
     3
 10
-209.6970029778
 20
139.8855885296
 40
7.9031967564
 50
302.9774350150
 51
304.7233737553
  0
ARC
  8
Layer0$C$L0
 62
     3
 10
-209.6914026052
 20
139.8930098499
 40
7.9107776101
 50
248.4648720472
 51
250.0140535710
  0
ARC
  8
Layer0$C$L0
 62
     3
 10
-209.6990461948
 20
139.8728537282
 40
7.9107776101
 50
68.4648720472
 51
70.0140535710
  0
ARC
  8
Layer0$C$L0
 62
     3
 10
-209.6917140785
 20
139.8736753919
 40
7.9098989716
 50
109.9858603816
 51
111.5352140003
  0
ARC
  8
Layer0$C$L0
 62
     3
 10
-209.6987347214
 20
139.8921881863
 40
7.9098989716
 50
289.9858603816
 51
291.5352140003
  0
ARC
  8
Layer0$C$L0
 62
     3
 10
-209.6952244000
 20
139.8829317891
 40
7.9000000000
 50
237.0228995811
 51
248.4638241647
  0
ARC
  8
Layer0$C$L0
 62
     3
 10
-209.6952244000
 20
139.8829317891
 40
7.9000000000
 50
111.5361758353
 51
122.9771004189
  0
ARC
  8
Layer0$C$L0
 62
     3
 10
-209.6952244000
 20
139.8829317891
 40
7.9000000000
 50
57.0228995811
 51
68.4638241647
  0
ARC
  8
Layer0$C$L0
 62
     3
 10
-209.6952244000
 20
139.8829317891
 40
7.9000000000
 50
291.5361758353
 51
302.9771004189
  0
ARC
  8
Layer0$C$L0
 62
     3
 10
-209.6952244000
 20
139.8829317891
 40
5.7500000000
 50
13.5788086516
 51
14.0919214994
  0
ARC
  8
Layer0$C$L0
 62
     3
 10
-209.6952244000
 20
139.8829317891
 40
5.7500000000
 50
165.9080785006
 51
166.4211913484
  0
ARC
  8
Layer0$C$L0
 62
     3
 10
-209.6952244000
 20
139.8829317891
 40
5.7500000000
 50
193.5788086516
 51
194.0919214994
  0
ARC
  8
Layer0$C$L0
 62
     3
 10
-209.6952244000
 20
139.8829317891
 40
5.7500000000
 50
345.9080785006
 51
346.4211913484
  0
LINE
  8
Layer0$C$L0
 62
     3
 10
-208.8452244000
 20
147.7370708253
 11
-208.8452243887
 21
147.8376475402
  0
LINE
  8
Layer0$C$L0
 62
     3
 10
-210.5452244112
 20
147.8376475402
 11
-210.5452244000
 21
147.7370708253
  0
CIRCLE
  8
Layer0$C$L0
 62
     3
 10
-209.6952244000
 20
139.8829317891
 40
12.5500000000
  0
CIRCLE
  8
Layer0$C$L0
 62
     3
 10
-209.6952244000
 20
139.8829317891
 40
12.6000000000
  0
ARC
  8
Layer0$C$L0
 62
     3
 10
-131.9723374710
 20
202.0177503049
 40
4.0000000000
 50
270.0000000000
 51
343.3984504010
  0
ARC
  8
Layer0$C$L0
 62
     3
 10
-131.9723374710
 20
234.0177503049
 40
4.0000000000
 50
16.6015495990
 51
90.0000000000
  0
ARC
  8
Layer0$C$L0
 62
     3
 10
-133.4258055561
 20
236.5177503049
 40
1.5000000000
 50
90.0000000000
 51
130.3645365731
  0
ARC
  8
Layer0$C$L0
 62
     3
 10
-133.4258055561
 20
199.5177503049
 40
1.5000000000
 50
229.6354634269
 51
270.0000000000
  0
LINE
  8
Layer0$C$L0
 62
     3
 10
-141.4869575068
 20
231.6344318591
 11
-141.9067007840
 21
231.2776500735
  0
LINE
  8
Layer0$C$L0
 62
     3
 10
-134.3972781863
 20
237.6606592815
 11
-135.3716764518
 21
236.8324207558
  0
LINE
  8
Layer0$C$L0
 62
     3
 10
-135.3716764518
 20
199.2030798540
 11
-134.3972781863
 21
198.3748413283
  0
LINE
  8
Layer0$C$L0
 62
     3
 10
-141.9067007840
 20
204.7578505363
 11
-141.4869575068
 21
204.4010687507
  0
LINE
  8
Layer0$C$L0
 62
     3
 10
-135.5478522418
 20
223.8493085184
 11
-135.5478522418
 21
218.5188343093
  0
LINE
  8
Layer0$C$L0
 62
     3
 10
-135.5478522418
 20
217.5176581147
 11
-135.5478522418
 21
212.1857997027
  0
LINE
  8
Layer0$C$L0
 62
     3
 10
-135.5478522418
 20
229.4778931639
 11
-135.5478522418
 21
224.7911525263
  0
LINE
  8
Layer0$C$L0
 62
     3
 10
-135.5378561385
 20
224.8036818362
 11
-141.2592342787
 21
223.1398503080
  0
LINE
  8
Layer0$C$L0
 62
     3
 10
-141.2614252150
 20
212.8954444796
 11
-135.5377536931
 21
211.2314192362
  0
LINE
  8
Layer0$C$L0
 62
     3
 10
-135.5478522418
 20
211.2455335396
 11
-135.5478522418
 21
206.5561263312
  0
ARC
  8
Layer0$C$L0
 62
     3
 10
-185.6379689310
 20
218.0177503049
 40
60.0000000000
 50
13.1009035343
 51
16.6015495990
  0
ARC
  8
Layer0$C$L0
 62
     3
 10
-185.6379689310
 20
218.0177503049
 40
60.0000000000
 50
10.0217450221
 51
11.9270815557
  0
ARC
  8
Layer0$C$L0
 62
     3
 10
-185.6379689310
 20
218.0177503049
 40
60.0000000000
 50
348.8231423331
 51
349.9782549779
  0
ARC
  8
Layer0$C$L0
 62
     3
 10
-185.6379689310
 20
218.0177503049
 40
60.0000000000
 50
343.3984504010
 51
346.5075069107
  0
LINE
  8
Layer0$C$L0
 62
     3
 10
-135.5478522418
 20
233.7247864767
 11
-135.5478522418
 21
230.3154554425
  0
LINE
  8
Layer0$C$L0
 62
     3
 10
-135.5051816173
 20
230.3254612505
 11
-141.3536191650
 21
227.1290373772
  0
LINE
  8
Layer0$C$L0
 62
     3
 10
-141.3554482826
 20
208.9058699801
 11
-135.5050828971
 21
205.7093017518
  0
LINE
  8
Layer0$C$L0
 62
     3
 10
-135.5478522418
 20
205.7144141934
 11
-135.5478522418
 21
202.3083009703
  0
ARC
  8
Layer0$C$L0
 62
     3
 10
-141.7771711000
 20
231.1252622099
 40
0.2000000000
 50
130.3645365731
 51
180.0000000000
  0
ARC
  8
Layer0$C$L0
 62
     3
 10
-141.7771711000
 20
204.9102383999
 40
0.2000000000
 50
180.0000000000
 51
229.6354634269
  0
ARC
  8
Layer0$C$L0
 62
     3
 10
-131.4771711000
 20
227.5889559923
 40
5.0000000000
 50
0.0000000000
 51
10.0217450221
  0
ARC
  8
Layer0$C$L0
 62
     3
 10
-131.4771711000
 20
208.4465446175
 40
5.0000000000
 50
349.9782549779
 51
360.0000000000
  0
LINE
  8
Layer0$C$L0
 62
     3
 10
-135.5478522418
 20
236.0776368353
 11
-135.5478522418
 21
234.3602428429
  0
LINE
  8
Layer0$C$L0
 62
     3
 10
-135.4541553848
 20
234.4191250175
 11
-141.4179516688
 21
230.0276503682
  0
LINE
  8
Layer0$C$L0
 62
     3
 10
-141.4197924279
 20
206.0070520982
 11
-135.4542811133
 21
201.6155634790
  0
LINE
  8
Layer0$C$L0
 62
     3
 10
-135.5478522418
 20
201.6567901589
 11
-135.5478522418
 21
199.9573184386
  0
LINE
  8
Layer0$C$L0
 62
     3
 10
-126.9332842797
 20
230.4177503049
 11
-127.0273857482
 21
230.4177506610
  0
ARC
  8
Layer0$C$L0
 62
     3
 10
-135.0478522418
 20
236.4514510970
 40
0.5000000000
 50
130.3645365731
 51
180.0000000000
  0
LINE
  8
Layer0$C$L0
 62
     3
 10
-135.3687773191
 20
236.6001372009
 11
-141.4677583345
 21
231.4931376621
  0
LINE
  8
Layer0$C$L0
 62
     3
 10
-141.4692405343
 20
204.5411447778
 11
-135.3998285450
 21
199.4603526562
  0
ARC
  8
Layer0$C$L0
 62
     3
 10
-135.0478522418
 20
199.5840495128
 40
0.5000000000
 50
180.0000000000
 51
229.6354634269
  0
LINE
  8
Layer0$C$L0
 62
     3
 10
-131.9723374710
 20
238.0177503049
 11
-133.4258055561
 21
238.0177503049
  0
LINE
  8
Layer0$C$L0
 62
     3
 10
-133.4258055561
 20
198.0177503049
 11
-131.9723374710
 21
198.0177503049
  0
ARC
  8
Layer0$C$L0
 62
     3
 10
-141.3574278227
 20
231.4820439956
 40
0.2000000000
 50
90.0000000000
 51
130.3645365731
  0
ARC
  8
Layer0$C$L0
 62
     3
 10
-141.3574278227
 20
204.5534566142
 40
0.2000000000
 50
229.6354634269
 51
270.0000000000
  0
LINE
  8
Layer0$C$L0
 62
     3
 10
-141.3574278227
 20
204.3534566142
 11
-141.2450320751
 21
204.3534562707
  0
LINE
  8
Layer0$C$L0
 62
     3
 10
-141.2421589449
 20
231.6820443391
 11
-141.3574278227
 21
231.6820439956
  0
LINE
  8
Layer0$C$L0
 62
     3
 10
-135.5478522418
 20
236.4514510970
 11
-141.2445938878
 21
231.6820443391
  0
LINE
  8
Layer0$C$L0
 62
     3
 10
-166.5771704831
 20
212.7677503757
 11
-166.5771704831
 21
212.5677502498
  0
LINE
  8
Layer0$C$L0
 62
     3
 10
-166.5771704831
 20
223.4677503600
 11
-166.5771704831
 21
223.2677502341
  0
LINE
  8
Layer0$C$L0
 62
     3
 10
-150.6582350478
 20
228.7454894158
 11
-151.3771711000
 21
227.2177503049
  0
LINE
  8
Layer0$C$L0
 62
     3
 10
-151.3771711000
 20
208.8177503049
 11
-150.6582350478
 21
207.2900111940
  0
ARC
  8
Layer0$C$L0
 62
     3
 10
-150.4790664270
 20
221.1905710520
 40
0.1699036220
 50
94.2882039226
 51
123.9341402511
  0
POLYLINE
  8
Layer0$C$L0
 62
     3
 66
     1
  0
VERTEX
  8
Layer0$C$L0
 62
     3
 10
-150.3868008696
 20
221.3708650104
  0
VERTEX
  8
Layer0$C$L0
 62
     3
 10
-150.4223522462
 20
221.3704575568
  0
VERTEX
  8
Layer0$C$L0
 62
     3
 10
-150.4917707026
 20
221.3599990371
  0
SEQEND
  8
Layer0$C$L0
 62
     3
  0
LINE
  8
Layer0$C$L0
 62
     3
 10
-150.3867892281
 20
214.6639520086
 11
-147.8771711000
 21
214.6639519640
  0
LINE
  8
Layer0$C$L0
 62
     3
 10
-147.8771711000
 20
221.3715486458
 11
-150.3867892281
 21
221.3715486012
  0
ARC
  8
Layer0$C$L0
 62
     3
 10
-150.4199382002
 20
212.3869817398
 40
0.2601836099
 50
219.7427184071
 51
277.3149690334
  0
ARC
  8
Layer0$C$L0
 62
     3
 10
-150.3929775532
 20
223.5804159451
 40
0.3308354591
 50
83.8241569273
 51
133.8166559287
  0
LINE
  8
Layer0$C$L0
 62
     3
 10
-150.3867892281
 20
212.1250795915
 11
-147.8771711000
 21
212.1250797681
  0
LINE
  8
Layer0$C$L0
 62
     3
 10
-147.8771711000
 20
223.9104208417
 11
-150.3867892281
 21
223.9104210183
  0
LINE
  8
Layer0$C$L0
 62
     3
 10
-152.0771711000
 20
208.8177503049
 11
-151.3771711000
 21
208.8177503049
  0
LINE
  8
Layer0$C$L0
 62
     3
 10
-151.3771711000
 20
227.2177503049
 11
-152.0771711000
 21
227.2177503049
  0
LINE
  8
Layer0$C$L0
 62
     3
 10
-150.6580862880
 20
212.2541972220
 11
-150.6229051121
 21
212.2167971700
  0
LINE
  8
Layer0$C$L0
 62
     3
 10
-150.6206135929
 20
223.8180040165
 11
-150.6553137407
 21
223.7810970999
  0
ARC
  8
Layer0$C$L0
 62
     3
 10
-150.4159134100
 20
210.2358029664
 40
0.2585410973
 50
209.9963003184
 51
276.4693438492
  0
ARC
  8
Layer0$C$L0
 62
     3
 10
-150.3998421628
 20
225.7806823365
 40
0.2829981989
 50
80.1274365308
 51
148.3206735020
  0
LINE
  8
Layer0$C$L0
 62
     3
 10
-150.3867892281
 20
209.9741537839
 11
-147.8771711000
 21
209.9741536618
  0
LINE
  8
Layer0$C$L0
 62
     3
 10
-147.8771711000
 20
226.0613469480
 11
-150.3867892281
 21
226.0613468259
  0
LINE
  8
Layer0$C$L0
 62
     3
 10
-150.7005210698
 20
210.1893898815
 11
-150.6437541649
 21
210.1040462747
  0
LINE
  8
Layer0$C$L0
 62
     3
 10
-150.6429378607
 20
225.9311293035
 11
-150.6995361962
 21
225.8460269093
  0
ARC
  8
Layer0$C$L0
 62
     3
 10
-150.4126349758
 20
208.6207308939
 40
0.2591636925
 50
204.2277565128
 51
275.7222375075
  0
ARC
  8
Layer0$C$L0
 62
     3
 10
-150.4102223773
 20
227.4106367884
 40
0.2640653816
 50
84.8986331430
 51
158.5061042457
  0
LINE
  8
Layer0$C$L0
 62
     3
 10
-150.3867892281
 20
208.3577559113
 11
-147.8771711000
 21
208.3577557045
  0
LINE
  8
Layer0$C$L0
 62
     3
 10
-147.8771711000
 20
227.6777449053
 11
-150.3867892281
 21
227.6777446985
  0
LINE
  8
Layer0$C$L0
 62
     3
 10
-150.7246050716
 20
208.6439811408
 11
-150.6529807777
 21
208.5120984137
  0
LINE
  8
Layer0$C$L0
 62
     3
 10
-150.6522278034
 20
227.5230715766
 11
-150.7238129817
 21
227.3912475228
  0
LINE
  8
Layer0$C$L0
 62
     3
 10
-150.3867894371
 20
207.3860407458
 11
-147.8771711000
 21
207.3860407458
  0
LINE
  8
Layer0$C$L0
 62
     3
 10
-147.8771711000
 20
228.6494598640
 11
-150.3867894371
 21
228.6494598640
  0
LINE
  8
Layer0$C$L0
 62
     3
 10
-150.7414308109
 20
207.7273278281
 11
-150.6570945736
 21
207.5540015505
  0
LINE
  8
Layer0$C$L0
 62
     3
 10
-150.6563200348
 20
228.4811454609
 11
-150.7508828037
 21
228.2869218632
  0
ARC
  8
Layer0$C$L0
 62
     3
 10
-150.3867894371
 20
228.6177503049
 40
0.3000000000
 50
90.0000000000
 51
154.7988763545
  0
ARC
  8
Layer0$C$L0
 62
     3
 10
-150.3867894371
 20
207.4177503049
 40
0.3000000000
 50
205.2011236455
 51
270.0000000000
  0
LINE
  8
Layer0$C$L0
 62
     3
 10
-150.3867894371
 20
207.1177503049
 11
-147.8771711000
 21
207.1177503049
  0
LINE
  8
Layer0$C$L0
 62
     3
 10
-147.8771711000
 20
228.9177503049
 11
-150.3867894371
 21
228.9177503049
  0
LINE
  8
Layer0$C$L0
 62
     3
 10
-147.0771711000
 20
206.5677503049
 11
-146.4771711000
 21
206.5677501976
  0
LINE
  8
Layer0$C$L0
 62
     3
 10
-146.4771711000
 20
229.4677504122
 11
-147.0771711000
 21
229.4677503049
  0
LINE
  8
Layer0$C$L0
 62
     3
 10
-141.9771712937
 20
230.5677504062
 11
-146.4771711000
 21
230.5677503049
  0
LINE
  8
Layer0$C$L0
 62
     3
 10
-146.4771711000
 20
205.4677503049
 11
-141.9771712937
 21
205.4677502036
  0
LINE
  8
Layer0$C$L0
 62
     3
 10
-147.0771711285
 20
225.9177499234
 11
-147.1771711000
 21
225.9177503049
  0
LINE
  8
Layer0$C$L0
 62
     3
 10
-147.1771711000
 20
210.1177503049
 11
-147.0771711285
 21
210.1177506864
  0
LINE
  8
Layer0$C$L0
 62
     3
 10
-152.9771712341
 20
225.4177503049
 11
-161.9771711000
 21
225.4177503049
  0
LINE
  8
Layer0$C$L0
 62
     3
 10
-161.9771711000
 20
210.6177503049
 11
-152.9771712341
 21
210.6177503049
  0
POLYLINE
  8
Layer0$C$L0
 62
     3
 66
     1
  0
VERTEX
  8
Layer0$C$L0
 62
     3
 10
-131.9723370217
 20
231.8445871368
  0
VERTEX
  8
Layer0$C$L0
 62
     3
 10
-131.3820359029
 20
231.7985090211
  0
VERTEX
  8
Layer0$C$L0
 62
     3
 10
-130.8096729883
 20
231.6536268934
  0
VERTEX
  8
Layer0$C$L0
 62
     3
 10
-130.2163832553
 20
231.3515133008
  0
VERTEX
  8
Layer0$C$L0
 62
     3
 10
-129.8564475693
 20
231.0235759958
  0
VERTEX
  8
Layer0$C$L0
 62
     3
 10
-129.6663776704
 20
230.7311127677
  0
VERTEX
  8
Layer0$C$L0
 62
     3
 10
-129.5822513022
 20
230.4735815867
  0
VERTEX
  8
Layer0$C$L0
 62
     3
 10
-129.5851998695
 20
230.2399220660
  0
VERTEX
  8
Layer0$C$L0
 62
     3
 10
-129.6675865271
 20
230.0676543981
  0
VERTEX
  8
Layer0$C$L0
 62
     3
 10
-129.8260249861
 20
229.9427435517
  0
VERTEX
  8
Layer0$C$L0
 62
     3
 10
-130.1745407947
 20
229.8466198861
  0
VERTEX
  8
Layer0$C$L0
 62
     3
 10
-130.4910265573
 20
229.8247617453
  0
VERTEX
  8
Layer0$C$L0
 62
     3
 10
-130.8332633891
 20
229.8255664080
  0
VERTEX
  8
Layer0$C$L0
 62
     3
 10
-131.3944299438
 20
229.8392363608
  0
VERTEX
  8
Layer0$C$L0
 62
     3
 10
-131.9723370217
 20
229.8477654129
  0
SEQEND
  8
Layer0$C$L0
 62
     3
  0
POLYLINE
  8
Layer0$C$L0
 62
     3
 66
     1
  0
VERTEX
  8
Layer0$C$L0
 62
     3
 10
-131.9723370217
 20
235.9531082928
  0
VERTEX
  8
Layer0$C$L0
 62
     3
 10
-131.3820359029
 20
235.9039344608
  0
VERTEX
  8
Layer0$C$L0
 62
     3
 10
-130.8096729883
 20
235.7542895496
  0
VERTEX
  8
Layer0$C$L0
 62
     3
 10
-130.2163832553
 20
235.4579035908
  0
VERTEX
  8
Layer0$C$L0
 62
     3
 10
-129.8564475693
 20
235.1600088894
  0
VERTEX
  8
Layer0$C$L0
 62
     3
 10
-129.6663776704
 20
234.9165239155
  0
VERTEX
  8
Layer0$C$L0
 62
     3
 10
-129.5822513022
 20
234.7231180191
  0
VERTEX
  8
Layer0$C$L0
 62
     3
 10
-129.5851998695
 20
234.5715173304
  0
VERTEX
  8
Layer0$C$L0
 62
     3
 10
-129.6675865271
 20
234.4838351726
  0
VERTEX
  8
Layer0$C$L0
 62
     3
 10
-129.8260249861
 20
234.4465375662
  0
VERTEX
  8
Layer0$C$L0
 62
     3
 10
-130.1745407947
 20
234.4668906897
  0
VERTEX
  8
Layer0$C$L0
 62
     3
 10
-130.4910265573
 20
234.5128440082
  0
VERTEX
  8
Layer0$C$L0
 62
     3
 10
-130.8332633891
 20
234.5641393929
  0
VERTEX
  8
Layer0$C$L0
 62
     3
 10
-131.3944299438
 20
234.6259177446
  0
VERTEX
  8
Layer0$C$L0
 62
     3
 10
-131.9723370217
 20
234.6497763663
  0
SEQEND
  8
Layer0$C$L0
 62
     3
  0
POLYLINE
  8
Layer0$C$L0
 62
     3
 66
     1
  0
VERTEX
  8
Layer0$C$L0
 62
     3
 10
-131.9723370217
 20
237.8983598917
  0
VERTEX
  8
Layer0$C$L0
 62
     3
 10
-131.3820359029
 20
237.8520210057
  0
VERTEX
  8
Layer0$C$L0
 62
     3
 10
-130.8096729883
 20
237.7156642049
  0
VERTEX
  8
Layer0$C$L0
 62
     3
 10
-130.2163832553
 20
237.4607537657
  0
VERTEX
  8
Layer0$C$L0
 62
     3
 10
-129.8564475693
 20
237.2288339555
  0
VERTEX
  8
Layer0$C$L0
 62
     3
 10
-129.6663776704
 20
237.0636918366
  0
VERTEX
  8
Layer0$C$L0
 62
     3
 10
-129.5822513022
 20
236.9577408552
  0
VERTEX
  8
Layer0$C$L0
 62
     3
 10
-129.5851998695
 20
236.9064845860
  0
VERTEX
  8
Layer0$C$L0
 62
     3
 10
-129.6675865271
 20
236.9139649689
  0
VERTEX
  8
Layer0$C$L0
 62
     3
 10
-129.8260249861
 20
236.9687788903
  0
VERTEX
  8
Layer0$C$L0
 62
     3
 10
-130.1745407947
 20
237.1031519740
  0
VERTEX
  8
Layer0$C$L0
 62
     3
 10
-130.4910265573
 20
237.2113753825
  0
VERTEX
  8
Layer0$C$L0
 62
     3
 10
-130.8332633891
 20
237.3069737821
  0
VERTEX
  8
Layer0$C$L0
 62
     3
 10
-131.3944299438
 20
237.4094099521
  0
VERTEX
  8
Layer0$C$L0
 62
     3
 10
-131.9723370217
 20
237.4457184940
  0
SEQEND
  8
Layer0$C$L0
 62
     3
  0
POLYLINE
  8
Layer0$C$L0
 62
     3
 66
     1
  0
VERTEX
  8
Layer0$C$L0
 62
     3
 10
-131.9723370217
 20
198.5897821158
  0
VERTEX
  8
Layer0$C$L0
 62
     3
 10
-131.3820359029
 20
198.6276962578
  0
VERTEX
  8
Layer0$C$L0
 62
     3
 10
-130.8096729883
 20
198.7343215167
  0
VERTEX
  8
Layer0$C$L0
 62
     3
 10
-130.2163832553
 20
198.9170116156
  0
VERTEX
  8
Layer0$C$L0
 62
     3
 10
-129.8564475693
 20
199.0549833297
  0
VERTEX
  8
Layer0$C$L0
 62
     3
 10
-129.6663776704
 20
199.1218616038
  0
VERTEX
  8
Layer0$C$L0
 62
     3
 10
-129.5822513022
 20
199.1275799244
  0
VERTEX
  8
Layer0$C$L0
 62
     3
 10
-129.5851998695
 20
199.0723096549
  0
VERTEX
  8
Layer0$C$L0
 62
     3
 10
-129.6675865271
 20
198.9705701142
  0
VERTEX
  8
Layer0$C$L0
 62
     3
 10
-129.8260249861
 20
198.8302551925
  0
VERTEX
  8
Layer0$C$L0
 62
     3
 10
-130.1745407947
 20
198.5980690241
  0
VERTEX
  8
Layer0$C$L0
 62
     3
 10
-130.4910265573
 20
198.4406289428
  0
VERTEX
  8
Layer0$C$L0
 62
     3
 10
-130.8332633891
 20
198.3122573018
  0
VERTEX
  8
Layer0$C$L0
 62
     3
 10
-131.3944299438
 20
198.1815182387
  0
VERTEX
  8
Layer0$C$L0
 62
     3
 10
-131.9723370217
 20
198.1371407181
  0
SEQEND
  8
Layer0$C$L0
 62
     3
  0
POLYLINE
  8
Layer0$C$L0
 62
     3
 66
     1
  0
VERTEX
  8
Layer0$C$L0
 62
     3
 10
-131.9723370217
 20
201.3857242435
  0
VERTEX
  8
Layer0$C$L0
 62
     3
 10
-131.3820359029
 20
201.4106408476
  0
VERTEX
  8
Layer0$C$L0
 62
     3
 10
-130.8096729883
 20
201.4746711373
  0
VERTEX
  8
Layer0$C$L0
 62
     3
 10
-130.2163832553
 20
201.5631058037
  0
VERTEX
  8
Layer0$C$L0
 62
     3
 10
-129.8564475693
 20
201.5904885500
  0
VERTEX
  8
Layer0$C$L0
 62
     3
 10
-129.6663776704
 20
201.5510377258
  0
VERTEX
  8
Layer0$C$L0
 62
     3
 10
-129.5822513022
 20
201.4558342069
  0
VERTEX
  8
Layer0$C$L0
 62
     3
 10
-129.5851998695
 20
201.3007038057
  0
VERTEX
  8
Layer0$C$L0
 62
     3
 10
-129.6675865271
 20
201.1169743508
  0
VERTEX
  8
Layer0$C$L0
 62
     3
 10
-129.8260249861
 20
200.9080842852
  0
VERTEX
  8
Layer0$C$L0
 62
     3
 10
-130.1745407947
 20
200.6060880392
  0
VERTEX
  8
Layer0$C$L0
 62
     3
 10
-130.4910265573
 20
200.4184228152
  0
VERTEX
  8
Layer0$C$L0
 62
     3
 10
-130.8332633891
 20
200.2727621019
  0
VERTEX
  8
Layer0$C$L0
 62
     3
 10
-131.3944299438
 20
200.1294892996
  0
VERTEX
  8
Layer0$C$L0
 62
     3
 10
-131.9723370217
 20
200.0823923170
  0
SEQEND
  8
Layer0$C$L0
 62
     3
  0
POLYLINE
  8
Layer0$C$L0
 62
     3
 66
     1
  0
VERTEX
  8
Layer0$C$L0
 62
     3
 10
-131.9723370217
 20
206.1877351969
  0
VERTEX
  8
Layer0$C$L0
 62
     3
 10
-131.3820359029
 20
206.1966488853
  0
VERTEX
  8
Layer0$C$L0
 62
     3
 10
-130.8096729883
 20
206.2103616789
  0
VERTEX
  8
Layer0$C$L0
 62
     3
 10
-130.2163832553
 20
206.1938726127
  0
VERTEX
  8
Layer0$C$L0
 62
     3
 10
-129.8564475693
 20
206.1073639214
  0
VERTEX
  8
Layer0$C$L0
 62
     3
 10
-129.6663776704
 20
205.9663411945
  0
VERTEX
  8
Layer0$C$L0
 62
     3
 10
-129.5822513022
 20
205.7816990435
  0
VERTEX
  8
Layer0$C$L0
 62
     3
 10
-129.5851998695
 20
205.5454197123
  0
VERTEX
  8
Layer0$C$L0
 62
     3
 10
-129.6675865271
 20
205.3018620953
  0
VERTEX
  8
Layer0$C$L0
 62
     3
 10
-129.8260249861
 20
205.0495900929
  0
VERTEX
  8
Layer0$C$L0
 62
     3
 10
-130.1745407947
 20
204.7142115205
  0
VERTEX
  8
Layer0$C$L0
 62
     3
 10
-130.4910265573
 20
204.5189541548
  0
VERTEX
  8
Layer0$C$L0
 62
     3
 10
-130.8332633891
 20
204.3735728383
  0
VERTEX
  8
Layer0$C$L0
 62
     3
 10
-131.3944299438
 20
204.2350479185
  0
VERTEX
  8
Layer0$C$L0
 62
     3
 10
-131.9723370217
 20
204.1909134730
  0
SEQEND
  8
Layer0$C$L0
 62
     3
  0
POLYLINE
  8
Layer0$C$L0
 62
     3
 66
     1
  0
VERTEX
  8
Layer0$C$L0
 62
     3
 10
-131.9723370217
 20
212.4166194133
  0
VERTEX
  8
Layer0$C$L0
 62
     3
 10
-131.3820359029
 20
212.4084554396
  0
VERTEX
  8
Layer0$C$L0
 62
     3
 10
-130.8096729883
 20
212.3701976396
  0
VERTEX
  8
Layer0$C$L0
 62
     3
 10
-130.2163832553
 20
212.2507741458
  0
VERTEX
  8
Layer0$C$L0
 62
     3
 10
-129.8564475693
 20
212.0608080893
  0
VERTEX
  8
Layer0$C$L0
 62
     3
 10
-129.6663776704
 20
211.8352236010
  0
VERTEX
  8
Layer0$C$L0
 62
     3
 10
-129.5822513022
 20
211.5834126033
  0
VERTEX
  8
Layer0$C$L0
 62
     3
 10
-129.5851998695
 20
211.2944823473
  0
VERTEX
  8
Layer0$C$L0
 62
     3
 10
-129.6675865271
 20
211.0204737417
  0
VERTEX
  8
Layer0$C$L0
 62
     3
 10
-129.8260249861
 20
210.7552484393
  0
VERTEX
  8
Layer0$C$L0
 62
     3
 10
-130.1745407947
 20
210.4269376740
  0
VERTEX
  8
Layer0$C$L0
 62
     3
 10
-130.4910265573
 20
210.2476403832
  0
VERTEX
  8
Layer0$C$L0
 62
     3
 10
-130.8332633891
 20
210.1200734049
  0
VERTEX
  8
Layer0$C$L0
 62
     3
 10
-131.3944299438
 20
210.0030042946
  0
VERTEX
  8
Layer0$C$L0
 62
     3
 10
-131.9723370217
 20
209.9671558261
  0
SEQEND
  8
Layer0$C$L0
 62
     3
  0
POLYLINE
  8
Layer0$C$L0
 62
     3
 66
     1
  0
VERTEX
  8
Layer0$C$L0
 62
     3
 10
-131.9723370217
 20
219.3210829299
  0
VERTEX
  8
Layer0$C$L0
 62
     3
 10
-131.3820359029
 20
219.2968255857
  0
VERTEX
  8
Layer0$C$L0
 62
     3
 10
-130.8096729883
 20
219.2112114297
  0
VERTEX
  8
Layer0$C$L0
 62
     3
 10
-130.2163832553
 20
219.0032579254
  0
VERTEX
  8
Layer0$C$L0
 62
     3
 10
-129.8564475693
 20
218.7327473092
  0
VERTEX
  8
Layer0$C$L0
 62
     3
 10
-129.6663776704
 20
218.4498099103
  0
VERTEX
  8
Layer0$C$L0
 62
     3
 10
-129.5822513022
 20
218.1612018629
  0
VERTEX
  8
Layer0$C$L0
 62
     3
 10
-129.5851998695
 20
217.8544708166
  0
VERTEX
  8
Layer0$C$L0
 62
     3
 10
-129.6675865271
 20
217.5830598006
  0
VERTEX
  8
Layer0$C$L0
 62
     3
 10
-129.8260249861
 20
217.3368714883
  0
VERTEX
  8
Layer0$C$L0
 62
     3
 10
-130.1745407947
 20
217.0552280166
  0
VERTEX
  8
Layer0$C$L0
 62
     3
 10
-130.4910265573
 20
216.9135165184
  0
VERTEX
  8
Layer0$C$L0
 62
     3
 10
-130.8332633891
 20
216.8191503750
  0
VERTEX
  8
Layer0$C$L0
 62
     3
 10
-131.3944299438
 20
216.7376572050
  0
VERTEX
  8
Layer0$C$L0
 62
     3
 10
-131.9723370217
 20
216.7144176799
  0
SEQEND
  8
Layer0$C$L0
 62
     3
  0
POLYLINE
  8
Layer0$C$L0
 62
     3
 66
     1
  0
VERTEX
  8
Layer0$C$L0
 62
     3
 10
-131.9723370217
 20
226.0683447837
  0
VERTEX
  8
Layer0$C$L0
 62
     3
 10
-131.3820359029
 20
226.0309205174
  0
VERTEX
  8
Layer0$C$L0
 62
     3
 10
-130.8096729883
 20
225.9082765102
  0
VERTEX
  8
Layer0$C$L0
 62
     3
 10
-130.2163832553
 20
225.6368751421
  0
VERTEX
  8
Layer0$C$L0
 62
     3
 10
-129.8564475693
 20
225.3184475720
  0
VERTEX
  8
Layer0$C$L0
 62
     3
 10
-129.6663776704
 20
225.0122831918
  0
VERTEX
  8
Layer0$C$L0
 62
     3
 10
-129.5822513022
 20
224.7216886624
  0
VERTEX
  8
Layer0$C$L0
 62
     3
 10
-129.5851998695
 20
224.4341530621
  0
VERTEX
  8
Layer0$C$L0
 62
     3
 10
-129.6675865271
 20
224.1980762936
  0
VERTEX
  8
Layer0$C$L0
 62
     3
 10
-129.8260249861
 20
224.0006186783
  0
VERTEX
  8
Layer0$C$L0
 62
     3
 10
-130.1745407947
 20
223.7996127240
  0
VERTEX
  8
Layer0$C$L0
 62
     3
 10
-130.4910265573
 20
223.7125792324
  0
VERTEX
  8
Layer0$C$L0
 62
     3
 10
-130.8332633891
 20
223.6627963155
  0
VERTEX
  8
Layer0$C$L0
 62
     3
 10
-131.3944299438
 20
223.6267080314
  0
VERTEX
  8
Layer0$C$L0
 62
     3
 10
-131.9723370217
 20
223.6188811965
  0
SEQEND
  8
Layer0$C$L0
 62
     3
  0
LINE
  8
Layer0$C$L0
 62
     3
 10
-131.9723370217
 20
216.7144176799
 11
-133.4258055978
 21
216.7144176799
  0
LINE
  8
Layer0$C$L0
 62
     3
 10
-133.6105537216
 20
216.7207644882
 11
-133.4258055978
 21
216.7144176799
  0
ARC
  8
Layer0$C$L0
 62
     3
 10
-133.6228508348
 20
216.8677527016
 40
0.1475016529
 50
274.7821840160
 51
350.9859569513
  0
ARC
  8
Layer0$C$L0
 62
     3
 10
-133.6176482052
 20
219.1733497269
 40
0.1415642277
 50
7.1043569627
 51
87.1275020701
  0
LINE
  8
Layer0$C$L0
 62
     3
 10
-133.4258055978
 20
219.3210829299
 11
-133.6105537216
 21
219.3147361216
  0
LINE
  8
Layer0$C$L0
 62
     3
 10
-133.4258055978
 20
219.3210829299
 11
-131.9723370217
 21
219.3210829299
  0
LINE
  8
Layer0$C$L0
 62
     3
 10
-133.4258055978
 20
237.8983598917
 11
-133.6105537216
 21
237.8863945447
  0
LINE
  8
Layer0$C$L0
 62
     3
 10
-133.6105537216
 20
237.8863945447
 11
-133.6105537216
 21
237.4359560976
  0
LINE
  8
Layer0$C$L0
 62
     3
 10
-133.6105537216
 20
237.4359560976
 11
-133.4258055978
 21
237.4457184940
  0
LINE
  8
Layer0$C$L0
 62
     3
 10
-133.4258055978
 20
235.9531082928
 11
-133.6105537216
 21
235.9403812665
  0
LINE
  8
Layer0$C$L0
 62
     3
 10
-133.6105537216
 20
235.9403812665
 11
-133.6105537216
 21
234.6433954498
  0
LINE
  8
Layer0$C$L0
 62
     3
 10
-133.6105537216
 20
234.6433954498
 11
-133.4258055978
 21
234.6497763663
  0
LINE
  8
Layer0$C$L0
 62
     3
 10
-133.4258055978
 20
231.8445871368
 11
-133.6105537216
 21
231.8326341845
  0
LINE
  8
Layer0$C$L0
 62
     3
 10
-133.6105537216
 20
231.8326341845
 11
-133.6105537216
 21
229.8455366290
  0
LINE
  8
Layer0$C$L0
 62
     3
 10
-133.6105537216
 20
229.8455366290
 11
-133.4258055978
 21
229.8477654129
  0
LINE
  8
Layer0$C$L0
 62
     3
 10
-133.4258055978
 20
226.0683447837
 11
-133.6105537216
 21
226.0586082206
  0
LINE
  8
Layer0$C$L0
 62
     3
 10
-133.6105537216
 20
226.0586082206
 11
-133.6105537216
 21
223.6210722181
  0
LINE
  8
Layer0$C$L0
 62
     3
 10
-133.6105537216
 20
223.6210722181
 11
-133.4258055978
 21
223.6188811965
  0
LINE
  8
Layer0$C$L0
 62
     3
 10
-133.6105537216
 20
219.3147361216
 11
-133.6105537216
 21
216.7207644882
  0
LINE
  8
Layer0$C$L0
 62
     3
 10
-133.4258055978
 20
212.4166194133
 11
-133.6105537216
 21
212.4144283917
  0
LINE
  8
Layer0$C$L0
 62
     3
 10
-133.6105537216
 20
212.4144283917
 11
-133.6105537216
 21
209.9768923892
  0
LINE
  8
Layer0$C$L0
 62
     3
 10
-133.6105537216
 20
209.9768923892
 11
-133.4258055978
 21
209.9671558261
  0
LINE
  8
Layer0$C$L0
 62
     3
 10
-133.4258055978
 20
206.1877351969
 11
-133.6105537216
 21
206.1899639808
  0
LINE
  8
Layer0$C$L0
 62
     3
 10
-133.6105537216
 20
206.1899639808
 11
-133.6105537216
 21
204.2028664253
  0
LINE
  8
Layer0$C$L0
 62
     3
 10
-133.6105537216
 20
204.2028664253
 11
-133.4258055978
 21
204.1909134730
  0
LINE
  8
Layer0$C$L0
 62
     3
 10
-133.4258055978
 20
201.3857242435
 11
-133.6105537216
 21
201.3921051600
  0
LINE
  8
Layer0$C$L0
 62
     3
 10
-133.6105537216
 20
201.3921051600
 11
-133.6105537216
 21
200.0951193433
  0
LINE
  8
Layer0$C$L0
 62
     3
 10
-133.6105537216
 20
200.0951193433
 11
-133.4258055978
 21
200.0823923170
  0
LINE
  8
Layer0$C$L0
 62
     3
 10
-133.4258055978
 20
198.5897821158
 11
-133.6105537216
 21
198.5995445122
  0
LINE
  8
Layer0$C$L0
 62
     3
 10
-133.6105537216
 20
198.5995445122
 11
-133.6105537216
 21
198.1491060651
  0
LINE
  8
Layer0$C$L0
 62
     3
 10
-133.6105537216
 20
198.1491060651
 11
-133.4258055978
 21
198.1371407181
  0
LINE
  8
Layer0$C$L0
 62
     3
 10
-133.4771711000
 20
219.1908579191
 11
-133.4771711000
 21
216.8446426907
  0
LINE
  8
Layer0$C$L0
 62
     3
 10
-131.9723370217
 20
223.6188811965
 11
-133.4258055978
 21
223.6188811965
  0
LINE
  8
Layer0$C$L0
 62
     3
 10
-133.4258055978
 20
212.4166194133
 11
-131.9723370217
 21
212.4166194133
  0
POLYLINE
  8
Layer0$C$L0
 62
     3
 66
     1
  0
VERTEX
  8
Layer0$C$L0
 62
     3
 10
-133.4771708318
 20
223.6754921049
  0
VERTEX
  8
Layer0$C$L0
 62
     3
 10
-133.4955551394
 20
223.6468436911
  0
VERTEX
  8
Layer0$C$L0
 62
     3
 10
-133.5337002494
 20
223.6318736121
  0
VERTEX
  8
Layer0$C$L0
 62
     3
 10
-133.5920410894
 20
223.6225953109
  0
VERTEX
  8
Layer0$C$L0
 62
     3
 10
-133.6105539196
 20
223.6210721329
  0
SEQEND
  8
Layer0$C$L0
 62
     3
  0
ARC
  8
Layer0$C$L0
 62
     3
 10
-133.6587965756
 20
225.8834758464
 40
0.1816550501
 50
358.9708005968
 51
434.5990034027
  0
LINE
  8
Layer0$C$L0
 62
     3
 10
-133.4258055978
 20
226.0683447837
 11
-131.9723370217
 21
226.0683447837
  0
LINE
  8
Layer0$C$L0
 62
     3
 10
-131.9723370217
 20
209.9671558261
 11
-133.4258055978
 21
209.9671558261
  0
ARC
  8
Layer0$C$L0
 62
     3
 10
-133.6597624455
 20
210.1527469295
 40
0.1826092896
 50
285.6329920752
 51
360.7972039252
  0
POLYLINE
  8
Layer0$C$L0
 62
     3
 66
     1
  0
VERTEX
  8
Layer0$C$L0
 62
     3
 10
-133.6105539196
 20
212.4144284770
  0
VERTEX
  8
Layer0$C$L0
 62
     3
 10
-133.5624511086
 20
212.4092773318
  0
VERTEX
  8
Layer0$C$L0
 62
     3
 10
-133.5192936205
 20
212.3994830779
  0
VERTEX
  8
Layer0$C$L0
 62
     3
 10
-133.4893925779
 20
212.3841102019
  0
VERTEX
  8
Layer0$C$L0
 62
     3
 10
-133.4771708318
 20
212.3600085050
  0
SEQEND
  8
Layer0$C$L0
 62
     3
  0
LINE
  8
Layer0$C$L0
 62
     3
 10
-133.4771711000
 20
225.8802133584
 11
-133.4771711000
 21
223.6754922215
  0
LINE
  8
Layer0$C$L0
 62
     3
 10
-133.4771711000
 20
212.3600083883
 11
-133.4771711000
 21
210.1552872514
  0
ARC
  8
Layer0$C$L0
 62
     3
 10
-134.9795245746
 20
223.7465114197
 40
0.5754889410
 50
132.9550165650
 51
170.5224404416
  0
ARC
  8
Layer0$C$L0
 62
     3
 10
-134.9604728854
 20
218.8621816317
 40
0.6803179898
 50
210.4163498546
 51
232.8122654152
  0
ARC
  8
Layer0$C$L0
 62
     3
 10
-140.9515666774
 20
218.1214490534
 40
0.6725838372
 50
217.2481998396
 51
232.8836366528
  0
ARC
  8
Layer0$C$L0
 62
     3
 10
-135.0220880967
 20
217.2280510434
 40
0.5996867929
 50
125.6584177400
 51
151.1129669902
  0
LINE
  8
Layer0$C$L0
 62
     3
 10
-135.5471581884
 20
217.5177502812
 11
-141.1290228099
 21
217.5177502812
  0
POLYLINE
  8
Layer0$C$L0
 62
     3
 66
     1
  0
VERTEX
  8
Layer0$C$L0
 62
     3
 10
-141.1290228099
 20
217.5177502812
  0
VERTEX
  8
Layer0$C$L0
 62
     3
 10
-141.2797247723
 20
217.5435846746
  0
VERTEX
  8
Layer0$C$L0
 62
     3
 10
-141.3574278087
 20
217.5851228838
  0
SEQEND
  8
Layer0$C$L0
 62
     3
  0
ARC
  8
Layer0$C$L0
 62
     3
 10
-134.9361079725
 20
212.3123287801
 40
0.6223584651
 50
190.9389291574
 51
225.5836138360
  0
ARC
  8
Layer0$C$L0
 62
     3
 10
-140.9515666774
 20
217.9140515564
 40
0.6725838372
 50
127.1163633472
 51
142.7518001604
  0
POLYLINE
  8
Layer0$C$L0
 62
     3
 66
     1
  0
VERTEX
  8
Layer0$C$L0
 62
     3
 10
-141.3574278087
 20
218.4503777260
  0
VERTEX
  8
Layer0$C$L0
 62
     3
 10
-141.2669353851
 20
218.4963992057
  0
VERTEX
  8
Layer0$C$L0
 62
     3
 10
-141.1290228099
 20
218.5177503287
  0
SEQEND
  8
Layer0$C$L0
 62
     3
  0
LINE
  8
Layer0$C$L0
 62
     3
 10
-141.1290228099
 20
218.5177503287
 11
-135.5471581884
 21
218.5177503287
  0
LINE
  8
Layer0$C$L0
 62
     3
 10
-131.9723370217
 20
229.8477654129
 11
-133.4258055978
 21
229.8477654129
  0
LINE
  8
Layer0$C$L0
 62
     3
 10
-133.4258055978
 20
206.1877351969
 11
-131.9723370217
 21
206.1877351969
  0
ARC
  8
Layer0$C$L0
 62
     3
 10
-140.6990079141
 20
212.8191150078
 40
1.1427899790
 50
125.1802960735
 51
133.5902618464
  0
POLYLINE
  8
Layer0$C$L0
 62
     3
 66
     1
  0
VERTEX
  8
Layer0$C$L0
 62
     3
 10
-141.3574278087
 20
213.7531664937
  0
VERTEX
  8
Layer0$C$L0
 62
     3
 10
-141.2669353851
 20
213.7969377234
  0
VERTEX
  8
Layer0$C$L0
 62
     3
 10
-141.1290228099
 20
213.8172629073
  0
SEQEND
  8
Layer0$C$L0
 62
     3
  0
ARC
  8
Layer0$C$L0
 62
     3
 10
-140.6990079141
 20
223.2163856020
 40
1.1427899790
 50
226.4097381536
 51
234.8197039265
  0
POLYLINE
  8
Layer0$C$L0
 62
     3
 66
     1
  0
VERTEX
  8
Layer0$C$L0
 62
     3
 10
-141.1290228099
 20
222.2182377025
  0
VERTEX
  8
Layer0$C$L0
 62
     3
 10
-141.2797247723
 20
222.2428292751
  0
VERTEX
  8
Layer0$C$L0
 62
     3
 10
-141.3574278087
 20
222.2823341161
  0
SEQEND
  8
Layer0$C$L0
 62
     3
  0
ARC
  8
Layer0$C$L0
 62
     3
 10
-134.8752178412
 20
229.4238965079
 40
0.6730421242
 50
137.5302480600
 51
176.7211419217
  0
ARC
  8
Layer0$C$L0
 62
     3
 10
-135.7373469941
 20
224.0536574891
 40
0.7742585400
 50
61.8172956874
 51
75.0031761549
  0
ARC
  8
Layer0$C$L0
 62
     3
 10
-141.0482579831
 20
222.6723923152
 40
0.5239541084
 50
126.1620062182
 51
146.8546532260
  0
POLYLINE
  8
Layer0$C$L0
 62
     3
 66
     1
  0
VERTEX
  8
Layer0$C$L0
 62
     3
 10
-141.3574278087
 20
223.0954075947
  0
VERTEX
  8
Layer0$C$L0
 62
     3
 10
-141.2669353851
 20
223.1381287582
  0
VERTEX
  8
Layer0$C$L0
 62
     3
 10
-141.2591420778
 20
223.1392477423
  0
SEQEND
  8
Layer0$C$L0
 62
     3
  0
ARC
  8
Layer0$C$L0
 62
     3
 10
-141.0482579831
 20
213.3631082946
 40
0.5239541084
 50
213.1453467740
 51
233.8379937818
  0
ARC
  8
Layer0$C$L0
 62
     3
 10
-135.7383231899
 20
211.9838346779
 40
0.7764750367
 50
285.0486475679
 51
298.1767924316
  0
POLYLINE
  8
Layer0$C$L0
 62
     3
 66
     1
  0
VERTEX
  8
Layer0$C$L0
 62
     3
 10
-141.2609027431
 20
212.8985387988
  0
VERTEX
  8
Layer0$C$L0
 62
     3
 10
-141.2797247723
 20
212.9015311382
  0
VERTEX
  8
Layer0$C$L0
 62
     3
 10
-141.3574278087
 20
212.9400930151
  0
SEQEND
  8
Layer0$C$L0
 62
     3
  0
ARC
  8
Layer0$C$L0
 62
     3
 10
-134.8487539523
 20
206.6227689032
 40
0.7001675372
 50
184.0671583105
 51
221.6814517078
  0
LINE
  8
Layer0$C$L0
 62
     3
 10
-141.1290228099
 20
213.8172629073
 11
-135.5478520237
 21
213.8172629073
  0
LINE
  8
Layer0$C$L0
 62
     3
 10
-141.1290228099
 20
222.2182377025
 11
-135.5478520237
 21
222.2182377025
  0
ARC
  8
Layer0$C$L0
 62
     3
 10
-157.7256310806
 20
218.4487963877
 40
32.1371019521
 50
341.7809322354
 51
343.3665576809
  0
LINE
  8
Layer0$C$L0
 62
     3
 10
-126.9332842797
 20
209.2496262182
 11
-126.9332842797
 21
223.2582167505
  0
ARC
  8
Layer0$C$L0
 62
     3
 10
-139.2346698822
 20
217.1082120118
 40
13.7530589467
 50
24.6103194052
 51
26.5624884903
  0
ARC
  8
Layer0$C$L0
 62
     3
 10
-181.9243277526
 20
220.8427850316
 40
55.2293688795
 50
2.0678234811
 51
6.6203101391
  0
ARC
  8
Layer0$C$L0
 62
     3
 10
-148.3983423908
 20
228.3451411651
 40
21.3652809508
 50
348.7800627536
 51
356.9548038569
  0
ARC
  8
Layer0$C$L0
 62
     3
 10
-140.3830657174
 20
216.5035610513
 40
15.0511403534
 50
28.8471676045
 51
30.7007210450
  0
LINE
  8
Layer0$C$L0
 62
     3
 10
-127.1996253542
 20
223.7653586646
 11
-127.1996253542
 21
208.4010980808
  0
ARC
  8
Layer0$C$L0
 62
     3
 10
-185.1296689374
 20
218.0049815285
 40
59.4903002896
 50
348.0282413190
 51
348.4565127931
  0
ARC
  8
Layer0$C$L0
 62
     3
 10
-131.4227870434
 20
207.3199916872
 40
4.7394770973
 50
336.9025770755
 51
348.6525761267
  0
ARC
  8
Layer0$C$L0
 62
     3
 10
-136.4406987562
 20
206.2215186832
 40
9.4082800400
 50
346.4591210913
 51
355.3616932240
  0
ARC
  8
Layer0$C$L0
 62
     3
 10
-181.8915521269
 20
217.9771175141
 40
56.2569654797
 50
12.3350991962
 51
13.5464002246
  0
LINE
  8
Layer0$C$L0
 62
     3
 10
-126.9332842797
 20
229.9952305509
 11
-126.9332842797
 21
230.4177503049
  0
LINE
  8
Layer0$C$L0
 62
     3
 10
-127.1996253542
 20
231.6177503049
 11
-127.1996253542
 21
231.1543415424
  0
ARC
  8
Layer0$C$L0
 62
     3
 10
-133.6923454030
 20
231.6332493143
 40
0.2155094339
 50
356.8055645168
 51
427.6956605293
  0
LINE
  8
Layer0$C$L0
 62
     3
 10
-133.4258055978
 20
231.8445871368
 11
-131.9723370217
 21
231.8445871368
  0
LINE
  8
Layer0$C$L0
 62
     3
 10
-131.9723370217
 20
204.1909134730
 11
-133.4258055978
 21
204.1909134730
  0
ARC
  8
Layer0$C$L0
 62
     3
 10
-133.6899619299
 20
204.4007474003
 40
0.2132197322
 50
291.8651503737
 51
363.6336245802
  0
LINE
  8
Layer0$C$L0
 62
     3
 10
-133.4771711000
 20
231.6212397158
 11
-133.4771711000
 21
229.8239345778
  0
LINE
  8
Layer0$C$L0
 62
     3
 10
-133.4771711000
 20
206.2115660320
 11
-133.4771711000
 21
204.4142608940
  0
ARC
  8
Layer0$C$L0
 62
     3
 10
-142.2214914381
 20
211.0010075755
 40
1.6713628104
 50
296.0708360642
 51
301.1299924753
  0
POLYLINE
  8
Layer0$C$L0
 62
     3
 66
     1
  0
VERTEX
  8
Layer0$C$L0
 62
     3
 10
-141.3574278087
 20
209.5703267276
  0
VERTEX
  8
Layer0$C$L0
 62
     3
 10
-141.2669353851
 20
209.6065682143
  0
VERTEX
  8
Layer0$C$L0
 62
     3
 10
-141.1290228099
 20
209.6234158396
  0
SEQEND
  8
Layer0$C$L0
 62
     3
  0
ARC
  8
Layer0$C$L0
 62
     3
 10
-142.2214914381
 20
225.0344930343
 40
1.6713628104
 50
58.8700075247
 51
63.9291639358
  0
POLYLINE
  8
Layer0$C$L0
 62
     3
 66
     1
  0
VERTEX
  8
Layer0$C$L0
 62
     3
 10
-141.1290228099
 20
226.4120847702
  0
VERTEX
  8
Layer0$C$L0
 62
     3
 10
-141.2797247723
 20
226.4324667647
  0
VERTEX
  8
Layer0$C$L0
 62
     3
 10
-141.3574278087
 20
226.4651738822
  0
SEQEND
  8
Layer0$C$L0
 62
     3
  0
LINE
  8
Layer0$C$L0
 62
     3
 10
-131.9723370217
 20
234.6497763663
 11
-133.4258055978
 21
234.6497763663
  0
LINE
  8
Layer0$C$L0
 62
     3
 10
-133.4258055978
 20
201.3857242435
 11
-131.9723370217
 21
201.3857242435
  0
LINE
  8
Layer0$C$L0
 62
     3
 10
-141.1290228099
 20
209.6234158396
 11
-135.5478520237
 21
209.6234158396
  0
LINE
  8
Layer0$C$L0
 62
     3
 10
-141.1290228099
 20
226.4120847702
 11
-135.5478520237
 21
226.4120847702
  0
ARC
  8
Layer0$C$L0
 62
     3
 10
-134.8602299063
 20
233.6998142832
 40
0.6869362206
 50
138.1189946911
 51
179.7245459402
  0
ARC
  8
Layer0$C$L0
 62
     3
 10
-135.4111342842
 20
230.1081908144
 40
0.2368339421
 50
80.4095055463
 51
113.4052632997
  0
ARC
  8
Layer0$C$L0
 62
     3
 10
-141.1444639828
 20
226.7818765116
 40
0.4063902630
 50
121.6034854365
 51
147.4338028641
  0
ARC
  8
Layer0$C$L0
 62
     3
 10
-141.1444639828
 20
209.2536240982
 40
0.4063902630
 50
212.5661971359
 51
238.3965145635
  0
ARC
  8
Layer0$C$L0
 62
     3
 10
-135.4112649701
 20
205.9289231716
 40
0.2384465832
 50
246.8673625280
 51
279.5568692203
  0
ARC
  8
Layer0$C$L0
 62
     3
 10
-134.8491570377
 20
202.3399541580
 40
0.6980422023
 50
180.6213891799
 51
221.5350701887
  0
ARC
  8
Layer0$C$L0
 62
     3
 10
-182.3968416543
 20
220.8853345609
 40
55.1707735469
 50
3.2009807102
 51
3.9147760182
  0
LINE
  8
Layer0$C$L0
 62
     3
 10
-141.9771711000
 20
204.9102383999
 11
-141.9771711000
 21
231.1252622099
  0
LINE
  8
Layer0$C$L0
 62
     3
 10
-127.1996245452
 20
223.2582167506
 11
-126.9332842797
 21
223.2582167505
  0
LINE
  8
Layer0$C$L0
 62
     3
 10
-127.1996245452
 20
209.2496257990
 11
-126.9332842797
 21
209.2496262182
  0
LINE
  8
Layer0$C$L0
 62
     3
 10
-131.9723370217
 20
200.0823923170
 11
-133.4258055978
 21
200.0823923170
  0
ARC
  8
Layer0$C$L0
 62
     3
 10
-133.7000564507
 20
200.2997437947
 40
0.2233421009
 50
293.6245645489
 51
363.6638537047
  0
ARC
  8
Layer0$C$L0
 62
     3
 10
-133.7032979361
 20
235.7337816353
 40
0.2264612182
 50
356.8872707686
 51
425.8243109779
  0
LINE
  8
Layer0$C$L0
 62
     3
 10
-133.4258055978
 20
235.9531082928
 11
-131.9723370217
 21
235.9531082928
  0
LINE
  8
Layer0$C$L0
 62
     3
 10
-133.4771711000
 20
235.7214844842
 11
-133.4771711000
 21
234.6572746505
  0
LINE
  8
Layer0$C$L0
 62
     3
 10
-133.4771711000
 20
201.3782259593
 11
-133.4771711000
 21
200.3140161256
  0
LINE
  8
Layer0$C$L0
 62
     3
 10
-126.4771711000
 20
227.5889559923
 11
-126.4771711000
 21
208.4465446175
  0
ARC
  8
Layer0$C$L0
 62
     3
 10
-141.4791654753
 20
229.3626639675
 40
0.2929568282
 50
65.4461594631
 51
91.5241345257
  0
ARC
  8
Layer0$C$L0
 62
     3
 10
-141.4791654753
 20
206.6728366423
 40
0.2929568282
 50
268.4758654743
 51
294.5538405369
  0
POLYLINE
  8
Layer0$C$L0
 62
     3
 66
     1
  0
VERTEX
  8
Layer0$C$L0
 62
     3
 10
-141.3574278087
 20
206.4063715532
  0
VERTEX
  8
Layer0$C$L0
 62
     3
 10
-141.2669353851
 20
206.4307116687
  0
VERTEX
  8
Layer0$C$L0
 62
     3
 10
-141.1290228099
 20
206.4420495897
  0
SEQEND
  8
Layer0$C$L0
 62
     3
  0
LINE
  8
Layer0$C$L0
 62
     3
 10
-141.1290228099
 20
206.4420495897
 11
-136.8461603962
 21
206.4420495897
  0
POLYLINE
  8
Layer0$C$L0
 62
     3
 66
     1
  0
VERTEX
  8
Layer0$C$L0
 62
     3
 10
-141.1290228099
 20
229.5934510201
  0
VERTEX
  8
Layer0$C$L0
 62
     3
 10
-141.2797247723
 20
229.6071656763
  0
VERTEX
  8
Layer0$C$L0
 62
     3
 10
-141.3574278087
 20
229.6291290566
  0
SEQEND
  8
Layer0$C$L0
 62
     3
  0
LINE
  8
Layer0$C$L0
 62
     3
 10
-141.1290228099
 20
229.5934510201
 11
-136.8445277878
 21
229.5934510201
  0
ARC
  8
Layer0$C$L0
 62
     3
 10
-134.9574196254
 20
236.0714749014
 40
0.5900614552
 50
134.5922884186
 51
181.8955600725
  0
ARC
  8
Layer0$C$L0
 62
     3
 10
-135.3205317076
 20
234.2900089166
 40
0.1783343759
 50
106.6659768697
 51
136.4109461552
  0
ARC
  8
Layer0$C$L0
 62
     3
 10
-141.2979908973
 20
229.8338834824
 40
0.2265846123
 50
121.7475175588
 51
146.5096022428
  0
ARC
  8
Layer0$C$L0
 62
     3
 10
-141.2981314375
 20
206.2013833994
 40
0.2263384648
 50
213.4606853505
 51
237.9792298100
  0
ARC
  8
Layer0$C$L0
 62
     3
 10
-135.3207160020
 20
201.7449860031
 40
0.1777970770
 50
223.6308337583
 51
253.3441821948
  0
ARC
  8
Layer0$C$L0
 62
     3
 10
-134.9560710868
 20
199.9645638865
 40
0.5913917410
 50
178.1608733085
 51
225.3512782004
  0
LINE
  8
Layer0$C$L0
 62
     3
 10
-131.9723370217
 20
237.4457184940
 11
-133.4258055978
 21
237.4457184940
  0
LINE
  8
Layer0$C$L0
 62
     3
 10
-133.4258055978
 20
198.5897821158
 11
-131.9723370217
 21
198.5897821158
  0
ARC
  8
Layer0$C$L0
 62
     3
 10
-141.3934651190
 20
231.2051262466
 40
0.1908872316
 50
79.1179102675
 51
119.3260131649
  0
ARC
  8
Layer0$C$L0
 62
     3
 10
-141.3934651190
 20
204.8303743632
 40
0.1908872316
 50
240.6739868351
 51
280.8820897325
  0
POLYLINE
  8
Layer0$C$L0
 62
     3
 66
     1
  0
VERTEX
  8
Layer0$C$L0
 62
     3
 10
-141.3574278087
 20
204.6429197088
  0
VERTEX
  8
Layer0$C$L0
 62
     3
 10
-141.2669353851
 20
204.6524229243
  0
VERTEX
  8
Layer0$C$L0
 62
     3
 10
-141.1290228099
 20
204.6568839594
  0
SEQEND
  8
Layer0$C$L0
 62
     3
  0
LINE
  8
Layer0$C$L0
 62
     3
 10
-141.1290228099
 20
204.6568839594
 11
-139.5856899873
 21
204.6568839594
  0
POLYLINE
  8
Layer0$C$L0
 62
     3
 66
     1
  0
VERTEX
  8
Layer0$C$L0
 62
     3
 10
-141.1290228099
 20
231.3786166504
  0
VERTEX
  8
Layer0$C$L0
 62
     3
 10
-141.2797247723
 20
231.3840099394
  0
VERTEX
  8
Layer0$C$L0
 62
     3
 10
-141.3574278087
 20
231.3925809011
  0
SEQEND
  8
Layer0$C$L0
 62
     3
  0
LINE
  8
Layer0$C$L0
 62
     3
 10
-141.1290228099
 20
231.3786166504
 11
-139.5832857781
 21
231.3786166504
  0
ARC
  8
Layer0$C$L0
 62
     3
 10
-133.6870191568
 20
237.6909208837
 40
0.2098970535
 50
358.7653775305
 51
428.6355661573
  0
LINE
  8
Layer0$C$L0
 62
     3
 10
-133.4258055978
 20
237.8983598917
 11
-131.9723370217
 21
237.8983598917
  0
LINE
  8
Layer0$C$L0
 62
     3
 10
-131.9723370217
 20
198.1371407181
 11
-133.4258055978
 21
198.1371407181
  0
ARC
  8
Layer0$C$L0
 62
     3
 10
-133.6858498421
 20
198.3437998762
 40
0.2087463650
 50
291.1435179078
 51
361.4555384045
  0
LINE
  8
Layer0$C$L0
 62
     3
 10
-133.4771711000
 20
237.6863976312
 11
-133.4771711000
 21
237.4759351303
  0
LINE
  8
Layer0$C$L0
 62
     3
 10
-133.4771711000
 20
198.5595654795
 11
-133.4771711000
 21
198.3491029786
  0
POLYLINE
  8
Layer0$C$L0
 62
     3
 66
     1
  0
VERTEX
  8
Layer0$C$L0
 62
     3
 10
-141.4869575493
 20
231.4769186794
  0
VERTEX
  8
Layer0$C$L0
 62
     3
 10
-141.4854115539
 20
231.4785084471
  0
VERTEX
  8
Layer0$C$L0
 62
     3
 10
-141.4671729982
 20
231.4924307882
  0
SEQEND
  8
Layer0$C$L0
 62
     3
  0
POLYLINE
  8
Layer0$C$L0
 62
     3
 66
     1
  0
VERTEX
  8
Layer0$C$L0
 62
     3
 10
-141.4869575493
 20
204.5585819304
  0
VERTEX
  8
Layer0$C$L0
 62
     3
 10
-141.4854115539
 20
204.5569921627
  0
VERTEX
  8
Layer0$C$L0
 62
     3
 10
-141.4674635709
 20
204.5432914763
  0
SEQEND
  8
Layer0$C$L0
 62
     3
  0
POLYLINE
  8
Layer0$C$L0
 62
     3
 66
     1
  0
VERTEX
  8
Layer0$C$L0
 62
     3
 10
-135.3716765263
 20
199.4387906760
  0
VERTEX
  8
Layer0$C$L0
 62
     3
 10
-135.3745300986
 20
199.4408228218
  0
VERTEX
  8
Layer0$C$L0
 62
     3
 10
-135.3996609070
 20
199.4605500966
  0
SEQEND
  8
Layer0$C$L0
 62
     3
  0
LINE
  8
Layer0$C$L0
 62
     3
 10
-126.9819651463
 20
205.6649363383
 11
-126.9332842797
 21
205.6649360486
  0
LINE
  8
Layer0$C$L0
 62
     3
 10
-162.9771710106
 20
212.4177505046
 11
-166.0742264905
 21
212.4177505046
  0
LINE
  8
Layer0$C$L0
 62
     3
 10
-166.0742264905
 20
212.4177505046
 11
-166.0742264905
 21
212.9177501209
  0
LINE
  8
Layer0$C$L0
 62
     3
 10
-162.9771710106
 20
212.9177501209
 11
-166.0742264905
 21
212.9177501209
  0
POLYLINE
  8
Layer0$C$L0
 62
     3
 66
     1
  0
VERTEX
  8
Layer0$C$L0
 62
     3
 10
-166.0742264905
 20
212.4177505046
  0
VERTEX
  8
Layer0$C$L0
 62
     3
 10
-166.3155042299
 20
212.4897096090
  0
VERTEX
  8
Layer0$C$L0
 62
     3
 10
-166.4817397215
 20
212.5392885662
  0
VERTEX
  8
Layer0$C$L0
 62
     3
 10
-166.5664993890
 20
212.5645674549
  0
VERTEX
  8
Layer0$C$L0
 62
     3
 10
-166.5771704831
 20
212.5677502498
  0
SEQEND
  8
Layer0$C$L0
 62
     3
  0
POLYLINE
  8
Layer0$C$L0
 62
     3
 66
     1
  0
VERTEX
  8
Layer0$C$L0
 62
     3
 10
-166.5771704831
 20
212.7677503757
  0
VERTEX
  8
Layer0$C$L0
 62
     3
 10
-166.5664993890
 20
212.7709331706
  0
VERTEX
  8
Layer0$C$L0
 62
     3
 10
-166.4817397215
 20
212.7962120592
  0
VERTEX
  8
Layer0$C$L0
 62
     3
 10
-166.3155042299
 20
212.8457910165
  0
VERTEX
  8
Layer0$C$L0
 62
     3
 10
-166.0742264905
 20
212.9177501209
  0
SEQEND
  8
Layer0$C$L0
 62
     3
  0
LINE
  8
Layer0$C$L0
 62
     3
 10
-166.0742264905
 20
223.6177501052
 11
-166.0742264905
 21
223.1177504889
  0
LINE
  8
Layer0$C$L0
 62
     3
 10
-162.9771710106
 20
223.1177504889
 11
-166.0742264905
 21
223.1177504889
  0
LINE
  8
Layer0$C$L0
 62
     3
 10
-162.9771710106
 20
223.6177501052
 11
-166.0742264905
 21
223.6177501052
  0
POLYLINE
  8
Layer0$C$L0
 62
     3
 66
     1
  0
VERTEX
  8
Layer0$C$L0
 62
     3
 10
-166.0742264905
 20
223.1177504889
  0
VERTEX
  8
Layer0$C$L0
 62
     3
 10
-166.3155042299
 20
223.1897095933
  0
VERTEX
  8
Layer0$C$L0
 62
     3
 10
-166.4817397215
 20
223.2392885506
  0
VERTEX
  8
Layer0$C$L0
 62
     3
 10
-166.5664993890
 20
223.2645674392
  0
VERTEX
  8
Layer0$C$L0
 62
     3
 10
-166.5771704831
 20
223.2677502341
  0
SEQEND
  8
Layer0$C$L0
 62
     3
  0
POLYLINE
  8
Layer0$C$L0
 62
     3
 66
     1
  0
VERTEX
  8
Layer0$C$L0
 62
     3
 10
-166.5771704831
 20
223.4677503600
  0
VERTEX
  8
Layer0$C$L0
 62
     3
 10
-166.5664993890
 20
223.4709331549
  0
VERTEX
  8
Layer0$C$L0
 62
     3
 10
-166.4817397215
 20
223.4962120436
  0
VERTEX
  8
Layer0$C$L0
 62
     3
 10
-166.3155042299
 20
223.5457910008
  0
VERTEX
  8
Layer0$C$L0
 62
     3
 10
-166.0742264905
 20
223.6177501052
  0
SEQEND
  8
Layer0$C$L0
 62
     3
  0
LINE
  8
Layer0$C$L0
 62
     3
 10
-147.8771711000
 20
217.4177502764
 11
-150.4290098057
 21
217.4177502764
  0
LINE
  8
Layer0$C$L0
 62
     3
 10
-150.4290098057
 20
217.4177502764
 11
-150.4809072905
 21
217.4201324831
  0
LINE
  8
Layer0$C$L0
 62
     3
 10
-150.5597060278
 20
217.4397003271
 11
-150.4809072905
 21
217.4201324831
  0
LINE
  8
Layer0$C$L0
 62
     3
 10
-150.4809072905
 20
218.6153681267
 11
-150.5597060278
 21
218.5958002827
  0
LINE
  8
Layer0$C$L0
 62
     3
 10
-150.4809072905
 20
218.6153681267
 11
-150.4290098057
 21
218.6177503334
  0
LINE
  8
Layer0$C$L0
 62
     3
 10
-150.4290098057
 20
218.6177503334
 11
-147.8771711000
 21
218.6177503334
  0
LINE
  8
Layer0$C$L0
 62
     3
 10
-151.3771711000
 20
208.8177503049
 11
-151.3771711000
 21
227.2177503049
  0
ARC
  8
Layer0$C$L0
 62
     3
 10
-150.4134912940
 20
217.7944137287
 40
0.3836669723
 50
207.9669723514
 51
247.5982851907
  0
ARC
  8
Layer0$C$L0
 62
     3
 10
-150.4134912940
 20
218.2410868812
 40
0.3836669723
 50
112.4017148093
 51
152.0330276486
  0
LINE
  8
Layer0$C$L0
 62
     3
 10
-150.5597060278
 20
220.2219861809
 11
-150.4809072905
 21
220.2055366959
  0
ARC
  8
Layer0$C$L0
 62
     3
 10
-150.4512938764
 20
220.5921932342
 40
0.3857543997
 50
218.6989175256
 51
253.6777560600
  0
LINE
  8
Layer0$C$L0
 62
     3
 10
-150.4809072905
 20
215.8299639139
 11
-150.5597060278
 21
215.8135144289
  0
ARC
  8
Layer0$C$L0
 62
     3
 10
-150.4512938764
 20
215.4433073756
 40
0.3857543997
 50
106.3222439400
 51
141.3010824744
  0
LINE
  8
Layer0$C$L0
 62
     3
 10
-150.4290098057
 20
215.8322994381
 11
-147.8771711000
 21
215.8322994113
  0
LINE
  8
Layer0$C$L0
 62
     3
 10
-150.4809072905
 20
215.8299639139
 11
-150.4290098057
 21
215.8322994381
  0
LINE
  8
Layer0$C$L0
 62
     3
 10
-150.4290098057
 20
220.2032011717
 11
-147.8771711000
 21
220.2032011985
  0
LINE
  8
Layer0$C$L0
 62
     3
 10
-150.4290098057
 20
220.2032011717
 11
-150.4809072905
 21
220.2055366959
  0
LINE
  8
Layer0$C$L0
 62
     3
 10
-147.8771711000
 20
225.1476241751
 11
-147.8771711000
 21
214.8050024623
  0
LINE
  8
Layer0$C$L0
 62
     3
 10
-150.4290098057
 20
214.6731884002
 11
-150.4809072905
 21
214.6754547737
  0
LINE
  8
Layer0$C$L0
 62
     3
 10
-150.5597060278
 20
214.6968076721
 11
-150.4809072905
 21
214.6754547737
  0
LINE
  8
Layer0$C$L0
 62
     3
 10
-147.8771711000
 20
214.8050024623
 11
-147.8771711000
 21
207.1177503049
  0
ARC
  8
Layer0$C$L0
 62
     3
 10
-150.3752827598
 20
215.0603525747
 40
0.4076479339
 50
202.3331994018
 51
243.1017031351
  0
ARC
  8
Layer0$C$L0
 62
     3
 10
-150.3752827598
 20
220.9751480351
 40
0.4076479339
 50
116.8982968649
 51
157.6668005982
  0
LINE
  8
Layer0$C$L0
 62
     3
 10
-150.4809072905
 20
213.1936535023
 11
-150.5597060278
 21
213.1814433977
  0
ARC
  8
Layer0$C$L0
 62
     3
 10
-150.4427939279
 20
212.5925492301
 40
0.6003871915
 50
101.2288251095
 51
121.0374939188
  0
LINE
  8
Layer0$C$L0
 62
     3
 10
-150.5597060278
 20
222.8540572121
 11
-150.4809072905
 21
222.8418471075
  0
ARC
  8
Layer0$C$L0
 62
     3
 10
-150.4427939279
 20
223.4429513798
 40
0.6003871915
 50
238.9625060812
 51
258.7711748905
  0
LINE
  8
Layer0$C$L0
 62
     3
 10
-150.4290098057
 20
213.1957834370
 11
-147.8771711000
 21
213.1957833846
  0
LINE
  8
Layer0$C$L0
 62
     3
 10
-150.4809072905
 20
213.1936535023
 11
-150.4290098057
 21
213.1957834370
  0
LINE
  8
Layer0$C$L0
 62
     3
 10
-150.4290098057
 20
222.8397171728
 11
-147.8771711000
 21
222.8397172253
  0
LINE
  8
Layer0$C$L0
 62
     3
 10
-150.4290098057
 20
222.8397171728
 11
-150.4809072905
 21
222.8418471075
  0
LINE
  8
Layer0$C$L0
 62
     3
 10
-152.0771711000
 20
208.8177503049
 11
-152.0771711000
 21
209.3206243428
  0
LINE
  8
Layer0$C$L0
 62
     3
 10
-152.0771711000
 20
209.3206243428
 11
-152.9771711000
 21
209.3206243428
  0
LINE
  8
Layer0$C$L0
 62
     3
 10
-152.9771711000
 20
209.3206243428
 11
-152.9771711000
 21
215.0177503049
  0
LINE
  8
Layer0$C$L0
 62
     3
 10
-152.0771711000
 20
215.0177503049
 11
-152.9771711000
 21
215.0177503049
  0
LINE
  8
Layer0$C$L0
 62
     3
 10
-152.0771711000
 20
215.0177503049
 11
-152.0771711000
 21
221.0177503049
  0
LINE
  8
Layer0$C$L0
 62
     3
 10
-152.0771711000
 20
221.0177503049
 11
-152.9771711000
 21
221.0177503049
  0
LINE
  8
Layer0$C$L0
 62
     3
 10
-152.9771711000
 20
221.0177503049
 11
-152.9771711000
 21
226.7148762670
  0
LINE
  8
Layer0$C$L0
 62
     3
 10
-152.0771711000
 20
226.7148762670
 11
-152.9771711000
 21
226.7148762670
  0
LINE
  8
Layer0$C$L0
 62
     3
 10
-152.0771711000
 20
226.7148762670
 11
-152.0771711000
 21
227.2177503049
  0
ARC
  8
Layer0$C$L0
 62
     3
 10
-150.3545747435
 20
212.5534343048
 40
0.4233567533
 50
200.0186149028
 51
224.6510125124
  0
ARC
  8
Layer0$C$L0
 62
     3
 10
-150.3520276820
 20
223.4809898409
 40
0.4261184489
 50
135.2907220545
 51
159.9626277132
  0
LINE
  8
Layer0$C$L0
 62
     3
 10
-150.4809072905
 20
210.8860973984
 11
-150.5597060278
 21
210.8789592765
  0
ARC
  8
Layer0$C$L0
 62
     3
 10
-150.7324649427
 20
211.8643165112
 40
1.0003871863
 50
268.8608701758
 51
279.9443776213
  0
LINE
  8
Layer0$C$L0
 62
     3
 10
-150.5597060278
 20
225.1565413333
 11
-150.4809072905
 21
225.1494032114
  0
ARC
  8
Layer0$C$L0
 62
     3
 10
-150.7324649427
 20
224.1711840986
 40
1.0003871863
 50
80.0556223787
 51
91.1391298242
  0
LINE
  8
Layer0$C$L0
 62
     3
 10
-150.4290098057
 20
210.8878762245
 11
-147.8771711000
 21
210.8878764347
  0
LINE
  8
Layer0$C$L0
 62
     3
 10
-150.4809072905
 20
210.8860973984
 11
-150.4290098057
 21
210.8878762245
  0
LINE
  8
Layer0$C$L0
 62
     3
 10
-150.4290098057
 20
225.1476243853
 11
-147.8771711000
 21
225.1476241751
  0
LINE
  8
Layer0$C$L0
 62
     3
 10
-150.4290098057
 20
225.1476243853
 11
-150.4809072905
 21
225.1494032114
  0
LINE
  8
Layer0$C$L0
 62
     3
 10
-147.8771711000
 20
226.9696420034
 11
-147.8771711000
 21
225.1476241751
  0
ARC
  8
Layer0$C$L0
 62
     3
 10
-150.4574487240
 20
210.3893913038
 40
0.3100011942
 50
197.9547783035
 51
219.4944460580
  0
ARC
  8
Layer0$C$L0
 62
     3
 10
-150.4567894848
 20
225.6458305037
 40
0.3107142801
 50
140.4478029634
 51
162.0337882418
  0
LINE
  8
Layer0$C$L0
 62
     3
 10
-150.4809072905
 20
209.0645515144
 11
-150.5597060278
 21
209.0629710599
  0
ARC
  8
Layer0$C$L0
 62
     3
 10
-150.5939156721
 20
209.3470768532
 40
0.2861580010
 50
236.3808137645
 51
276.8660226659
  0
LINE
  8
Layer0$C$L0
 62
     3
 10
-150.5597060278
 20
226.9725295499
 11
-150.4809072905
 21
226.9709490955
  0
ARC
  8
Layer0$C$L0
 62
     3
 10
-150.5939156721
 20
226.6884237566
 40
0.2861580010
 50
83.1339773341
 51
123.6191862355
  0
LINE
  8
Layer0$C$L0
 62
     3
 10
-150.4290098057
 20
209.0658581599
 11
-147.8771711000
 21
209.0658586064
  0
LINE
  8
Layer0$C$L0
 62
     3
 10
-150.4809072905
 20
209.0645515144
 11
-150.4290098057
 21
209.0658581599
  0
LINE
  8
Layer0$C$L0
 62
     3
 10
-150.4290098057
 20
226.9696424499
 11
-147.8771711000
 21
226.9696420034
  0
LINE
  8
Layer0$C$L0
 62
     3
 10
-150.4290098057
 20
226.9696424499
 11
-150.4809072905
 21
226.9709490955
  0
LINE
  8
Layer0$C$L0
 62
     3
 10
-147.8771711000
 20
228.1816032061
 11
-147.8771711000
 21
226.9696420034
  0
POLYLINE
  8
Layer0$C$L0
 62
     3
 66
     1
  0
VERTEX
  8
Layer0$C$L0
 62
     3
 10
-150.6582348340
 20
227.5032809719
  0
VERTEX
  8
Layer0$C$L0
 62
     3
 10
-150.6561924436
 20
227.5159152940
  0
VERTEX
  8
Layer0$C$L0
 62
     3
 10
-150.6529919535
 20
227.5234925344
  0
SEQEND
  8
Layer0$C$L0
 62
     3
  0
POLYLINE
  8
Layer0$C$L0
 62
     3
 66
     1
  0
VERTEX
  8
Layer0$C$L0
 62
     3
 10
-150.7523528964
 20
208.7055210739
  0
VERTEX
  8
Layer0$C$L0
 62
     3
 10
-150.7511808269
 20
208.7023461952
  0
VERTEX
  8
Layer0$C$L0
 62
     3
 10
-150.7245617651
 20
208.6440016299
  0
SEQEND
  8
Layer0$C$L0
 62
     3
  0
POLYLINE
  8
Layer0$C$L0
 62
     3
 66
     1
  0
VERTEX
  8
Layer0$C$L0
 62
     3
 10
-150.7245207869
 20
227.3915893182
  0
VERTEX
  8
Layer0$C$L0
 62
     3
 10
-150.7511808269
 20
227.3331544146
  0
VERTEX
  8
Layer0$C$L0
 62
     3
 10
-150.7523528964
 20
227.3299795359
  0
SEQEND
  8
Layer0$C$L0
 62
     3
  0
LINE
  8
Layer0$C$L0
 62
     3
 10
-150.4809072905
 20
207.8531523019
 11
-150.5597060278
 21
207.8572370827
  0
ARC
  8
Layer0$C$L0
 62
     3
 10
-150.5471119343
 20
208.1119618077
 40
0.2550358734
 50
216.4135626340
 51
267.1694883915
  0
LINE
  8
Layer0$C$L0
 62
     3
 10
-150.5597060278
 20
228.1782635271
 11
-150.4809072905
 21
228.1823483079
  0
ARC
  8
Layer0$C$L0
 62
     3
 10
-150.5471119343
 20
227.9235388021
 40
0.2550358734
 50
92.8305116085
 51
143.5864373660
  0
LINE
  8
Layer0$C$L0
 62
     3
 10
-150.4290098057
 20
207.8538973599
 11
-147.8771711000
 21
207.8538974037
  0
LINE
  8
Layer0$C$L0
 62
     3
 10
-150.4809072905
 20
207.8531523019
 11
-150.4290098057
 21
207.8538973599
  0
LINE
  8
Layer0$C$L0
 62
     3
 10
-150.4290098057
 20
228.1816032499
 11
-147.8771711000
 21
228.1816032061
  0
LINE
  8
Layer0$C$L0
 62
     3
 10
-150.4290098057
 20
228.1816032499
 11
-150.4809072905
 21
228.1823483079
  0
LINE
  8
Layer0$C$L0
 62
     3
 10
-147.8771711000
 20
228.9101312564
 11
-147.8771711000
 21
228.1816032061
  0
ARC
  8
Layer0$C$L0
 62
     3
 10
-150.3891398434
 20
228.3445248689
 40
0.2999297661
 50
89.5509558083
 51
153.7915629453
  0
ARC
  8
Layer0$C$L0
 62
     3
 10
-150.3883007315
 20
207.6923359045
 40
0.3012845100
 50
206.3700348960
 51
270.2874463503
  0
LINE
  8
Layer0$C$L0
 62
     3
 10
-150.6570945736
 20
207.5540015505
 11
-150.6582350478
 21
207.5585155443
  0
LINE
  8
Layer0$C$L0
 62
     3
 10
-150.3867894371
 20
207.3860407458
 11
-150.3867894371
 21
207.3910555204
  0
LINE
  8
Layer0$C$L0
 62
     3
 10
-150.3867894371
 20
228.6444450894
 11
-150.3867894371
 21
228.6494598640
  0
LINE
  8
Layer0$C$L0
 62
     3
 10
-150.6582350478
 20
228.4769850655
 11
-150.6570866402
 21
228.4815153345
  0
POLYLINE
  8
Layer0$C$L0
 62
     3
 66
     1
  0
VERTEX
  8
Layer0$C$L0
 62
     3
 10
-150.7523528964
 20
207.7518262684
  0
VERTEX
  8
Layer0$C$L0
 62
     3
 10
-150.7511808269
 20
207.7489522069
  0
VERTEX
  8
Layer0$C$L0
 62
     3
 10
-150.7404524565
 20
207.7278102532
  0
SEQEND
  8
Layer0$C$L0
 62
     3
  0
LINE
  8
Layer0$C$L0
 62
     3
 10
-150.4809072905
 20
207.3344521939
 11
-150.5597060278
 21
207.3439246758
  0
ARC
  8
Layer0$C$L0
 62
     3
 10
-150.4926301927
 20
207.6254849518
 40
0.2894397289
 50
206.1908141031
 51
256.6002472953
  0
LINE
  8
Layer0$C$L0
 62
     3
 10
-150.5597060278
 20
228.6915759340
 11
-150.4809072905
 21
228.7010484159
  0
ARC
  8
Layer0$C$L0
 62
     3
 10
-150.4926301927
 20
228.4100156580
 40
0.2894397289
 50
103.3997527047
 51
153.8091858969
  0
LINE
  8
Layer0$C$L0
 62
     3
 10
-150.4290098057
 20
207.3345863044
 11
-147.8771711000
 21
207.3345859797
  0
LINE
  8
Layer0$C$L0
 62
     3
 10
-150.4809072905
 20
207.3344521939
 11
-150.4290098057
 21
207.3345863044
  0
LINE
  8
Layer0$C$L0
 62
     3
 10
-150.4290098057
 20
228.7009143054
 11
-147.8771711000
 21
228.7009146301
  0
LINE
  8
Layer0$C$L0
 62
     3
 10
-150.4290098057
 20
228.7009143054
 11
-150.4809072905
 21
228.7010484159
  0
LINE
  8
Layer0$C$L0
 62
     3
 10
-147.8771711000
 20
228.9177503049
 11
-147.8771711000
 21
228.9101312564
  0
LINE
  8
Layer0$C$L0
 62
     3
 10
-161.9771711000
 20
210.6177503049
 11
-161.9771711000
 21
225.4177503049
  0
LINE
  8
Layer0$C$L0
 62
     3
 10
-161.9771711000
 20
212.2177503049
 11
-162.9771711000
 21
212.2177503049
  0
LINE
  8
Layer0$C$L0
 62
     3
 10
-162.7771711000
 20
223.8177503049
 11
-162.7771711000
 21
212.2177503049
  0
LINE
  8
Layer0$C$L0
 62
     3
 10
-161.9771711000
 20
223.8177503049
 11
-162.9771711000
 21
223.8177503049
  0
LINE
  8
Layer0$C$L0
 62
     3
 10
-162.9771711000
 20
211.6083821613
 11
-162.9771711000
 21
224.5446178537
  0
LINE
  8
Layer0$C$L0
 62
     3
 10
-157.9771711000
 20
218.9177503243
 11
-159.7771708586
 21
218.9177502894
  0
LINE
  8
Layer0$C$L0
 62
     3
 10
-158.9771711000
 20
217.1177503049
 11
-158.9771711000
 21
218.9177503049
  0
LINE
  8
Layer0$C$L0
 62
     3
 10
-157.9771711000
 20
217.1177502856
 11
-159.7771708586
 21
217.1177503204
  0
LINE
  8
Layer0$C$L0
 62
     3
 10
-157.9771711000
 20
218.9177503049
 11
-157.9771711000
 21
217.1177503049
  0
LINE
  8
Layer0$C$L0
 62
     3
 10
-155.5771711000
 20
221.2796515910
 11
-155.5771711000
 21
222.2177503049
  0
LINE
  8
Layer0$C$L0
 62
     3
 10
-156.3771710463
 20
222.2177503049
 11
-154.5771711000
 21
222.2177503049
  0
LINE
  8
Layer0$C$L0
 62
     3
 10
-154.5771711000
 20
221.0177503049
 11
-154.5771711000
 21
222.2177503049
  0
LINE
  8
Layer0$C$L0
 62
     3
 10
-154.5771711000
 20
221.0177503049
 11
-156.3771710463
 21
221.0177503662
  0
POLYLINE
  8
Layer0$C$L0
 62
     3
 66
     1
  0
VERTEX
  8
Layer0$C$L0
 62
     3
 10
-155.3425955318
 20
221.0177503310
  0
VERTEX
  8
Layer0$C$L0
 62
     3
 10
-155.4553628631
 20
221.1458421096
  0
VERTEX
  8
Layer0$C$L0
 62
     3
 10
-155.5771714740
 20
221.2796515103
  0
SEQEND
  8
Layer0$C$L0
 62
     3
  0
LINE
  8
Layer0$C$L0
 62
     3
 10
-155.5771711000
 20
221.2796515910
 11
-156.3771710463
 21
221.2796515103
  0
LINE
  8
Layer0$C$L0
 62
     3
 10
-155.5771711000
 20
214.7558490188
 11
-156.3771710463
 21
214.7558490995
  0
LINE
  8
Layer0$C$L0
 62
     3
 10
-154.5771711000
 20
215.0177502788
 11
-156.3771710463
 21
215.0177502788
  0
POLYLINE
  8
Layer0$C$L0
 62
     3
 66
     1
  0
VERTEX
  8
Layer0$C$L0
 62
     3
 10
-155.5771714740
 20
214.7558490995
  0
VERTEX
  8
Layer0$C$L0
 62
     3
 10
-155.4553628631
 20
214.8896585002
  0
VERTEX
  8
Layer0$C$L0
 62
     3
 10
-155.3425955318
 20
215.0177502788
  0
SEQEND
  8
Layer0$C$L0
 62
     3
  0
LINE
  8
Layer0$C$L0
 62
     3
 10
-154.5771711000
 20
213.8177503049
 11
-154.5771711000
 21
215.0177503049
  0
LINE
  8
Layer0$C$L0
 62
     3
 10
-154.5771711000
 20
213.8177503049
 11
-156.3771710463
 21
213.8177503049
  0
LINE
  8
Layer0$C$L0
 62
     3
 10
-155.5771711000
 20
213.8177503049
 11
-155.5771711000
 21
214.7558490188
  0
LINE
  8
Layer0$C$L0
 62
     3
 10
-161.9771708467
 20
224.4271183170
 11
-162.9771711000
 21
224.4271184485
  0
LINE
  8
Layer0$C$L0
 62
     3
 10
-162.9771711000
 20
224.5446178537
 11
-162.1771705069
 21
224.5446176983
  0
ARC
  8
Layer0$C$L0
 62
     3
 10
-161.6271711000
 20
218.0177503049
 40
6.5500000000
 50
93.0630653875
 51
94.8167677403
  0
LINE
  8
Layer0$C$L0
 62
     3
 10
-162.9771711000
 20
211.6083821613
 11
-161.9771708467
 21
211.6083822928
  0
ARC
  8
Layer0$C$L0
 62
     3
 10
-161.6271711000
 20
218.0177503049
 40
6.5500000000
 50
265.1832322597
 51
266.9369346125
  0
LINE
  8
Layer0$C$L0
 62
     3
 10
-162.9771711000
 20
211.4908827561
 11
-162.1771705069
 21
211.4908829115
  0
LINE
  8
Layer0$C$L0
 62
     3
 10
-162.9771711000
 20
211.4908827561
 11
-162.9771711000
 21
211.6083821613
  0
LINE
  8
Layer0$C$L0
 62
     3
 10
-147.0771711000
 20
229.4677503049
 11
-147.0771711000
 21
206.5677503049
  0
LINE
  8
Layer0$C$L0
 62
     3
 10
-141.9771712937
 20
221.3020258367
 11
-144.8771711000
 21
221.3020259382
  0
LINE
  8
Layer0$C$L0
 62
     3
 10
-141.9771712937
 20
219.0743073605
 11
-144.8771711000
 21
219.0743073960
  0
LINE
  8
Layer0$C$L0
 62
     3
 10
-144.8771711000
 20
216.9611932138
 11
-144.8771711000
 21
219.0743073960
  0
LINE
  8
Layer0$C$L0
 62
     3
 10
-141.9771712937
 20
216.9611932493
 11
-144.8771711000
 21
216.9611932138
  0
LINE
  8
Layer0$C$L0
 62
     3
 10
-141.9771712937
 20
214.7334747731
 11
-144.8771711000
 21
214.7334746716
  0
LINE
  8
Layer0$C$L0
 62
     3
 10
-144.8771711000
 20
212.7477968678
 11
-144.8771711000
 21
214.7334746716
  0
LINE
  8
Layer0$C$L0
 62
     3
 10
-141.9771712937
 20
212.7477967895
 11
-144.8771711000
 21
212.7477968678
  0
LINE
  8
Layer0$C$L0
 62
     3
 10
-141.9771712937
 20
210.7887741893
 11
-144.8771711000
 21
210.7887740594
  0
LINE
  8
Layer0$C$L0
 62
     3
 10
-144.8771711000
 20
209.1700346825
 11
-144.8771711000
 21
210.7887740594
  0
LINE
  8
Layer0$C$L0
 62
     3
 10
-141.9771712937
 20
209.1700349718
 11
-144.8771711000
 21
209.1700346825
  0
LINE
  8
Layer0$C$L0
 62
     3
 10
-141.9771712937
 20
207.7159945637
 11
-144.8771711000
 21
207.7159946707
  0
LINE
  8
Layer0$C$L0
 62
     3
 10
-144.8771711000
 20
206.6594375796
 11
-144.8771711000
 21
207.7159946707
  0
LINE
  8
Layer0$C$L0
 62
     3
 10
-141.9771712937
 20
206.6594379738
 11
-144.8771711000
 21
206.6594375796
  0
LINE
  8
Layer0$C$L0
 62
     3
 10
-141.9771712937
 20
205.8857594400
 11
-144.8771711000
 21
205.8857590492
  0
LINE
  8
Layer0$C$L0
 62
     3
 10
-144.8771711000
 20
205.5188206222
 11
-144.8771711000
 21
205.8857590492
  0
LINE
  8
Layer0$C$L0
 62
     3
 10
-141.9771712937
 20
205.5188202083
 11
-144.8771711000
 21
205.5188206222
  0
LINE
  8
Layer0$C$L0
 62
     3
 10
-141.9771712937
 20
230.5166804015
 11
-144.8771711000
 21
230.5166799876
  0
LINE
  8
Layer0$C$L0
 62
     3
 10
-144.8771711000
 20
230.1497415606
 11
-144.8771711000
 21
230.5166799876
  0
LINE
  8
Layer0$C$L0
 62
     3
 10
-141.9771712937
 20
230.1497411698
 11
-144.8771711000
 21
230.1497415606
  0
LINE
  8
Layer0$C$L0
 62
     3
 10
-141.9771712937
 20
229.3760626360
 11
-144.8771711000
 21
229.3760630302
  0
LINE
  8
Layer0$C$L0
 62
     3
 10
-144.8771711000
 20
228.3195059391
 11
-144.8771711000
 21
229.3760630302
  0
LINE
  8
Layer0$C$L0
 62
     3
 10
-141.9771712937
 20
228.3195060461
 11
-144.8771711000
 21
228.3195059391
  0
LINE
  8
Layer0$C$L0
 62
     3
 10
-141.9771712937
 20
226.8654656380
 11
-144.8771711000
 21
226.8654659273
  0
LINE
  8
Layer0$C$L0
 62
     3
 10
-144.8771711000
 20
225.2467265504
 11
-144.8771711000
 21
226.8654659273
  0
LINE
  8
Layer0$C$L0
 62
     3
 10
-141.9771712937
 20
225.2467264205
 11
-144.8771711000
 21
225.2467265504
  0
LINE
  8
Layer0$C$L0
 62
     3
 10
-141.9771712937
 20
223.2877038203
 11
-144.8771711000
 21
223.2877037420
  0
LINE
  8
Layer0$C$L0
 62
     3
 10
-144.8771711000
 20
221.3020259382
 11
-144.8771711000
 21
223.2877037420
  0
LINE
  8
Layer0$C$L0
 62
     3
 10
-146.4771711000
 20
230.5677503049
 11
-146.4771711000
 21
205.4677503049
  0
LINE
  8
Layer0$C$L0
 62
     3
 10
-144.8771711000
 20
219.0743073960
 11
-144.7124258813
 21
218.3650466630
  0
LINE
  8
Layer0$C$L0
 62
     3
 10
-144.7124258813
 20
218.3650466630
 11
-144.6771711309
 21
218.0177503049
  0
LINE
  8
Layer0$C$L0
 62
     3
 10
-144.6771711309
 20
218.0177503049
 11
-144.7124258813
 21
217.6704539468
  0
LINE
  8
Layer0$C$L0
 62
     3
 10
-144.7124258813
 20
217.6704539468
 11
-144.8771711000
 21
216.9611932138
  0
LINE
  8
Layer0$C$L0
 62
     3
 10
-144.8771711000
 20
223.2877037420
 11
-144.7124258813
 21
222.5784430064
  0
LINE
  8
Layer0$C$L0
 62
     3
 10
-144.7124258813
 20
222.5784430064
 11
-144.6771711309
 21
222.2416991152
  0
LINE
  8
Layer0$C$L0
 62
     3
 10
-144.6771711309
 20
222.2416991152
 11
-144.7124258813
 21
221.9257395498
  0
LINE
  8
Layer0$C$L0
 62
     3
 10
-144.7124258813
 20
221.9257395498
 11
-144.8771711000
 21
221.3020259382
  0
LINE
  8
Layer0$C$L0
 62
     3
 10
-144.8771711000
 20
214.7334746716
 11
-144.7124258813
 21
214.1097610600
  0
LINE
  8
Layer0$C$L0
 62
     3
 10
-144.7124258813
 20
214.1097610600
 11
-144.6771711309
 21
213.7938014947
  0
LINE
  8
Layer0$C$L0
 62
     3
 10
-144.6771711309
 20
213.7938014947
 11
-144.7124258813
 21
213.4570576034
  0
LINE
  8
Layer0$C$L0
 62
     3
 10
-144.7124258813
 20
213.4570576034
 11
-144.8771711000
 21
212.7477968678
  0
LINE
  8
Layer0$C$L0
 62
     3
 10
-144.8771711000
 20
226.8654659273
 11
-144.7124258813
 21
226.2417523905
  0
LINE
  8
Layer0$C$L0
 62
     3
 10
-144.7124258813
 20
226.2417523905
 11
-144.6771711309
 21
225.9561772242
  0
LINE
  8
Layer0$C$L0
 62
     3
 10
-144.6771711309
 20
225.9561772242
 11
-144.7124258813
 21
225.7096635893
  0
LINE
  8
Layer0$C$L0
 62
     3
 10
-144.7124258813
 20
225.7096635893
 11
-144.8771711000
 21
225.2467265504
  0
LINE
  8
Layer0$C$L0
 62
     3
 10
-144.8771711000
 20
210.7887740594
 11
-144.7124258813
 21
210.3258370205
  0
LINE
  8
Layer0$C$L0
 62
     3
 10
-144.7124258813
 20
210.3258370205
 11
-144.6771711309
 21
210.0793233856
  0
LINE
  8
Layer0$C$L0
 62
     3
 10
-144.6771711309
 20
210.0793233856
 11
-144.7124258813
 21
209.7937482193
  0
LINE
  8
Layer0$C$L0
 62
     3
 10
-144.7124258813
 20
209.7937482193
 11
-144.8771711000
 21
209.1700346825
  0
LINE
  8
Layer0$C$L0
 62
     3
 10
-147.8771710501
 20
217.1677502936
 11
-147.0771711285
 21
217.1677502936
  0
LINE
  8
Layer0$C$L0
 62
     3
 10
-147.8771710501
 20
218.8677503162
 11
-147.0771711285
 21
218.8677503162
  0
LINE
  8
Layer0$C$L0
 62
     3
 10
-155.7168875747
 20
217.0177503049
 11
-155.7168875747
 21
215.3177503049
  0
LINE
  8
Layer0$C$L0
 62
     3
 10
-152.0771709003
 20
217.0177502574
 11
-155.9771711000
 21
217.0177503083
  0
LINE
  8
Layer0$C$L0
 62
     3
 10
-152.0771709003
 20
219.0177503524
 11
-155.9771711000
 21
219.0177503015
  0
LINE
  8
Layer0$C$L0
 62
     3
 10
-155.7168875747
 20
220.7177503049
 11
-155.7168875747
 21
219.0177503049
  0
LINE
  8
Layer0$C$L0
 62
     3
 10
-154.4771714800
 20
220.7177503749
 11
-156.1771713861
 21
220.7177502790
  0
ARC
  8
Layer0$C$L0
 62
     3
 10
-154.4771718306
 20
220.9177513172
 40
0.2000009423
 50
270.0001004633
 51
360.0000000000
  0
LINE
  8
Layer0$C$L0
 62
     3
 10
-154.2771711000
 20
222.3177503049
 11
-154.2771711000
 21
220.9177503049
  0
ARC
  8
Layer0$C$L0
 62
     3
 10
-154.4771712467
 20
222.3177497529
 40
0.2000003583
 50
0.0000000000
 51
90.0000668302
  0
LINE
  8
Layer0$C$L0
 62
     3
 10
-156.1771713861
 20
222.5177503769
 11
-154.4771714800
 21
222.5177501112
  0
LINE
  8
Layer0$C$L0
 62
     3
 10
-155.7168875747
 20
225.4177503049
 11
-155.7168875747
 21
222.5177503049
  0
LINE
  8
Layer0$C$L0
 62
     3
 10
-147.8771710501
 20
225.4177503071
 11
-147.1771711000
 21
225.4177503049
  0
LINE
  8
Layer0$C$L0
 62
     3
 10
-147.1771711000
 20
225.4177503049
 11
-147.1771711000
 21
225.9177503049
  0
LINE
  8
Layer0$C$L0
 62
     3
 10
-147.1771711000
 20
210.1177503049
 11
-147.1771711000
 21
210.6177503049
  0
LINE
  8
Layer0$C$L0
 62
     3
 10
-147.8771710501
 20
210.6177503027
 11
-147.1771711000
 21
210.6177503049
  0
LINE
  8
Layer0$C$L0
 62
     3
 10
-155.7168875747
 20
213.5177503049
 11
-155.7168875747
 21
210.6177503049
  0
LINE
  8
Layer0$C$L0
 62
     3
 10
-154.4771714800
 20
213.5177504986
 11
-156.1771713861
 21
213.5177502330
  0
ARC
  8
Layer0$C$L0
 62
     3
 10
-154.4771712269
 20
213.7177508371
 40
0.2000003385
 50
269.9999274975
 51
360.0000000000
  0
LINE
  8
Layer0$C$L0
 62
     3
 10
-154.2771711000
 20
215.1177503049
 11
-154.2771711000
 21
213.7177503049
  0
ARC
  8
Layer0$C$L0
 62
     3
 10
-154.4771715617
 20
215.1177495615
 40
0.2000006734
 50
0.0000000000
 51
89.9999765732
  0
LINE
  8
Layer0$C$L0
 62
     3
 10
-156.1771713861
 20
215.3177503310
 11
-154.4771714800
 21
215.3177502349
  0
LINE
  8
Layer0$C$L0
 62
     3
 10
-155.9771711000
 20
220.7177503049
 11
-155.9771711000
 21
219.0177503049
  0
LINE
  8
Layer0$C$L0
 62
     3
 10
-155.9771711000
 20
217.0177503049
 11
-155.9771711000
 21
215.3177503049
  0
ARC
  8
Layer0$C$L0
 62
     3
 10
-159.5771713940
 20
219.0177508974
 40
0.1999994645
 50
89.9999439290
 51
180.0000000000
  0
LINE
  8
Layer0$C$L0
 62
     3
 10
-159.7771711000
 20
217.0177503049
 11
-159.7771711000
 21
219.0177503049
  0
ARC
  8
Layer0$C$L0
 62
     3
 10
-159.5771710007
 20
217.0177501058
 40
0.1999998579
 50
180.0000000000
 51
269.9999433875
  0
LINE
  8
Layer0$C$L0
 62
     3
 10
-158.0771709525
 20
216.8177502479
 11
-159.5771711983
 21
216.8177502479
  0
ARC
  8
Layer0$C$L0
 62
     3
 10
-158.0771707567
 20
217.0177497124
 40
0.1999994645
 50
269.9999439291
 51
360.0000000000
  0
LINE
  8
Layer0$C$L0
 62
     3
 10
-157.8771711000
 20
219.0177503049
 11
-157.8771711000
 21
217.0177503049
  0
ARC
  8
Layer0$C$L0
 62
     3
 10
-158.0771715235
 20
219.0177501306
 40
0.2000002313
 50
0.0000000000
 51
89.9998364181
  0
LINE
  8
Layer0$C$L0
 62
     3
 10
-159.5771711983
 20
219.2177503619
 11
-158.0771709525
 21
219.2177503619
  0
LINE
  8
Layer0$C$L0
 62
     3
 10
-155.9771711000
 20
225.4177503049
 11
-155.9771711000
 21
222.5177503049
  0
ARC
  8
Layer0$C$L0
 62
     3
 10
-156.1771729021
 20
222.3177519669
 40
0.1999981443
 50
89.9995656958
 51
180.0000000000
  0
LINE
  8
Layer0$C$L0
 62
     3
 10
-156.3771711000
 20
220.9177503049
 11
-156.3771711000
 21
222.3177503049
  0
ARC
  8
Layer0$C$L0
 62
     3
 10
-156.1771721320
 20
220.9177492893
 40
0.1999989143
 50
180.0000000000
 51
270.0002136909
  0
ARC
  8
Layer0$C$L0
 62
     3
 10
-156.1771717110
 20
215.1177508996
 40
0.1999993353
 50
89.9999069031
 51
180.0000000000
  0
LINE
  8
Layer0$C$L0
 62
     3
 10
-156.3771711000
 20
213.7177503049
 11
-156.3771711000
 21
215.1177503049
  0
ARC
  8
Layer0$C$L0
 62
     3
 10
-156.1771745393
 20
213.7177470056
 40
0.1999965070
 50
180.0000000000
 51
270.0009033615
  0
LINE
  8
Layer0$C$L0
 62
     3
 10
-155.9771711000
 20
213.5177503049
 11
-155.9771711000
 21
210.6177503049
  0
LINE
  8
Layer0$C$L0
 62
     3
 10
-144.8771711000
 20
229.3760630302
 11
-144.7124258813
 21
228.9131263986
  0
LINE
  8
Layer0$C$L0
 62
     3
 10
-144.7124258813
 20
228.9131263986
 11
-144.6771711309
 21
228.7131639912
  0
LINE
  8
Layer0$C$L0
 62
     3
 10
-144.6771711309
 20
228.7131639912
 11
-144.7124258813
 21
228.5658296913
  0
LINE
  8
Layer0$C$L0
 62
     3
 10
-144.7124258813
 20
228.5658296913
 11
-144.8771711000
 21
228.3195059391
  0
LINE
  8
Layer0$C$L0
 62
     3
 10
-144.8771711000
 20
207.7159946707
 11
-144.7124258813
 21
207.4696709186
  0
LINE
  8
Layer0$C$L0
 62
     3
 10
-144.7124258813
 20
207.4696709186
 11
-144.6771711309
 21
207.3223366186
  0
LINE
  8
Layer0$C$L0
 62
     3
 10
-144.6771711309
 20
207.3223366186
 11
-144.7124258813
 21
207.1223742112
  0
LINE
  8
Layer0$C$L0
 62
     3
 10
-144.7124258813
 20
207.1223742112
 11
-144.8771711000
 21
206.6594375796
  0
LINE
  8
Layer0$C$L0
 62
     3
 10
-144.8771711000
 20
230.5166799876
 11
-144.7124258813
 21
230.2703567564
  0
LINE
  8
Layer0$C$L0
 62
     3
 10
-144.7124258813
 20
230.2703567564
 11
-144.6771711309
 21
230.1801265001
  0
LINE
  8
Layer0$C$L0
 62
     3
 10
-144.6771711309
 20
205.8553741097
 11
-144.7124258813
 21
205.7651438534
  0
LINE
  8
Layer0$C$L0
 62
     3
 10
-144.7124258813
 20
205.7651438534
 11
-144.8771711000
 21
205.5188206222
  0
LINE
  8
Layer1$C$L1
  6
CENTER
 62
     3
 10
-167.9864613944
 20
218.0177503049
 11
-123.0377165925
 21
218.0177503049
  0
LINE
  8
Layer1$C$L1
  6
CENTER
 62
     3
 10
-186.6952244000
 20
139.8829317891
 11
-232.6952244000
 21
139.8829317891
  0
LINE
  8
Layer1$C$L1
  6
CENTER
 62
     3
 10
-209.6952244000
 20
116.8829317891
 11
-209.6952244000
 21
162.8829317891
  0
LINE
  8
Layer1$C$L1
  6
CENTER
 62
     3
 10
-175.1527658498
 20
140.1644138350
 11
-124.4640981205
 21
140.1644138350
  0
LINE
  8
Layer1$C$L1
  6
CENTER
 62
     3
 10
-114.5300683551
 20
139.8829317891
 11
-68.5300683551
 21
139.8829317891
  0
LINE
  8
Layer1$C$L1
  6
CENTER
 62
     3
 10
-91.5300683551
 20
116.8829317891
 11
-91.5300683551
 21
162.8829317891
  0
ENDSEC
  0
EOF
