  0
SECTION
  2
HEADER
  9
$ACADVER
  1
AC1004
  9
$ANGBASE
 50
0.0000000000
  9
$ANGDIR
 70
     0
  9
$ATTDIA
 70
     0
  9
$ATTMODE
 70
     1
  9
$ATTREQ
 70
     1
  9
$AUNITS
 70
     0
  9
$AUPREC
 70
     0
  9
$AXISMODE
 70
     0
  9
$AXISUNIT
 10
0.0000000000
 20
0.0000000000
  9
$BLIPMODE
 70
     1
  9
$CECOLOR
 62
   256
  9
$CELTYPE
  6
BYLAYER
  9
$CHAMFERA
 40
0.0000000000
  9
$CHAMFERB
 40
0.0000000000
  9
$CLAYER
  8
0
  9
$COORDS
 70
     0
  9
$DIMALT
 70
     0
  9
$DIMALTD
 70
     2
  9
$DIMALTF
 40
25.4000000000
  9
$DIMAPOST
  1

  9
$DIMASO
 70
     1
  9
$DIMASZ
 40
1.9727878465
  9
$DIMBLK
  1

  9
$DIMBLK1
  1

  9
$DIMBLK2
  1

  9
$DIMCEN
 40
9.0000000000E-02
  9
$DIMDLE
 40
0.0000000000
  9
$DIMDLI
 40
0.3800000000
  9
$DIMEXE
 40
3.8099999428
  9
$DIMEXO
 40
2.5399999619
  9
$DIMLFAC
 40
1.0000000000
  9
$DIMLIM
 70
     0
  9
$DIMPOST
  1

  9
$DIMRND
 40
0.0000000000
  9
$DIMSCALE
 40
1.0000000000
  9
$DIMSE1
 70
     0
  9
$DIMSE2
 70
     0
  9
$DIMSHO
 70
     0
  9
$DIMTAD
 70
     0
  9
$DIMTIH
 70
     0
  9
$DIMTM
 40
0.0000000000
  9
$DIMTOH
 70
     1
  9
$DIMTOL
 70
     0
  9
$DIMTP
 40
0.0000000000
  9
$DIMTSZ
 40
0.0000000000
  9
$DIMTXT
 40
2.9999940395
  9
$DIMZIN
 70
     0
  9
$DRAGMODE
 70
     1
  9
$ELEVATION
 40
0.0000000000
  9
$EXTMAX
 10
3.1750000000
 20
154.7238281250
 30
0.0000000000
  9
$EXTMIN
 10
-184.9081085205
 20
-3.1750000000
 30
0.0000000000
  9
$FASTZOOM
 70
     1
  9
$FILLETRAD
 40
6.2500000000E-02
  9
$FILLMODE
 70
     1
  9
$GRIDMODE
 70
     0
  9
$GRIDUNIT
 10
0.0000000000
 20
0.0000000000
  9
$INSBASE
 10
0.0000000000
 20
0.0000000000
 30
0.0000000000
  9
$LIMCHECK
 70
     0
  9
$LIMMAX
 10
3.1750000000
 20
154.7238281250
  9
$LIMMIN
 10
-184.9081085205
 20
-3.1750000000
  9
$LTSCALE
 40
1.0000000000
  9
$LUNITS
 70
     2
  9
$LUPREC
 70
     3
  9
$MEASUREMENT
 70
     0
  9
$MENU
  1
ACAD
  9
$MIRRTEXT
 70
     0
  9
$ORTHOMODE
 70
     0
  9
$OSMODE
 70
     0
  9
$PDMODE
 70
     0
  9
$PDSIZE
 40
0.0000000000
  9
$PLINEWID
 40
0.0000000000
  9
$PROXYGRAPHICS
 70
     0
  9
$QTEXTMODE
 70
     0
  9
$REGENMODE
 70
     1
  9
$SKETCHINC
 40
0.1000000000
  9
$SKPOLY
 70
     0
  9
$SNAPANG
 50
0.0000000000
  9
$SNAPBASE
 10
0.0000000000
 20
0.0000000000
  9
$SNAPISOPAIR
 70
     0
  9
$SNAPMODE
 70
     0
  9
$SNAPSTYLE
 70
     0
  9
$SNAPUNIT
 10
1.0000000000
 20
1.0000000000
  9
$SPLFRAME
 70
     0
  9
$SPLINESEGS
 70
     8
  9
$TDCREATE
 40
2455243.4290393567
  9
$TDINDWG
 40
0.0000000000
  9
$TDUPDATE
 40
2455243.4290393567
  9
$TDUSRTIMER
 40
0.0000000000
  9
$TEXTSIZE
 40
2.9999940395
  9
$TEXTSTYLE
  7
STANDARD
  9
$THICKNESS
 40
0.0000000000
  9
$TRACEWID
 40
5.0000000000E-02
  9
$USERI1
 70
     0
  9
$USERI2
 70
     0
  9
$USERI3
 70
     0
  9
$USERI4
 70
     0
  9
$USERI5
 70
     0
  9
$USERR1
 40
0.0000000000
  9
$USERR2
 40
0.0000000000
  9
$USERR3
 40
0.0000000000
  9
$USERR4
 40
0.0000000000
  9
$USERR5
 40
0.0000000000
  9
$USRTIMER
 70
     1
  9
$VIEWCTR
 10
-90.8665542603
 20
75.7744140625
  9
$VIEWDIR
 10
0.0000000000
 20
0.0000000000
 30
1.0000000000
  9
$VIEWSIZE
 40
157.8988281250
  0
ENDSEC
  0
SECTION
  2
TABLES
  0
TABLE
  2
LTYPE
 70
     3
  0
LTYPE
  2
SOLID
  3
Solid
 70
    64
 72
    65
 73
     0
 40
0.0000000000
  0
LTYPE
  2
DASH
  3
Dash
 70
    64
 72
    65
 73
     2
 40
1.9999960661
 49
0.9999980330
 49
-0.9999980330
  0
LTYPE
  2
CENTER
  3
Center
 70
    64
 72
    65
 73
     4
 40
9.1000067592
 49
6.5000119209
 49
-0.7999984026
 49
0.9999980330
 49
-0.7999984026
  0
ENDTAB
  0
TABLE
  2
LAYER
 70
     3
  0
LAYER
  2
Layer0$C$L0
 70
     0
  6
SOLID
 62
     3
  0
LAYER
  2
Layer1$C$L1
 70
     0
  6
SOLID
 62
     3
  0
LAYER
  2
Layer8$C$L8
 70
     0
  6
SOLID
 62
     7
  0
ENDTAB
  0
TABLE
  2
STYLE
 70
     1
  0
STYLE
  2
STANDARD
  3
txt
  4

 40
0.0000000000
 41
1.0000000000
 42
2.9999940395
 50
0.0000000000
 70
     0
 71
     0
  0
ENDTAB
  0
ENDSEC
  0
SECTION
  2
BLOCKS
  0
BLOCK
  8
Layer8$C$L8
  2
Cadra_attr_0
 70
     2
 10
0.0000000000
 20
0.0000000000
  0
TEXT
  8
Layer8$C$L8
 62
     5
 10
-54.0535975827
 20
9.0008057639
 40
5.0000000000
  1
MA4-H01628D
 41
0.8525090542
 72
     5
 11
-11.4281448723
 21
9.0008057639
  0
ATTDEF
  8
Layer8$C$L8
 62
     5
 10
-32.740870
 20
11.500806
 40
0.156000
  1
  
  3

  2
20
 70
    11
  0
ENDBLK
  8
Layer8$C$L8
  0
ENDSEC
  0
SECTION
  2
ENTITIES
  0
TEXT
  8
Layer8$C$L8
 10
-69.7543592881
 20
46.3513006000
 40
2.9999940895
  1
XA1E-BV301*
 41
0.8524495414
 72
     5
 11
-44.1809234308
 21
46.3513006000
  0
TEXT
  8
Layer8$C$L8
 10
-69.7543592881
 20
41.8512843125
 40
2.9999940895
  1
XA1E-BV302*
 41
0.8524495414
 72
     5
 11
-44.1809234308
 21
41.8512843125
  0
TEXT
  8
Layer8$C$L8
 10
-69.7543592881
 20
37.3512680251
 40
2.9999940895
  1
XA1E-BV303*
 41
0.8524495414
 72
     5
 11
-44.1809234308
 21
37.3512680251
  0
TEXT
  8
Layer8$C$L8
 10
-69.7543592881
 20
32.8512517377
 40
2.9999940895
  1
XA1E-BV304*
 41
0.8524495414
 72
     5
 11
-44.1809234308
 21
32.8512517377
  0
TEXT
  8
Layer8$C$L8
 10
-69.7543592881
 20
28.3512354503
 40
2.9999940895
  1
XA1E-BV311*
 41
0.8524495414
 72
     5
 11
-44.1809234308
 21
28.3512354503
  0
TEXT
  8
Layer8$C$L8
 10
-69.7543592881
 20
23.8512191628
 40
2.9999940895
  1
XA1E-BV312*
 41
0.8524495414
 72
     5
 11
-44.1809234308
 21
23.8512191628
  0
TEXT
  8
Layer8$C$L8
 10
-69.7543592881
 20
19.3512028754
 40
2.9999940895
  1
XA1E-BV313*
 41
0.8524495414
 72
     5
 11
-44.1809234308
 21
19.3512028754
  0
LINE
  8
Layer1$C$L1
  6
CENTER
 62
     3
 10
-121.1930926025
 20
136.8488301533
 11
-65.6930926025
 21
136.8488301533
  0
LINE
  8
Layer1$C$L1
  6
CENTER
 62
     3
 10
-121.1930926025
 20
73.8075203627
 11
-65.6930926025
 21
73.8075203627
  0
INSERT
  8
Layer8$C$L8
 62
     5
 66
     1
  2
Cadra_attr_0
 10
0.000000
 20
0.000000
  0
ATTRIB
  8
Layer8$C$L8
 62
     5
 10
-32.740870
 20
11.500806
 40
0.156000
  1
  
  2
20
 70
    11
  0
SEQEND
  8
Layer8$C$L8
 62
     5
  0
LINE
  8
Layer1$C$L1
  6
CENTER
 62
     3
 10
-118.3485800902
 20
126.9488301533
 11
-113.5009528694
 21
126.9488301533
  0
LINE
  8
Layer1$C$L1
  6
CENTER
 62
     3
 10
-118.3485800902
 20
146.7488301533
 11
-113.5009528694
 21
146.7488301533
  0
LINE
  8
Layer1$C$L1
  6
CENTER
 62
     3
 10
-118.3485800902
 20
83.7075203627
 11
-113.5009528694
 21
83.7075203627
  0
LINE
  8
Layer1$C$L1
  6
CENTER
 62
     3
 10
-118.3485800902
 20
63.9075203627
 11
-113.5009528694
 21
63.9075203627
  0
POLYLINE
  8
Layer1$C$L1
 62
     3
 66
     1
  0
VERTEX
  8
Layer1$C$L1
 62
     3
 10
-113.1334552697
 20
137.4960561971
  0
VERTEX
  8
Layer1$C$L1
 62
     3
 10
-112.9527288707
 20
137.6341203125
  0
VERTEX
  8
Layer1$C$L1
 62
     3
 10
-112.7427083225
 20
137.7215545152
  0
VERTEX
  8
Layer1$C$L1
 62
     3
 10
-112.3884090102
 20
137.7669821096
  0
SEQEND
  8
Layer1$C$L1
 62
     3
  0
POLYLINE
  8
Layer1$C$L1
 62
     3
 66
     1
  0
VERTEX
  8
Layer1$C$L1
 62
     3
 10
-100.3468002937
 20
142.2942410652
  0
VERTEX
  8
Layer1$C$L1
 62
     3
 10
-100.4795000049
 20
142.5104529961
  0
VERTEX
  8
Layer1$C$L1
 62
     3
 10
-100.5861295093
 20
142.9388497977
  0
VERTEX
  8
Layer1$C$L1
 62
     3
 10
-100.5891574215
 20
143.0028456990
  0
SEQEND
  8
Layer1$C$L1
 62
     3
  0
POLYLINE
  8
Layer1$C$L1
 62
     3
 66
     1
  0
VERTEX
  8
Layer1$C$L1
 62
     3
 10
-100.0930926025
 20
142.0455921651
  0
VERTEX
  8
Layer1$C$L1
 62
     3
 10
-100.0962916086
 20
142.0483083112
  0
VERTEX
  8
Layer1$C$L1
 62
     3
 10
-100.1304319509
 20
142.0779035048
  0
VERTEX
  8
Layer1$C$L1
 62
     3
 10
-100.3468002937
 20
142.2942410652
  0
SEQEND
  8
Layer1$C$L1
 62
     3
  0
POLYLINE
  8
Layer1$C$L1
 62
     3
 66
     1
  0
VERTEX
  8
Layer1$C$L1
 62
     3
 10
-109.4336096401
 20
136.7327271289
  0
VERTEX
  8
Layer1$C$L1
 62
     3
 10
-109.5487685421
 20
136.8145560384
  0
VERTEX
  8
Layer1$C$L1
 62
     3
 10
-109.6824531934
 20
136.8609414749
  0
VERTEX
  8
Layer1$C$L1
 62
     3
 10
-109.9036983515
 20
136.8835103004
  0
SEQEND
  8
Layer1$C$L1
 62
     3
  0
POLYLINE
  8
Layer1$C$L1
 62
     3
 66
     1
  0
VERTEX
  8
Layer1$C$L1
 62
     3
 10
-111.6433627508
 20
136.3446210689
  0
VERTEX
  8
Layer1$C$L1
 62
     3
 10
-111.8239537013
 20
136.2063575105
  0
VERTEX
  8
Layer1$C$L1
 62
     3
 10
-112.0340969903
 20
136.1191221872
  0
VERTEX
  8
Layer1$C$L1
 62
     3
 10
-112.3884090102
 20
136.0736951563
  0
SEQEND
  8
Layer1$C$L1
 62
     3
  0
POLYLINE
  8
Layer1$C$L1
 62
     3
 66
     1
  0
VERTEX
  8
Layer1$C$L1
 62
     3
 10
-110.3737870628
 20
136.1295944426
  0
VERTEX
  8
Layer1$C$L1
 62
     3
 10
-110.2586281608
 20
136.0477655331
  0
VERTEX
  8
Layer1$C$L1
 62
     3
 10
-110.1249435095
 20
136.0013800966
  0
VERTEX
  8
Layer1$C$L1
 62
     3
 10
-109.9036983515
 20
135.9788112711
  0
SEQEND
  8
Layer1$C$L1
 62
     3
  0
POLYLINE
  8
Layer1$C$L1
 62
     3
 66
     1
  0
VERTEX
  8
Layer1$C$L1
 62
     3
 10
-112.9867037337
 20
136.5365269236
  0
VERTEX
  8
Layer1$C$L1
 62
     3
 10
-112.8401378585
 20
136.4323810387
  0
VERTEX
  8
Layer1$C$L1
 62
     3
 10
-112.6699937568
 20
136.3733450287
  0
VERTEX
  8
Layer1$C$L1
 62
     3
 10
-112.3884090102
 20
136.3446210689
  0
SEQEND
  8
Layer1$C$L1
 62
     3
  0
POLYLINE
  8
Layer1$C$L1
 62
     3
 66
     1
  0
VERTEX
  8
Layer1$C$L1
 62
     3
 10
-100.3656863340
 20
147.1512154268
  0
VERTEX
  8
Layer1$C$L1
 62
     3
 10
-100.1920813043
 20
147.1154407347
  0
VERTEX
  8
Layer1$C$L1
 62
     3
 10
-100.0962916086
 20
147.1232235040
  0
VERTEX
  8
Layer1$C$L1
 62
     3
 10
-100.0930926025
 20
147.1237835061
  0
SEQEND
  8
Layer1$C$L1
 62
     3
  0
POLYLINE
  8
Layer1$C$L1
 62
     3
 66
     1
  0
VERTEX
  8
Layer1$C$L1
 62
     3
 10
-111.7901142867
 20
137.3041503424
  0
VERTEX
  8
Layer1$C$L1
 62
     3
 10
-111.9366801620
 20
137.4082962272
  0
VERTEX
  8
Layer1$C$L1
 62
     3
 10
-112.1068242637
 20
137.4673322373
  0
VERTEX
  8
Layer1$C$L1
 62
     3
 10
-112.3884090102
 20
137.4960561971
  0
SEQEND
  8
Layer1$C$L1
 62
     3
  0
POLYLINE
  8
Layer1$C$L1
 62
     3
 66
     1
  0
VERTEX
  8
Layer1$C$L1
 62
     3
 10
-101.5076539183
 20
148.8041349557
  0
VERTEX
  8
Layer1$C$L1
 62
     3
 10
-101.4686690195
 20
148.8257883953
  0
VERTEX
  8
Layer1$C$L1
 62
     3
 10
-101.3802924720
 20
148.8392948369
  0
VERTEX
  8
Layer1$C$L1
 62
     3
 10
-101.2969398672
 20
148.8291358336
  0
VERTEX
  8
Layer1$C$L1
 62
     3
 10
-101.2930926025
 20
148.8282053249
  0
SEQEND
  8
Layer1$C$L1
 62
     3
  0
POLYLINE
  8
Layer1$C$L1
 62
     3
 66
     1
  0
VERTEX
  8
Layer1$C$L1
 62
     3
 10
-101.4694281782
 20
145.1362229265
  0
VERTEX
  8
Layer1$C$L1
 62
     3
 10
-101.4577821105
 20
145.1365569419
  0
VERTEX
  8
Layer1$C$L1
 62
     3
 10
-101.4064320350
 20
145.1448859414
  0
VERTEX
  8
Layer1$C$L1
 62
     3
 10
-101.3508424075
 20
145.1641126335
  0
VERTEX
  8
Layer1$C$L1
 62
     3
 10
-101.2930926025
 20
145.1935178282
  0
SEQEND
  8
Layer1$C$L1
 62
     3
  0
POLYLINE
  8
Layer1$C$L1
 62
     3
 66
     1
  0
VERTEX
  8
Layer1$C$L1
 62
     3
 10
-102.5930926025
 20
124.7690950568
  0
VERTEX
  8
Layer1$C$L1
 62
     3
 10
-102.6200768440
 20
124.6190950568
  0
VERTEX
  8
Layer1$C$L1
 62
     3
 10
-102.6952314184
 20
124.4974943392
  0
VERTEX
  8
Layer1$C$L1
 62
     3
 10
-102.7734761714
 20
124.4379783129
  0
VERTEX
  8
Layer1$C$L1
 62
     3
 10
-102.8680192257
 20
124.4094281488
  0
VERTEX
  8
Layer1$C$L1
 62
     3
 10
-102.8930926025
 20
124.4081710068
  0
SEQEND
  8
Layer1$C$L1
 62
     3
  0
POLYLINE
  8
Layer1$C$L1
 62
     3
 66
     1
  0
VERTEX
  8
Layer1$C$L1
 62
     3
 10
-102.0526341132
 20
148.4742841770
  0
VERTEX
  8
Layer1$C$L1
 62
     3
 10
-102.0457947169
 20
148.4781782108
  0
VERTEX
  8
Layer1$C$L1
 62
     3
 10
-102.0133311844
 20
148.4880997501
  0
VERTEX
  8
Layer1$C$L1
 62
     3
 10
-101.9760389340
 20
148.4872635463
  0
VERTEX
  8
Layer1$C$L1
 62
     3
 10
-101.9354156029
 20
148.4757031811
  0
VERTEX
  8
Layer1$C$L1
 62
     3
 10
-101.8930926025
 20
148.4538829125
  0
SEQEND
  8
Layer1$C$L1
 62
     3
  0
POLYLINE
  8
Layer1$C$L1
 62
     3
 66
     1
  0
VERTEX
  8
Layer1$C$L1
 62
     3
 10
-102.8930926025
 20
127.6886612919
  0
VERTEX
  8
Layer1$C$L1
 62
     3
 10
-102.8888871987
 20
127.6875263453
  0
VERTEX
  8
Layer1$C$L1
 62
     3
 10
-102.8586086492
 20
127.6804298270
  0
VERTEX
  8
Layer1$C$L1
 62
     3
 10
-102.7615158735
 20
127.6712936568
  0
VERTEX
  8
Layer1$C$L1
 62
     3
 10
-102.6812638643
 20
127.6844918759
  0
VERTEX
  8
Layer1$C$L1
 62
     3
 10
-102.6229774371
 20
127.7189453187
  0
SEQEND
  8
Layer1$C$L1
 62
     3
  0
POLYLINE
  8
Layer1$C$L1
 62
     3
 66
     1
  0
VERTEX
  8
Layer1$C$L1
 62
     3
 10
-101.8930926025
 20
128.7092092371
  0
VERTEX
  8
Layer1$C$L1
 62
     3
 10
-101.8889845052
 20
128.7079709825
  0
VERTEX
  8
Layer1$C$L1
 62
     3
 10
-101.8407741160
 20
128.6957582820
  0
VERTEX
  8
Layer1$C$L1
 62
     3
 10
-101.7461909693
 20
128.6854077805
  0
VERTEX
  8
Layer1$C$L1
 62
     3
 10
-101.6698881839
 20
128.6955813539
  0
VERTEX
  8
Layer1$C$L1
 62
     3
 10
-101.6164379598
 20
128.7254847960
  0
SEQEND
  8
Layer1$C$L1
 62
     3
  0
POLYLINE
  8
Layer1$C$L1
 62
     3
 66
     1
  0
VERTEX
  8
Layer1$C$L1
 62
     3
 10
-100.0930926025
 20
146.3360015675
  0
VERTEX
  8
Layer1$C$L1
 62
     3
 10
-100.2432933290
 20
146.3515481295
  0
VERTEX
  8
Layer1$C$L1
 62
     3
 10
-100.3762334695
 20
146.3951151925
  0
VERTEX
  8
Layer1$C$L1
 62
     3
 10
-100.4856709992
 20
146.4638335885
  0
VERTEX
  8
Layer1$C$L1
 62
     3
 10
-100.5641560307
 20
146.5587624751
  0
VERTEX
  8
Layer1$C$L1
 62
     3
 10
-100.5930926025
 20
146.6703467321
  0
SEQEND
  8
Layer1$C$L1
 62
     3
  0
POLYLINE
  8
Layer1$C$L1
 62
     3
 66
     1
  0
VERTEX
  8
Layer1$C$L1
 62
     3
 10
-100.5930926025
 20
144.4379292688
  0
VERTEX
  8
Layer1$C$L1
 62
     3
 10
-100.5644634540
 20
144.3389616298
  0
VERTEX
  8
Layer1$C$L1
 62
     3
 10
-100.4816471344
 20
144.2511501164
  0
VERTEX
  8
Layer1$C$L1
 62
     3
 10
-100.3543021066
 20
144.1848473121
  0
VERTEX
  8
Layer1$C$L1
 62
     3
 10
-100.1980642519
 20
144.1477221498
  0
VERTEX
  8
Layer1$C$L1
 62
     3
 10
-100.0930926025
 20
144.1411038675
  0
SEQEND
  8
Layer1$C$L1
 62
     3
  0
POLYLINE
  8
Layer1$C$L1
 62
     3
 66
     1
  0
VERTEX
  8
Layer1$C$L1
 62
     3
 10
-100.8930926025
 20
143.1673369441
  0
VERTEX
  8
Layer1$C$L1
 62
     3
 10
-100.8841973607
 20
143.1666566899
  0
VERTEX
  8
Layer1$C$L1
 62
     3
 10
-100.8264107583
 20
143.1594740456
  0
VERTEX
  8
Layer1$C$L1
 62
     3
 10
-100.7334032918
 20
143.1366061738
  0
VERTEX
  8
Layer1$C$L1
 62
     3
 10
-100.6585005194
 20
143.1029458309
  0
VERTEX
  8
Layer1$C$L1
 62
     3
 10
-100.6099279337
 20
143.0622564277
  0
VERTEX
  8
Layer1$C$L1
 62
     3
 10
-100.5930926025
 20
143.0190568272
  0
SEQEND
  8
Layer1$C$L1
 62
     3
  0
POLYLINE
  8
Layer1$C$L1
 62
     3
 66
     1
  0
VERTEX
  8
Layer1$C$L1
 62
     3
 10
-101.8930926025
 20
136.8726906654
  0
VERTEX
  8
Layer1$C$L1
 62
     3
 10
-101.8842233213
 20
136.8719990722
  0
VERTEX
  8
Layer1$C$L1
 62
     3
 10
-101.8264013736
 20
136.8674800331
  0
VERTEX
  8
Layer1$C$L1
 62
     3
 10
-101.7333958401
 20
136.8601691842
  0
VERTEX
  8
Layer1$C$L1
 62
     3
 10
-101.6584968534
 20
136.8542249106
  0
VERTEX
  8
Layer1$C$L1
 62
     3
 10
-101.6099270908
 20
136.8502997788
  0
VERTEX
  8
Layer1$C$L1
 62
     3
 10
-101.5930926025
 20
136.8488302121
  0
SEQEND
  8
Layer1$C$L1
 62
     3
  0
POLYLINE
  8
Layer1$C$L1
 62
     3
 66
     1
  0
VERTEX
  8
Layer1$C$L1
 62
     3
 10
-101.8930926025
 20
124.4081710068
  0
VERTEX
  8
Layer1$C$L1
 62
     3
 10
-101.8025743628
 20
124.4157032433
  0
VERTEX
  8
Layer1$C$L1
 62
     3
 10
-101.7224324939
 20
124.4368936951
  0
VERTEX
  8
Layer1$C$L1
 62
     3
 10
-101.6568757716
 20
124.4702941851
  0
VERTEX
  8
Layer1$C$L1
 62
     3
 10
-101.6103238967
 20
124.5162391187
  0
VERTEX
  8
Layer1$C$L1
 62
     3
 10
-101.5931109291
 20
124.5689916394
  0
VERTEX
  8
Layer1$C$L1
 62
     3
 10
-101.5930926025
 20
124.5708009955
  0
SEQEND
  8
Layer1$C$L1
 62
     3
  0
POLYLINE
  8
Layer1$C$L1
 62
     3
 66
     1
  0
VERTEX
  8
Layer1$C$L1
 62
     3
 10
-69.0137148342
 20
127.1895718904
  0
VERTEX
  8
Layer1$C$L1
 62
     3
 10
-69.0234562827
 20
127.0021652138
  0
VERTEX
  8
Layer1$C$L1
 62
     3
 10
-69.0361449278
 20
126.8147850188
  0
VERTEX
  8
Layer1$C$L1
 62
     3
 10
-69.0517802983
 20
126.6274382637
  0
VERTEX
  8
Layer1$C$L1
 62
     3
 10
-69.0703618137
 20
126.4401319059
  0
VERTEX
  8
Layer1$C$L1
 62
     3
 10
-69.0918887837
 20
126.2528729012
  0
VERTEX
  8
Layer1$C$L1
 62
     3
 10
-69.1114165524
 20
126.1017318793
  0
SEQEND
  8
Layer1$C$L1
 62
     3
  0
POLYLINE
  8
Layer1$C$L1
 62
     3
 66
     1
  0
VERTEX
  8
Layer1$C$L1
 62
     3
 10
-101.8930926025
 20
149.2894892998
  0
VERTEX
  8
Layer1$C$L1
 62
     3
 10
-101.8025743628
 20
149.2819570632
  0
VERTEX
  8
Layer1$C$L1
 62
     3
 10
-101.7224324939
 20
149.2607666115
  0
VERTEX
  8
Layer1$C$L1
 62
     3
 10
-101.6568757716
 20
149.2273661214
  0
VERTEX
  8
Layer1$C$L1
 62
     3
 10
-101.6103238967
 20
149.1814211878
  0
VERTEX
  8
Layer1$C$L1
 62
     3
 10
-101.5931109291
 20
149.1286686671
  0
VERTEX
  8
Layer1$C$L1
 62
     3
 10
-101.5930926025
 20
149.1268593111
  0
SEQEND
  8
Layer1$C$L1
 62
     3
  0
POLYLINE
  8
Layer1$C$L1
 62
     3
 66
     1
  0
VERTEX
  8
Layer1$C$L1
 62
     3
 10
-97.6930926025
 20
142.1587672115
  0
VERTEX
  8
Layer1$C$L1
 62
     3
 10
-97.6931042095
 20
142.1579686440
  0
VERTEX
  8
Layer1$C$L1
 62
     3
 10
-97.7079869092
 20
142.1303566165
  0
VERTEX
  8
Layer1$C$L1
 62
     3
 10
-97.7642065870
 20
142.0993792881
  0
VERTEX
  8
Layer1$C$L1
 62
     3
 10
-97.8382696850
 20
142.0797785641
  0
VERTEX
  8
Layer1$C$L1
 62
     3
 10
-97.9107563260
 20
142.0699228766
  0
VERTEX
  8
Layer1$C$L1
 62
     3
 10
-97.9930926025
 20
142.0663115687
  0
SEQEND
  8
Layer1$C$L1
 62
     3
  0
POLYLINE
  8
Layer1$C$L1
 62
     3
 66
     1
  0
VERTEX
  8
Layer1$C$L1
 62
     3
 10
-68.8907919036
 20
127.8782404476
  0
VERTEX
  8
Layer1$C$L1
 62
     3
 10
-68.8929989805
 20
127.8589943310
  0
VERTEX
  8
Layer1$C$L1
 62
     3
 10
-68.9071923466
 20
127.7473588290
  0
VERTEX
  8
Layer1$C$L1
 62
     3
 10
-68.9237568195
 20
127.6357449262
  0
VERTEX
  8
Layer1$C$L1
 62
     3
 10
-68.9426919049
 20
127.5241559523
  0
VERTEX
  8
Layer1$C$L1
 62
     3
 10
-68.9639970380
 20
127.4125952364
  0
VERTEX
  8
Layer1$C$L1
 62
     3
 10
-68.9876715832
 20
127.3010661067
  0
VERTEX
  8
Layer1$C$L1
 62
     3
 10
-69.0137148342
 20
127.1895718904
  0
SEQEND
  8
Layer1$C$L1
 62
     3
  0
POLYLINE
  8
Layer1$C$L1
 62
     3
 66
     1
  0
VERTEX
  8
Layer1$C$L1
 62
     3
 10
-69.0137148342
 20
143.9198979651
  0
VERTEX
  8
Layer1$C$L1
 62
     3
 10
-69.0234562827
 20
143.6274594356
  0
VERTEX
  8
Layer1$C$L1
 62
     3
 10
-69.0361449278
 20
143.3350622290
  0
VERTEX
  8
Layer1$C$L1
 62
     3
 10
-69.0517802983
 20
143.0427172039
  0
VERTEX
  8
Layer1$C$L1
 62
     3
 10
-69.0703618137
 20
142.7504352167
  0
VERTEX
  8
Layer1$C$L1
 62
     3
 10
-69.0918887837
 20
142.4582271214
  0
VERTEX
  8
Layer1$C$L1
 62
     3
 10
-69.1163604091
 20
142.1661037694
  0
VERTEX
  8
Layer1$C$L1
 62
     3
 10
-69.1437757810
 20
141.8740760090
  0
VERTEX
  8
Layer1$C$L1
 62
     3
 10
-69.1741338814
 20
141.5821546848
  0
SEQEND
  8
Layer1$C$L1
 62
     3
  0
POLYLINE
  8
Layer1$C$L1
 62
     3
 66
     1
  0
VERTEX
  8
Layer1$C$L1
 62
     3
 10
-69.1741338814
 20
141.5821546848
  0
VERTEX
  8
Layer1$C$L1
 62
     3
 10
-69.1600675100
 20
141.5399185187
  0
VERTEX
  8
Layer1$C$L1
 62
     3
 10
-69.1461272285
 20
141.4976748867
  0
VERTEX
  8
Layer1$C$L1
 62
     3
 10
-69.1323130592
 20
141.4554238560
  0
VERTEX
  8
Layer1$C$L1
 62
     3
 10
-69.1186250241
 20
141.4131654938
  0
VERTEX
  8
Layer1$C$L1
 62
     3
 10
-69.1050631450
 20
141.3708998673
  0
VERTEX
  8
Layer1$C$L1
 62
     3
 10
-69.0916274434
 20
141.3286270439
  0
VERTEX
  8
Layer1$C$L1
 62
     3
 10
-69.0783179407
 20
141.2863470909
  0
VERTEX
  8
Layer1$C$L1
 62
     3
 10
-69.0651346581
 20
141.2440600754
  0
SEQEND
  8
Layer1$C$L1
 62
     3
  0
POLYLINE
  8
Layer1$C$L1
 62
     3
 66
     1
  0
VERTEX
  8
Layer1$C$L1
 62
     3
 10
-69.0651346581
 20
129.4949196289
  0
VERTEX
  8
Layer1$C$L1
 62
     3
 10
-69.0520947889
 20
129.5655906298
  0
VERTEX
  8
Layer1$C$L1
 62
     3
 10
-69.0391808480
 20
129.6362731914
  0
VERTEX
  8
Layer1$C$L1
 62
     3
 10
-69.0263928560
 20
129.7069672017
  0
VERTEX
  8
Layer1$C$L1
 62
     3
 10
-69.0137308331
 20
129.7776725483
  0
VERTEX
  8
Layer1$C$L1
 62
     3
 10
-69.0011947994
 20
129.8483891191
  0
VERTEX
  8
Layer1$C$L1
 62
     3
 10
-68.9887847749
 20
129.9191168018
  0
VERTEX
  8
Layer1$C$L1
 62
     3
 10
-68.9765007792
 20
129.9898554842
  0
VERTEX
  8
Layer1$C$L1
 62
     3
 10
-68.9643428318
 20
130.0606050539
  0
SEQEND
  8
Layer1$C$L1
 62
     3
  0
POLYLINE
  8
Layer1$C$L1
 62
     3
 66
     1
  0
VERTEX
  8
Layer1$C$L1
 62
     3
 10
-101.5930926025
 20
136.8488301533
  0
VERTEX
  8
Layer1$C$L1
 62
     3
 10
-101.5930822332
 20
136.8488892505
  0
VERTEX
  8
Layer1$C$L1
 62
     3
 10
-101.4160481364
 20
137.8615244263
  0
VERTEX
  8
Layer1$C$L1
 62
     3
 10
-101.2389892234
 20
138.8681010857
  0
VERTEX
  8
Layer1$C$L1
 62
     3
 10
-101.0781468923
 20
139.7646016823
  0
VERTEX
  8
Layer1$C$L1
 62
     3
 10
-100.9172537560
 20
140.6469607817
  0
VERTEX
  8
Layer1$C$L1
 62
     3
 10
-100.7545933448
 20
141.5277234751
  0
VERTEX
  8
Layer1$C$L1
 62
     3
 10
-100.5931028327
 20
142.3850336000
  0
VERTEX
  8
Layer1$C$L1
 62
     3
 10
-100.5930926025
 20
142.3850871782
  0
SEQEND
  8
Layer1$C$L1
 62
     3
  0
POLYLINE
  8
Layer1$C$L1
 62
     3
 66
     1
  0
VERTEX
  8
Layer1$C$L1
 62
     3
 10
-68.8717271915
 20
140.5678708566
  0
VERTEX
  8
Layer1$C$L1
 62
     3
 10
-68.8811771446
 20
140.9871580791
  0
VERTEX
  8
Layer1$C$L1
 62
     3
 10
-68.8929989805
 20
141.4063892143
  0
VERTEX
  8
Layer1$C$L1
 62
     3
 10
-68.9071923466
 20
141.8255517552
  0
VERTEX
  8
Layer1$C$L1
 62
     3
 10
-68.9237568195
 20
142.2446331968
  0
VERTEX
  8
Layer1$C$L1
 62
     3
 10
-68.9426919049
 20
142.6636210367
  0
VERTEX
  8
Layer1$C$L1
 62
     3
 10
-68.9639970380
 20
143.0825027752
  0
VERTEX
  8
Layer1$C$L1
 62
     3
 10
-68.9876715832
 20
143.5012659157
  0
VERTEX
  8
Layer1$C$L1
 62
     3
 10
-69.0137148342
 20
143.9198979651
  0
SEQEND
  8
Layer1$C$L1
 62
     3
  0
POLYLINE
  8
Layer1$C$L1
 62
     3
 66
     1
  0
VERTEX
  8
Layer1$C$L1
 62
     3
 10
-68.9643428318
 20
140.9059654660
  0
VERTEX
  8
Layer1$C$L1
 62
     3
 10
-68.9523255166
 20
140.8637254224
  0
VERTEX
  8
Layer1$C$L1
 62
     3
 10
-68.9404339814
 20
140.8214790214
  0
VERTEX
  8
Layer1$C$L1
 62
     3
 10
-68.9286682451
 20
140.7792263298
  0
VERTEX
  8
Layer1$C$L1
 62
     3
 10
-68.9170283263
 20
140.7369674147
  0
VERTEX
  8
Layer1$C$L1
 62
     3
 10
-68.9055142434
 20
140.6947023429
  0
VERTEX
  8
Layer1$C$L1
 62
     3
 10
-68.8941260146
 20
140.6524311813
  0
VERTEX
  8
Layer1$C$L1
 62
     3
 10
-68.8828636580
 20
140.6101539969
  0
VERTEX
  8
Layer1$C$L1
 62
     3
 10
-68.8717271915
 20
140.5678708566
  0
SEQEND
  8
Layer1$C$L1
 62
     3
  0
POLYLINE
  8
Layer1$C$L1
 62
     3
 66
     1
  0
VERTEX
  8
Layer1$C$L1
 62
     3
 10
-96.1930926025
 20
147.7708679252
  0
VERTEX
  8
Layer1$C$L1
 62
     3
 10
-96.1988570184
 20
147.8103268857
  0
VERTEX
  8
Layer1$C$L1
 62
     3
 10
-96.2159287428
 20
147.8482694604
  0
VERTEX
  8
Layer1$C$L1
 62
     3
 10
-96.2436517188
 20
147.8832375376
  0
VERTEX
  8
Layer1$C$L1
 62
     3
 10
-96.2809605682
 20
147.9138873136
  0
VERTEX
  8
Layer1$C$L1
 62
     3
 10
-96.3264215326
 20
147.9390409347
  0
VERTEX
  8
Layer1$C$L1
 62
     3
 10
-96.3782875728
 20
147.9577317613
  0
VERTEX
  8
Layer1$C$L1
 62
     3
 10
-96.4345655059
 20
147.9692415155
  0
VERTEX
  8
Layer1$C$L1
 62
     3
 10
-96.4930926025
 20
147.9731278839
  0
SEQEND
  8
Layer1$C$L1
 62
     3
  0
POLYLINE
  8
Layer1$C$L1
 62
     3
 66
     1
  0
VERTEX
  8
Layer1$C$L1
 62
     3
 10
-69.0651346581
 20
146.8944587467
  0
VERTEX
  8
Layer1$C$L1
 62
     3
 10
-69.0520947889
 20
146.7979203642
  0
VERTEX
  8
Layer1$C$L1
 62
     3
 10
-69.0391808480
 20
146.7013661894
  0
VERTEX
  8
Layer1$C$L1
 62
     3
 10
-69.0263928560
 20
146.6047963755
  0
VERTEX
  8
Layer1$C$L1
 62
     3
 10
-69.0137308331
 20
146.5082110758
  0
VERTEX
  8
Layer1$C$L1
 62
     3
 10
-69.0011947994
 20
146.4116104436
  0
VERTEX
  8
Layer1$C$L1
 62
     3
 10
-68.9887847749
 20
146.3149946323
  0
VERTEX
  8
Layer1$C$L1
 62
     3
 10
-68.9765007792
 20
146.2183637952
  0
VERTEX
  8
Layer1$C$L1
 62
     3
 10
-68.9643428318
 20
146.1217180857
  0
SEQEND
  8
Layer1$C$L1
 62
     3
  0
POLYLINE
  8
Layer1$C$L1
 62
     3
 66
     1
  0
VERTEX
  8
Layer1$C$L1
 62
     3
 10
-96.4930926025
 20
125.7245324226
  0
VERTEX
  8
Layer1$C$L1
 62
     3
 10
-96.4409981492
 20
125.7276052059
  0
VERTEX
  8
Layer1$C$L1
 62
     3
 10
-96.3904865595
 20
125.7367301907
  0
VERTEX
  8
Layer1$C$L1
 62
     3
 10
-96.3430926025
 20
125.7516301189
  0
VERTEX
  8
Layer1$C$L1
 62
     3
 10
-96.3002563196
 20
125.7718522639
  0
VERTEX
  8
Layer1$C$L1
 62
     3
 10
-96.2632792696
 20
125.7967821860
  0
VERTEX
  8
Layer1$C$L1
 62
     3
 10
-96.2332849814
 20
125.8256624020
  0
VERTEX
  8
Layer1$C$L1
 62
     3
 10
-96.2111848163
 20
125.8576154013
  0
VERTEX
  8
Layer1$C$L1
 62
     3
 10
-96.1976502766
 20
125.8916703081
  0
VERTEX
  8
Layer1$C$L1
 62
     3
 10
-96.1930926025
 20
125.9267923814
  0
SEQEND
  8
Layer1$C$L1
 62
     3
  0
POLYLINE
  8
Layer1$C$L1
 62
     3
 66
     1
  0
VERTEX
  8
Layer1$C$L1
 62
     3
 10
-71.3943714771
 20
137.5740062909
  0
VERTEX
  8
Layer1$C$L1
 62
     3
 10
-71.0228326824
 20
137.5260196381
  0
VERTEX
  8
Layer1$C$L1
 62
     3
 10
-70.6905527078
 20
137.3675393063
  0
VERTEX
  8
Layer1$C$L1
 62
     3
 10
-70.5318808352
 20
137.1994208117
  0
VERTEX
  8
Layer1$C$L1
 62
     3
 10
-70.4399938338
 20
136.9808421506
  0
VERTEX
  8
Layer1$C$L1
 62
     3
 10
-70.4305950578
 20
136.7735850959
  0
VERTEX
  8
Layer1$C$L1
 62
     3
 10
-70.4810130660
 20
136.5907579982
  0
VERTEX
  8
Layer1$C$L1
 62
     3
 10
-70.5846465534
 20
136.4290221503
  0
VERTEX
  8
Layer1$C$L1
 62
     3
 10
-70.7477356207
 20
136.2902691578
  0
VERTEX
  8
Layer1$C$L1
 62
     3
 10
-71.0478955832
 20
136.1650632243
  0
VERTEX
  8
Layer1$C$L1
 62
     3
 10
-71.3943714771
 20
136.1236540157
  0
SEQEND
  8
Layer1$C$L1
 62
     3
  0
POLYLINE
  8
Layer1$C$L1
 62
     3
 66
     1
  0
VERTEX
  8
Layer1$C$L1
 62
     3
 10
-71.3943714771
 20
132.5771867510
  0
VERTEX
  8
Layer1$C$L1
 62
     3
 10
-71.0228326824
 20
132.5432193291
  0
VERTEX
  8
Layer1$C$L1
 62
     3
 10
-70.6905527078
 20
132.4239230290
  0
VERTEX
  8
Layer1$C$L1
 62
     3
 10
-70.5318808352
 20
132.2873305827
  0
VERTEX
  8
Layer1$C$L1
 62
     3
 10
-70.4399938338
 20
132.0967029485
  0
VERTEX
  8
Layer1$C$L1
 62
     3
 10
-70.4305950578
 20
131.9035606003
  0
VERTEX
  8
Layer1$C$L1
 62
     3
 10
-70.4810130660
 20
131.7233238042
  0
VERTEX
  8
Layer1$C$L1
 62
     3
 10
-70.5846465534
 20
131.5557205833
  0
VERTEX
  8
Layer1$C$L1
 62
     3
 10
-70.7477356207
 20
131.4051103718
  0
VERTEX
  8
Layer1$C$L1
 62
     3
 10
-71.0478955832
 20
131.2628786782
  0
VERTEX
  8
Layer1$C$L1
 62
     3
 10
-71.3943714771
 20
131.2143014205
  0
SEQEND
  8
Layer1$C$L1
 62
     3
  0
POLYLINE
  8
Layer1$C$L1
 62
     3
 66
     1
  0
VERTEX
  8
Layer1$C$L1
 62
     3
 10
-71.3943714771
 20
122.7129127449
  0
VERTEX
  8
Layer1$C$L1
 62
     3
 10
-71.0228326824
 20
122.7366139219
  0
VERTEX
  8
Layer1$C$L1
 62
     3
 10
-70.6905527078
 20
122.7944002028
  0
VERTEX
  8
Layer1$C$L1
 62
     3
 10
-70.5318808352
 20
122.8267889007
  0
VERTEX
  8
Layer1$C$L1
 62
     3
 10
-70.4399938338
 20
122.8313591024
  0
VERTEX
  8
Layer1$C$L1
 62
     3
 10
-70.4305950578
 20
122.8000211605
  0
VERTEX
  8
Layer1$C$L1
 62
     3
 10
-70.4810130660
 20
122.7439844520
  0
VERTEX
  8
Layer1$C$L1
 62
     3
 10
-70.5846465534
 20
122.6709197542
  0
VERTEX
  8
Layer1$C$L1
 62
     3
 10
-70.7477356207
 20
122.5885898440
  0
VERTEX
  8
Layer1$C$L1
 62
     3
 10
-71.0478955832
 20
122.4960825574
  0
VERTEX
  8
Layer1$C$L1
 62
     3
 10
-71.3943714771
 20
122.4610617153
  0
SEQEND
  8
Layer1$C$L1
 62
     3
  0
POLYLINE
  8
Layer1$C$L1
 62
     3
 66
     1
  0
VERTEX
  8
Layer1$C$L1
 62
     3
 10
-71.3943714771
 20
128.0955904482
  0
VERTEX
  8
Layer1$C$L1
 62
     3
 10
-71.0228326824
 20
128.0797392296
  0
VERTEX
  8
Layer1$C$L1
 62
     3
 10
-70.6905527078
 20
128.0140158556
  0
VERTEX
  8
Layer1$C$L1
 62
     3
 10
-70.5318808352
 20
127.9254245226
  0
VERTEX
  8
Layer1$C$L1
 62
     3
 10
-70.4399938338
 20
127.7857404212
  0
VERTEX
  8
Layer1$C$L1
 62
     3
 10
-70.4305950578
 20
127.6300085973
  0
VERTEX
  8
Layer1$C$L1
 62
     3
 10
-70.4810130660
 20
127.4741013204
  0
VERTEX
  8
Layer1$C$L1
 62
     3
 10
-70.5846465534
 20
127.3208461484
  0
VERTEX
  8
Layer1$C$L1
 62
     3
 10
-70.7477356207
 20
127.1765445321
  0
VERTEX
  8
Layer1$C$L1
 62
     3
 10
-71.0478955832
 20
127.0344423198
  0
VERTEX
  8
Layer1$C$L1
 62
     3
 10
-71.3943714771
 20
126.9845561472
  0
SEQEND
  8
Layer1$C$L1
 62
     3
  0
POLYLINE
  8
Layer1$C$L1
 62
     3
 66
     1
  0
VERTEX
  8
Layer1$C$L1
 62
     3
 10
-71.3943714771
 20
146.7131041594
  0
VERTEX
  8
Layer1$C$L1
 62
     3
 10
-71.0228326824
 20
146.6554355606
  0
VERTEX
  8
Layer1$C$L1
 62
     3
 10
-70.6905527078
 20
146.4783529795
  0
VERTEX
  8
Layer1$C$L1
 62
     3
 10
-70.5318808352
 20
146.3093718353
  0
VERTEX
  8
Layer1$C$L1
 62
     3
 10
-70.4399938338
 20
146.1141739994
  0
VERTEX
  8
Layer1$C$L1
 62
     3
 10
-70.4305950578
 20
145.9523695931
  0
VERTEX
  8
Layer1$C$L1
 62
     3
 10
-70.4810130660
 20
145.8281695055
  0
VERTEX
  8
Layer1$C$L1
 62
     3
 10
-70.5846465534
 20
145.7336309824
  0
VERTEX
  8
Layer1$C$L1
 62
     3
 10
-70.7477356207
 20
145.6653506810
  0
VERTEX
  8
Layer1$C$L1
 62
     3
 10
-71.0478955832
 20
145.6156262741
  0
VERTEX
  8
Layer1$C$L1
 62
     3
 10
-71.3943714771
 20
145.6020698584
  0
SEQEND
  8
Layer1$C$L1
 62
     3
  0
POLYLINE
  8
Layer1$C$L1
 62
     3
 66
     1
  0
VERTEX
  8
Layer1$C$L1
 62
     3
 10
-71.3943714771
 20
142.4833588861
  0
VERTEX
  8
Layer1$C$L1
 62
     3
 10
-71.0228326824
 20
142.4271409010
  0
VERTEX
  8
Layer1$C$L1
 62
     3
 10
-70.6905527078
 20
142.2485916044
  0
VERTEX
  8
Layer1$C$L1
 62
     3
 10
-70.5318808352
 20
142.0692246330
  0
VERTEX
  8
Layer1$C$L1
 62
     3
 10
-70.4399938338
 20
141.8490587576
  0
VERTEX
  8
Layer1$C$L1
 62
     3
 10
-70.4305950578
 20
141.6526852559
  0
VERTEX
  8
Layer1$C$L1
 62
     3
 10
-70.4810130660
 20
141.4893195028
  0
VERTEX
  8
Layer1$C$L1
 62
     3
 10
-70.5846465534
 20
141.3529587582
  0
VERTEX
  8
Layer1$C$L1
 62
     3
 10
-70.7477356207
 20
141.2427986434
  0
VERTEX
  8
Layer1$C$L1
 62
     3
 10
-71.0478955832
 20
141.1497201534
  0
VERTEX
  8
Layer1$C$L1
 62
     3
 10
-71.3943714771
 20
141.1204735556
  0
SEQEND
  8
Layer1$C$L1
 62
     3
  0
POLYLINE
  8
Layer1$C$L1
 62
     3
 66
     1
  0
VERTEX
  8
Layer1$C$L1
 62
     3
 10
-71.3943714771
 20
149.7530724063
  0
VERTEX
  8
Layer1$C$L1
 62
     3
 10
-71.0228326824
 20
149.7009088779
  0
VERTEX
  8
Layer1$C$L1
 62
     3
 10
-70.6905527078
 20
149.5466517851
  0
VERTEX
  8
Layer1$C$L1
 62
     3
 10
-70.5318808352
 20
149.4084380880
  0
VERTEX
  8
Layer1$C$L1
 62
     3
 10
-70.4399938338
 20
149.2617520314
  0
VERTEX
  8
Layer1$C$L1
 62
     3
 10
-70.4305950578
 20
149.1540327200
  0
VERTEX
  8
Layer1$C$L1
 62
     3
 10
-70.4810130660
 20
149.0839786614
  0
VERTEX
  8
Layer1$C$L1
 62
     3
 10
-70.5846465534
 20
149.0426651010
  0
VERTEX
  8
Layer1$C$L1
 62
     3
 10
-70.7477356207
 20
149.0245002250
  0
VERTEX
  8
Layer1$C$L1
 62
     3
 10
-71.0478955832
 20
149.0241273985
  0
VERTEX
  8
Layer1$C$L1
 62
     3
 10
-71.3943714771
 20
149.0278962687
  0
SEQEND
  8
Layer1$C$L1
 62
     3
  0
POLYLINE
  8
Layer1$C$L1
 62
     3
 66
     1
  0
VERTEX
  8
Layer1$C$L1
 62
     3
 10
-71.3943714771
 20
124.6697640378
  0
VERTEX
  8
Layer1$C$L1
 62
     3
 10
-71.0228326824
 20
124.6739409135
  0
VERTEX
  8
Layer1$C$L1
 62
     3
 10
-70.6905527078
 20
124.6697176745
  0
VERTEX
  8
Layer1$C$L1
 62
     3
 10
-70.5318808352
 20
124.6398128769
  0
VERTEX
  8
Layer1$C$L1
 62
     3
 10
-70.4399938338
 20
124.5679202725
  0
VERTEX
  8
Layer1$C$L1
 62
     3
 10
-70.4305950578
 20
124.4683825292
  0
VERTEX
  8
Layer1$C$L1
 62
     3
 10
-70.4810130660
 20
124.3556094900
  0
VERTEX
  8
Layer1$C$L1
 62
     3
 10
-70.5846465534
 20
124.2351872026
  0
VERTEX
  8
Layer1$C$L1
 62
     3
 10
-70.7477356207
 20
124.1145990861
  0
VERTEX
  8
Layer1$C$L1
 62
     3
 10
-71.0478955832
 20
123.9897659791
  0
VERTEX
  8
Layer1$C$L1
 62
     3
 10
-71.3943714771
 20
123.9445879002
  0
SEQEND
  8
Layer1$C$L1
 62
     3
  0
POLYLINE
  8
Layer1$C$L1
 62
     3
 66
     1
  0
VERTEX
  8
Layer1$C$L1
 62
     3
 10
-71.3943714771
 20
151.2365985912
  0
VERTEX
  8
Layer1$C$L1
 62
     3
 10
-71.0228326824
 20
151.1962318247
  0
VERTEX
  8
Layer1$C$L1
 62
     3
 10
-70.6905527078
 20
151.0834059021
  0
VERTEX
  8
Layer1$C$L1
 62
     3
 10
-70.5318808352
 20
150.9926302638
  0
VERTEX
  8
Layer1$C$L1
 62
     3
 10
-70.4399938338
 20
150.9121484897
  0
VERTEX
  8
Layer1$C$L1
 62
     3
 10
-70.4305950578
 20
150.8715068119
  0
VERTEX
  8
Layer1$C$L1
 62
     3
 10
-70.4810130660
 20
150.8640483357
  0
VERTEX
  8
Layer1$C$L1
 62
     3
 10
-70.5846465534
 20
150.8809427630
  0
VERTEX
  8
Layer1$C$L1
 62
     3
 10
-70.7477356207
 20
150.9150842646
  0
VERTEX
  8
Layer1$C$L1
 62
     3
 10
-71.0478955832
 20
150.9641079868
  0
VERTEX
  8
Layer1$C$L1
 62
     3
 10
-71.3943714771
 20
150.9847475617
  0
SEQEND
  8
Layer1$C$L1
 62
     3
  0
LINE
  8
Layer1$C$L1
 62
     3
 10
-73.9286021315
 20
122.3488301533
 11
-71.3943714771
 21
122.3488301533
  0
LINE
  8
Layer1$C$L1
 62
     3
 10
-74.4416323465
 20
122.4392912221
 11
-75.5668313123
 21
122.8488301533
  0
LINE
  8
Layer1$C$L1
 62
     3
 10
-73.3930926025
 20
122.4610617153
 11
-71.3943714771
 21
122.4610617153
  0
LINE
  8
Layer1$C$L1
 62
     3
 10
-73.3930926025
 20
122.4610617153
 11
-73.3930926025
 21
122.7129127449
  0
LINE
  8
Layer1$C$L1
 62
     3
 10
-71.3943714771
 20
122.7129127449
 11
-73.3930926025
 21
122.7129127449
  0
LINE
  8
Layer1$C$L1
 62
     3
 10
-82.6930926025
 20
122.8488301533
 11
-84.1930926025
 21
123.3488301533
  0
LINE
  8
Layer1$C$L1
 62
     3
 10
-82.6930926025
 20
122.8488301533
 11
-75.5668313123
 21
122.8488301533
  0
LINE
  8
Layer1$C$L1
 62
     3
 10
-82.6930926025
 20
122.8488301533
 11
-82.6930926025
 21
150.8488301533
  0
LINE
  8
Layer1$C$L1
 62
     3
 10
-75.5668313123
 20
122.8488301533
 11
-75.5668313123
 21
150.8488301533
  0
LINE
  8
Layer1$C$L1
 62
     3
 10
-96.4930926025
 20
123.2488301533
 11
-115.0930926025
 21
123.2488301533
  0
LINE
  8
Layer1$C$L1
 62
     3
 10
-115.0930926025
 20
123.2488301533
 11
-115.0930926025
 21
150.4488301533
  0
LINE
  8
Layer1$C$L1
 62
     3
 10
-84.1930926025
 20
123.3488301533
 11
-84.1930926025
 21
150.3488301533
  0
LINE
  8
Layer1$C$L1
 62
     3
 10
-101.5930926025
 20
123.5488301533
 11
-101.5930926025
 21
136.8488301533
  0
LINE
  8
Layer1$C$L1
 62
     3
 10
-96.1930926025
 20
123.5488301533
 11
-96.1930926025
 21
125.9896734261
  0
LINE
  8
Layer1$C$L1
 62
     3
 10
-73.3930926025
 20
123.9445879002
 11
-71.3943714771
 21
123.9445879002
  0
LINE
  8
Layer1$C$L1
 62
     3
 10
-73.3930926025
 20
123.9445879002
 11
-73.3930926025
 21
124.6697640378
  0
LINE
  8
Layer1$C$L1
 62
     3
 10
-88.6930926025
 20
124.2988301533
 11
-84.1930926025
 21
124.2988301533
  0
LINE
  8
Layer1$C$L1
 62
     3
 10
-88.6930926025
 20
124.2988301533
 11
-88.6930926025
 21
149.3988301533
  0
LINE
  8
Layer1$C$L1
 62
     3
 10
-87.0930926025
 20
124.3499004706
 11
-86.9283473426
 21
124.5962241391
  0
LINE
  8
Layer1$C$L1
 62
     3
 10
-87.0930926025
 20
124.3499004706
 11
-87.0930926025
 21
124.7168388976
  0
LINE
  8
Layer1$C$L1
 62
     3
 10
-84.1930926025
 20
124.3499004706
 11
-87.0930926025
 21
124.3499004706
  0
LINE
  8
Layer1$C$L1
 62
     3
 10
-103.5930926025
 20
124.4081710068
 11
-103.5930926025
 21
128.6488301533
  0
LINE
  8
Layer1$C$L1
 62
     3
 10
-103.5930926025
 20
124.4081710068
 11
-115.0930926025
 21
124.4081710068
  0
LINE
  8
Layer1$C$L1
 62
     3
 10
-101.8930926025
 20
124.4081710068
 11
-102.8930926025
 21
124.4081710068
  0
LINE
  8
Layer1$C$L1
 62
     3
 10
-86.9283473426
 20
124.5962241391
 11
-86.8930926025
 21
124.6864544036
  0
LINE
  8
Layer1$C$L1
 62
     3
 10
-71.3943714771
 20
124.6697640378
 11
-73.3930926025
 21
124.6697640378
  0
LINE
  8
Layer1$C$L1
 62
     3
 10
-84.1930926025
 20
124.7168388976
 11
-87.0930926025
 21
124.7168388976
  0
LINE
  8
Layer1$C$L1
 62
     3
 10
-97.9930926025
 20
124.7488301533
 11
-101.2930926025
 21
124.7488301533
  0
LINE
  8
Layer1$C$L1
 62
     3
 10
-97.9930926025
 20
124.7488301533
 11
-97.6930926025
 21
125.0488301533
  0
LINE
  8
Layer1$C$L1
 62
     3
 10
-102.5930926025
 20
124.7690950568
 11
-102.5930926025
 21
127.7488301533
  0
LINE
  8
Layer1$C$L1
 62
     3
 10
-101.2930926025
 20
125.0488301533
 11
-101.2930926025
 21
125.2280986677
  0
LINE
  8
Layer1$C$L1
 62
     3
 10
-101.2930926025
 20
125.0488301533
 11
-97.9930926025
 21
125.0488301533
  0
LINE
  8
Layer1$C$L1
 62
     3
 10
-101.2930926025
 20
125.0488301533
 11
-101.5930926025
 21
125.3488301533
  0
LINE
  8
Layer1$C$L1
 62
     3
 10
-97.6930926025
 20
125.0488301533
 11
-97.6930926025
 21
148.9701686558
  0
LINE
  8
Layer1$C$L1
 62
     3
 10
-98.8930926025
 20
125.2280986677
 11
-100.6930926025
 21
126.2129064207
  0
LINE
  8
Layer1$C$L1
 62
     3
 10
-98.8930926025
 20
125.2280986677
 11
-98.8930926025
 21
134.7997816568
  0
LINE
  8
Layer1$C$L1
 62
     3
 10
-101.2930926025
 20
125.2280986677
 11
-101.5930926025
 21
125.5235409936
  0
LINE
  8
Layer1$C$L1
 62
     3
 10
-98.8930926025
 20
125.2280986677
 11
-101.2930926025
 21
125.2280986677
  0
LINE
  8
Layer1$C$L1
 62
     3
 10
-89.2930926025
 20
125.3988301533
 11
-88.6930926025
 21
125.3988301533
  0
LINE
  8
Layer1$C$L1
 62
     3
 10
-89.2930926025
 20
125.3988301533
 11
-89.2930926025
 21
148.2988301533
  0
LINE
  8
Layer1$C$L1
 62
     3
 10
-112.5930926025
 20
125.4488301533
 11
-112.5930926025
 21
126.9488301533
  0
LINE
  8
Layer1$C$L1
 62
     3
 10
-113.2930926025
 20
125.4488301533
 11
-113.2930926025
 21
126.9488301533
  0
LINE
  8
Layer1$C$L1
 62
     3
 10
-113.2930926025
 20
125.4488301533
 11
-111.5930926025
 21
125.4488301533
  0
LINE
  8
Layer1$C$L1
 62
     3
 10
-111.5930926025
 20
125.4488301533
 11
-111.5930926025
 21
126.9488301533
  0
LINE
  8
Layer1$C$L1
 62
     3
 10
-87.0930926025
 20
125.4905174280
 11
-87.0930926025
 21
126.5470745190
  0
LINE
  8
Layer1$C$L1
 62
     3
 10
-87.0930926025
 20
125.4905174280
 11
-86.9283473426
 21
125.9534544952
  0
LINE
  8
Layer1$C$L1
 62
     3
 10
-84.1930926025
 20
125.4905174280
 11
-87.0930926025
 21
125.4905174280
  0
LINE
  8
Layer1$C$L1
 62
     3
 10
-116.6901488774
 20
125.5488301533
 11
-115.0930926025
 21
125.5488301533
  0
LINE
  8
Layer1$C$L1
 62
     3
 10
-116.6930926025
 20
125.5524061489
 11
-116.6930926025
 21
128.3452541577
  0
LINE
  8
Layer1$C$L1
 62
     3
 10
-96.4930926025
 20
125.7245324226
 11
-97.6930926025
 21
125.7245324226
  0
LINE
  8
Layer1$C$L1
 62
     3
 10
-110.4930926025
 20
125.8488301533
 11
-110.4930926025
 21
127.8488301533
  0
LINE
  8
Layer1$C$L1
 62
     3
 10
-110.4930926025
 20
125.8488301533
 11
-107.9930926025
 21
125.8488301533
  0
LINE
  8
Layer1$C$L1
 62
     3
 10
-107.9930926025
 20
125.8488301533
 11
-107.9930926025
 21
127.8488301533
  0
LINE
  8
Layer1$C$L1
 62
     3
 10
-86.9283473426
 20
125.9534544952
 11
-86.8930926025
 21
126.1534164165
  0
LINE
  8
Layer1$C$L1
 62
     3
 10
-96.1930926025
 20
125.9896734261
 11
-97.1930926025
 21
126.6515572335
  0
LINE
  8
Layer1$C$L1
 62
     3
 10
-108.4930926025
 20
126.0488301533
 11
-110.4930926025
 21
126.0488301533
  0
LINE
  8
Layer1$C$L1
 62
     3
 10
-108.4930926025
 20
126.0488301533
 11
-108.4930926025
 21
127.6488301533
  0
LINE
  8
Layer1$C$L1
 62
     3
 10
-109.9930926025
 20
126.0488301533
 11
-109.9930926025
 21
127.6488301533
  0
LINE
  8
Layer1$C$L1
 62
     3
 10
-86.8930926025
 20
126.1534164165
 11
-86.9283473426
 21
126.3007508505
  0
LINE
  8
Layer1$C$L1
 62
     3
 10
-101.5930926025
 20
126.2129064207
 11
-100.6930926025
 21
126.2129064207
  0
LINE
  8
Layer1$C$L1
 62
     3
 10
-100.6930926025
 20
126.2129064207
 11
-100.6930926025
 21
134.7997816568
  0
LINE
  8
Layer1$C$L1
 62
     3
 10
-86.9283473426
 20
126.3007508505
 11
-87.0930926025
 21
126.5470745190
  0
LINE
  8
Layer1$C$L1
 62
     3
 10
-115.0930926025
 20
126.3488301533
 11
-115.7930926025
 21
126.3488301533
  0
LINE
  8
Layer1$C$L1
 62
     3
 10
-96.7702428960
 20
126.3716798598
 11
-96.6930926025
 21
126.4488301533
  0
LINE
  8
Layer1$C$L1
 62
     3
 10
-96.6930926025
 20
126.4488301533
 11
-96.6930926025
 21
147.2488301533
  0
LINE
  8
Layer1$C$L1
 62
     3
 10
-96.9930926025
 20
126.5028710190
 11
-96.9930926025
 21
147.1940967111
  0
LINE
  8
Layer1$C$L1
 62
     3
 10
-84.1930926025
 20
126.5470745190
 11
-87.0930926025
 21
126.5470745190
  0
LINE
  8
Layer1$C$L1
 62
     3
 10
-97.6930926025
 20
126.6515572335
 11
-97.1930926025
 21
126.6515572335
  0
LINE
  8
Layer1$C$L1
 62
     3
 10
-113.2930926025
 20
126.9488301533
 11
-111.5930926025
 21
126.9488301533
  0
LINE
  8
Layer1$C$L1
 62
     3
 10
-73.3930926025
 20
126.9845561472
 11
-73.3930926025
 21
128.0955904482
  0
LINE
  8
Layer1$C$L1
 62
     3
 10
-73.3930926025
 20
126.9845561472
 11
-71.3943714771
 21
126.9845561472
  0
LINE
  8
Layer1$C$L1
 62
     3
 10
-68.9911962249
 20
127.2853610516
 11
-68.9643428318
 21
127.2853610516
  0
LINE
  8
Layer1$C$L1
 62
     3
 10
-115.0930926025
 20
127.5488301533
 11
-115.7930926025
 21
127.5488301533
  0
LINE
  8
Layer1$C$L1
 62
     3
 10
-110.4930926025
 20
127.6488301533
 11
-108.4930926025
 21
127.6488301533
  0
LINE
  8
Layer1$C$L1
 62
     3
 10
-102.6229774371
 20
127.7189453187
 11
-101.5930926025
 21
128.7488301533
  0
LINE
  8
Layer1$C$L1
 62
     3
 10
-110.4930926025
 20
127.8488301533
 11
-107.9930926025
 21
127.8488301533
  0
LINE
  8
Layer1$C$L1
 62
     3
 10
-84.1930926025
 20
128.0011145308
 11
-87.0930926025
 21
128.0011145308
  0
LINE
  8
Layer1$C$L1
 62
     3
 10
-87.0930926025
 20
128.0011145308
 11
-87.0930926025
 21
129.6198539078
  0
LINE
  8
Layer1$C$L1
 62
     3
 10
-87.0930926025
 20
128.0011145308
 11
-86.9283473426
 21
128.6248279543
  0
LINE
  8
Layer1$C$L1
 62
     3
 10
-71.3943714771
 20
128.0955904482
 11
-73.3930926025
 21
128.0955904482
  0
LINE
  8
Layer1$C$L1
 62
     3
 10
-103.5930926025
 20
128.1488301533
 11
-115.0930926025
 21
128.1488301533
  0
LINE
  8
Layer1$C$L1
 62
     3
 10
-115.0930926025
 20
128.3488301533
 11
-116.6901488774
 21
128.3488301533
  0
LINE
  8
Layer1$C$L1
 62
     3
 10
-86.9283473426
 20
128.6248279543
 11
-86.8930926025
 21
128.9104031736
  0
LINE
  8
Layer1$C$L1
 62
     3
 10
-103.5930926025
 20
128.6488301533
 11
-115.0930926025
 21
128.6488301533
  0
LINE
  8
Layer1$C$L1
 62
     3
 10
-86.8930926025
 20
128.9104031736
 11
-86.9283473426
 21
129.1569168405
  0
LINE
  8
Layer1$C$L1
 62
     3
 10
-89.3930926025
 20
128.9488301533
 11
-89.2930926025
 21
128.9488301533
  0
LINE
  8
Layer1$C$L1
 62
     3
 10
-89.3930926025
 20
128.9488301533
 11
-89.3930926025
 21
129.4488301533
  0
LINE
  8
Layer1$C$L1
 62
     3
 10
-86.9283473426
 20
129.1569168405
 11
-87.0930926025
 21
129.6198539078
  0
LINE
  8
Layer1$C$L1
 62
     3
 10
-91.1930926025
 20
129.4488301533
 11
-89.3930926025
 21
129.4488301533
  0
LINE
  8
Layer1$C$L1
 62
     3
 10
-96.6930926025
 20
129.4488301533
 11
-96.2930926025
 21
129.4488301533
  0
LINE
  8
Layer1$C$L1
 62
     3
 10
-69.0651346581
 20
129.4949196289
 11
-69.0651346581
 21
141.2440600754
  0
LINE
  8
Layer1$C$L1
 62
     3
 10
-84.1930926025
 20
129.6198539078
 11
-87.0930926025
 21
129.6198539078
  0
LINE
  8
Layer1$C$L1
 62
     3
 10
-69.0631419436
 20
130.0606050539
 11
-68.9643428318
 21
130.0606050539
  0
LINE
  8
Layer1$C$L1
 62
     3
 10
-68.9643428318
 20
130.0606050539
 11
-68.9643428318
 21
140.9059654660
  0
LINE
  8
Layer1$C$L1
 62
     3
 10
-68.6930926025
 20
130.0715434074
 11
-68.6930926025
 21
143.6261168992
  0
LINE
  8
Layer1$C$L1
 62
     3
 10
-103.5930926025
 20
130.7619590359
 11
-103.5930926025
 21
142.9357012707
  0
LINE
  8
Layer1$C$L1
 62
     3
 10
-103.5930926025
 20
130.7619590359
 11
-115.0930926025
 21
130.7619590359
  0
LINE
  8
Layer1$C$L1
 62
     3
 10
-73.3930926025
 20
131.2143014205
 11
-73.3930926025
 21
132.5771867510
  0
LINE
  8
Layer1$C$L1
 62
     3
 10
-73.3930926025
 20
131.2143014205
 11
-71.3943714771
 21
131.2143014205
  0
LINE
  8
Layer1$C$L1
 62
     3
 10
-84.1930926025
 20
131.5788767161
 11
-87.0930926025
 21
131.5788767161
  0
LINE
  8
Layer1$C$L1
 62
     3
 10
-87.0930926025
 20
131.5788767161
 11
-87.0930926025
 21
133.5645545200
  0
LINE
  8
Layer1$C$L1
 62
     3
 10
-87.0930926025
 20
131.5788767161
 11
-86.9283473426
 21
132.2881374519
  0
LINE
  8
Layer1$C$L1
 62
     3
 10
-114.0930926025
 20
131.8488301533
 11
-106.0930926025
 21
131.8488301533
  0
LINE
  8
Layer1$C$L1
 62
     3
 10
-114.0930926025
 20
131.8488301533
 11
-114.0930926025
 21
141.8488301533
  0
LINE
  8
Layer1$C$L1
 62
     3
 10
-106.0930926025
 20
131.8488301533
 11
-106.0930926025
 21
141.8488301533
  0
LINE
  8
Layer1$C$L1
 62
     3
 10
-116.6930926025
 20
132.2488301533
 11
-117.1930926025
 21
132.3988301533
  0
LINE
  8
Layer1$C$L1
 62
     3
 10
-116.6930926025
 20
132.2488301533
 11
-115.0930926025
 21
132.2488301533
  0
LINE
  8
Layer1$C$L1
 62
     3
 10
-116.6901488774
 20
132.2488301533
 11
-116.6901488774
 21
132.7488301533
  0
LINE
  8
Layer1$C$L1
 62
     3
 10
-86.9283473426
 20
132.2881374519
 11
-86.8930926025
 21
132.6248813832
  0
LINE
  8
Layer1$C$L1
 62
     3
 10
-117.1930926025
 20
132.3988301533
 11
-117.1930926025
 21
132.5988301533
  0
LINE
  8
Layer1$C$L1
 62
     3
 10
-107.7930926025
 20
132.5488301533
 11
-106.7930926025
 21
135.0488301533
  0
LINE
  8
Layer1$C$L1
 62
     3
 10
-107.7930926025
 20
132.5488301533
 11
-108.7930926025
 21
135.0488301533
  0
LINE
  8
Layer1$C$L1
 62
     3
 10
-71.3943714771
 20
132.5771867510
 11
-73.3930926025
 21
132.5771867510
  0
LINE
  8
Layer1$C$L1
 62
     3
 10
-117.1930926025
 20
132.5988301533
 11
-116.6930926025
 21
132.7488301533
  0
LINE
  8
Layer1$C$L1
 62
     3
 10
-86.8930926025
 20
132.6248813832
 11
-86.9283473426
 21
132.9408410966
  0
LINE
  8
Layer1$C$L1
 62
     3
 10
-116.6930926025
 20
132.7488301533
 11
-115.0930926025
 21
132.7488301533
  0
LINE
  8
Layer1$C$L1
 62
     3
 10
-110.6664838076
 20
132.7962679900
 11
-109.7529151799
 21
133.4082702745
  0
LINE
  8
Layer1$C$L1
 62
     3
 10
-110.6664838076
 20
132.7962679900
 11
-110.6664838076
 21
133.0357471448
  0
LINE
  8
Layer1$C$L1
 62
     3
 10
-116.2930926025
 20
132.7988301533
 11
-115.0930926025
 21
132.7988301533
  0
LINE
  8
Layer1$C$L1
 62
     3
 10
-116.2930926025
 20
132.7988301533
 11
-116.2930926025
 21
134.3988301533
  0
LINE
  8
Layer1$C$L1
 62
     3
 10
-116.2930926025
 20
132.7988301533
 11
-116.5930926025
 21
133.0988301533
  0
LINE
  8
Layer1$C$L1
 62
     3
 10
-109.1497824937
 20
132.8051375883
 11
-109.7529151799
 21
133.4082702745
  0
LINE
  8
Layer1$C$L1
 62
     3
 10
-109.1497824937
 20
132.8051375883
 11
-109.1497824937
 21
133.0623559398
  0
LINE
  8
Layer1$C$L1
 62
     3
 10
-86.9283473426
 20
132.9408410966
 11
-87.0930926025
 21
133.5645545200
  0
LINE
  8
Layer1$C$L1
 62
     3
 10
-110.6664838076
 20
133.0357471448
 11
-109.8948287531
 21
133.5501838478
  0
LINE
  8
Layer1$C$L1
 62
     3
 10
-109.1497824937
 20
133.0623559398
 11
-109.8416111632
 21
133.7541846093
  0
LINE
  8
Layer1$C$L1
 62
     3
 10
-116.5930926025
 20
133.0988301533
 11
-116.5930926025
 21
134.0988301533
  0
LINE
  8
Layer1$C$L1
 62
     3
 10
-109.8948287531
 20
133.5501838478
 11
-110.0988295146
 21
133.7541846093
  0
LINE
  8
Layer1$C$L1
 62
     3
 10
-87.0930926025
 20
133.5645545200
 11
-84.1930926025
 21
133.5645545200
  0
LINE
  8
Layer1$C$L1
 62
     3
 10
-109.1497824937
 20
133.7541846093
 11
-109.8416111632
 21
133.7541846093
  0
LINE
  8
Layer1$C$L1
 62
     3
 10
-110.6664838076
 20
133.7541846093
 11
-110.6664838076
 21
133.9640984363
  0
LINE
  8
Layer1$C$L1
 62
     3
 10
-110.0988295146
 20
133.7541846093
 11
-110.6664838076
 21
133.7541846093
  0
LINE
  8
Layer1$C$L1
 62
     3
 10
-109.1497824937
 20
133.7541846093
 11
-109.1497824937
 21
133.9640984363
  0
LINE
  8
Layer1$C$L1
 62
     3
 10
-110.6664838076
 20
133.9640984363
 11
-109.1497824937
 21
133.9640984363
  0
LINE
  8
Layer1$C$L1
 62
     3
 10
-116.5930926025
 20
134.0988301533
 11
-116.2930926025
 21
134.3988301533
  0
LINE
  8
Layer1$C$L1
 62
     3
 10
-110.0633511213
 20
134.2390559845
 11
-110.0633511213
 21
134.4519263443
  0
LINE
  8
Layer1$C$L1
 62
     3
 10
-109.6908279916
 20
134.2656647795
 11
-109.6908279916
 21
134.4785351393
  0
LINE
  8
Layer1$C$L1
 62
     3
 10
-115.0930926025
 20
134.3988301533
 11
-116.2930926025
 21
134.3988301533
  0
LINE
  8
Layer1$C$L1
 62
     3
 10
-105.3930926025
 20
134.6488301533
 11
-104.1930926025
 21
135.3488301533
  0
LINE
  8
Layer1$C$L1
 62
     3
 10
-105.3930926025
 20
134.6488301533
 11
-105.3930926025
 21
136.0488301533
  0
LINE
  8
Layer1$C$L1
 62
     3
 10
-98.8930926025
 20
134.7997816568
 11
-101.2930926025
 21
134.7997816568
  0
LINE
  8
Layer1$C$L1
 62
     3
 10
-101.2930926025
 20
134.7997816568
 11
-101.5930926025
 21
134.8518761101
  0
LINE
  8
Layer1$C$L1
 62
     3
 10
-101.2930926025
 20
134.7997816568
 11
-101.2930926025
 21
138.5610629725
  0
LINE
  8
Layer1$C$L1
 62
     3
 10
-112.6020558332
 20
134.8189904287
 11
-112.6020558332
 21
135.4624394710
  0
LINE
  8
Layer1$C$L1
 62
     3
 10
-111.4288797367
 20
134.8189904287
 11
-111.4288797367
 21
135.7296025236
  0
LINE
  8
Layer1$C$L1
 62
     3
 10
-112.3884090102
 20
134.8754333272
 11
-112.3884090102
 21
135.4624394710
  0
LINE
  8
Layer1$C$L1
 62
     3
 10
-111.6425265597
 20
134.8754333272
 11
-111.6425265597
 21
135.4624394710
  0
LINE
  8
Layer1$C$L1
 62
     3
 10
-108.2930926025
 20
135.0488301533
 11
-108.7930926025
 21
135.0488301533
  0
LINE
  8
Layer1$C$L1
 62
     3
 10
-108.2930926025
 20
135.0488301533
 11
-108.2930926025
 21
140.1488301533
  0
LINE
  8
Layer1$C$L1
 62
     3
 10
-107.2930926025
 20
135.0488301533
 11
-107.2930926025
 21
141.1488301533
  0
LINE
  8
Layer1$C$L1
 62
     3
 10
-106.7930926025
 20
135.0488301533
 11
-107.2930926025
 21
135.0488301533
  0
LINE
  8
Layer1$C$L1
 62
     3
 10
-104.1930926025
 20
135.3488301533
 11
-105.3930926025
 21
136.0488301533
  0
LINE
  8
Layer1$C$L1
 62
     3
 10
-113.3592268635
 20
135.4624394710
 11
-113.3592268635
 21
135.7296025236
  0
LINE
  8
Layer1$C$L1
 62
     3
 10
-112.6020558332
 20
135.4624394710
 11
-113.3592268635
 21
135.4624394710
  0
LINE
  8
Layer1$C$L1
 62
     3
 10
-111.6425265597
 20
135.4624394710
 11
-112.3884090102
 21
135.4624394710
  0
LINE
  8
Layer1$C$L1
 62
     3
 10
-113.3592268635
 20
135.7296025236
 11
-111.4288797367
 21
135.7296025236
  0
LINE
  8
Layer1$C$L1
 62
     3
 10
-87.0930926025
 20
135.7922730622
 11
-86.9283473426
 21
136.5015337979
  0
LINE
  8
Layer1$C$L1
 62
     3
 10
-84.1930926025
 20
135.7922730622
 11
-87.0930926025
 21
135.7922730622
  0
LINE
  8
Layer1$C$L1
 62
     3
 10
-87.0930926025
 20
135.7922730622
 11
-87.0930926025
 21
137.9053872444
  0
LINE
  8
Layer1$C$L1
 62
     3
 10
-95.3930926025
 20
135.8488301533
 11
-96.6930926025
 21
135.8488301533
  0
LINE
  8
Layer1$C$L1
 62
     3
 10
-91.1930926025
 20
135.9988301533
 11
-89.2930926025
 21
135.9988301533
  0
LINE
  8
Layer1$C$L1
 62
     3
 10
-73.3930926025
 20
136.1236540157
 11
-71.3943714771
 21
136.1236540157
  0
LINE
  8
Layer1$C$L1
 62
     3
 10
-73.3930926025
 20
136.1236540157
 11
-73.3930926025
 21
137.5740062909
  0
LINE
  8
Layer1$C$L1
 62
     3
 10
-86.9283473426
 20
136.5015337979
 11
-86.8930926025
 21
136.8488301533
  0
LINE
  8
Layer1$C$L1
 62
     3
 10
-86.8930926025
 20
136.8488301533
 11
-86.9283473426
 21
137.1961265086
  0
LINE
  8
Layer1$C$L1
 62
     3
 10
-86.9283473426
 20
137.1961265086
 11
-87.0930926025
 21
137.9053872444
  0
LINE
  8
Layer1$C$L1
 62
     3
 10
-110.6658268003
 20
137.2514343792
 11
-110.6658268003
 21
138.2773512523
  0
LINE
  8
Layer1$C$L1
 62
     3
 10
-110.4979614393
 20
137.2514343792
 11
-110.4979614393
 21
138.0674374252
  0
LINE
  8
Layer1$C$L1
 62
     3
 10
-110.4979614393
 20
137.2514343792
 11
-110.6658268003
 21
137.2514343792
  0
LINE
  8
Layer1$C$L1
 62
     3
 10
-71.3943714771
 20
137.5740062909
 11
-73.3930926025
 21
137.5740062909
  0
LINE
  8
Layer1$C$L1
 62
     3
 10
-91.1930926025
 20
137.6988301533
 11
-89.2930926025
 21
137.6988301533
  0
LINE
  8
Layer1$C$L1
 62
     3
 10
-95.3930926025
 20
137.8488301533
 11
-96.6930926025
 21
137.8488301533
  0
LINE
  8
Layer1$C$L1
 62
     3
 10
-84.1930926025
 20
137.9053872444
 11
-87.0930926025
 21
137.9053872444
  0
LINE
  8
Layer1$C$L1
 62
     3
 10
-111.6425265597
 20
138.0232746781
 11
-111.6425265597
 21
138.6667237204
  0
LINE
  8
Layer1$C$L1
 62
     3
 10
-111.4288797367
 20
138.0232746781
 11
-111.4288797367
 21
139.5698100955
  0
LINE
  8
Layer1$C$L1
 62
     3
 10
-111.4288797367
 20
138.0232746781
 11
-111.6425265597
 21
138.0232746781
  0
LINE
  8
Layer1$C$L1
 62
     3
 10
-109.1497824937
 20
138.0674374252
 11
-110.4979614393
 21
138.0674374252
  0
LINE
  8
Layer1$C$L1
 62
     3
 10
-109.1497824937
 20
138.0674374252
 11
-109.1497824937
 21
138.2773512523
  0
LINE
  8
Layer1$C$L1
 62
     3
 10
-110.6658268003
 20
138.2773512523
 11
-109.1497824937
 21
138.2773512523
  0
LINE
  8
Layer1$C$L1
 62
     3
 10
-113.3592268635
 20
138.6667237204
 11
-113.3592268635
 21
138.9338867730
  0
LINE
  8
Layer1$C$L1
 62
     3
 10
-111.6425265597
 20
138.6667237204
 11
-113.3592268635
 21
138.6667237204
  0
LINE
  8
Layer1$C$L1
 62
     3
 10
-111.6425265597
 20
138.9338867730
 11
-111.6425265597
 21
139.5698100955
  0
LINE
  8
Layer1$C$L1
 62
     3
 10
-113.3592268635
 20
138.9338867730
 11
-111.6425265597
 21
138.9338867730
  0
LINE
  8
Layer1$C$L1
 62
     3
 10
-116.2930926025
 20
139.2988301533
 11
-116.2930926025
 21
140.8988301533
  0
LINE
  8
Layer1$C$L1
 62
     3
 10
-116.2930926025
 20
139.2988301533
 11
-115.0930926025
 21
139.2988301533
  0
LINE
  8
Layer1$C$L1
 62
     3
 10
-116.2930926025
 20
139.2988301533
 11
-116.5930926025
 21
139.5988301533
  0
LINE
  8
Layer1$C$L1
 62
     3
 10
-111.6425265597
 20
139.5698100955
 11
-111.4288797367
 21
139.5698100955
  0
LINE
  8
Layer1$C$L1
 62
     3
 10
-116.5930926025
 20
139.5988301533
 11
-116.5930926025
 21
140.5988301533
  0
LINE
  8
Layer1$C$L1
 62
     3
 10
-87.0930926025
 20
140.1331057866
 11
-86.9283473426
 21
140.7568192100
  0
LINE
  8
Layer1$C$L1
 62
     3
 10
-87.0930926025
 20
140.1331057866
 11
-87.0930926025
 21
142.1187835904
  0
LINE
  8
Layer1$C$L1
 62
     3
 10
-84.1930926025
 20
140.1331057866
 11
-87.0930926025
 21
140.1331057866
  0
LINE
  8
Layer1$C$L1
 62
     3
 10
-110.2930926025
 20
140.1488301533
 11
-108.2930926025
 21
140.1488301533
  0
LINE
  8
Layer1$C$L1
 62
     3
 10
-110.2930926025
 20
140.1488301533
 11
-110.2930926025
 21
141.1488301533
  0
LINE
  8
Layer1$C$L1
 62
     3
 10
-116.5930926025
 20
140.5988301533
 11
-116.2930926025
 21
140.8988301533
  0
LINE
  8
Layer1$C$L1
 62
     3
 10
-86.9283473426
 20
140.7568192100
 11
-86.8930926025
 21
141.0727789233
  0
LINE
  8
Layer1$C$L1
 62
     3
 10
-115.0930926025
 20
140.8988301533
 11
-116.2930926025
 21
140.8988301533
  0
LINE
  8
Layer1$C$L1
 62
     3
 10
-69.0631419436
 20
140.9059654660
 11
-68.9643428318
 21
140.9059654660
  0
LINE
  8
Layer1$C$L1
 62
     3
 10
-115.0930926025
 20
140.9488301533
 11
-116.6930926025
 21
140.9488301533
  0
LINE
  8
Layer1$C$L1
 62
     3
 10
-116.6930926025
 20
140.9488301533
 11
-117.1930926025
 21
141.0988301533
  0
LINE
  8
Layer1$C$L1
 62
     3
 10
-116.6901488774
 20
140.9488301533
 11
-116.6901488774
 21
141.4488301533
  0
LINE
  8
Layer1$C$L1
 62
     3
 10
-86.8930926025
 20
141.0727789233
 11
-86.9283473426
 21
141.4095228547
  0
LINE
  8
Layer1$C$L1
 62
     3
 10
-117.1930926025
 20
141.0988301533
 11
-117.1930926025
 21
141.2988301533
  0
LINE
  8
Layer1$C$L1
 62
     3
 10
-71.3943714771
 20
141.1204735556
 11
-73.3930926025
 21
141.1204735556
  0
LINE
  8
Layer1$C$L1
 62
     3
 10
-73.3930926025
 20
141.1204735556
 11
-73.3930926025
 21
142.4833588861
  0
LINE
  8
Layer1$C$L1
 62
     3
 10
-110.2930926025
 20
141.1488301533
 11
-107.2930926025
 21
141.1488301533
  0
LINE
  8
Layer1$C$L1
 62
     3
 10
-117.1930926025
 20
141.2988301533
 11
-116.6930926025
 21
141.4488301533
  0
LINE
  8
Layer1$C$L1
 62
     3
 10
-86.9283473426
 20
141.4095228547
 11
-87.0930926025
 21
142.1187835904
  0
LINE
  8
Layer1$C$L1
 62
     3
 10
-115.0930926025
 20
141.4488301533
 11
-116.6930926025
 21
141.4488301533
  0
LINE
  8
Layer1$C$L1
 62
     3
 10
-98.8930926025
 20
141.8357256418
 11
-100.6965753345
 21
141.8357256418
  0
LINE
  8
Layer1$C$L1
 62
     3
 10
-98.8930926025
 20
141.8357256418
 11
-98.8930926025
 21
149.2701686558
  0
LINE
  8
Layer1$C$L1
 62
     3
 10
-114.0930926025
 20
141.8488301533
 11
-106.0930926025
 21
141.8488301533
  0
LINE
  8
Layer1$C$L1
 62
     3
 10
-97.9930926025
 20
142.0663115687
 11
-98.8930926025
 21
142.0663115687
  0
LINE
  8
Layer1$C$L1
 62
     3
 10
-84.1930926025
 20
142.1187835904
 11
-87.0930926025
 21
142.1187835904
  0
LINE
  8
Layer1$C$L1
 62
     3
 10
-100.5930926025
 20
142.3850871782
 11
-100.5930926025
 21
149.2701686558
  0
LINE
  8
Layer1$C$L1
 62
     3
 10
-71.3943714771
 20
142.4833588861
 11
-73.3930926025
 21
142.4833588861
  0
LINE
  8
Layer1$C$L1
 62
     3
 10
-103.5930926025
 20
142.9357012707
 11
-115.0930926025
 21
142.9357012707
  0
LINE
  8
Layer1$C$L1
 62
     3
 10
-87.0930926025
 20
144.0778063988
 11
-86.9283473426
 21
144.5407434660
  0
LINE
  8
Layer1$C$L1
 62
     3
 10
-84.1930926025
 20
144.0778063988
 11
-87.0930926025
 21
144.0778063988
  0
LINE
  8
Layer1$C$L1
 62
     3
 10
-87.0930926025
 20
144.0778063988
 11
-87.0930926025
 21
145.6965457757
  0
LINE
  8
Layer1$C$L1
 62
     3
 10
-89.3930926025
 20
144.2488301533
 11
-89.3930926025
 21
144.7488301533
  0
LINE
  8
Layer1$C$L1
 62
     3
 10
-96.6930926025
 20
144.2488301533
 11
-96.2930926025
 21
144.2488301533
  0
LINE
  8
Layer1$C$L1
 62
     3
 10
-91.1930926025
 20
144.2488301533
 11
-89.3930926025
 21
144.2488301533
  0
LINE
  8
Layer1$C$L1
 62
     3
 10
-86.9283473426
 20
144.5407434660
 11
-86.8930926025
 21
144.7872571329
  0
LINE
  8
Layer1$C$L1
 62
     3
 10
-89.2930926025
 20
144.7488301533
 11
-89.3930926025
 21
144.7488301533
  0
LINE
  8
Layer1$C$L1
 62
     3
 10
-86.8930926025
 20
144.7872571329
 11
-86.9283473426
 21
145.0728323523
  0
LINE
  8
Layer1$C$L1
 62
     3
 10
-100.8930926025
 20
145.0488301533
 11
-115.0930926025
 21
145.0488301533
  0
LINE
  8
Layer1$C$L1
 62
     3
 10
-101.5930926025
 20
145.0488301533
 11
-101.5930926025
 21
145.1362229265
  0
LINE
  8
Layer1$C$L1
 62
     3
 10
-86.9283473426
 20
145.0728323523
 11
-87.0930926025
 21
145.6965457757
  0
LINE
  8
Layer1$C$L1
 62
     3
 10
-101.8930926025
 20
145.1362229265
 11
-101.4694281782
 21
145.1362229265
  0
LINE
  8
Layer1$C$L1
 62
     3
 10
-116.6901488774
 20
145.3488301533
 11
-115.0930926025
 21
145.3488301533
  0
LINE
  8
Layer1$C$L1
 62
     3
 10
-116.6930926025
 20
145.3524061489
 11
-116.6930926025
 21
148.1452541577
  0
LINE
  8
Layer1$C$L1
 62
     3
 10
-102.1930926025
 20
145.4362229265
 11
-102.1930926025
 21
148.2202241322
  0
LINE
  8
Layer1$C$L1
 62
     3
 10
-115.0930926025
 20
145.5488301533
 11
-102.1930926025
 21
145.5488301533
  0
LINE
  8
Layer1$C$L1
 62
     3
 10
-73.3930926025
 20
145.6020698584
 11
-71.3943714771
 21
145.6020698584
  0
LINE
  8
Layer1$C$L1
 62
     3
 10
-73.3930926025
 20
145.6020698584
 11
-73.3930926025
 21
146.7131041594
  0
LINE
  8
Layer1$C$L1
 62
     3
 10
-84.1930926025
 20
145.6965457757
 11
-87.0930926025
 21
145.6965457757
  0
LINE
  8
Layer1$C$L1
 62
     3
 10
-107.9930926025
 20
145.8488301533
 11
-110.4930926025
 21
145.8488301533
  0
LINE
  8
Layer1$C$L1
 62
     3
 10
-110.4930926025
 20
145.8488301533
 11
-110.4930926025
 21
147.8488301533
  0
LINE
  8
Layer1$C$L1
 62
     3
 10
-107.9930926025
 20
145.8488301533
 11
-107.9930926025
 21
147.8488301533
  0
LINE
  8
Layer1$C$L1
 62
     3
 10
-108.4930926025
 20
146.0488301533
 11
-108.4930926025
 21
147.6488301533
  0
LINE
  8
Layer1$C$L1
 62
     3
 10
-109.9930926025
 20
146.0488301533
 11
-109.9930926025
 21
147.6488301533
  0
LINE
  8
Layer1$C$L1
 62
     3
 10
-108.4930926025
 20
146.0488301533
 11
-110.4930926025
 21
146.0488301533
  0
LINE
  8
Layer1$C$L1
 62
     3
 10
-68.9643428318
 20
146.1217180857
 11
-68.9643428318
 21
146.4488301533
  0
LINE
  8
Layer1$C$L1
 62
     3
 10
-115.7930926025
 20
146.1488301533
 11
-115.0930926025
 21
146.1488301533
  0
LINE
  8
Layer1$C$L1
 62
     3
 10
-100.0930926025
 20
146.3360015675
 11
-100.5930926025
 21
146.3360015675
  0
LINE
  8
Layer1$C$L1
 62
     3
 10
-68.9643428318
 20
146.4488301533
 11
-69.0060097113
 21
146.4488301533
  0
LINE
  8
Layer1$C$L1
 62
     3
 10
-71.3943714771
 20
146.7131041594
 11
-73.3930926025
 21
146.7131041594
  0
LINE
  8
Layer1$C$L1
 62
     3
 10
-111.5930926025
 20
146.7488301533
 11
-111.5930926025
 21
148.2488301533
  0
LINE
  8
Layer1$C$L1
 62
     3
 10
-113.2930926025
 20
146.7488301533
 11
-111.5930926025
 21
146.7488301533
  0
LINE
  8
Layer1$C$L1
 62
     3
 10
-112.5930926025
 20
146.7488301533
 11
-112.5930926025
 21
148.2488301533
  0
LINE
  8
Layer1$C$L1
 62
     3
 10
-113.2930926025
 20
146.7488301533
 11
-113.2930926025
 21
148.2488301533
  0
LINE
  8
Layer1$C$L1
 62
     3
 10
-69.0651346581
 20
146.8944587467
 11
-69.0651346581
 21
147.2488301533
  0
LINE
  8
Layer1$C$L1
 62
     3
 10
-97.1930926025
 20
147.0461030730
 11
-96.1930926025
 21
147.7079868805
  0
LINE
  8
Layer1$C$L1
 62
     3
 10
-97.1930926025
 20
147.0461030730
 11
-97.6930926025
 21
147.0461030730
  0
LINE
  8
Layer1$C$L1
 62
     3
 10
-87.0930926025
 20
147.1505857875
 11
-86.9283473426
 21
147.3969094560
  0
LINE
  8
Layer1$C$L1
 62
     3
 10
-87.0930926025
 20
147.1505857875
 11
-87.0930926025
 21
148.2071428786
  0
LINE
  8
Layer1$C$L1
 62
     3
 10
-84.1930926025
 20
147.1505857875
 11
-87.0930926025
 21
147.1505857875
  0
LINE
  8
Layer1$C$L1
 62
     3
 10
-96.6930926025
 20
147.2488301533
 11
-96.7702428960
 21
147.3259804468
  0
LINE
  8
Layer1$C$L1
 62
     3
 10
-98.8930926025
 20
147.2590647483
 11
-100.5179937486
 21
147.2590647483
  0
LINE
  8
Layer1$C$L1
 62
     3
 10
-115.0930926025
 20
147.3488301533
 11
-115.7930926025
 21
147.3488301533
  0
LINE
  8
Layer1$C$L1
 62
     3
 10
-86.9283473426
 20
147.3969094560
 11
-86.8930926025
 21
147.5442438900
  0
LINE
  8
Layer1$C$L1
 62
     3
 10
-86.8930926025
 20
147.5442438900
 11
-86.9283473426
 21
147.7442058113
  0
LINE
  8
Layer1$C$L1
 62
     3
 10
-108.4930926025
 20
147.6488301533
 11
-110.4930926025
 21
147.6488301533
  0
LINE
  8
Layer1$C$L1
 62
     3
 10
-96.1930926025
 20
147.7079868805
 11
-96.1930926025
 21
150.1488301533
  0
LINE
  8
Layer1$C$L1
 62
     3
 10
-86.9283473426
 20
147.7442058113
 11
-87.0930926025
 21
148.2071428786
  0
LINE
  8
Layer1$C$L1
 62
     3
 10
-107.9930926025
 20
147.8488301533
 11
-110.4930926025
 21
147.8488301533
  0
LINE
  8
Layer1$C$L1
 62
     3
 10
-97.6930926025
 20
147.9731278839
 11
-96.4930926025
 21
147.9731278839
  0
LINE
  8
Layer1$C$L1
 62
     3
 10
-115.0930926025
 20
148.1488301533
 11
-116.6901488774
 21
148.1488301533
  0
LINE
  8
Layer1$C$L1
 62
     3
 10
-84.1930926025
 20
148.2071428786
 11
-87.0930926025
 21
148.2071428786
  0
LINE
  8
Layer1$C$L1
 62
     3
 10
-111.5930926025
 20
148.2488301533
 11
-113.2930926025
 21
148.2488301533
  0
LINE
  8
Layer1$C$L1
 62
     3
 10
-88.6930926025
 20
148.2988301533
 11
-89.2930926025
 21
148.2988301533
  0
LINE
  8
Layer1$C$L1
 62
     3
 10
-98.8930926025
 20
148.6039275908
 11
-100.5930926025
 21
148.6039275908
  0
LINE
  8
Layer1$C$L1
 62
     3
 10
-98.8930926025
 20
148.6488301533
 11
-100.5930926025
 21
148.6488301533
  0
LINE
  8
Layer1$C$L1
 62
     3
 10
-101.5930926025
 20
148.7481989695
 11
-101.5930926025
 21
150.1488301533
  0
LINE
  8
Layer1$C$L1
 62
     3
 10
-98.8930926025
 20
148.9488301533
 11
-100.5930926025
 21
148.9488301533
  0
LINE
  8
Layer1$C$L1
 62
     3
 10
-84.1930926025
 20
148.9808214090
 11
-87.0930926025
 21
148.9808214090
  0
LINE
  8
Layer1$C$L1
 62
     3
 10
-87.0930926025
 20
148.9808214090
 11
-87.0930926025
 21
149.3477598359
  0
LINE
  8
Layer1$C$L1
 62
     3
 10
-86.8930926025
 20
149.0112059030
 11
-86.9283473426
 21
149.1014361674
  0
LINE
  8
Layer1$C$L1
 62
     3
 10
-73.3930926025
 20
149.0278962687
 11
-73.3930926025
 21
149.7530724063
  0
LINE
  8
Layer1$C$L1
 62
     3
 10
-73.3930926025
 20
149.0278962687
 11
-71.3943714771
 21
149.0278962687
  0
LINE
  8
Layer1$C$L1
 62
     3
 10
-86.9283473426
 20
149.1014361674
 11
-87.0930926025
 21
149.3477598359
  0
LINE
  8
Layer1$C$L1
 62
     3
 10
-97.9930926025
 20
149.2701686558
 11
-98.8930926025
 21
149.2701686558
  0
LINE
  8
Layer1$C$L1
 62
     3
 10
-100.5930926025
 20
149.2701686558
 11
-101.2930926025
 21
149.2701686558
  0
LINE
  8
Layer1$C$L1
 62
     3
 10
-101.8930926025
 20
149.2894892998
 11
-115.0930926025
 21
149.2894892998
  0
LINE
  8
Layer1$C$L1
 62
     3
 10
-84.1930926025
 20
149.3477598359
 11
-87.0930926025
 21
149.3477598359
  0
LINE
  8
Layer1$C$L1
 62
     3
 10
-84.1930926025
 20
149.3988301533
 11
-88.6930926025
 21
149.3988301533
  0
LINE
  8
Layer1$C$L1
 62
     3
 10
-71.3943714771
 20
149.7530724063
 11
-73.3930926025
 21
149.7530724063
  0
LINE
  8
Layer1$C$L1
 62
     3
 10
-84.1930926025
 20
150.3488301533
 11
-82.6930926025
 21
150.8488301533
  0
LINE
  8
Layer1$C$L1
 62
     3
 10
-96.4930926025
 20
150.4488301533
 11
-115.0930926025
 21
150.4488301533
  0
LINE
  8
Layer1$C$L1
 62
     3
 10
-75.5668313123
 20
150.8488301533
 11
-74.4416323465
 21
151.2583690845
  0
LINE
  8
Layer1$C$L1
 62
     3
 10
-75.5668313123
 20
150.8488301533
 11
-82.6930926025
 21
150.8488301533
  0
LINE
  8
Layer1$C$L1
 62
     3
 10
-71.3943714771
 20
150.9847475617
 11
-73.3930926025
 21
150.9847475617
  0
LINE
  8
Layer1$C$L1
 62
     3
 10
-73.3930926025
 20
150.9847475617
 11
-73.3930926025
 21
151.2365985912
  0
LINE
  8
Layer1$C$L1
 62
     3
 10
-71.3943714771
 20
151.2365985912
 11
-73.3930926025
 21
151.2365985912
  0
LINE
  8
Layer1$C$L1
 62
     3
 10
-71.3943714771
 20
151.3488301533
 11
-73.9286021315
 21
151.3488301533
  0
ARC
  8
Layer1$C$L1
 62
     3
 10
-101.8930926025
 20
123.5488301533
 40
0.3000000000
 50
270.0000000000
 51
360.0000000000
  0
ARC
  8
Layer1$C$L1
 62
     3
 10
-96.4930926025
 20
123.5488301533
 40
0.3000000000
 50
270.0000000000
 51
360.0000000000
  0
ARC
  8
Layer1$C$L1
 62
     3
 10
-73.9286021315
 20
123.8488301533
 40
1.5000000000
 50
250.0000000000
 51
270.0000000000
  0
ARC
  8
Layer1$C$L1
 62
     3
 10
-71.3943714771
 20
124.3488301533
 40
2.0000000000
 50
270.0000000000
 51
350.7782205027
  0
ARC
  8
Layer1$C$L1
 62
     3
 10
-101.2930926025
 20
125.0488301533
 40
0.3000000000
 50
180.0000000000
 51
270.0000000000
  0
ARC
  8
Layer1$C$L1
 62
     3
 10
-97.9930926025
 20
125.3488301533
 40
0.3000000000
 50
270.0000000000
 51
360.0000000000
  0
ARC
  8
Layer1$C$L1
 62
     3
 10
-88.1768639599
 20
126.4388356727
 40
26.0403146704
 50
120.7968689677
 51
122.1987109442
  0
ARC
  8
Layer1$C$L1
 62
     3
 10
-115.7930926025
 20
126.9488301533
 40
0.6000000000
 50
90.0000000000
 51
270.0000000000
  0
ARC
  8
Layer1$C$L1
 62
     3
 10
-114.9930926025
 20
126.9488301533
 40
2.2000000000
 50
140.4788036414
 51
219.5211963586
  0
ARC
  8
Layer1$C$L1
 62
     3
 10
-73.6930926025
 20
130.0715434074
 40
5.0000000000
 50
354.8154620841
 51
360.0000000000
  0
ARC
  8
Layer1$C$L1
 62
     3
 10
-109.8688101654
 20
134.6031235042
 40
0.6927979539
 50
50.1350125758
 51
93.6212669284
  0
ARC
  8
Layer1$C$L1
 62
     3
 10
-109.9663083068
 20
134.6336258096
 40
0.6630936543
 50
85.3513710297
 51
130.8923494661
  0
ARC
  8
Layer1$C$L1
 62
     3
 10
-109.9494588434
 20
134.6766213434
 40
0.8316058638
 50
87.4574657678
 51
132.9141402511
  0
ARC
  8
Layer1$C$L1
 62
     3
 10
-109.8636322205
 20
134.6870380262
 40
0.8218287499
 50
46.7534959661
 51
93.4136920463
  0
ARC
  8
Layer1$C$L1
 62
     3
 10
-112.0202631224
 20
134.7879128941
 40
0.5826221517
 50
176.9423458614
 51
221.5713107700
  0
ARC
  8
Layer1$C$L1
 62
     3
 10
-111.9750929994
 20
134.7974822407
 40
0.5466365616
 50
315.2440234771
 51
362.2549655086
  0
ARC
  8
Layer1$C$L1
 62
     3
 10
-109.6913907933
 20
134.8176705909
 40
0.5603430723
 50
316.8137146399
 51
363.4159551324
  0
ARC
  8
Layer1$C$L1
 62
     3
 10
-110.0766192865
 20
134.8183981354
 40
0.6084808642
 50
176.9231776706
 51
221.3441087412
  0
ARC
  8
Layer1$C$L1
 62
     3
 10
-110.1478219368
 20
134.8268070753
 40
0.3686771727
 50
176.2284211518
 51
222.8448887245
  0
ARC
  8
Layer1$C$L1
 62
     3
 10
-112.0691465783
 20
134.8321998315
 40
0.5791612600
 50
228.0719270811
 51
274.1558981795
  0
ARC
  8
Layer1$C$L1
 62
     3
 10
-109.6523553961
 20
134.8459961861
 40
0.3518261494
 50
314.2167297308
 51
360.8244014750
  0
ARC
  8
Layer1$C$L1
 62
     3
 10
-109.6946244719
 20
134.8477342592
 40
0.3940728259
 50
0.4832964333
 51
46.7754590281
  0
ARC
  8
Layer1$C$L1
 62
     3
 10
-109.6954576501
 20
134.8550311910
 40
0.5893845950
 50
270.4500671107
 51
314.4354396199
  0
ARC
  8
Layer1$C$L1
 62
     3
 10
-112.0565400497
 20
134.8555188203
 40
0.3324659300
 50
176.5659620753
 51
223.4002509685
  0
ARC
  8
Layer1$C$L1
 62
     3
 10
-110.1289656646
 20
134.8592820432
 40
0.3868223993
 50
134.5629136363
 51
181.2181896762
  0
ARC
  8
Layer1$C$L1
 62
     3
 10
-111.9966883970
 20
134.8618678154
 40
0.6080710719
 50
267.1262317442
 51
312.3674414666
  0
ARC
  8
Layer1$C$L1
 62
     3
 10
-111.9930958912
 20
134.8637167440
 40
0.3507650702
 50
315.0248530740
 51
361.9142033311
  0
ARC
  8
Layer1$C$L1
 62
     3
 10
-109.7244651954
 20
134.8713215184
 40
0.5927683401
 50
358.0410139621
 51
404.3470990010
  0
ARC
  8
Layer1$C$L1
 62
     3
 10
-110.1005250422
 20
134.8747042693
 40
0.5841767234
 50
135.2920646339
 51
182.3198224030
  0
ARC
  8
Layer1$C$L1
 62
     3
 10
-110.0835182933
 20
134.8971765045
 40
0.6584294448
 50
226.8959516572
 51
271.7551988211
  0
ARC
  8
Layer1$C$L1
 62
     3
 10
-112.0423004676
 20
134.8971844956
 40
0.3720047837
 50
226.5575756257
 51
272.3303339352
  0
ARC
  8
Layer1$C$L1
 62
     3
 10
-111.9942662335
 20
134.9087636113
 40
0.3846864159
 50
265.0926008091
 51
310.3967424410
  0
ARC
  8
Layer1$C$L1
 62
     3
 10
-109.7060256071
 20
134.9229227622
 40
0.4446474186
 50
271.9586953995
 51
312.2602012880
  0
ARC
  8
Layer1$C$L1
 62
     3
 10
-110.0902476345
 20
134.9440005423
 40
0.4928087243
 50
228.2912641129
 51
273.1286434487
  0
ARC
  8
Layer1$C$L1
 62
     3
 10
-109.9582683058
 20
136.2454632281
 40
0.6403764100
 50
85.1115866681
 51
130.4561902173
  0
ARC
  8
Layer1$C$L1
 62
     3
 10
-109.9417359072
 20
136.2896327106
 40
0.8076441729
 50
87.3005464792
 51
132.6656665646
  0
ARC
  8
Layer1$C$L1
 62
     3
 10
-109.8571900645
 20
136.3129272214
 40
0.7848326647
 50
46.6365142265
 51
93.3972727297
  0
ARC
  8
Layer1$C$L1
 62
     3
 10
-109.7468312995
 20
136.4197860602
 40
0.6148932203
 50
314.1797719693
 51
361.0599579268
  0
ARC
  8
Layer1$C$L1
 62
     3
 10
-110.0567758427
 20
136.4213464676
 40
0.6186554150
 50
179.0910245252
 51
225.6692455787
  0
ARC
  8
Layer1$C$L1
 62
     3
 10
-109.7196369194
 20
136.4264075161
 40
0.4190982100
 50
0.6498432131
 51
46.9620438238
  0
ARC
  8
Layer1$C$L1
 62
     3
 10
-110.0935952481
 20
136.4289819858
 40
0.4132415334
 50
132.6902041405
 51
179.6979088226
  0
ARC
  8
Layer1$C$L1
 62
     3
 10
-109.7138014548
 20
136.4333395857
 40
0.4132415334
 50
312.6902041405
 51
359.6979088226
  0
ARC
  8
Layer1$C$L1
 62
     3
 10
-110.0877597835
 20
136.4359140554
 40
0.4190982100
 50
180.6498432131
 51
226.9620438238
  0
ARC
  8
Layer1$C$L1
 62
     3
 10
-109.7506208602
 20
136.4409751039
 40
0.6186554150
 50
359.0910245252
 51
405.6692455787
  0
ARC
  8
Layer1$C$L1
 62
     3
 10
-110.0605654034
 20
136.4425355113
 40
0.6148932203
 50
134.1797719693
 51
181.0599579268
  0
ARC
  8
Layer1$C$L1
 62
     3
 10
-109.9497508916
 20
136.5506476540
 40
0.7860569373
 50
226.6750887963
 51
273.3586981599
  0
ARC
  8
Layer1$C$L1
 62
     3
 10
-109.8656455865
 20
136.5726470357
 40
0.8076031105
 50
267.2993289023
 51
312.6668841415
  0
ARC
  8
Layer1$C$L1
 62
     3
 10
-109.8491283971
 20
136.6168583434
 40
0.6403764100
 50
265.1115866681
 51
310.4561902173
  0
ARC
  8
Layer1$C$L1
 62
     3
 10
-112.4578616794
 20
136.6839962869
 40
0.8150245218
 50
85.1115866681
 51
130.4561902173
  0
ARC
  8
Layer1$C$L1
 62
     3
 10
-112.3292166450
 20
136.7698595511
 40
0.9988779369
 50
46.6365142265
 51
93.3972727297
  0
ARC
  8
Layer1$C$L1
 62
     3
 10
-148.3862541659
 20
136.8488301533
 40
79.9999999997
 50
353.5617479226
 51
354.8154620841
  0
ARC
  8
Layer1$C$L1
 62
     3
 10
-148.3862541661
 20
136.8488301533
 40
79.9999999999
 50
350.7782205027
 51
352.2796164934
  0
ARC
  8
Layer1$C$L1
 62
     3
 10
-148.3862541661
 20
136.8488301533
 40
80.0000000000
 50
5.1845379159
 51
6.8921025793
  0
ARC
  8
Layer1$C$L1
 62
     3
 10
-148.3862541660
 20
136.8488301533
 40
79.9999999998
 50
7.4695923164
 51
9.2217794973
  0
ARC
  8
Layer1$C$L1
 62
     3
 10
-147.7911238878
 20
136.8498216982
 40
79.4049136963
 50
353.0818250581
 51
353.3572791245
  0
ARC
  8
Layer1$C$L1
 62
     3
 10
-112.1887600350
 20
136.9058617096
 40
0.7825913713
 50
314.1797719693
 51
361.0599579268
  0
ARC
  8
Layer1$C$L1
 62
     3
 10
-112.5832349082
 20
136.9078476826
 40
0.7873796191
 50
179.0910245252
 51
225.6692455787
  0
ARC
  8
Layer1$C$L1
 62
     3
 10
-112.1541490058
 20
136.9142890171
 40
0.5333977218
 50
0.6498432131
 51
46.9620438238
  0
ARC
  8
Layer1$C$L1
 62
     3
 10
-112.6300959696
 20
136.9175656148
 40
0.5259437698
 50
132.6902041405
 51
179.6979088226
  0
ARC
  8
Layer1$C$L1
 62
     3
 10
-112.1467220509
 20
136.9231116511
 40
0.5259437698
 50
312.6902041405
 51
359.6979088226
  0
ARC
  8
Layer1$C$L1
 62
     3
 10
-112.6226690147
 20
136.9263882489
 40
0.5333977218
 50
180.6498432131
 51
226.9620438238
  0
ARC
  8
Layer1$C$L1
 62
     3
 10
-112.1935831123
 20
136.9328295834
 40
0.7873796191
 50
359.0910245252
 51
405.6692455787
  0
ARC
  8
Layer1$C$L1
 62
     3
 10
-112.5880579855
 20
136.9348155564
 40
0.7825913713
 50
134.1797719693
 51
181.0599579268
  0
ARC
  8
Layer1$C$L1
 62
     3
 10
-112.4470213340
 20
137.0724128290
 40
1.0004361020
 50
226.6750887963
 51
273.3586981599
  0
ARC
  8
Layer1$C$L1
 62
     3
 10
-112.3189563411
 20
137.1566809791
 40
0.8150245218
 50
265.1115866681
 51
310.4561902173
  0
ARC
  8
Layer1$C$L1
 62
     3
 10
-73.6930926025
 20
143.6261168992
 40
5.0000000000
 50
360.0000000000
 51
365.1845379159
  0
ARC
  8
Layer1$C$L1
 62
     3
 10
-100.8930926025
 20
144.7488301533
 40
0.3000000000
 50
360.0000000000
 51
450.0000000000
  0
ARC
  8
Layer1$C$L1
 62
     3
 10
-101.8930926025
 20
145.4362229265
 40
0.3000000000
 50
180.0000000000
 51
270.0000000000
  0
ARC
  8
Layer1$C$L1
 62
     3
 10
-114.9930926010
 20
146.7488301520
 40
2.2000000020
 50
140.4788036414
 51
219.5211963073
  0
ARC
  8
Layer1$C$L1
 62
     3
 10
-115.7930926025
 20
146.7488301533
 40
0.6000000000
 50
90.0000000000
 51
270.0000000000
  0
ARC
  8
Layer1$C$L1
 62
     3
 10
-100.2605116074
 20
147.4707231823
 40
0.3363731989
 50
188.6115559390
 51
251.7796243098
  0
ARC
  8
Layer1$C$L1
 62
     3
 10
-101.8930926025
 20
148.2202241322
 40
0.3000000000
 50
122.1274951292
 51
180.0000000000
  0
ARC
  8
Layer1$C$L1
 62
     3
 10
-97.9930926025
 20
148.9701686558
 40
0.3000000000
 50
0.0000000000
 51
90.0000000000
  0
ARC
  8
Layer1$C$L1
 62
     3
 10
-101.2930926025
 20
148.9701686558
 40
0.3000000000
 50
90.0000000000
 51
180.0000000000
  0
ARC
  8
Layer1$C$L1
 62
     3
 10
-71.3943714771
 20
149.3488301533
 40
2.0000000000
 50
9.2217794973
 51
90.0000000000
  0
ARC
  8
Layer1$C$L1
 62
     3
 10
-73.9286021315
 20
149.8488301533
 40
1.5000000000
 50
90.0000000000
 51
110.0000000000
  0
ARC
  8
Layer1$C$L1
 62
     3
 10
-96.4930926025
 20
150.1488301533
 40
0.3000000000
 50
6.6155537374E-13
 51
90.0000000000
  0
ARC
  8
Layer1$C$L1
 62
     3
 10
-101.8930926025
 20
150.1488301533
 40
0.3000000000
 50
360.0000000000
 51
450.0000000000
  0
LINE
  8
Layer1$C$L1
  6
CENTER
 62
     3
 10
-36.5530924851
 20
56.3075203627
 11
-36.5530924851
 21
91.3075203627
  0
LINE
  8
Layer1$C$L1
  6
CENTER
 62
     3
 10
-54.0530924851
 20
73.8075203627
 11
-19.0530924851
 21
73.8075203627
  0
LINE
  8
Layer1$C$L1
  6
CENTER
 62
     3
 10
-163.8331104381
 20
55.9075203627
 11
-163.8331104381
 21
91.7075203627
  0
LINE
  8
Layer1$C$L1
  6
CENTER
 62
     3
 10
-145.9331104381
 20
73.8075203627
 11
-181.7331104381
 21
73.8075203627
  0
POLYLINE
  8
Layer1$C$L1
 62
     3
 66
     1
  0
VERTEX
  8
Layer1$C$L1
 62
     3
 10
-166.8676408911
 20
62.6741123413
  0
VERTEX
  8
Layer1$C$L1
 62
     3
 10
-166.8055821710
 20
62.7803071518
  0
VERTEX
  8
Layer1$C$L1
 62
     3
 10
-166.7773751867
 20
62.9007724630
  0
VERTEX
  8
Layer1$C$L1
 62
     3
 10
-166.7652839959
 20
63.0949129107
  0
SEQEND
  8
Layer1$C$L1
 62
     3
  0
POLYLINE
  8
Layer1$C$L1
 62
     3
 66
     1
  0
VERTEX
  8
Layer1$C$L1
 62
     3
 10
-160.7985799852
 20
84.9409283841
  0
VERTEX
  8
Layer1$C$L1
 62
     3
 10
-160.8606387053
 20
84.8347335735
  0
VERTEX
  8
Layer1$C$L1
 62
     3
 10
-160.8888456896
 20
84.7142682624
  0
VERTEX
  8
Layer1$C$L1
 62
     3
 10
-160.9009368804
 20
84.5201278147
  0
SEQEND
  8
Layer1$C$L1
 62
     3
  0
POLYLINE
  8
Layer1$C$L1
 62
     3
 66
     1
  0
VERTEX
  8
Layer1$C$L1
 62
     3
 10
-152.6997024168
 20
70.7729899097
  0
VERTEX
  8
Layer1$C$L1
 62
     3
 10
-152.8058972273
 20
70.8350486299
  0
VERTEX
  8
Layer1$C$L1
 62
     3
 10
-152.9263625385
 20
70.8632556141
  0
VERTEX
  8
Layer1$C$L1
 62
     3
 10
-153.1205029861
 20
70.8753468050
  0
SEQEND
  8
Layer1$C$L1
 62
     3
  0
POLYLINE
  8
Layer1$C$L1
 62
     3
 66
     1
  0
VERTEX
  8
Layer1$C$L1
 62
     3
 10
-174.9665184595
 20
76.8420508157
  0
VERTEX
  8
Layer1$C$L1
 62
     3
 10
-174.8603236490
 20
76.7799920955
  0
VERTEX
  8
Layer1$C$L1
 62
     3
 10
-174.7398583378
 20
76.7517851112
  0
VERTEX
  8
Layer1$C$L1
 62
     3
 10
-174.5457178902
 20
76.7396939204
  0
SEQEND
  8
Layer1$C$L1
 62
     3
  0
POLYLINE
  8
Layer1$C$L1
 62
     3
 66
     1
  0
VERTEX
  8
Layer1$C$L1
 62
     3
 10
-174.9883560914
 20
82.8075203627
  0
VERTEX
  8
Layer1$C$L1
 62
     3
 10
-175.0799942976
 20
82.8017559468
  0
VERTEX
  8
Layer1$C$L1
 62
     3
 10
-175.1522428234
 20
82.7846842224
  0
VERTEX
  8
Layer1$C$L1
 62
     3
 10
-175.2023251985
 20
82.7569612464
  0
VERTEX
  8
Layer1$C$L1
 62
     3
 10
-175.2283167851
 20
82.7196523970
  0
SEQEND
  8
Layer1$C$L1
 62
     3
  0
POLYLINE
  8
Layer1$C$L1
 62
     3
 66
     1
  0
VERTEX
  8
Layer1$C$L1
 62
     3
 10
-166.8518010957
 20
84.9091715176
  0
VERTEX
  8
Layer1$C$L1
 62
     3
 10
-166.6813637990
 20
84.9272278515
  0
VERTEX
  8
Layer1$C$L1
 62
     3
 10
-166.5260305286
 20
84.9976951830
  0
VERTEX
  8
Layer1$C$L1
 62
     3
 10
-166.4373268077
 20
85.0982619484
  0
VERTEX
  8
Layer1$C$L1
 62
     3
 10
-166.3904537741
 20
85.2242379811
  0
SEQEND
  8
Layer1$C$L1
 62
     3
  0
POLYLINE
  8
Layer1$C$L1
 62
     3
 66
     1
  0
VERTEX
  8
Layer1$C$L1
 62
     3
 10
-160.8144197806
 20
62.7058692078
  0
VERTEX
  8
Layer1$C$L1
 62
     3
 10
-160.9848570773
 20
62.6878128739
  0
VERTEX
  8
Layer1$C$L1
 62
     3
 10
-161.1401903477
 20
62.6173455424
  0
VERTEX
  8
Layer1$C$L1
 62
     3
 10
-161.2288940686
 20
62.5167787769
  0
VERTEX
  8
Layer1$C$L1
 62
     3
 10
-161.2757671022
 20
62.3908027443
  0
SEQEND
  8
Layer1$C$L1
 62
     3
  0
POLYLINE
  8
Layer1$C$L1
 62
     3
 66
     1
  0
VERTEX
  8
Layer1$C$L1
 62
     3
 10
-152.7314592833
 20
76.8262110202
  0
VERTEX
  8
Layer1$C$L1
 62
     3
 10
-152.7134029493
 20
76.6557737235
  0
VERTEX
  8
Layer1$C$L1
 62
     3
 10
-152.6429356179
 20
76.5004404532
  0
VERTEX
  8
Layer1$C$L1
 62
     3
 10
-152.5423688524
 20
76.4117367322
  0
VERTEX
  8
Layer1$C$L1
 62
     3
 10
-152.4163928197
 20
76.3648636987
  0
SEQEND
  8
Layer1$C$L1
 62
     3
  0
POLYLINE
  8
Layer1$C$L1
 62
     3
 66
     1
  0
VERTEX
  8
Layer1$C$L1
 62
     3
 10
-174.9347615930
 20
70.7888297051
  0
VERTEX
  8
Layer1$C$L1
 62
     3
 10
-174.9528179270
 20
70.9592670019
  0
VERTEX
  8
Layer1$C$L1
 62
     3
 10
-175.0232852584
 20
71.1146002722
  0
VERTEX
  8
Layer1$C$L1
 62
     3
 10
-175.1238520239
 20
71.2033039932
  0
VERTEX
  8
Layer1$C$L1
 62
     3
 10
-175.2498280565
 20
71.2501770267
  0
SEQEND
  8
Layer1$C$L1
 62
     3
  0
POLYLINE
  8
Layer1$C$L1
 62
     3
 66
     1
  0
VERTEX
  8
Layer1$C$L1
 62
     3
 10
-174.6127833876
 20
82.7075203627
  0
VERTEX
  8
Layer1$C$L1
 62
     3
 10
-174.6257083860
 20
82.7386722301
  0
VERTEX
  8
Layer1$C$L1
 62
     3
 10
-174.6594584418
 20
82.7700158265
  0
VERTEX
  8
Layer1$C$L1
 62
     3
 10
-174.7057466294
 20
82.7918628770
  0
VERTEX
  8
Layer1$C$L1
 62
     3
 10
-174.7800253931
 20
82.8060875728
  0
VERTEX
  8
Layer1$C$L1
 62
     3
 10
-174.8167346123
 20
82.8075203627
  0
SEQEND
  8
Layer1$C$L1
 62
     3
  0
POLYLINE
  8
Layer1$C$L1
 62
     3
 66
     1
  0
VERTEX
  8
Layer1$C$L1
 62
     3
 10
-175.6447552655
 20
82.3891895752
  0
VERTEX
  8
Layer1$C$L1
 62
     3
 10
-175.7165657979
 20
82.4499120739
  0
VERTEX
  8
Layer1$C$L1
 62
     3
 10
-175.7729915771
 20
82.5135269405
  0
VERTEX
  8
Layer1$C$L1
 62
     3
 10
-175.8100686801
 20
82.5753414031
  0
VERTEX
  8
Layer1$C$L1
 62
     3
 10
-175.8235751217
 20
82.6309514163
  0
VERTEX
  8
Layer1$C$L1
 62
     3
 10
-175.8134161184
 20
82.6665011528
  0
VERTEX
  8
Layer1$C$L1
 62
     3
 10
-175.8124856098
 20
82.6678008604
  0
SEQEND
  8
Layer1$C$L1
 62
     3
  0
POLYLINE
  8
Layer1$C$L1
 62
     3
 66
     1
  0
VERTEX
  8
Layer1$C$L1
 62
     3
 10
-167.9331104381
 20
62.5110963583
  0
VERTEX
  8
Layer1$C$L1
 62
     3
 10
-167.9972589398
 20
62.8225037318
  0
VERTEX
  8
Layer1$C$L1
 62
     3
 10
-168.0444798935
 20
63.1659005140
  0
VERTEX
  8
Layer1$C$L1
 62
     3
 10
-168.0733810897
 20
63.5311623808
  0
VERTEX
  8
Layer1$C$L1
 62
     3
 10
-168.0831104381
 20
63.9075203627
  0
VERTEX
  8
Layer1$C$L1
 62
     3
 10
-168.0733810897
 20
64.2838783445
  0
VERTEX
  8
Layer1$C$L1
 62
     3
 10
-168.0444798935
 20
64.6491402114
  0
VERTEX
  8
Layer1$C$L1
 62
     3
 10
-167.9972589398
 20
64.9925369936
  0
VERTEX
  8
Layer1$C$L1
 62
     3
 10
-167.9331104381
 20
65.3039443671
  0
SEQEND
  8
Layer1$C$L1
 62
     3
  0
POLYLINE
  8
Layer1$C$L1
 62
     3
 66
     1
  0
VERTEX
  8
Layer1$C$L1
 62
     3
 10
-168.4331104381
 20
85.1039443671
  0
VERTEX
  8
Layer1$C$L1
 62
     3
 10
-168.3689619365
 20
84.7925369936
  0
VERTEX
  8
Layer1$C$L1
 62
     3
 10
-168.3217409828
 20
84.4491402114
  0
VERTEX
  8
Layer1$C$L1
 62
     3
 10
-168.2928397866
 20
84.0838783445
  0
VERTEX
  8
Layer1$C$L1
 62
     3
 10
-168.2831104381
 20
83.7075203627
  0
VERTEX
  8
Layer1$C$L1
 62
     3
 10
-168.2928397866
 20
83.3311623808
  0
VERTEX
  8
Layer1$C$L1
 62
     3
 10
-168.3217409828
 20
82.9659005140
  0
VERTEX
  8
Layer1$C$L1
 62
     3
 10
-168.3689619365
 20
82.6225037318
  0
VERTEX
  8
Layer1$C$L1
 62
     3
 10
-168.4331104381
 20
82.3110963583
  0
SEQEND
  8
Layer1$C$L1
 62
     3
  0
POLYLINE
  8
Layer1$C$L1
 62
     3
 66
     1
  0
VERTEX
  8
Layer1$C$L1
 62
     3
 10
-172.3366864338
 20
69.7075203627
  0
VERTEX
  8
Layer1$C$L1
 62
     3
 10
-172.6480938072
 20
69.6433718610
  0
VERTEX
  8
Layer1$C$L1
 62
     3
 10
-172.9914905894
 20
69.5961509074
  0
VERTEX
  8
Layer1$C$L1
 62
     3
 10
-173.3567524563
 20
69.5672497111
  0
VERTEX
  8
Layer1$C$L1
 62
     3
 10
-173.7331104381
 20
69.5575203627
  0
VERTEX
  8
Layer1$C$L1
 62
     3
 10
-174.1094684200
 20
69.5672497111
  0
VERTEX
  8
Layer1$C$L1
 62
     3
 10
-174.4747302869
 20
69.5961509074
  0
VERTEX
  8
Layer1$C$L1
 62
     3
 10
-174.8181270691
 20
69.6433718610
  0
VERTEX
  8
Layer1$C$L1
 62
     3
 10
-175.1295344425
 20
69.7075203627
  0
SEQEND
  8
Layer1$C$L1
 62
     3
  0
POLYLINE
  8
Layer1$C$L1
 62
     3
 66
     1
  0
VERTEX
  8
Layer1$C$L1
 62
     3
 10
-168.4331104381
 20
65.3039443671
  0
VERTEX
  8
Layer1$C$L1
 62
     3
 10
-168.3689619365
 20
64.9925369936
  0
VERTEX
  8
Layer1$C$L1
 62
     3
 10
-168.3217409828
 20
64.6491402114
  0
VERTEX
  8
Layer1$C$L1
 62
     3
 10
-168.2928397866
 20
64.2838783445
  0
VERTEX
  8
Layer1$C$L1
 62
     3
 10
-168.2831104381
 20
63.9075203627
  0
VERTEX
  8
Layer1$C$L1
 62
     3
 10
-168.2928397866
 20
63.5311623808
  0
VERTEX
  8
Layer1$C$L1
 62
     3
 10
-168.3217409828
 20
63.1659005140
  0
VERTEX
  8
Layer1$C$L1
 62
     3
 10
-168.3689619365
 20
62.8225037318
  0
VERTEX
  8
Layer1$C$L1
 62
     3
 10
-168.4331104381
 20
62.5110963583
  0
SEQEND
  8
Layer1$C$L1
 62
     3
  0
POLYLINE
  8
Layer1$C$L1
 62
     3
 66
     1
  0
VERTEX
  8
Layer1$C$L1
 62
     3
 10
-167.9331104381
 20
82.3110963583
  0
VERTEX
  8
Layer1$C$L1
 62
     3
 10
-167.9972589398
 20
82.6225037318
  0
VERTEX
  8
Layer1$C$L1
 62
     3
 10
-168.0444798935
 20
82.9659005140
  0
VERTEX
  8
Layer1$C$L1
 62
     3
 10
-168.0733810897
 20
83.3311623808
  0
VERTEX
  8
Layer1$C$L1
 62
     3
 10
-168.0831104381
 20
83.7075203627
  0
VERTEX
  8
Layer1$C$L1
 62
     3
 10
-168.0733810897
 20
84.0838783445
  0
VERTEX
  8
Layer1$C$L1
 62
     3
 10
-168.0444798935
 20
84.4491402114
  0
VERTEX
  8
Layer1$C$L1
 62
     3
 10
-167.9972589398
 20
84.7925369936
  0
VERTEX
  8
Layer1$C$L1
 62
     3
 10
-167.9331104381
 20
85.1039443671
  0
SEQEND
  8
Layer1$C$L1
 62
     3
  0
POLYLINE
  8
Layer1$C$L1
 62
     3
 66
     1
  0
VERTEX
  8
Layer1$C$L1
 62
     3
 10
-175.1295344425
 20
69.2075203627
  0
VERTEX
  8
Layer1$C$L1
 62
     3
 10
-174.8181270691
 20
69.2716688643
  0
VERTEX
  8
Layer1$C$L1
 62
     3
 10
-174.4747302869
 20
69.3188898180
  0
VERTEX
  8
Layer1$C$L1
 62
     3
 10
-174.1094684200
 20
69.3477910142
  0
VERTEX
  8
Layer1$C$L1
 62
     3
 10
-173.7331104381
 20
69.3575203627
  0
VERTEX
  8
Layer1$C$L1
 62
     3
 10
-173.3567524563
 20
69.3477910142
  0
VERTEX
  8
Layer1$C$L1
 62
     3
 10
-172.9914905894
 20
69.3188898180
  0
VERTEX
  8
Layer1$C$L1
 62
     3
 10
-172.6480938072
 20
69.2716688643
  0
VERTEX
  8
Layer1$C$L1
 62
     3
 10
-172.3366864338
 20
69.2075203627
  0
SEQEND
  8
Layer1$C$L1
 62
     3
  0
POLYLINE
  8
Layer1$C$L1
 62
     3
 66
     1
  0
VERTEX
  8
Layer1$C$L1
 62
     3
 10
-159.7331104381
 20
85.1039443671
  0
VERTEX
  8
Layer1$C$L1
 62
     3
 10
-159.6689619365
 20
84.7925369936
  0
VERTEX
  8
Layer1$C$L1
 62
     3
 10
-159.6217409828
 20
84.4491402114
  0
VERTEX
  8
Layer1$C$L1
 62
     3
 10
-159.5928397866
 20
84.0838783445
  0
VERTEX
  8
Layer1$C$L1
 62
     3
 10
-159.5831104381
 20
83.7075203627
  0
VERTEX
  8
Layer1$C$L1
 62
     3
 10
-159.5928397866
 20
83.3311623808
  0
VERTEX
  8
Layer1$C$L1
 62
     3
 10
-159.6217409828
 20
82.9659005140
  0
VERTEX
  8
Layer1$C$L1
 62
     3
 10
-159.6689619365
 20
82.6225037318
  0
VERTEX
  8
Layer1$C$L1
 62
     3
 10
-159.7331104381
 20
82.3110963583
  0
SEQEND
  8
Layer1$C$L1
 62
     3
  0
POLYLINE
  8
Layer1$C$L1
 62
     3
 66
     1
  0
VERTEX
  8
Layer1$C$L1
 62
     3
 10
-159.7331104381
 20
65.3039443671
  0
VERTEX
  8
Layer1$C$L1
 62
     3
 10
-159.6689619365
 20
64.9925369936
  0
VERTEX
  8
Layer1$C$L1
 62
     3
 10
-159.6217409828
 20
64.6491402114
  0
VERTEX
  8
Layer1$C$L1
 62
     3
 10
-159.5928397866
 20
64.2838783445
  0
VERTEX
  8
Layer1$C$L1
 62
     3
 10
-159.5831104381
 20
63.9075203627
  0
VERTEX
  8
Layer1$C$L1
 62
     3
 10
-159.5928397866
 20
63.5311623808
  0
VERTEX
  8
Layer1$C$L1
 62
     3
 10
-159.6217409828
 20
63.1659005140
  0
VERTEX
  8
Layer1$C$L1
 62
     3
 10
-159.6689619365
 20
62.8225037318
  0
VERTEX
  8
Layer1$C$L1
 62
     3
 10
-159.7331104381
 20
62.5110963583
  0
SEQEND
  8
Layer1$C$L1
 62
     3
  0
POLYLINE
  8
Layer1$C$L1
 62
     3
 66
     1
  0
VERTEX
  8
Layer1$C$L1
 62
     3
 10
-159.2331104381
 20
82.3110963583
  0
VERTEX
  8
Layer1$C$L1
 62
     3
 10
-159.2972589398
 20
82.6225037318
  0
VERTEX
  8
Layer1$C$L1
 62
     3
 10
-159.3444798935
 20
82.9659005140
  0
VERTEX
  8
Layer1$C$L1
 62
     3
 10
-159.3733810897
 20
83.3311623808
  0
VERTEX
  8
Layer1$C$L1
 62
     3
 10
-159.3831104381
 20
83.7075203627
  0
VERTEX
  8
Layer1$C$L1
 62
     3
 10
-159.3733810897
 20
84.0838783445
  0
VERTEX
  8
Layer1$C$L1
 62
     3
 10
-159.3444798935
 20
84.4491402114
  0
VERTEX
  8
Layer1$C$L1
 62
     3
 10
-159.2972589398
 20
84.7925369936
  0
VERTEX
  8
Layer1$C$L1
 62
     3
 10
-159.2331104381
 20
85.1039443671
  0
SEQEND
  8
Layer1$C$L1
 62
     3
  0
POLYLINE
  8
Layer1$C$L1
 62
     3
 66
     1
  0
VERTEX
  8
Layer1$C$L1
 62
     3
 10
-159.2331104381
 20
62.5110963583
  0
VERTEX
  8
Layer1$C$L1
 62
     3
 10
-159.2972589398
 20
62.8225037318
  0
VERTEX
  8
Layer1$C$L1
 62
     3
 10
-159.3444798935
 20
63.1659005140
  0
VERTEX
  8
Layer1$C$L1
 62
     3
 10
-159.3733810897
 20
63.5311623808
  0
VERTEX
  8
Layer1$C$L1
 62
     3
 10
-159.3831104381
 20
63.9075203627
  0
VERTEX
  8
Layer1$C$L1
 62
     3
 10
-159.3733810897
 20
64.2838783445
  0
VERTEX
  8
Layer1$C$L1
 62
     3
 10
-159.3444798935
 20
64.6491402114
  0
VERTEX
  8
Layer1$C$L1
 62
     3
 10
-159.2972589398
 20
64.9925369936
  0
VERTEX
  8
Layer1$C$L1
 62
     3
 10
-159.2331104381
 20
65.3039443671
  0
SEQEND
  8
Layer1$C$L1
 62
     3
  0
POLYLINE
  8
Layer1$C$L1
 62
     3
 66
     1
  0
VERTEX
  8
Layer1$C$L1
 62
     3
 10
-152.5366864338
 20
78.4075203627
  0
VERTEX
  8
Layer1$C$L1
 62
     3
 10
-152.8480938072
 20
78.3433718610
  0
VERTEX
  8
Layer1$C$L1
 62
     3
 10
-153.1914905894
 20
78.2961509074
  0
VERTEX
  8
Layer1$C$L1
 62
     3
 10
-153.5567524563
 20
78.2672497111
  0
VERTEX
  8
Layer1$C$L1
 62
     3
 10
-153.9331104381
 20
78.2575203627
  0
VERTEX
  8
Layer1$C$L1
 62
     3
 10
-154.3094684200
 20
78.2672497111
  0
VERTEX
  8
Layer1$C$L1
 62
     3
 10
-154.6747302869
 20
78.2961509074
  0
VERTEX
  8
Layer1$C$L1
 62
     3
 10
-155.0181270691
 20
78.3433718610
  0
VERTEX
  8
Layer1$C$L1
 62
     3
 10
-155.3295344425
 20
78.4075203627
  0
SEQEND
  8
Layer1$C$L1
 62
     3
  0
POLYLINE
  8
Layer1$C$L1
 62
     3
 66
     1
  0
VERTEX
  8
Layer1$C$L1
 62
     3
 10
-155.3295344425
 20
77.9075203627
  0
VERTEX
  8
Layer1$C$L1
 62
     3
 10
-155.0181270691
 20
77.9716688643
  0
VERTEX
  8
Layer1$C$L1
 62
     3
 10
-154.6747302869
 20
78.0188898180
  0
VERTEX
  8
Layer1$C$L1
 62
     3
 10
-154.3094684200
 20
78.0477910142
  0
VERTEX
  8
Layer1$C$L1
 62
     3
 10
-153.9331104381
 20
78.0575203627
  0
VERTEX
  8
Layer1$C$L1
 62
     3
 10
-153.5567524563
 20
78.0477910142
  0
VERTEX
  8
Layer1$C$L1
 62
     3
 10
-153.1914905894
 20
78.0188898180
  0
VERTEX
  8
Layer1$C$L1
 62
     3
 10
-152.8480938072
 20
77.9716688643
  0
VERTEX
  8
Layer1$C$L1
 62
     3
 10
-152.5366864338
 20
77.9075203627
  0
SEQEND
  8
Layer1$C$L1
 62
     3
  0
POLYLINE
  8
Layer1$C$L1
 62
     3
 66
     1
  0
VERTEX
  8
Layer1$C$L1
 62
     3
 10
-152.5366864338
 20
69.7075203627
  0
VERTEX
  8
Layer1$C$L1
 62
     3
 10
-152.8480938072
 20
69.6433718610
  0
VERTEX
  8
Layer1$C$L1
 62
     3
 10
-153.1914905894
 20
69.5961509074
  0
VERTEX
  8
Layer1$C$L1
 62
     3
 10
-153.5567524563
 20
69.5672497111
  0
VERTEX
  8
Layer1$C$L1
 62
     3
 10
-153.9331104381
 20
69.5575203627
  0
VERTEX
  8
Layer1$C$L1
 62
     3
 10
-154.3094684200
 20
69.5672497111
  0
VERTEX
  8
Layer1$C$L1
 62
     3
 10
-154.6747302869
 20
69.5961509074
  0
VERTEX
  8
Layer1$C$L1
 62
     3
 10
-155.0181270691
 20
69.6433718610
  0
VERTEX
  8
Layer1$C$L1
 62
     3
 10
-155.3295344425
 20
69.7075203627
  0
SEQEND
  8
Layer1$C$L1
 62
     3
  0
POLYLINE
  8
Layer1$C$L1
 62
     3
 66
     1
  0
VERTEX
  8
Layer1$C$L1
 62
     3
 10
-155.3295344425
 20
69.2075203627
  0
VERTEX
  8
Layer1$C$L1
 62
     3
 10
-155.0181270691
 20
69.2716688643
  0
VERTEX
  8
Layer1$C$L1
 62
     3
 10
-154.6747302869
 20
69.3188898180
  0
VERTEX
  8
Layer1$C$L1
 62
     3
 10
-154.3094684200
 20
69.3477910142
  0
VERTEX
  8
Layer1$C$L1
 62
     3
 10
-153.9331104381
 20
69.3575203627
  0
VERTEX
  8
Layer1$C$L1
 62
     3
 10
-153.5567524563
 20
69.3477910142
  0
VERTEX
  8
Layer1$C$L1
 62
     3
 10
-153.1914905894
 20
69.3188898180
  0
VERTEX
  8
Layer1$C$L1
 62
     3
 10
-152.8480938072
 20
69.2716688643
  0
VERTEX
  8
Layer1$C$L1
 62
     3
 10
-152.5366864338
 20
69.2075203627
  0
SEQEND
  8
Layer1$C$L1
 62
     3
  0
POLYLINE
  8
Layer1$C$L1
 62
     3
 66
     1
  0
VERTEX
  8
Layer1$C$L1
 62
     3
 10
-172.3366864338
 20
78.4075203627
  0
VERTEX
  8
Layer1$C$L1
 62
     3
 10
-172.6480938072
 20
78.3433718610
  0
VERTEX
  8
Layer1$C$L1
 62
     3
 10
-172.9914905894
 20
78.2961509074
  0
VERTEX
  8
Layer1$C$L1
 62
     3
 10
-173.3567524563
 20
78.2672497111
  0
VERTEX
  8
Layer1$C$L1
 62
     3
 10
-173.7331104381
 20
78.2575203627
  0
VERTEX
  8
Layer1$C$L1
 62
     3
 10
-174.1094684200
 20
78.2672497111
  0
VERTEX
  8
Layer1$C$L1
 62
     3
 10
-174.4747302869
 20
78.2961509074
  0
VERTEX
  8
Layer1$C$L1
 62
     3
 10
-174.8181270691
 20
78.3433718610
  0
VERTEX
  8
Layer1$C$L1
 62
     3
 10
-175.1295344425
 20
78.4075203627
  0
SEQEND
  8
Layer1$C$L1
 62
     3
  0
POLYLINE
  8
Layer1$C$L1
 62
     3
 66
     1
  0
VERTEX
  8
Layer1$C$L1
 62
     3
 10
-175.1295344425
 20
77.9075203627
  0
VERTEX
  8
Layer1$C$L1
 62
     3
 10
-174.8181270691
 20
77.9716688643
  0
VERTEX
  8
Layer1$C$L1
 62
     3
 10
-174.4747302869
 20
78.0188898180
  0
VERTEX
  8
Layer1$C$L1
 62
     3
 10
-174.1094684200
 20
78.0477910142
  0
VERTEX
  8
Layer1$C$L1
 62
     3
 10
-173.7331104381
 20
78.0575203627
  0
VERTEX
  8
Layer1$C$L1
 62
     3
 10
-173.3567524563
 20
78.0477910142
  0
VERTEX
  8
Layer1$C$L1
 62
     3
 10
-172.9914905894
 20
78.0188898180
  0
VERTEX
  8
Layer1$C$L1
 62
     3
 10
-172.6480938072
 20
77.9716688643
  0
VERTEX
  8
Layer1$C$L1
 62
     3
 10
-172.3366864338
 20
77.9075203627
  0
SEQEND
  8
Layer1$C$L1
 62
     3
  0
LINE
  8
Layer1$C$L1
 62
     3
 10
-177.4331104381
 20
67.7206492453
 11
-177.4331104381
 21
79.8943914801
  0
LINE
  8
Layer1$C$L1
 62
     3
 10
-177.0331104381
 20
68.9075203627
 11
-177.0331104381
 21
78.7075203627
  0
LINE
  8
Layer1$C$L1
 62
     3
 10
-177.0331104381
 20
68.9075203627
 11
-176.7331104381
 21
68.9075203627
  0
LINE
  8
Layer1$C$L1
 62
     3
 10
-177.0331104381
 20
68.9075203627
 11
-176.7331104381
 21
69.2075203627
  0
LINE
  8
Layer1$C$L1
 62
     3
 10
-177.0331104381
 20
78.7075203627
 11
-176.7331104381
 21
78.4075203627
  0
LINE
  8
Layer1$C$L1
 62
     3
 10
-177.0331104381
 20
78.7075203627
 11
-176.7331104381
 21
78.7075203627
  0
LINE
  8
Layer1$C$L1
 62
     3
 10
-176.7331104381
 20
78.4075203627
 11
-171.8331104381
 21
78.4075203627
  0
LINE
  8
Layer1$C$L1
 62
     3
 10
-176.7331104381
 20
78.4075203627
 11
-176.7331104381
 21
69.2075203627
  0
LINE
  8
Layer1$C$L1
 62
     3
 10
-176.7331104381
 20
79.7430068634
 11
-176.4331104381
 21
79.6769325990
  0
LINE
  8
Layer1$C$L1
 62
     3
 10
-176.7331104381
 20
78.7075203627
 11
-176.4331104381
 21
78.4075203627
  0
LINE
  8
Layer1$C$L1
 62
     3
 10
-176.7331104381
 20
68.9075203627
 11
-176.7331104381
 21
67.8720338620
  0
LINE
  8
Layer1$C$L1
 62
     3
 10
-176.7331104381
 20
68.9075203627
 11
-176.4331104381
 21
69.2075203627
  0
LINE
  8
Layer1$C$L1
 62
     3
 10
-176.7331104381
 20
79.7430068634
 11
-176.7331104381
 21
78.7075203627
  0
LINE
  8
Layer1$C$L1
 62
     3
 10
-176.7331104381
 20
69.2075203627
 11
-171.8331104381
 21
69.2075203627
  0
LINE
  8
Layer1$C$L1
 62
     3
 10
-176.7331104381
 20
67.8720338620
 11
-176.4331104381
 21
67.9381081264
  0
LINE
  8
Layer1$C$L1
 62
     3
 10
-176.7331104381
 20
75.6075203627
 11
-176.2331104381
 21
75.1075203627
  0
LINE
  8
Layer1$C$L1
 62
     3
 10
-176.7331104381
 20
72.0075203627
 11
-176.2331104381
 21
72.5075203627
  0
LINE
  8
Layer1$C$L1
 62
     3
 10
-176.7331104381
 20
72.0075203627
 11
-172.8553052931
 21
72.0075203627
  0
LINE
  8
Layer1$C$L1
 62
     3
 10
-176.7331104381
 20
75.6075203627
 11
-172.8553052931
 21
75.6075203627
  0
LINE
  8
Layer1$C$L1
 62
     3
 10
-176.4331104381
 20
79.6769325990
 11
-176.4331104381
 21
78.4075203627
  0
LINE
  8
Layer1$C$L1
 62
     3
 10
-176.4331104381
 20
69.2075203627
 11
-176.4331104381
 21
67.9381081264
  0
LINE
  8
Layer1$C$L1
 62
     3
 10
-176.2737695847
 20
65.6075203627
 11
-172.5331104381
 21
65.6075203627
  0
LINE
  8
Layer1$C$L1
 62
     3
 10
-176.2737695847
 20
82.0075203627
 11
-172.5331104381
 21
82.0075203627
  0
LINE
  8
Layer1$C$L1
 62
     3
 10
-176.2331104381
 20
75.1075203627
 11
-172.4354357052
 21
75.1075203627
  0
LINE
  8
Layer1$C$L1
 62
     3
 10
-176.2331104381
 20
72.5075203627
 11
-172.4354357052
 21
72.5075203627
  0
LINE
  8
Layer1$C$L1
 62
     3
 10
-176.2331104381
 20
75.1075203627
 11
-176.2331104381
 21
72.5075203627
  0
LINE
  8
Layer1$C$L1
 62
     3
 10
-175.8908880111
 20
66.3075203627
 11
-171.6573745069
 21
66.3075203627
  0
LINE
  8
Layer1$C$L1
 62
     3
 10
-175.8908880111
 20
66.3075203627
 11
-175.7230221283
 21
66.6075203627
  0
LINE
  8
Layer1$C$L1
 62
     3
 10
-175.8908880111
 20
81.3075203627
 11
-171.6573745069
 21
81.3075203627
  0
LINE
  8
Layer1$C$L1
 62
     3
 10
-175.8908880111
 20
81.3075203627
 11
-175.7230221283
 21
81.0075203627
  0
LINE
  8
Layer1$C$L1
 62
     3
 10
-175.7230221283
 20
81.0075203627
 11
-171.5331104381
 21
81.0075203627
  0
LINE
  8
Layer1$C$L1
 62
     3
 10
-175.7230221283
 20
66.6075203627
 11
-171.5331104381
 21
66.6075203627
  0
LINE
  8
Layer1$C$L1
 62
     3
 10
-175.6447585560
 20
82.3891850462
 11
-175.3947185701
 21
82.2075203627
  0
LINE
  8
Layer1$C$L1
 62
     3
 10
-175.3947185701
 20
82.2075203627
 11
-175.2331104381
 21
82.7048990499
  0
LINE
  8
Layer1$C$L1
 62
     3
 10
-175.3947185701
 20
82.2075203627
 11
-175.2331104381
 21
82.2075203627
  0
LINE
  8
Layer1$C$L1
 62
     3
 10
-175.2498280565
 20
71.3852055111
 11
-173.0564486947
 21
71.3852055111
  0
LINE
  8
Layer1$C$L1
 62
     3
 10
-175.2498280565
 20
71.3852055111
 11
-175.2498280565
 21
71.2501770267
  0
LINE
  8
Layer1$C$L1
 62
     3
 10
-175.2331104381
 20
64.9075203627
 11
-175.2331104381
 21
65.6075203627
  0
LINE
  8
Layer1$C$L1
 62
     3
 10
-175.2331104381
 20
64.9075203627
 11
-173.7331104381
 21
64.9075203627
  0
LINE
  8
Layer1$C$L1
 62
     3
 10
-175.2331104381
 20
82.0075203627
 11
-175.2331104381
 21
82.7075203627
  0
LINE
  8
Layer1$C$L1
 62
     3
 10
-175.2331104381
 20
82.7075203627
 11
-173.7331104381
 21
82.7075203627
  0
LINE
  8
Layer1$C$L1
 62
     3
 10
-175.2322587220
 20
82.7075203627
 11
-175.2283167851
 21
82.7196523970
  0
LINE
  8
Layer1$C$L1
 62
     3
 10
-175.1331104381
 20
77.9075203627
 11
-172.3331104381
 21
77.9075203627
  0
LINE
  8
Layer1$C$L1
 62
     3
 10
-175.1331104381
 20
77.8575203627
 11
-175.1331104381
 21
78.4075203627
  0
LINE
  8
Layer1$C$L1
 62
     3
 10
-175.1331104381
 20
69.2075203627
 11
-175.1331104381
 21
69.7575203627
  0
LINE
  8
Layer1$C$L1
 62
     3
 10
-175.1331104381
 20
77.8575203627
 11
-172.3331104381
 21
77.8575203627
  0
LINE
  8
Layer1$C$L1
 62
     3
 10
-175.1331104381
 20
69.7075203627
 11
-172.3331104381
 21
69.7075203627
  0
LINE
  8
Layer1$C$L1
 62
     3
 10
-175.1331104381
 20
69.7575203627
 11
-172.3331104381
 21
69.7575203627
  0
LINE
  8
Layer1$C$L1
 62
     3
 10
-174.9883560914
 20
82.8075203627
 11
-174.8167346123
 21
82.8075203627
  0
LINE
  8
Layer1$C$L1
 62
     3
 10
-174.9347615930
 20
70.7888297051
 11
-174.8018168816
 21
70.7888297051
  0
LINE
  8
Layer1$C$L1
 62
     3
 10
-174.8018168816
 20
71.1188993336
 11
-173.0564486947
 21
71.1188993336
  0
LINE
  8
Layer1$C$L1
 62
     3
 10
-174.8018168816
 20
71.1188993336
 11
-174.8018168816
 21
70.7888297051
  0
LINE
  8
Layer1$C$L1
 62
     3
 10
-174.5457178902
 20
76.7396939204
 11
-174.5457178902
 21
76.4894881765
  0
LINE
  8
Layer1$C$L1
 62
     3
 10
-173.7331104381
 20
82.7075203627
 11
-173.7331104381
 21
82.0075203627
  0
LINE
  8
Layer1$C$L1
 62
     3
 10
-173.7331104381
 20
65.6075203627
 11
-173.7331104381
 21
64.9075203627
  0
LINE
  8
Layer1$C$L1
 62
     3
 10
-173.2719431937
 20
77.6040410358
 11
-173.2719431937
 21
76.7169479437
  0
LINE
  8
Layer1$C$L1
 62
     3
 10
-173.2719431937
 20
77.6040410358
 11
-173.0566988584
 21
77.6040410358
  0
LINE
  8
Layer1$C$L1
 62
     3
 10
-173.2378242286
 20
76.4439962230
 11
-173.0566988584
 21
76.4439962230
  0
LINE
  8
Layer1$C$L1
 62
     3
 10
-173.2331104381
 20
76.1075203627
 11
-173.0331104381
 21
76.1075203627
  0
LINE
  8
Layer1$C$L1
 62
     3
 10
-173.2331104381
 20
75.9075203627
 11
-173.0331104381
 21
75.9075203627
  0
LINE
  8
Layer1$C$L1
 62
     3
 10
-173.2331104381
 20
76.1075203627
 11
-173.2331104381
 21
75.9075203627
  0
LINE
  8
Layer1$C$L1
 62
     3
 10
-173.2331104381
 20
70.0075203627
 11
-173.0331104381
 21
70.0075203627
  0
LINE
  8
Layer1$C$L1
 62
     3
 10
-173.2331104381
 20
70.2075203627
 11
-173.2331104381
 21
70.0075203627
  0
LINE
  8
Layer1$C$L1
 62
     3
 10
-173.2331104381
 20
70.2075203627
 11
-173.0331104381
 21
70.2075203627
  0
LINE
  8
Layer1$C$L1
 62
     3
 10
-173.0566988584
 20
77.6040410358
 11
-173.0566988584
 21
76.4439962230
  0
LINE
  8
Layer1$C$L1
 62
     3
 10
-173.0564486947
 20
71.3852055111
 11
-173.0564486947
 21
71.1188993336
  0
LINE
  8
Layer1$C$L1
 62
     3
 10
-173.0331104381
 20
75.9075203627
 11
-173.0331104381
 21
76.1075203627
  0
LINE
  8
Layer1$C$L1
 62
     3
 10
-173.0331104381
 20
70.0075203627
 11
-173.0331104381
 21
70.2075203627
  0
LINE
  8
Layer1$C$L1
 62
     3
 10
-172.8553052931
 20
75.6075203627
 11
-172.4354357052
 21
75.1075203627
  0
LINE
  8
Layer1$C$L1
 62
     3
 10
-172.8553052931
 20
72.0075203627
 11
-172.4354357052
 21
72.5075203627
  0
LINE
  8
Layer1$C$L1
 62
     3
 10
-172.5331104381
 20
65.6075203627
 11
-172.5331104381
 21
61.7112399427
  0
LINE
  8
Layer1$C$L1
 62
     3
 10
-172.5331104381
 20
82.0075203627
 11
-172.0331104381
 21
82.5075203627
  0
LINE
  8
Layer1$C$L1
 62
     3
 10
-172.4129632635
 20
85.6166746718
 11
-172.0331104381
 21
85.0938521106
  0
LINE
  8
Layer1$C$L1
 62
     3
 10
-172.3331104381
 20
77.8575203627
 11
-172.3331104381
 21
78.4075203627
  0
LINE
  8
Layer1$C$L1
 62
     3
 10
-172.3331104381
 20
69.2075203627
 11
-172.3331104381
 21
69.7575203627
  0
LINE
  8
Layer1$C$L1
 62
     3
 10
-172.1352224265
 20
86.1802701190
 11
-172.0331104381
 21
86.2430210290
  0
LINE
  8
Layer1$C$L1
 62
     3
 10
-172.1331104381
 20
62.7075203627
 11
-171.3331104381
 21
62.7075203627
  0
LINE
  8
Layer1$C$L1
 62
     3
 10
-172.1331104381
 20
62.7075203627
 11
-172.1331104381
 21
65.2075203627
  0
LINE
  8
Layer1$C$L1
 62
     3
 10
-172.1331104381
 20
65.2075203627
 11
-171.8331104381
 21
64.9075203627
  0
LINE
  8
Layer1$C$L1
 62
     3
 10
-172.1331104381
 20
65.2075203627
 11
-171.3331104381
 21
65.2075203627
  0
LINE
  8
Layer1$C$L1
 62
     3
 10
-172.1331104381
 20
62.7075203627
 11
-171.8331104381
 21
63.0075203627
  0
LINE
  8
Layer1$C$L1
 62
     3
 10
-172.0447371382
 20
82.5579024652
 11
-172.0331104381
 21
82.5418996855
  0
LINE
  8
Layer1$C$L1
 62
     3
 10
-172.0331104381
 20
86.2481795092
 11
-172.0331104381
 21
82.5075203627
  0
LINE
  8
Layer1$C$L1
 62
     3
 10
-171.8331104381
 20
78.4075203627
 11
-171.0331104381
 21
77.6075203627
  0
LINE
  8
Layer1$C$L1
 62
     3
 10
-171.8331104381
 20
64.9075203627
 11
-171.8331104381
 21
63.0075203627
  0
LINE
  8
Layer1$C$L1
 62
     3
 10
-171.8331104381
 20
63.0075203627
 11
-171.0331104381
 21
63.0075203627
  0
LINE
  8
Layer1$C$L1
 62
     3
 10
-171.8331104381
 20
64.9075203627
 11
-171.0331104381
 21
64.9075203627
  0
LINE
  8
Layer1$C$L1
 62
     3
 10
-171.8331104381
 20
69.2075203627
 11
-171.0331104381
 21
70.0075203627
  0
LINE
  8
Layer1$C$L1
 62
     3
 10
-171.7331104381
 20
63.1075203627
 11
-171.0331104381
 21
63.1075203627
  0
LINE
  8
Layer1$C$L1
 62
     3
 10
-171.7331104381
 20
64.1075203627
 11
-171.0331104381
 21
64.1075203627
  0
LINE
  8
Layer1$C$L1
 62
     3
 10
-171.7331104381
 20
63.1075203627
 11
-171.7331104381
 21
64.1075203627
  0
LINE
  8
Layer1$C$L1
 62
     3
 10
-171.6573745069
 20
81.3075203627
 11
-171.3331104381
 21
81.6317844314
  0
LINE
  8
Layer1$C$L1
 62
     3
 10
-171.6573745069
 20
81.3075203627
 11
-171.5331104381
 21
81.0075203627
  0
LINE
  8
Layer1$C$L1
 62
     3
 10
-171.6573745069
 20
66.3075203627
 11
-171.3331104381
 21
65.9832562940
  0
LINE
  8
Layer1$C$L1
 62
     3
 10
-171.6573745069
 20
66.3075203627
 11
-171.5331104381
 21
66.6075203627
  0
LINE
  8
Layer1$C$L1
 62
     3
 10
-171.5331104381
 20
66.6075203627
 11
-171.0331104381
 21
66.1075203627
  0
LINE
  8
Layer1$C$L1
 62
     3
 10
-171.5331104381
 20
81.0075203627
 11
-171.0331104381
 21
81.5075203627
  0
LINE
  8
Layer1$C$L1
 62
     3
 10
-171.3331104381
 20
61.7497427897
 11
-171.3331104381
 21
62.7075203627
  0
LINE
  8
Layer1$C$L1
 62
     3
 10
-171.3331104381
 20
65.2075203627
 11
-171.3331104381
 21
65.9832562940
  0
LINE
  8
Layer1$C$L1
 62
     3
 10
-171.3331104381
 20
61.7497427897
 11
-171.0331104381
 21
61.9176086725
  0
LINE
  8
Layer1$C$L1
 62
     3
 10
-171.3331104381
 20
65.9832562940
 11
-171.0331104381
 21
66.1075203627
  0
LINE
  8
Layer1$C$L1
 62
     3
 10
-171.3331104381
 20
62.7075203627
 11
-171.0331104381
 21
63.0075203627
  0
LINE
  8
Layer1$C$L1
 62
     3
 10
-171.3331104381
 20
81.6317844314
 11
-171.0331104381
 21
81.5075203627
  0
LINE
  8
Layer1$C$L1
 62
     3
 10
-171.3331104381
 20
81.6317844314
 11
-171.3331104381
 21
85.8652979357
  0
LINE
  8
Layer1$C$L1
 62
     3
 10
-171.3331104381
 20
65.2075203627
 11
-171.0331104381
 21
64.9075203627
  0
LINE
  8
Layer1$C$L1
 62
     3
 10
-171.3331104381
 20
85.8652979357
 11
-171.0331104381
 21
85.6974320529
  0
LINE
  8
Layer1$C$L1
 62
     3
 10
-171.0331104381
 20
77.6075203627
 11
-171.0331104381
 21
70.0075203627
  0
LINE
  8
Layer1$C$L1
 62
     3
 10
-171.0331104381
 20
66.1075203627
 11
-171.0331104381
 21
64.1075203627
  0
LINE
  8
Layer1$C$L1
 62
     3
 10
-171.0331104381
 20
63.1075203627
 11
-171.0331104381
 21
61.9176086725
  0
LINE
  8
Layer1$C$L1
 62
     3
 10
-171.0331104381
 20
85.6974320529
 11
-171.0331104381
 21
81.5075203627
  0
LINE
  8
Layer1$C$L1
 62
     3
 10
-169.9199815556
 20
87.4075203627
 11
-157.7462393207
 21
87.4075203627
  0
LINE
  8
Layer1$C$L1
 62
     3
 10
-169.9199815556
 20
60.2075203627
 11
-157.7462393207
 21
60.2075203627
  0
LINE
  8
Layer1$C$L1
 62
     3
 10
-169.7685969388
 20
60.9075203627
 11
-168.7331104381
 21
60.9075203627
  0
LINE
  8
Layer1$C$L1
 62
     3
 10
-169.7685969388
 20
86.7075203627
 11
-168.7331104381
 21
86.7075203627
  0
LINE
  8
Layer1$C$L1
 62
     3
 10
-169.7685969388
 20
86.7075203627
 11
-169.7025226745
 21
86.4075203627
  0
LINE
  8
Layer1$C$L1
 62
     3
 10
-169.7685969388
 20
60.9075203627
 11
-169.7025226745
 21
61.2075203627
  0
LINE
  8
Layer1$C$L1
 62
     3
 10
-169.7025226745
 20
61.2075203627
 11
-168.4331104381
 21
61.2075203627
  0
LINE
  8
Layer1$C$L1
 62
     3
 10
-169.7025226745
 20
86.4075203627
 11
-168.4331104381
 21
86.4075203627
  0
LINE
  8
Layer1$C$L1
 62
     3
 10
-168.8331104381
 20
71.7679125572
 11
-168.8331104381
 21
75.8471281681
  0
LINE
  8
Layer1$C$L1
 62
     3
 10
-168.8331104381
 20
71.7679125572
 11
-167.6331104381
 21
72.0186659807
  0
LINE
  8
Layer1$C$L1
 62
     3
 10
-168.8331104381
 20
75.8471281681
 11
-167.6331104381
 21
75.5963747447
  0
LINE
  8
Layer1$C$L1
 62
     3
 10
-168.7331104381
 20
86.7075203627
 11
-168.4331104381
 21
86.4075203627
  0
LINE
  8
Layer1$C$L1
 62
     3
 10
-168.7331104381
 20
60.6075203627
 11
-168.7331104381
 21
60.9075203627
  0
LINE
  8
Layer1$C$L1
 62
     3
 10
-168.7331104381
 20
86.7075203627
 11
-168.7331104381
 21
87.0075203627
  0
LINE
  8
Layer1$C$L1
 62
     3
 10
-168.7331104381
 20
87.0075203627
 11
-168.4331104381
 21
86.7075203627
  0
LINE
  8
Layer1$C$L1
 62
     3
 10
-168.7331104381
 20
60.9075203627
 11
-168.4331104381
 21
61.2075203627
  0
LINE
  8
Layer1$C$L1
 62
     3
 10
-168.7331104381
 20
60.6075203627
 11
-168.4331104381
 21
60.9075203627
  0
LINE
  8
Layer1$C$L1
 62
     3
 10
-168.7331104381
 20
87.0075203627
 11
-158.9331104381
 21
87.0075203627
  0
LINE
  8
Layer1$C$L1
 62
     3
 10
-168.7331104381
 20
60.6075203627
 11
-158.9331104381
 21
60.6075203627
  0
LINE
  8
Layer1$C$L1
 62
     3
 10
-168.4331104381
 20
60.9075203627
 11
-168.4331104381
 21
65.8075203627
  0
LINE
  8
Layer1$C$L1
 62
     3
 10
-168.4331104381
 20
65.8075203627
 11
-167.6331104381
 21
66.6075203627
  0
LINE
  8
Layer1$C$L1
 62
     3
 10
-168.4331104381
 20
81.8075203627
 11
-168.4331104381
 21
86.7075203627
  0
LINE
  8
Layer1$C$L1
 62
     3
 10
-168.4331104381
 20
82.3075203627
 11
-167.8831104381
 21
82.3075203627
  0
LINE
  8
Layer1$C$L1
 62
     3
 10
-168.4331104381
 20
60.9075203627
 11
-159.2331104381
 21
60.9075203627
  0
LINE
  8
Layer1$C$L1
 62
     3
 10
-168.4331104381
 20
86.7075203627
 11
-159.2331104381
 21
86.7075203627
  0
LINE
  8
Layer1$C$L1
 62
     3
 10
-168.4331104381
 20
85.1075203627
 11
-167.8831104381
 21
85.1075203627
  0
LINE
  8
Layer1$C$L1
 62
     3
 10
-168.4331104381
 20
65.3075203627
 11
-167.8831104381
 21
65.3075203627
  0
LINE
  8
Layer1$C$L1
 62
     3
 10
-168.4331104381
 20
62.5075203627
 11
-167.8831104381
 21
62.5075203627
  0
LINE
  8
Layer1$C$L1
 62
     3
 10
-168.4331104381
 20
81.8075203627
 11
-167.6331104381
 21
81.0075203627
  0
LINE
  8
Layer1$C$L1
 62
     3
 10
-167.9331104381
 20
85.1075203627
 11
-167.9331104381
 21
82.3075203627
  0
LINE
  8
Layer1$C$L1
 62
     3
 10
-167.9331104381
 20
65.3075203627
 11
-167.9331104381
 21
62.5075203627
  0
LINE
  8
Layer1$C$L1
 62
     3
 10
-167.8831104381
 20
62.5075203627
 11
-167.8831104381
 21
65.3075203627
  0
LINE
  8
Layer1$C$L1
 62
     3
 10
-167.8831104381
 20
82.3075203627
 11
-167.8831104381
 21
85.1075203627
  0
LINE
  8
Layer1$C$L1
 62
     3
 10
-167.6331104381
 20
81.0075203627
 11
-160.0331104381
 21
81.0075203627
  0
LINE
  8
Layer1$C$L1
 62
     3
 10
-167.6331104381
 20
66.6075203627
 11
-160.0331104381
 21
66.6075203627
  0
LINE
  8
Layer1$C$L1
 62
     3
 10
-167.6331104381
 20
75.5963747447
 11
-167.6331104381
 21
72.0186659807
  0
LINE
  8
Layer1$C$L1
 62
     3
 10
-167.6331104381
 20
83.2075203627
 11
-167.6331104381
 21
83.0075203627
  0
LINE
  8
Layer1$C$L1
 62
     3
 10
-167.6331104381
 20
83.0075203627
 11
-167.4331104381
 21
83.0075203627
  0
LINE
  8
Layer1$C$L1
 62
     3
 10
-167.6331104381
 20
83.2075203627
 11
-167.4331104381
 21
83.2075203627
  0
LINE
  8
Layer1$C$L1
 62
     3
 10
-167.6296311113
 20
64.5839319424
 11
-166.4695862985
 21
64.5839319424
  0
LINE
  8
Layer1$C$L1
 62
     3
 10
-167.6296311113
 20
64.5839319424
 11
-167.6296311113
 21
64.3686876071
  0
LINE
  8
Layer1$C$L1
 62
     3
 10
-167.6296311113
 20
64.3686876071
 11
-166.7425380191
 21
64.3686876071
  0
LINE
  8
Layer1$C$L1
 62
     3
 10
-167.4331104381
 20
83.0075203627
 11
-167.4331104381
 21
83.2075203627
  0
LINE
  8
Layer1$C$L1
 62
     3
 10
-166.8518010957
 20
84.7762268061
 11
-166.5217314672
 21
84.7762268061
  0
LINE
  8
Layer1$C$L1
 62
     3
 10
-166.8518010957
 20
84.7762268061
 11
-166.8518010957
 21
84.9091715176
  0
LINE
  8
Layer1$C$L1
 62
     3
 10
-166.7652839959
 20
63.0949129107
 11
-166.5150782519
 21
63.0949129107
  0
LINE
  8
Layer1$C$L1
 62
     3
 10
-166.5217314672
 20
84.7762268061
 11
-166.5217314672
 21
83.0308586192
  0
LINE
  8
Layer1$C$L1
 62
     3
 10
-166.5217314672
 20
83.0308586192
 11
-166.2554252897
 21
83.0308586192
  0
LINE
  8
Layer1$C$L1
 62
     3
 10
-166.4695862985
 20
64.5839319424
 11
-166.4695862985
 21
64.4028065722
  0
LINE
  8
Layer1$C$L1
 62
     3
 10
-166.3904537741
 20
85.2242379811
 11
-166.2554252897
 21
85.2242379811
  0
LINE
  8
Layer1$C$L1
 62
     3
 10
-166.2554252897
 20
85.2242379811
 11
-166.2554252897
 21
83.0308586192
  0
LINE
  8
Layer1$C$L1
 62
     3
 10
-166.1331104381
 20
64.4075203627
 11
-165.9331104381
 21
64.4075203627
  0
LINE
  8
Layer1$C$L1
 62
     3
 10
-166.1331104381
 20
64.6075203627
 11
-166.1331104381
 21
64.4075203627
  0
LINE
  8
Layer1$C$L1
 62
     3
 10
-166.1331104381
 20
64.6075203627
 11
-165.9331104381
 21
64.6075203627
  0
LINE
  8
Layer1$C$L1
 62
     3
 10
-165.9331104381
 20
64.4075203627
 11
-165.9331104381
 21
64.6075203627
  0
LINE
  8
Layer1$C$L1
 62
     3
 10
-165.6331104381
 20
60.9075203627
 11
-165.6331104381
 21
64.7853255078
  0
LINE
  8
Layer1$C$L1
 62
     3
 10
-165.6331104381
 20
60.9075203627
 11
-165.1331104381
 21
61.4075203627
  0
LINE
  8
Layer1$C$L1
 62
     3
 10
-165.6331104381
 20
64.7853255078
 11
-165.1331104381
 21
65.2051950956
  0
LINE
  8
Layer1$C$L1
 62
     3
 10
-165.6331104381
 20
82.8297152176
 11
-165.6331104381
 21
86.7075203627
  0
LINE
  8
Layer1$C$L1
 62
     3
 10
-165.6331104381
 20
82.8297152176
 11
-165.1331104381
 21
82.4098456297
  0
LINE
  8
Layer1$C$L1
 62
     3
 10
-165.6331104381
 20
86.7075203627
 11
-165.1331104381
 21
86.2075203627
  0
LINE
  8
Layer1$C$L1
 62
     3
 10
-165.1331104381
 20
61.4075203627
 11
-162.5331104381
 21
61.4075203627
  0
LINE
  8
Layer1$C$L1
 62
     3
 10
-165.1331104381
 20
61.4075203627
 11
-165.1331104381
 21
65.2051950956
  0
LINE
  8
Layer1$C$L1
 62
     3
 10
-165.1331104381
 20
82.4098456297
 11
-165.1331104381
 21
86.2075203627
  0
LINE
  8
Layer1$C$L1
 62
     3
 10
-165.1331104381
 20
86.2075203627
 11
-162.5331104381
 21
86.2075203627
  0
LINE
  8
Layer1$C$L1
 62
     3
 10
-162.5331104381
 20
61.4075203627
 11
-162.5331104381
 21
65.2051950956
  0
LINE
  8
Layer1$C$L1
 62
     3
 10
-162.5331104381
 20
61.4075203627
 11
-162.0331104381
 21
60.9075203627
  0
LINE
  8
Layer1$C$L1
 62
     3
 10
-162.5331104381
 20
65.2051950956
 11
-162.0331104381
 21
64.7853255078
  0
LINE
  8
Layer1$C$L1
 62
     3
 10
-162.5331104381
 20
82.4098456297
 11
-162.5331104381
 21
86.2075203627
  0
LINE
  8
Layer1$C$L1
 62
     3
 10
-162.5331104381
 20
82.4098456297
 11
-162.0331104381
 21
82.8297152176
  0
LINE
  8
Layer1$C$L1
 62
     3
 10
-162.5331104381
 20
86.2075203627
 11
-162.0331104381
 21
86.7075203627
  0
LINE
  8
Layer1$C$L1
 62
     3
 10
-162.0331104381
 20
60.9075203627
 11
-162.0331104381
 21
64.7853255078
  0
LINE
  8
Layer1$C$L1
 62
     3
 10
-162.0331104381
 20
82.8297152176
 11
-162.0331104381
 21
86.7075203627
  0
LINE
  8
Layer1$C$L1
 62
     3
 10
-161.7331104381
 20
83.0075203627
 11
-161.5331104381
 21
83.0075203627
  0
LINE
  8
Layer1$C$L1
 62
     3
 10
-161.7331104381
 20
83.2075203627
 11
-161.5331104381
 21
83.2075203627
  0
LINE
  8
Layer1$C$L1
 62
     3
 10
-161.7331104381
 20
83.2075203627
 11
-161.7331104381
 21
83.0075203627
  0
LINE
  8
Layer1$C$L1
 62
     3
 10
-161.5331104381
 20
83.0075203627
 11
-161.5331104381
 21
83.2075203627
  0
LINE
  8
Layer1$C$L1
 62
     3
 10
-161.4107955865
 20
64.5841821061
 11
-161.4107955865
 21
62.3908027443
  0
LINE
  8
Layer1$C$L1
 62
     3
 10
-161.4107955865
 20
64.5841821061
 11
-161.1444894090
 21
64.5841821061
  0
LINE
  8
Layer1$C$L1
 62
     3
 10
-161.4107955865
 20
62.3908027443
 11
-161.2757671022
 21
62.3908027443
  0
LINE
  8
Layer1$C$L1
 62
     3
 10
-161.1966345778
 20
83.0311087830
 11
-160.0365897650
 21
83.0311087830
  0
LINE
  8
Layer1$C$L1
 62
     3
 10
-161.1966345778
 20
83.0311087830
 11
-161.1966345778
 21
83.2122341532
  0
LINE
  8
Layer1$C$L1
 62
     3
 10
-161.1511426244
 20
84.5201278147
 11
-160.9009368804
 21
84.5201278147
  0
LINE
  8
Layer1$C$L1
 62
     3
 10
-161.1444894090
 20
64.5841821061
 11
-161.1444894090
 21
62.8388139193
  0
LINE
  8
Layer1$C$L1
 62
     3
 10
-161.1444894090
 20
62.8388139193
 11
-160.8144197806
 21
62.8388139193
  0
LINE
  8
Layer1$C$L1
 62
     3
 10
-160.9236828572
 20
83.2463531183
 11
-160.0365897650
 21
83.2463531183
  0
LINE
  8
Layer1$C$L1
 62
     3
 10
-160.8144197806
 20
62.8388139193
 11
-160.8144197806
 21
62.7058692078
  0
LINE
  8
Layer1$C$L1
 62
     3
 10
-160.2331104381
 20
64.6075203627
 11
-160.0331104381
 21
64.6075203627
  0
LINE
  8
Layer1$C$L1
 62
     3
 10
-160.2331104381
 20
64.4075203627
 11
-160.0331104381
 21
64.4075203627
  0
LINE
  8
Layer1$C$L1
 62
     3
 10
-160.2331104381
 20
64.6075203627
 11
-160.2331104381
 21
64.4075203627
  0
LINE
  8
Layer1$C$L1
 62
     3
 10
-160.0365897650
 20
83.2463531183
 11
-160.0365897650
 21
83.0311087830
  0
LINE
  8
Layer1$C$L1
 62
     3
 10
-160.0331104381
 20
81.0075203627
 11
-159.2331104381
 21
81.8075203627
  0
LINE
  8
Layer1$C$L1
 62
     3
 10
-160.0331104381
 20
64.4075203627
 11
-160.0331104381
 21
64.6075203627
  0
LINE
  8
Layer1$C$L1
 62
     3
 10
-160.0331104381
 20
66.6075203627
 11
-159.2331104381
 21
65.8075203627
  0
LINE
  8
Layer1$C$L1
 62
     3
 10
-160.0331104381
 20
72.0186659807
 11
-158.8331104381
 21
71.7679125572
  0
LINE
  8
Layer1$C$L1
 62
     3
 10
-160.0331104381
 20
72.0186659807
 11
-160.0331104381
 21
75.5963747447
  0
LINE
  8
Layer1$C$L1
 62
     3
 10
-160.0331104381
 20
75.5963747447
 11
-158.8331104381
 21
75.8471281681
  0
LINE
  8
Layer1$C$L1
 62
     3
 10
-159.7831104381
 20
62.5075203627
 11
-159.2331104381
 21
62.5075203627
  0
LINE
  8
Layer1$C$L1
 62
     3
 10
-159.7831104381
 20
62.5075203627
 11
-159.7831104381
 21
65.3075203627
  0
LINE
  8
Layer1$C$L1
 62
     3
 10
-159.7831104381
 20
65.3075203627
 11
-159.2331104381
 21
65.3075203627
  0
LINE
  8
Layer1$C$L1
 62
     3
 10
-159.7831104381
 20
82.3075203627
 11
-159.2331104381
 21
82.3075203627
  0
LINE
  8
Layer1$C$L1
 62
     3
 10
-159.7831104381
 20
82.3075203627
 11
-159.7831104381
 21
85.1075203627
  0
LINE
  8
Layer1$C$L1
 62
     3
 10
-159.7831104381
 20
85.1075203627
 11
-159.2331104381
 21
85.1075203627
  0
LINE
  8
Layer1$C$L1
 62
     3
 10
-159.7331104381
 20
85.1075203627
 11
-159.7331104381
 21
82.3075203627
  0
LINE
  8
Layer1$C$L1
 62
     3
 10
-159.7331104381
 20
65.3075203627
 11
-159.7331104381
 21
62.5075203627
  0
LINE
  8
Layer1$C$L1
 62
     3
 10
-159.2331104381
 20
86.7075203627
 11
-159.2331104381
 21
81.8075203627
  0
LINE
  8
Layer1$C$L1
 62
     3
 10
-159.2331104381
 20
65.8075203627
 11
-159.2331104381
 21
60.9075203627
  0
LINE
  8
Layer1$C$L1
 62
     3
 10
-159.2331104381
 20
60.9075203627
 11
-158.9331104381
 21
60.6075203627
  0
LINE
  8
Layer1$C$L1
 62
     3
 10
-159.2331104381
 20
86.7075203627
 11
-158.9331104381
 21
87.0075203627
  0
LINE
  8
Layer1$C$L1
 62
     3
 10
-159.2331104381
 20
86.4075203627
 11
-158.9331104381
 21
86.7075203627
  0
LINE
  8
Layer1$C$L1
 62
     3
 10
-159.2331104381
 20
61.2075203627
 11
-158.9331104381
 21
60.9075203627
  0
LINE
  8
Layer1$C$L1
 62
     3
 10
-159.2331104381
 20
86.4075203627
 11
-157.9636982018
 21
86.4075203627
  0
LINE
  8
Layer1$C$L1
 62
     3
 10
-159.2331104381
 20
61.2075203627
 11
-157.9636982018
 21
61.2075203627
  0
LINE
  8
Layer1$C$L1
 62
     3
 10
-158.9331104381
 20
60.6075203627
 11
-158.9331104381
 21
60.9075203627
  0
LINE
  8
Layer1$C$L1
 62
     3
 10
-158.9331104381
 20
86.7075203627
 11
-158.9331104381
 21
87.0075203627
  0
LINE
  8
Layer1$C$L1
 62
     3
 10
-158.9331104381
 20
86.7075203627
 11
-157.8976239374
 21
86.7075203627
  0
LINE
  8
Layer1$C$L1
 62
     3
 10
-158.9331104381
 20
60.9075203627
 11
-157.8976239374
 21
60.9075203627
  0
LINE
  8
Layer1$C$L1
 62
     3
 10
-158.8331104381
 20
75.8471281681
 11
-158.8331104381
 21
71.7679125572
  0
LINE
  8
Layer1$C$L1
 62
     3
 10
-157.9636982018
 20
86.4075203627
 11
-157.8976239374
 21
86.7075203627
  0
LINE
  8
Layer1$C$L1
 62
     3
 10
-157.9636982018
 20
61.2075203627
 11
-157.8976239374
 21
60.9075203627
  0
LINE
  8
Layer1$C$L1
 62
     3
 10
-156.6331104381
 20
77.6075203627
 11
-156.6331104381
 21
70.0075203627
  0
LINE
  8
Layer1$C$L1
 62
     3
 10
-156.6331104381
 20
77.6075203627
 11
-155.8331104381
 21
78.4075203627
  0
LINE
  8
Layer1$C$L1
 62
     3
 10
-156.6331104381
 20
63.1075203627
 11
-156.6331104381
 21
61.9176086725
  0
LINE
  8
Layer1$C$L1
 62
     3
 10
-156.6331104381
 20
63.1075203627
 11
-155.9331104381
 21
63.1075203627
  0
LINE
  8
Layer1$C$L1
 62
     3
 10
-156.6331104381
 20
64.1075203627
 11
-155.9331104381
 21
64.1075203627
  0
LINE
  8
Layer1$C$L1
 62
     3
 10
-156.6331104381
 20
66.1075203627
 11
-156.1331104381
 21
66.6075203627
  0
LINE
  8
Layer1$C$L1
 62
     3
 10
-156.6331104381
 20
81.5075203627
 11
-156.1331104381
 21
81.0075203627
  0
LINE
  8
Layer1$C$L1
 62
     3
 10
-156.6331104381
 20
81.5075203627
 11
-156.3331104381
 21
81.6317844314
  0
LINE
  8
Layer1$C$L1
 62
     3
 10
-156.6331104381
 20
66.1075203627
 11
-156.3331104381
 21
65.9832562940
  0
LINE
  8
Layer1$C$L1
 62
     3
 10
-156.6331104381
 20
66.1075203627
 11
-156.6331104381
 21
64.1075203627
  0
LINE
  8
Layer1$C$L1
 62
     3
 10
-156.6331104381
 20
85.6974320529
 11
-156.6331104381
 21
81.5075203627
  0
LINE
  8
Layer1$C$L1
 62
     3
 10
-156.6331104381
 20
85.6974320529
 11
-156.3331104381
 21
85.8652979357
  0
LINE
  8
Layer1$C$L1
 62
     3
 10
-156.6331104381
 20
63.0075203627
 11
-155.8331104381
 21
63.0075203627
  0
LINE
  8
Layer1$C$L1
 62
     3
 10
-156.6331104381
 20
63.0075203627
 11
-156.3331104381
 21
62.7075203627
  0
LINE
  8
Layer1$C$L1
 62
     3
 10
-156.6331104381
 20
64.9075203627
 11
-155.8331104381
 21
64.9075203627
  0
LINE
  8
Layer1$C$L1
 62
     3
 10
-156.6331104381
 20
64.9075203627
 11
-156.3331104381
 21
65.2075203627
  0
LINE
  8
Layer1$C$L1
 62
     3
 10
-156.6331104381
 20
61.9176086725
 11
-156.3331104381
 21
61.7497427897
  0
LINE
  8
Layer1$C$L1
 62
     3
 10
-156.6331104381
 20
70.0075203627
 11
-155.8331104381
 21
69.2075203627
  0
LINE
  8
Layer1$C$L1
 62
     3
 10
-156.3331104381
 20
65.2075203627
 11
-155.5331104381
 21
65.2075203627
  0
LINE
  8
Layer1$C$L1
 62
     3
 10
-156.3331104381
 20
65.9832562940
 11
-156.3331104381
 21
65.2075203627
  0
LINE
  8
Layer1$C$L1
 62
     3
 10
-156.3331104381
 20
81.6317844314
 11
-156.0088463694
 21
81.3075203627
  0
LINE
  8
Layer1$C$L1
 62
     3
 10
-156.3331104381
 20
65.9832562940
 11
-156.0088463694
 21
66.3075203627
  0
LINE
  8
Layer1$C$L1
 62
     3
 10
-156.3331104381
 20
62.7075203627
 11
-156.3331104381
 21
61.7497427897
  0
LINE
  8
Layer1$C$L1
 62
     3
 10
-156.3331104381
 20
62.7075203627
 11
-155.5331104381
 21
62.7075203627
  0
LINE
  8
Layer1$C$L1
 62
     3
 10
-156.3331104381
 20
85.8652979357
 11
-156.3331104381
 21
81.6317844314
  0
LINE
  8
Layer1$C$L1
 62
     3
 10
-156.1331104381
 20
66.6075203627
 11
-151.9431987480
 21
66.6075203627
  0
LINE
  8
Layer1$C$L1
 62
     3
 10
-156.1331104381
 20
66.6075203627
 11
-156.0088463694
 21
66.3075203627
  0
LINE
  8
Layer1$C$L1
 62
     3
 10
-156.1331104381
 20
81.0075203627
 11
-156.0088463694
 21
81.3075203627
  0
LINE
  8
Layer1$C$L1
 62
     3
 10
-156.1331104381
 20
81.0075203627
 11
-151.9431987480
 21
81.0075203627
  0
LINE
  8
Layer1$C$L1
 62
     3
 10
-156.0088463694
 20
66.3075203627
 11
-151.7753328651
 21
66.3075203627
  0
LINE
  8
Layer1$C$L1
 62
     3
 10
-156.0088463694
 20
81.3075203627
 11
-151.7753328651
 21
81.3075203627
  0
LINE
  8
Layer1$C$L1
 62
     3
 10
-155.9331104381
 20
64.1075203627
 11
-155.9331104381
 21
63.1075203627
  0
LINE
  8
Layer1$C$L1
 62
     3
 10
-155.8331104381
 20
78.4075203627
 11
-150.9331104381
 21
78.4075203627
  0
LINE
  8
Layer1$C$L1
 62
     3
 10
-155.8331104381
 20
69.2075203627
 11
-150.9331104381
 21
69.2075203627
  0
LINE
  8
Layer1$C$L1
 62
     3
 10
-155.8331104381
 20
63.0075203627
 11
-155.8331104381
 21
64.9075203627
  0
LINE
  8
Layer1$C$L1
 62
     3
 10
-155.8331104381
 20
63.0075203627
 11
-155.5331104381
 21
62.7075203627
  0
LINE
  8
Layer1$C$L1
 62
     3
 10
-155.8331104381
 20
64.9075203627
 11
-155.5331104381
 21
65.2075203627
  0
LINE
  8
Layer1$C$L1
 62
     3
 10
-155.6331104381
 20
86.2481795092
 11
-155.6331104381
 21
82.5075203627
  0
LINE
  8
Layer1$C$L1
 62
     3
 10
-155.6331104381
 20
82.5075203627
 11
-155.1331104381
 21
82.0075203627
  0
LINE
  8
Layer1$C$L1
 62
     3
 10
-155.5331104381
 20
65.2075203627
 11
-155.5331104381
 21
62.7075203627
  0
LINE
  8
Layer1$C$L1
 62
     3
 10
-155.3331104381
 20
78.4075203627
 11
-155.3331104381
 21
77.8575203627
  0
LINE
  8
Layer1$C$L1
 62
     3
 10
-155.3331104381
 20
77.8575203627
 11
-152.5331104381
 21
77.8575203627
  0
LINE
  8
Layer1$C$L1
 62
     3
 10
-155.3331104381
 20
69.7575203627
 11
-152.5331104381
 21
69.7575203627
  0
LINE
  8
Layer1$C$L1
 62
     3
 10
-155.3331104381
 20
69.7575203627
 11
-155.3331104381
 21
69.2075203627
  0
LINE
  8
Layer1$C$L1
 62
     3
 10
-155.3331104381
 20
77.9075203627
 11
-152.5331104381
 21
77.9075203627
  0
LINE
  8
Layer1$C$L1
 62
     3
 10
-155.3331104381
 20
69.7075203627
 11
-152.5331104381
 21
69.7075203627
  0
LINE
  8
Layer1$C$L1
 62
     3
 10
-155.2307851711
 20
72.5075203627
 11
-154.8109155832
 21
72.0075203627
  0
LINE
  8
Layer1$C$L1
 62
     3
 10
-155.2307851711
 20
72.5075203627
 11
-151.4331104381
 21
72.5075203627
  0
LINE
  8
Layer1$C$L1
 62
     3
 10
-155.2307851711
 20
75.1075203627
 11
-151.4331104381
 21
75.1075203627
  0
LINE
  8
Layer1$C$L1
 62
     3
 10
-155.2307851711
 20
75.1075203627
 11
-154.8109155832
 21
75.6075203627
  0
LINE
  8
Layer1$C$L1
 62
     3
 10
-155.1331104381
 20
61.7112399427
 11
-155.1331104381
 21
65.6075203627
  0
LINE
  8
Layer1$C$L1
 62
     3
 10
-155.1331104381
 20
65.6075203627
 11
-151.3924512916
 21
65.6075203627
  0
LINE
  8
Layer1$C$L1
 62
     3
 10
-155.1331104381
 20
82.0075203627
 11
-151.3924512916
 21
82.0075203627
  0
LINE
  8
Layer1$C$L1
 62
     3
 10
-154.8109155832
 20
72.0075203627
 11
-150.9331104381
 21
72.0075203627
  0
LINE
  8
Layer1$C$L1
 62
     3
 10
-154.8109155832
 20
75.6075203627
 11
-150.9331104381
 21
75.6075203627
  0
LINE
  8
Layer1$C$L1
 62
     3
 10
-154.6331104381
 20
77.6075203627
 11
-154.6331104381
 21
77.4075203627
  0
LINE
  8
Layer1$C$L1
 62
     3
 10
-154.6331104381
 20
77.4075203627
 11
-154.4331104381
 21
77.4075203627
  0
LINE
  8
Layer1$C$L1
 62
     3
 10
-154.6331104381
 20
77.6075203627
 11
-154.4331104381
 21
77.6075203627
  0
LINE
  8
Layer1$C$L1
 62
     3
 10
-154.6331104381
 20
71.7075203627
 11
-154.6331104381
 21
71.5075203627
  0
LINE
  8
Layer1$C$L1
 62
     3
 10
-154.6331104381
 20
71.7075203627
 11
-154.4331104381
 21
71.7075203627
  0
LINE
  8
Layer1$C$L1
 62
     3
 10
-154.6331104381
 20
71.5075203627
 11
-154.4331104381
 21
71.5075203627
  0
LINE
  8
Layer1$C$L1
 62
     3
 10
-154.6097721816
 20
76.2298352143
 11
-152.4163928197
 21
76.2298352143
  0
LINE
  8
Layer1$C$L1
 62
     3
 10
-154.6097721816
 20
76.2298352143
 11
-154.6097721816
 21
76.4961413918
  0
LINE
  8
Layer1$C$L1
 62
     3
 10
-154.6097721816
 20
76.4961413918
 11
-152.8644039947
 21
76.4961413918
  0
LINE
  8
Layer1$C$L1
 62
     3
 10
-154.6095220178
 20
71.1710445024
 11
-154.6095220178
 21
70.0109996895
  0
LINE
  8
Layer1$C$L1
 62
     3
 10
-154.6095220178
 20
71.1710445024
 11
-154.4283966476
 21
71.1710445024
  0
LINE
  8
Layer1$C$L1
 62
     3
 10
-154.6095220178
 20
70.0109996895
 11
-154.3942776826
 21
70.0109996895
  0
LINE
  8
Layer1$C$L1
 62
     3
 10
-154.4331104381
 20
77.4075203627
 11
-154.4331104381
 21
77.6075203627
  0
LINE
  8
Layer1$C$L1
 62
     3
 10
-154.4331104381
 20
71.5075203627
 11
-154.4331104381
 21
71.7075203627
  0
LINE
  8
Layer1$C$L1
 62
     3
 10
-154.3942776826
 20
70.8980927817
 11
-154.3942776826
 21
70.0109996895
  0
LINE
  8
Layer1$C$L1
 62
     3
 10
-153.9331104381
 20
64.9075203627
 11
-153.9331104381
 21
65.6075203627
  0
LINE
  8
Layer1$C$L1
 62
     3
 10
-153.9331104381
 20
64.9075203627
 11
-152.4331104381
 21
64.9075203627
  0
LINE
  8
Layer1$C$L1
 62
     3
 10
-153.9331104381
 20
82.7075203627
 11
-152.4331104381
 21
82.7075203627
  0
LINE
  8
Layer1$C$L1
 62
     3
 10
-153.9331104381
 20
82.0075203627
 11
-153.9331104381
 21
82.7075203627
  0
LINE
  8
Layer1$C$L1
 62
     3
 10
-153.1205029861
 20
70.8753468050
 11
-153.1205029861
 21
71.1255525489
  0
LINE
  8
Layer1$C$L1
 62
     3
 10
-152.8644039947
 20
76.8262110202
 11
-152.7314592833
 21
76.8262110202
  0
LINE
  8
Layer1$C$L1
 62
     3
 10
-152.8644039947
 20
76.8262110202
 11
-152.8644039947
 21
76.4961413918
  0
LINE
  8
Layer1$C$L1
 62
     3
 10
-152.5331104381
 20
77.8575203627
 11
-152.5331104381
 21
78.4075203627
  0
LINE
  8
Layer1$C$L1
 62
     3
 10
-152.5331104381
 20
69.2075203627
 11
-152.5331104381
 21
69.7575203627
  0
LINE
  8
Layer1$C$L1
 62
     3
 10
-152.4331104381
 20
65.6075203627
 11
-152.4331104381
 21
64.9075203627
  0
LINE
  8
Layer1$C$L1
 62
     3
 10
-152.4331104381
 20
82.7075203627
 11
-152.4331104381
 21
82.0075203627
  0
LINE
  8
Layer1$C$L1
 62
     3
 10
-152.4163928197
 20
76.3648636987
 11
-152.4163928197
 21
76.2298352143
  0
LINE
  8
Layer1$C$L1
 62
     3
 10
-151.9431987480
 20
81.0075203627
 11
-151.7753328651
 21
81.3075203627
  0
LINE
  8
Layer1$C$L1
 62
     3
 10
-151.9431987480
 20
66.6075203627
 11
-151.7753328651
 21
66.3075203627
  0
LINE
  8
Layer1$C$L1
 62
     3
 10
-151.4331104381
 20
72.5075203627
 11
-150.9331104381
 21
72.0075203627
  0
LINE
  8
Layer1$C$L1
 62
     3
 10
-151.4331104381
 20
72.5075203627
 11
-151.4331104381
 21
75.1075203627
  0
LINE
  8
Layer1$C$L1
 62
     3
 10
-151.4331104381
 20
75.1075203627
 11
-150.9331104381
 21
75.6075203627
  0
LINE
  8
Layer1$C$L1
 62
     3
 10
-151.2331104381
 20
79.6769325990
 11
-150.9331104381
 21
79.7430068634
  0
LINE
  8
Layer1$C$L1
 62
     3
 10
-151.2331104381
 20
78.4075203627
 11
-151.2331104381
 21
79.6769325990
  0
LINE
  8
Layer1$C$L1
 62
     3
 10
-151.2331104381
 20
78.4075203627
 11
-150.9331104381
 21
78.7075203627
  0
LINE
  8
Layer1$C$L1
 62
     3
 10
-151.2331104381
 20
69.2075203627
 11
-150.9331104381
 21
68.9075203627
  0
LINE
  8
Layer1$C$L1
 62
     3
 10
-151.2331104381
 20
67.9381081264
 11
-150.9331104381
 21
67.8720338620
  0
LINE
  8
Layer1$C$L1
 62
     3
 10
-151.2331104381
 20
67.9381081264
 11
-151.2331104381
 21
69.2075203627
  0
LINE
  8
Layer1$C$L1
 62
     3
 10
-150.9331104381
 20
69.2075203627
 11
-150.9331104381
 21
78.4075203627
  0
LINE
  8
Layer1$C$L1
 62
     3
 10
-150.9331104381
 20
69.2075203627
 11
-150.6331104381
 21
68.9075203627
  0
LINE
  8
Layer1$C$L1
 62
     3
 10
-150.9331104381
 20
78.4075203627
 11
-150.6331104381
 21
78.7075203627
  0
LINE
  8
Layer1$C$L1
 62
     3
 10
-150.9331104381
 20
78.7075203627
 11
-150.6331104381
 21
78.7075203627
  0
LINE
  8
Layer1$C$L1
 62
     3
 10
-150.9331104381
 20
78.7075203627
 11
-150.9331104381
 21
79.7430068634
  0
LINE
  8
Layer1$C$L1
 62
     3
 10
-150.9331104381
 20
68.9075203627
 11
-150.6331104381
 21
68.9075203627
  0
LINE
  8
Layer1$C$L1
 62
     3
 10
-150.9331104381
 20
67.8720338620
 11
-150.9331104381
 21
68.9075203627
  0
LINE
  8
Layer1$C$L1
 62
     3
 10
-150.6331104381
 20
78.7075203627
 11
-150.6331104381
 21
68.9075203627
  0
LINE
  8
Layer1$C$L1
 62
     3
 10
-150.2331104381
 20
79.8943914801
 11
-150.2331104381
 21
67.7206492453
  0
ARC
  8
Layer1$C$L1
 62
     3
 10
-174.8103431791
 20
77.0351124530
 40
0.2474080370
 50
136.3178941598
 51
182.5700154011
  0
ARC
  8
Layer1$C$L1
 62
     3
 10
-174.7863467500
 20
77.0458665540
 40
0.2720343730
 50
184.6065631175
 51
228.5235392366
  0
ARC
  8
Layer1$C$L1
 62
     3
 10
-174.7796417292
 20
77.0580980795
 40
0.4940774205
 50
134.4666996868
 51
181.3144036257
  0
ARC
  8
Layer1$C$L1
 62
     3
 10
-174.7732914918
 20
77.0268191886
 40
0.5006950786
 50
177.7169923328
 51
223.3950981064
  0
ARC
  8
Layer1$C$L1
 62
     3
 10
-174.7663260026
 20
76.4712269436
 40
1.1019116200
 50
45.9233712006
 51
85.6211381635
  0
ARC
  8
Layer1$C$L1
 62
     3
 10
-174.7544489407
 20
81.5718210597
 40
1.5000000000
 50
144.5898597535
 51
163.1141310865
  0
ARC
  8
Layer1$C$L1
 62
     3
 10
-174.7213138873
 20
76.9102044233
 40
0.3991046229
 50
86.0133811639
 51
132.1736028371
  0
ARC
  8
Layer1$C$L1
 62
     3
 10
-174.7129077687
 20
76.9580746567
 40
0.6126178327
 50
87.1262317442
 51
132.3674414666
  0
ARC
  8
Layer1$C$L1
 62
     3
 10
-174.7124828253
 20
76.5212072299
 40
0.7873633670
 50
46.4911336509
 51
88.6233596185
  0
ARC
  8
Layer1$C$L1
 62
     3
 10
-174.5967587501
 20
77.3345206684
 40
0.8465725497
 50
230.3359473840
 51
273.4565265470
  0
ARC
  8
Layer1$C$L1
 62
     3
 10
-172.6556683618
 20
85.4403390961
 40
0.3000000000
 50
36.0000000000
 51
127.1773934006
  0
ARC
  8
Layer1$C$L1
 62
     3
 10
-172.4205032114
 20
85.1166620347
 40
0.3000000000
 50
307.2105642803
 51
396.0000000000
  0
ARC
  8
Layer1$C$L1
 62
     3
 10
-171.2673167070
 20
67.1936222049
 40
5.3342176236
 50
318.2377880243
 51
328.0224166840
  0
ARC
  8
Layer1$C$L1
 62
     3
 10
-170.8961055137
 20
66.7881747284
 40
5.0283251290
 50
318.7113709588
 51
331.6806055358
  0
ARC
  8
Layer1$C$L1
 62
     3
 10
-170.8524560725
 20
80.8705154383
 40
5.0283251290
 50
228.7113709588
 51
241.6806055358
  0
ARC
  8
Layer1$C$L1
 62
     3
 10
-170.4470085959
 20
81.2417266315
 40
5.3342176236
 50
228.2377880243
 51
238.0224166840
  0
ARC
  8
Layer1$C$L1
 62
     3
 10
-167.3601107439
 20
63.0438720507
 40
0.8465725497
 50
320.3359473840
 51
363.4565265470
  0
ARC
  8
Layer1$C$L1
 62
     3
 10
-167.0836881550
 20
62.8609890716
 40
0.4940774205
 50
224.4666996868
 51
271.3144036257
  0
CIRCLE
  8
Layer1$C$L1
 62
     3
 10
-167.0831104381
 20
79.4075203627
 40
0.8000000000
  0
CIRCLE
  8
Layer1$C$L1
 62
     3
 10
-167.0831104381
 20
79.4075203627
 40
0.5000000000
  0
CIRCLE
  8
Layer1$C$L1
 62
     3
 10
-167.0831104381
 20
79.4075203627
 40
1.0000000000
  0
CIRCLE
  8
Layer1$C$L1
 62
     3
 10
-167.0831104381
 20
68.2075203627
 40
0.8000000000
  0
CIRCLE
  8
Layer1$C$L1
 62
     3
 10
-167.0831104381
 20
68.2075203627
 40
0.5000000000
  0
CIRCLE
  8
Layer1$C$L1
 62
     3
 10
-167.0831104381
 20
68.2075203627
 40
1.0000000000
  0
ARC
  8
Layer1$C$L1
 62
     3
 10
-167.0714566295
 20
62.8542840508
 40
0.2720343730
 50
274.6065631175
 51
318.5235392366
  0
ARC
  8
Layer1$C$L1
 62
     3
 10
-167.0607025284
 20
62.8302876217
 40
0.2474080370
 50
226.3178941598
 51
272.5700154011
  0
ARC
  8
Layer1$C$L1
 62
     3
 10
-167.0524092641
 20
62.8673393090
 40
0.5006950786
 50
267.7169923328
 51
313.3950981064
  0
ARC
  8
Layer1$C$L1
 62
     3
 10
-166.9836647322
 20
62.9277230321
 40
0.6126178327
 50
177.1262317442
 51
222.3674414666
  0
ARC
  8
Layer1$C$L1
 62
     3
 10
-166.9357944988
 20
62.9193169136
 40
0.3991046229
 50
176.0133811639
 51
222.1736028371
  0
ARC
  8
Layer1$C$L1
 62
     3
 10
-166.5467973054
 20
62.9281479755
 40
0.7873633670
 50
136.4911336509
 51
178.6233596185
  0
ARC
  8
Layer1$C$L1
 62
     3
 10
-166.4968170190
 20
62.8743047982
 40
1.1019116200
 50
135.9233712006
 51
175.6211381635
  0
ARC
  8
Layer1$C$L1
 62
     3
 10
-163.8331104382
 20
73.8075203627
 40
14.9000000000
 50
123.8616013708
 51
144.5898597535
  0
ARC
  8
Layer1$C$L1
 62
     3
 10
-163.8331104381
 20
73.8075203627
 40
14.0000000000
 50
166.2708673246
 51
193.7291326754
  0
ARC
  8
Layer1$C$L1
 62
     3
 10
-163.8331104381
 20
73.8075203627
 40
14.2000000000
 50
148.1181742373
 51
155.2921207350
  0
ARC
  8
Layer1$C$L1
 62
     3
 10
-163.8331104381
 20
73.8075203627
 40
8.7000000000
 50
98.5936225987
 51
171.4063774013
  0
ARC
  8
Layer1$C$L1
 62
     3
 10
-163.8331104381
 20
73.8075203627
 40
14.2000000000
 50
204.7078792650
 51
211.8818257627
  0
ARC
  8
Layer1$C$L1
 62
     3
 10
-163.8331104381
 20
73.8075203627
 40
14.9000000000
 50
24.1115734676
 51
123.3900375507
  0
ARC
  8
Layer1$C$L1
 62
     3
 10
-163.8331104381
 20
73.8075203627
 40
9.2000000000
 50
101.2828242880
 51
168.7171757120
  0
ARC
  8
Layer1$C$L1
 62
     3
 10
-163.8331104381
 20
73.8075203627
 40
13.9000000000
 50
204.9773451541
 51
211.1972270433
  0
ARC
  8
Layer1$C$L1
 62
     3
 10
-163.8331104381
 20
73.8075203627
 40
13.9000000000
 50
148.8027729567
 51
155.0226548459
  0
ARC
  8
Layer1$C$L1
 62
     3
 10
-163.8331104381
 20
73.8075203627
 40
8.7000000000
 50
188.5936225987
 51
261.4063774013
  0
ARC
  8
Layer1$C$L1
 62
     3
 10
-163.8331104381
 20
73.8075203627
 40
9.2000000000
 50
191.2828242880
 51
258.7171757120
  0
ARC
  8
Layer1$C$L1
 62
     3
 10
-163.8331104381
 20
73.8075203627
 40
14.9000000000
 50
294.1115734676
 51
335.8884265324
  0
ARC
  8
Layer1$C$L1
 62
     3
 10
-163.8331104381
 20
73.8075203627
 40
14.9000000000
 50
204.1115734676
 51
245.8884265324
  0
ARC
  8
Layer1$C$L1
 62
     3
 10
-163.8331104381
 20
73.8075203627
 40
12.0000000000
 50
133.1807557815
 51
136.8953261801
  0
ARC
  8
Layer1$C$L1
 62
     3
 10
-163.8331104381
 20
73.8075203627
 40
13.9000000000
 50
114.9773451541
 51
121.1972270433
  0
ARC
  8
Layer1$C$L1
 62
     3
 10
-163.8331104381
 20
73.8075203627
 40
13.9000000000
 50
127.2105642803
 51
140.1867188848
  0
ARC
  8
Layer1$C$L1
 62
     3
 10
-163.8331104381
 20
73.8075203627
 40
14.2000000000
 50
238.1181742373
 51
245.2921207350
  0
ARC
  8
Layer1$C$L1
 62
     3
 10
-163.8331104381
 20
73.8075203627
 40
13.9000000000
 50
24.9773451541
 51
31.1972270433
  0
ARC
  8
Layer1$C$L1
 62
     3
 10
-163.8331104381
 20
73.8075203627
 40
13.9000000000
 50
238.8027729567
 51
245.0226548459
  0
ARC
  8
Layer1$C$L1
 62
     3
 10
-163.8331104381
 20
73.8075203627
 40
14.5000000000
 50
159.7069538564
 51
200.2930461436
  0
ARC
  8
Layer1$C$L1
 62
     3
 10
-163.8331104381
 20
73.8075203627
 40
14.2000000000
 50
114.7078792650
 51
121.8818257627
  0
ARC
  8
Layer1$C$L1
 62
     3
 10
-163.8331104381
 20
73.8075203627
 40
9.2000000000
 50
281.2828242880
 51
348.7171757120
  0
ARC
  8
Layer1$C$L1
 62
     3
 10
-163.8331104381
 20
73.8075203627
 40
9.2000000000
 50
11.2828242880
 51
78.7171757120
  0
ARC
  8
Layer1$C$L1
 62
     3
 10
-163.8331104381
 20
73.8075203627
 40
5.4000000000
 50
202.1916065663
 51
337.8083934337
  0
ARC
  8
Layer1$C$L1
 62
     3
 10
-163.8331104381
 20
73.8075203627
 40
4.2000000000
 50
205.2087652968
 51
334.7912347032
  0
ARC
  8
Layer1$C$L1
 62
     3
 10
-163.8331104381
 20
73.8075203627
 40
5.4000000000
 50
22.1916065663
 51
157.8083934337
  0
ARC
  8
Layer1$C$L1
 62
     3
 10
-163.8331104381
 20
73.8075203627
 40
4.2000000000
 50
25.2087652968
 51
154.7912347032
  0
ARC
  8
Layer1$C$L1
 62
     3
 10
-163.8331104381
 20
73.8075203627
 40
8.7000000000
 50
278.5936225987
 51
351.4063774013
  0
ARC
  8
Layer1$C$L1
 62
     3
 10
-163.8331104381
 20
73.8075203627
 40
8.7000000000
 50
8.5936225987
 51
81.4063774013
  0
ARC
  8
Layer1$C$L1
 62
     3
 10
-163.8331104381
 20
73.8075203627
 40
14.5000000000
 50
249.7069538564
 51
290.2930461436
  0
ARC
  8
Layer1$C$L1
 62
     3
 10
-163.8331104381
 20
73.8075203627
 40
14.0000000000
 50
256.2708673246
 51
283.7291326754
  0
ARC
  8
Layer1$C$L1
 62
     3
 10
-163.8331104381
 20
73.8075203627
 40
14.5000000000
 50
339.7069538564
 51
380.2930461436
  0
ARC
  8
Layer1$C$L1
 62
     3
 10
-163.8331104381
 20
73.8075203627
 40
14.2000000000
 50
294.7078792650
 51
301.8818257627
  0
ARC
  8
Layer1$C$L1
 62
     3
 10
-163.8331104381
 20
73.8075203627
 40
14.9000000000
 50
146.6099624493
 51
155.8884265324
  0
ARC
  8
Layer1$C$L1
 62
     3
 10
-163.8331104381
 20
73.8075203627
 40
14.0000000000
 50
346.2708673246
 51
373.7291326754
  0
ARC
  8
Layer1$C$L1
 62
     3
 10
-163.8331104381
 20
73.8075203627
 40
14.2000000000
 50
58.1181742373
 51
65.2921207350
  0
ARC
  8
Layer1$C$L1
 62
     3
 10
-163.8331104381
 20
73.8075203627
 40
13.9000000000
 50
58.8027729567
 51
65.0226548459
  0
ARC
  8
Layer1$C$L1
 62
     3
 10
-163.8331104381
 20
73.8075203627
 40
14.2000000000
 50
328.1181742373
 51
335.2921207350
  0
ARC
  8
Layer1$C$L1
 62
     3
 10
-163.8331104381
 20
73.8075203627
 40
13.9000000000
 50
294.9773451541
 51
301.1972270433
  0
ARC
  8
Layer1$C$L1
 62
     3
 10
-163.8331104381
 20
73.8075203627
 40
13.9000000000
 50
328.8027729567
 51
335.0226548459
  0
ARC
  8
Layer1$C$L1
 62
     3
 10
-163.8331104381
 20
73.8075203627
 40
14.2000000000
 50
24.7078792650
 51
31.8818257627
  0
ARC
  8
Layer1$C$L1
 62
     3
 10
-161.1694038572
 20
84.7407359271
 40
1.1019116200
 50
315.9233712006
 51
355.6211381635
  0
ARC
  8
Layer1$C$L1
 62
     3
 10
-161.1194235709
 20
84.6868927499
 40
0.7873633670
 50
316.4911336509
 51
358.6233596185
  0
ARC
  8
Layer1$C$L1
 62
     3
 10
-160.7304263775
 20
84.6957238118
 40
0.3991046229
 50
356.0133811639
 51
402.1736028371
  0
ARC
  8
Layer1$C$L1
 62
     3
 10
-160.6825561441
 20
84.6873176933
 40
0.6126178327
 50
357.1262317442
 51
402.3674414666
  0
ARC
  8
Layer1$C$L1
 62
     3
 10
-160.6138116122
 20
84.7477014163
 40
0.5006950786
 50
87.7169923328
 51
133.3950981064
  0
ARC
  8
Layer1$C$L1
 62
     3
 10
-160.6055183478
 20
84.7847531036
 40
0.2474080370
 50
46.3178941598
 51
92.5700154011
  0
ARC
  8
Layer1$C$L1
 62
     3
 10
-160.5947642468
 20
84.7607566746
 40
0.2720343730
 50
94.6065631175
 51
138.5235392366
  0
CIRCLE
  8
Layer1$C$L1
 62
     3
 10
-160.5831104381
 20
68.2075203627
 40
0.5000000000
  0
CIRCLE
  8
Layer1$C$L1
 62
     3
 10
-160.5831104381
 20
68.2075203627
 40
0.8000000000
  0
CIRCLE
  8
Layer1$C$L1
 62
     3
 10
-160.5831104381
 20
68.2075203627
 40
1.0000000000
  0
ARC
  8
Layer1$C$L1
 62
     3
 10
-160.5825327213
 20
84.7540516537
 40
0.4940774205
 50
44.4666996868
 51
91.3144036257
  0
ARC
  8
Layer1$C$L1
 62
     3
 10
-160.3061101324
 20
84.5711686747
 40
0.8465725497
 50
140.3359473840
 51
183.4565265470
  0
ARC
  8
Layer1$C$L1
 62
     3
 10
-157.2192122804
 20
66.3733140939
 40
5.3342176236
 50
48.2377880243
 51
58.0224166840
  0
ARC
  8
Layer1$C$L1
 62
     3
 10
-156.8137648038
 20
66.7445252871
 40
5.0283251290
 50
48.7113709588
 51
61.6806055358
  0
ARC
  8
Layer1$C$L1
 62
     3
 10
-156.7701153626
 20
80.8268659970
 40
5.0283251290
 50
138.7113709588
 51
151.6806055358
  0
ARC
  8
Layer1$C$L1
 62
     3
 10
-156.3989041693
 20
80.4214185204
 40
5.3342176236
 50
138.2377880243
 51
148.0224166840
  0
ARC
  8
Layer1$C$L1
 62
     3
 10
-153.0694621262
 20
70.2805200570
 40
0.8465725497
 50
50.3359473840
 51
93.4565265470
  0
ARC
  8
Layer1$C$L1
 62
     3
 10
-152.9537380510
 20
71.0938334955
 40
0.7873633670
 50
226.4911336509
 51
268.6233596185
  0
ARC
  8
Layer1$C$L1
 62
     3
 10
-152.9533131076
 20
70.6569660687
 40
0.6126178327
 50
267.1262317442
 51
312.3674414666
  0
ARC
  8
Layer1$C$L1
 62
     3
 10
-152.9449069890
 20
70.7048363020
 40
0.3991046229
 50
266.0133811639
 51
312.1736028371
  0
ARC
  8
Layer1$C$L1
 62
     3
 10
-152.8998948737
 20
71.1438137818
 40
1.1019116200
 50
225.9233712006
 51
265.6211381635
  0
ARC
  8
Layer1$C$L1
 62
     3
 10
-152.8929293845
 20
70.5882215368
 40
0.5006950786
 50
357.7169923328
 51
403.3950981064
  0
ARC
  8
Layer1$C$L1
 62
     3
 10
-152.8865791471
 20
70.5569426458
 40
0.4940774205
 50
314.4666996868
 51
361.3144036257
  0
ARC
  8
Layer1$C$L1
 62
     3
 10
-152.8798741263
 20
70.5691741714
 40
0.2720343730
 50
4.6065631175
 51
48.5235392366
  0
ARC
  8
Layer1$C$L1
 62
     3
 10
-152.8558776972
 20
70.5799282724
 40
0.2474080370
 50
316.3178941598
 51
362.5700154011
  0
POLYLINE
  8
Layer1$C$L1
 62
     3
 66
     1
  0
VERTEX
  8
Layer1$C$L1
 62
     3
 10
-69.1600805985
 20
73.1436245307
  0
VERTEX
  8
Layer1$C$L1
 62
     3
 10
-69.1455697337
 20
73.1188584898
  0
VERTEX
  8
Layer1$C$L1
 62
     3
 10
-69.0903913175
 20
73.0742774775
  0
VERTEX
  8
Layer1$C$L1
 62
     3
 10
-69.0456203993
 20
73.0535926573
  0
VERTEX
  8
Layer1$C$L1
 62
     3
 10
-68.9925353784
 20
73.0416996775
  0
SEQEND
  8
Layer1$C$L1
 62
     3
  0
POLYLINE
  8
Layer1$C$L1
 62
     3
 66
     1
  0
VERTEX
  8
Layer1$C$L1
 62
     3
 10
-101.8159562540
 20
88.6956754755
  0
VERTEX
  8
Layer1$C$L1
 62
     3
 10
-101.7333958401
 20
88.6614785203
  0
VERTEX
  8
Layer1$C$L1
 62
     3
 10
-101.6584968534
 20
88.5945082405
  0
VERTEX
  8
Layer1$C$L1
 62
     3
 10
-101.6099270908
 20
88.5066025427
  0
VERTEX
  8
Layer1$C$L1
 62
     3
 10
-101.5930926025
 20
88.4075203627
  0
SEQEND
  8
Layer1$C$L1
 62
     3
  0
POLYLINE
  8
Layer1$C$L1
 62
     3
 66
     1
  0
VERTEX
  8
Layer1$C$L1
 62
     3
 10
-102.8930926025
 20
85.5591715842
  0
VERTEX
  8
Layer1$C$L1
 62
     3
 10
-102.8888871987
 20
85.5582494515
  0
VERTEX
  8
Layer1$C$L1
 62
     3
 10
-102.8586086492
 20
85.5502279829
  0
VERTEX
  8
Layer1$C$L1
 62
     3
 10
-102.7615158735
 20
85.5070082053
  0
VERTEX
  8
Layer1$C$L1
 62
     3
 10
-102.6812638643
 20
85.4446648376
  0
VERTEX
  8
Layer1$C$L1
 62
     3
 10
-102.6229774371
 20
85.3675240389
  0
SEQEND
  8
Layer1$C$L1
 62
     3
  0
POLYLINE
  8
Layer1$C$L1
 62
     3
 66
     1
  0
VERTEX
  8
Layer1$C$L1
 62
     3
 10
-101.8930926025
 20
86.2877676095
  0
VERTEX
  8
Layer1$C$L1
 62
     3
 10
-101.8889845052
 20
86.2869263471
  0
VERTEX
  8
Layer1$C$L1
 62
     3
 10
-101.8407741160
 20
86.2734917129
  0
VERTEX
  8
Layer1$C$L1
 62
     3
 10
-101.7461909693
 20
86.2262504675
  0
VERTEX
  8
Layer1$C$L1
 62
     3
 10
-101.6698881839
 20
86.1597599805
  0
VERTEX
  8
Layer1$C$L1
 62
     3
 10
-101.6164379598
 20
86.0783273353
  0
SEQEND
  8
Layer1$C$L1
 62
     3
  0
POLYLINE
  8
Layer1$C$L1
 62
     3
 66
     1
  0
VERTEX
  8
Layer1$C$L1
 62
     3
 10
-71.3943714771
 20
59.3256655240
  0
VERTEX
  8
Layer1$C$L1
 62
     3
 10
-71.0228326824
 20
59.3581936714
  0
VERTEX
  8
Layer1$C$L1
 62
     3
 10
-70.6905527078
 20
59.4448157573
  0
VERTEX
  8
Layer1$C$L1
 62
     3
 10
-70.5318808352
 20
59.5073479296
  0
VERTEX
  8
Layer1$C$L1
 62
     3
 10
-70.4399938338
 20
59.5505299494
  0
VERTEX
  8
Layer1$C$L1
 62
     3
 10
-70.4340039990
 20
59.5535403165
  0
SEQEND
  8
Layer1$C$L1
 62
     3
  0
POLYLINE
  8
Layer1$C$L1
 62
     3
 66
     1
  0
VERTEX
  8
Layer1$C$L1
 62
     3
 10
-101.8930926025
 20
67.7206492453
  0
VERTEX
  8
Layer1$C$L1
 62
     3
 10
-101.7954333853
 20
67.7241401723
  0
VERTEX
  8
Layer1$C$L1
 62
     3
 10
-101.7087983857
 20
67.7341795964
  0
VERTEX
  8
Layer1$C$L1
 62
     3
 10
-101.6419061481
 20
67.7497588760
  0
VERTEX
  8
Layer1$C$L1
 62
     3
 10
-101.6019055569
 20
67.7695015868
  0
VERTEX
  8
Layer1$C$L1
 62
     3
 10
-101.5931389331
 20
67.7839244479
  0
VERTEX
  8
Layer1$C$L1
 62
     3
 10
-101.5930926025
 20
67.7850623927
  0
SEQEND
  8
Layer1$C$L1
 62
     3
  0
POLYLINE
  8
Layer1$C$L1
 62
     3
 66
     1
  0
VERTEX
  8
Layer1$C$L1
 62
     3
 10
-101.8930926025
 20
79.8943914801
  0
VERTEX
  8
Layer1$C$L1
 62
     3
 10
-101.7954333853
 20
79.8909005531
  0
VERTEX
  8
Layer1$C$L1
 62
     3
 10
-101.7087983857
 20
79.8808611290
  0
VERTEX
  8
Layer1$C$L1
 62
     3
 10
-101.6419061481
 20
79.8652818493
  0
VERTEX
  8
Layer1$C$L1
 62
     3
 10
-101.6019055569
 20
79.8455391386
  0
VERTEX
  8
Layer1$C$L1
 62
     3
 10
-101.5931389331
 20
79.8311162775
  0
VERTEX
  8
Layer1$C$L1
 62
     3
 10
-101.5930926025
 20
79.8299783327
  0
SEQEND
  8
Layer1$C$L1
 62
     3
  0
POLYLINE
  8
Layer1$C$L1
 62
     3
 66
     1
  0
VERTEX
  8
Layer1$C$L1
 62
     3
 10
-70.4340076059
 20
88.0615022216
  0
VERTEX
  8
Layer1$C$L1
 62
     3
 10
-70.4305950578
 20
88.0597871455
  0
VERTEX
  8
Layer1$C$L1
 62
     3
 10
-70.4810130660
 20
88.0844509604
  0
VERTEX
  8
Layer1$C$L1
 62
     3
 10
-70.5846465534
 20
88.1301244052
  0
VERTEX
  8
Layer1$C$L1
 62
     3
 10
-70.7477356207
 20
88.1892584907
  0
VERTEX
  8
Layer1$C$L1
 62
     3
 10
-71.0478955832
 20
88.2611156671
  0
VERTEX
  8
Layer1$C$L1
 62
     3
 10
-71.3943714771
 20
88.2893752014
  0
SEQEND
  8
Layer1$C$L1
 62
     3
  0
POLYLINE
  8
Layer1$C$L1
 62
     3
 66
     1
  0
VERTEX
  8
Layer1$C$L1
 62
     3
 10
-69.0651346581
 20
81.1614308870
  0
VERTEX
  8
Layer1$C$L1
 62
     3
 10
-69.0520947889
 20
81.0907598862
  0
VERTEX
  8
Layer1$C$L1
 62
     3
 10
-69.0391808480
 20
81.0200773245
  0
VERTEX
  8
Layer1$C$L1
 62
     3
 10
-69.0263928560
 20
80.9493833143
  0
VERTEX
  8
Layer1$C$L1
 62
     3
 10
-69.0137308331
 20
80.8786779676
  0
VERTEX
  8
Layer1$C$L1
 62
     3
 10
-69.0011947994
 20
80.8079613968
  0
VERTEX
  8
Layer1$C$L1
 62
     3
 10
-68.9887847749
 20
80.7372337141
  0
VERTEX
  8
Layer1$C$L1
 62
     3
 10
-68.9765007792
 20
80.6664950318
  0
VERTEX
  8
Layer1$C$L1
 62
     3
 10
-68.9643428318
 20
80.5957454621
  0
SEQEND
  8
Layer1$C$L1
 62
     3
  0
POLYLINE
  8
Layer1$C$L1
 62
     3
 66
     1
  0
VERTEX
  8
Layer1$C$L1
 62
     3
 10
-69.0651346581
 20
63.7618917693
  0
VERTEX
  8
Layer1$C$L1
 62
     3
 10
-69.0520947889
 20
63.8584301518
  0
VERTEX
  8
Layer1$C$L1
 62
     3
 10
-69.0391808480
 20
63.9549843266
  0
VERTEX
  8
Layer1$C$L1
 62
     3
 10
-69.0263928560
 20
64.0515541405
  0
VERTEX
  8
Layer1$C$L1
 62
     3
 10
-69.0137308331
 20
64.1481394402
  0
VERTEX
  8
Layer1$C$L1
 62
     3
 10
-69.0011947994
 20
64.2447400723
  0
VERTEX
  8
Layer1$C$L1
 62
     3
 10
-68.9887847749
 20
64.3413558837
  0
VERTEX
  8
Layer1$C$L1
 62
     3
 10
-68.9765007792
 20
64.4379867208
  0
VERTEX
  8
Layer1$C$L1
 62
     3
 10
-68.9643428318
 20
64.5346324303
  0
SEQEND
  8
Layer1$C$L1
 62
     3
  0
POLYLINE
  8
Layer1$C$L1
 62
     3
 66
     1
  0
VERTEX
  8
Layer1$C$L1
 62
     3
 10
-68.9643428318
 20
72.9708252323
  0
VERTEX
  8
Layer1$C$L1
 62
     3
 10
-68.9523255166
 20
72.9795363144
  0
VERTEX
  8
Layer1$C$L1
 62
     3
 10
-68.9404339814
 20
72.9882487076
  0
VERTEX
  8
Layer1$C$L1
 62
     3
 10
-68.9286682451
 20
72.9969623980
  0
VERTEX
  8
Layer1$C$L1
 62
     3
 10
-68.9170283263
 20
73.0056773720
  0
VERTEX
  8
Layer1$C$L1
 62
     3
 10
-68.9055142434
 20
73.0143936156
  0
VERTEX
  8
Layer1$C$L1
 62
     3
 10
-68.8941260146
 20
73.0231111151
  0
VERTEX
  8
Layer1$C$L1
 62
     3
 10
-68.8828636580
 20
73.0318298567
  0
VERTEX
  8
Layer1$C$L1
 62
     3
 10
-68.8717271915
 20
73.0405498265
  0
SEQEND
  8
Layer1$C$L1
 62
     3
  0
POLYLINE
  8
Layer1$C$L1
 62
     3
 66
     1
  0
VERTEX
  8
Layer1$C$L1
 62
     3
 10
-68.8717271915
 20
73.0405498265
  0
VERTEX
  8
Layer1$C$L1
 62
     3
 10
-68.8811771446
 20
73.4602290493
  0
VERTEX
  8
Layer1$C$L1
 62
     3
 10
-68.8929989805
 20
73.8798521322
  0
VERTEX
  8
Layer1$C$L1
 62
     3
 10
-68.9071923466
 20
74.2994065567
  0
VERTEX
  8
Layer1$C$L1
 62
     3
 10
-68.9237568195
 20
74.7188798061
  0
VERTEX
  8
Layer1$C$L1
 62
     3
 10
-68.9426919049
 20
75.1382593663
  0
VERTEX
  8
Layer1$C$L1
 62
     3
 10
-68.9639970380
 20
75.5575327259
  0
VERTEX
  8
Layer1$C$L1
 62
     3
 10
-68.9876715832
 20
75.9766873766
  0
VERTEX
  8
Layer1$C$L1
 62
     3
 10
-69.0137148342
 20
76.3957108137
  0
SEQEND
  8
Layer1$C$L1
 62
     3
  0
POLYLINE
  8
Layer1$C$L1
 62
     3
 66
     1
  0
VERTEX
  8
Layer1$C$L1
 62
     3
 10
-69.0137148342
 20
76.3957108137
  0
VERTEX
  8
Layer1$C$L1
 62
     3
 10
-69.0234562827
 20
75.9498325910
  0
VERTEX
  8
Layer1$C$L1
 62
     3
 10
-69.0361449278
 20
75.5040173732
  0
VERTEX
  8
Layer1$C$L1
 62
     3
 10
-69.0517802983
 20
75.0582817158
  0
VERTEX
  8
Layer1$C$L1
 62
     3
 10
-69.0703618137
 20
74.6126421716
  0
VERTEX
  8
Layer1$C$L1
 62
     3
 10
-69.0918887837
 20
74.1671152899
  0
VERTEX
  8
Layer1$C$L1
 62
     3
 10
-69.1163604091
 20
73.7217176154
  0
VERTEX
  8
Layer1$C$L1
 62
     3
 10
-69.1437757810
 20
73.2764656885
  0
VERTEX
  8
Layer1$C$L1
 62
     3
 10
-69.1741338814
 20
72.8313760439
  0
SEQEND
  8
Layer1$C$L1
 62
     3
  0
POLYLINE
  8
Layer1$C$L1
 62
     3
 66
     1
  0
VERTEX
  8
Layer1$C$L1
 62
     3
 10
-69.1741338814
 20
72.8313760439
  0
VERTEX
  8
Layer1$C$L1
 62
     3
 10
-69.1600675100
 20
72.8400863263
  0
VERTEX
  8
Layer1$C$L1
 62
     3
 10
-69.1461272285
 20
72.8487981485
  0
VERTEX
  8
Layer1$C$L1
 62
     3
 10
-69.1323130592
 20
72.8575114964
  0
VERTEX
  8
Layer1$C$L1
 62
     3
 10
-69.1186250241
 20
72.8662263563
  0
VERTEX
  8
Layer1$C$L1
 62
     3
 10
-69.1050631450
 20
72.8749427143
  0
VERTEX
  8
Layer1$C$L1
 62
     3
 10
-69.0916274434
 20
72.8836605565
  0
VERTEX
  8
Layer1$C$L1
 62
     3
 10
-69.0783179407
 20
72.8923798691
  0
VERTEX
  8
Layer1$C$L1
 62
     3
 10
-69.0651346581
 20
72.9011006381
  0
SEQEND
  8
Layer1$C$L1
 62
     3
  0
POLYLINE
  8
Layer1$C$L1
 62
     3
 66
     1
  0
VERTEX
  8
Layer1$C$L1
 62
     3
 10
-100.6087799108
 20
87.1175486788
  0
VERTEX
  8
Layer1$C$L1
 62
     3
 10
-100.6898913398
 20
87.3360180805
  0
VERTEX
  8
Layer1$C$L1
 62
     3
 10
-100.8428136976
 20
87.6912494715
  0
VERTEX
  8
Layer1$C$L1
 62
     3
 10
-101.0023158060
 20
88.0003057775
  0
VERTEX
  8
Layer1$C$L1
 62
     3
 10
-101.1732989028
 20
88.2630144782
  0
VERTEX
  8
Layer1$C$L1
 62
     3
 10
-101.3650929610
 20
88.4777447691
  0
VERTEX
  8
Layer1$C$L1
 62
     3
 10
-101.5387781901
 20
88.6065051465
  0
VERTEX
  8
Layer1$C$L1
 62
     3
 10
-101.7154595266
 20
88.6817641514
  0
VERTEX
  8
Layer1$C$L1
 62
     3
 10
-101.8986837600
 20
88.7071270837
  0
VERTEX
  8
Layer1$C$L1
 62
     3
 10
-101.9021484559
 20
88.7066364736
  0
SEQEND
  8
Layer1$C$L1
 62
     3
  0
POLYLINE
  8
Layer1$C$L1
 62
     3
 66
     1
  0
VERTEX
  8
Layer1$C$L1
 62
     3
 10
-71.3943714771
 20
87.6640373364
  0
VERTEX
  8
Layer1$C$L1
 62
     3
 10
-71.0228326824
 20
87.6170584745
  0
VERTEX
  8
Layer1$C$L1
 62
     3
 10
-70.6905527078
 20
87.4814568738
  0
VERTEX
  8
Layer1$C$L1
 62
     3
 10
-70.5318808352
 20
87.3651959413
  0
VERTEX
  8
Layer1$C$L1
 62
     3
 10
-70.4399938338
 20
87.2498598110
  0
VERTEX
  8
Layer1$C$L1
 62
     3
 10
-70.4305950578
 20
87.1745349626
  0
VERTEX
  8
Layer1$C$L1
 62
     3
 10
-70.4810130660
 20
87.1351808174
  0
VERTEX
  8
Layer1$C$L1
 62
     3
 10
-70.5846465534
 20
87.1227828986
  0
VERTEX
  8
Layer1$C$L1
 62
     3
 10
-70.7477356207
 20
87.1308944439
  0
VERTEX
  8
Layer1$C$L1
 62
     3
 10
-71.0478955832
 20
87.1555951511
  0
VERTEX
  8
Layer1$C$L1
 62
     3
 10
-71.3943714771
 20
87.1679876434
  0
SEQEND
  8
Layer1$C$L1
 62
     3
  0
POLYLINE
  8
Layer1$C$L1
 62
     3
 66
     1
  0
VERTEX
  8
Layer1$C$L1
 62
     3
 10
-71.3943714771
 20
60.4470530820
  0
VERTEX
  8
Layer1$C$L1
 62
     3
 10
-71.0228326824
 20
60.4612071402
  0
VERTEX
  8
Layer1$C$L1
 62
     3
 10
-70.6905527078
 20
60.4884018093
  0
VERTEX
  8
Layer1$C$L1
 62
     3
 10
-70.5318808352
 20
60.4896629186
  0
VERTEX
  8
Layer1$C$L1
 62
     3
 10
-70.4399938338
 20
60.4554824389
  0
VERTEX
  8
Layer1$C$L1
 62
     3
 10
-70.4305950578
 20
60.3890351121
  0
VERTEX
  8
Layer1$C$L1
 62
     3
 10
-70.4810130660
 20
60.3033281570
  0
VERTEX
  8
Layer1$C$L1
 62
     3
 10
-70.5846465534
 20
60.2050922401
  0
VERTEX
  8
Layer1$C$L1
 62
     3
 10
-70.7477356207
 20
60.1020680580
  0
VERTEX
  8
Layer1$C$L1
 62
     3
 10
-71.0478955832
 20
59.9917214482
  0
VERTEX
  8
Layer1$C$L1
 62
     3
 10
-71.3943714771
 20
59.9510033889
  0
SEQEND
  8
Layer1$C$L1
 62
     3
  0
POLYLINE
  8
Layer1$C$L1
 62
     3
 66
     1
  0
VERTEX
  8
Layer1$C$L1
 62
     3
 10
-71.3943714771
 20
67.1946139007
  0
VERTEX
  8
Layer1$C$L1
 62
     3
 10
-71.0228326824
 20
67.1693203141
  0
VERTEX
  8
Layer1$C$L1
 62
     3
 10
-70.6905527078
 20
67.0753833637
  0
VERTEX
  8
Layer1$C$L1
 62
     3
 10
-70.5318808352
 20
66.9610545626
  0
VERTEX
  8
Layer1$C$L1
 62
     3
 10
-70.4399938338
 20
66.7933508993
  0
VERTEX
  8
Layer1$C$L1
 62
     3
 10
-70.4305950578
 20
66.6162228401
  0
VERTEX
  8
Layer1$C$L1
 62
     3
 10
-70.4810130660
 20
66.4455580215
  0
VERTEX
  8
Layer1$C$L1
 62
     3
 10
-70.5846465534
 20
66.2826539461
  0
VERTEX
  8
Layer1$C$L1
 62
     3
 10
-70.7477356207
 20
66.1329232871
  0
VERTEX
  8
Layer1$C$L1
 62
     3
 10
-71.0478955832
 20
65.9885631797
  0
VERTEX
  8
Layer1$C$L1
 62
     3
 10
-71.3943714771
 20
65.9385719860
  0
SEQEND
  8
Layer1$C$L1
 62
     3
  0
POLYLINE
  8
Layer1$C$L1
 62
     3
 66
     1
  0
VERTEX
  8
Layer1$C$L1
 62
     3
 10
-71.3943714771
 20
77.0364271473
  0
VERTEX
  8
Layer1$C$L1
 62
     3
 10
-71.0228326824
 20
76.9835210661
  0
VERTEX
  8
Layer1$C$L1
 62
     3
 10
-70.6905527078
 20
76.8124066393
  0
VERTEX
  8
Layer1$C$L1
 62
     3
 10
-70.5318808352
 20
76.6359836445
  0
VERTEX
  8
Layer1$C$L1
 62
     3
 10
-70.4399938338
 20
76.4132272054
  0
VERTEX
  8
Layer1$C$L1
 62
     3
 10
-70.4305950578
 20
76.2082986012
  0
VERTEX
  8
Layer1$C$L1
 62
     3
 10
-70.4810130660
 20
76.0325318845
  0
VERTEX
  8
Layer1$C$L1
 62
     3
 10
-70.5846465534
 20
75.8811842780
  0
VERTEX
  8
Layer1$C$L1
 62
     3
 10
-70.7477356207
 20
75.7548077814
  0
VERTEX
  8
Layer1$C$L1
 62
     3
 10
-71.0478955832
 20
75.6439818751
  0
VERTEX
  8
Layer1$C$L1
 62
     3
 10
-71.3943714771
 20
75.6081089821
  0
SEQEND
  8
Layer1$C$L1
 62
     3
  0
POLYLINE
  8
Layer1$C$L1
 62
     3
 66
     1
  0
VERTEX
  8
Layer1$C$L1
 62
     3
 10
-71.3943714771
 20
85.3673990240
  0
VERTEX
  8
Layer1$C$L1
 62
     3
 10
-71.0228326824
 20
85.3116357916
  0
VERTEX
  8
Layer1$C$L1
 62
     3
 10
-70.6905527078
 20
85.1434102304
  0
VERTEX
  8
Layer1$C$L1
 62
     3
 10
-70.5318808352
 20
84.9874433220
  0
VERTEX
  8
Layer1$C$L1
 62
     3
 10
-70.4399938338
 20
84.8138643206
  0
VERTEX
  8
Layer1$C$L1
 62
     3
 10
-70.4305950578
 20
84.6770235429
  0
VERTEX
  8
Layer1$C$L1
 62
     3
 10
-70.4810130660
 20
84.5783981282
  0
VERTEX
  8
Layer1$C$L1
 62
     3
 10
-70.5846465534
 20
84.5094242177
  0
VERTEX
  8
Layer1$C$L1
 62
     3
 10
-70.7477356207
 20
84.4655348509
  0
VERTEX
  8
Layer1$C$L1
 62
     3
 10
-71.0478955832
 20
84.4400998189
  0
VERTEX
  8
Layer1$C$L1
 62
     3
 10
-71.3943714771
 20
84.4351305518
  0
SEQEND
  8
Layer1$C$L1
 62
     3
  0
POLYLINE
  8
Layer1$C$L1
 62
     3
 66
     1
  0
VERTEX
  8
Layer1$C$L1
 62
     3
 10
-71.3943714771
 20
81.6764687394
  0
VERTEX
  8
Layer1$C$L1
 62
     3
 10
-71.0228326824
 20
81.6186470054
  0
VERTEX
  8
Layer1$C$L1
 62
     3
 10
-70.6905527078
 20
81.4380879691
  0
VERTEX
  8
Layer1$C$L1
 62
     3
 10
-70.5318808352
 20
81.2612269957
  0
VERTEX
  8
Layer1$C$L1
 62
     3
 10
-70.4399938338
 20
81.0503413126
  0
VERTEX
  8
Layer1$C$L1
 62
     3
 10
-70.4305950578
 20
80.8684896229
  0
VERTEX
  8
Layer1$C$L1
 62
     3
 10
-70.4810130660
 20
80.7224886192
  0
VERTEX
  8
Layer1$C$L1
 62
     3
 10
-70.5846465534
 20
80.6052579887
  0
VERTEX
  8
Layer1$C$L1
 62
     3
 10
-70.7477356207
 20
80.5146614151
  0
VERTEX
  8
Layer1$C$L1
 62
     3
 10
-71.0478955832
 20
80.4421584842
  0
VERTEX
  8
Layer1$C$L1
 62
     3
 10
-71.3943714771
 20
80.4204268247
  0
SEQEND
  8
Layer1$C$L1
 62
     3
  0
POLYLINE
  8
Layer1$C$L1
 62
     3
 66
     1
  0
VERTEX
  8
Layer1$C$L1
 62
     3
 10
-71.3943714771
 20
63.1799101735
  0
VERTEX
  8
Layer1$C$L1
 62
     3
 10
-71.0228326824
 20
63.1739829543
  0
VERTEX
  8
Layer1$C$L1
 62
     3
 10
-70.6905527078
 20
63.1384701282
  0
VERTEX
  8
Layer1$C$L1
 62
     3
 10
-70.5318808352
 20
63.0783080659
  0
VERTEX
  8
Layer1$C$L1
 62
     3
 10
-70.4399938338
 20
62.9708877572
  0
VERTEX
  8
Layer1$C$L1
 62
     3
 10
-70.4305950578
 20
62.8412840013
  0
VERTEX
  8
Layer1$C$L1
 62
     3
 10
-70.4810130660
 20
62.7048714298
  0
VERTEX
  8
Layer1$C$L1
 62
     3
 10
-70.5846465534
 20
62.5659217421
  0
VERTEX
  8
Layer1$C$L1
 62
     3
 10
-70.7477356207
 20
62.4314337002
  0
VERTEX
  8
Layer1$C$L1
 62
     3
 10
-71.0478955832
 20
62.2959070868
  0
VERTEX
  8
Layer1$C$L1
 62
     3
 10
-71.3943714771
 20
62.2476417013
  0
SEQEND
  8
Layer1$C$L1
 62
     3
  0
POLYLINE
  8
Layer1$C$L1
 62
     3
 66
     1
  0
VERTEX
  8
Layer1$C$L1
 62
     3
 10
-71.3943714771
 20
72.0069317433
  0
VERTEX
  8
Layer1$C$L1
 62
     3
 10
-71.0228326824
 20
71.9653225692
  0
VERTEX
  8
Layer1$C$L1
 62
     3
 10
-70.6905527078
 20
71.8242916771
  0
VERTEX
  8
Layer1$C$L1
 62
     3
 10
-70.5318808352
 20
71.6695858779
  0
VERTEX
  8
Layer1$C$L1
 62
     3
 10
-70.4399938338
 20
71.4618263969
  0
VERTEX
  8
Layer1$C$L1
 62
     3
 10
-70.4305950578
 20
71.2585382923
  0
VERTEX
  8
Layer1$C$L1
 62
     3
 10
-70.4810130660
 20
71.0742059225
  0
VERTEX
  8
Layer1$C$L1
 62
     3
 10
-70.5846465534
 20
70.9069960951
  0
VERTEX
  8
Layer1$C$L1
 62
     3
 10
-70.7477356207
 20
70.7600825462
  0
VERTEX
  8
Layer1$C$L1
 62
     3
 10
-71.0478955832
 20
70.6243009044
  0
VERTEX
  8
Layer1$C$L1
 62
     3
 10
-71.3943714771
 20
70.5786135781
  0
SEQEND
  8
Layer1$C$L1
 62
     3
  0
LINE
  8
Layer1$C$L1
 62
     3
 10
-117.1930926025
 20
69.5575203627
 11
-116.6930926025
 21
69.7075203627
  0
LINE
  8
Layer1$C$L1
 62
     3
 10
-117.1930926025
 20
78.0575203627
 11
-116.6930926025
 21
77.9075203627
  0
LINE
  8
Layer1$C$L1
 62
     3
 10
-117.1930926025
 20
69.5575203627
 11
-117.1930926025
 21
69.3575203627
  0
LINE
  8
Layer1$C$L1
 62
     3
 10
-117.1930926025
 20
78.2575203627
 11
-117.1930926025
 21
78.0575203627
  0
LINE
  8
Layer1$C$L1
 62
     3
 10
-117.1930926025
 20
69.3575203627
 11
-116.6930926025
 21
69.2075203627
  0
LINE
  8
Layer1$C$L1
 62
     3
 10
-117.1930926025
 20
78.2575203627
 11
-116.6930926025
 21
78.4075203627
  0
LINE
  8
Layer1$C$L1
 62
     3
 10
-116.6930926025
 20
78.4075203627
 11
-115.0930926025
 21
78.4075203627
  0
LINE
  8
Layer1$C$L1
 62
     3
 10
-116.6930926025
 20
62.5110963583
 11
-116.6930926025
 21
65.3039443671
  0
LINE
  8
Layer1$C$L1
 62
     3
 10
-116.6930926025
 20
82.3110963583
 11
-116.6930926025
 21
85.1039443671
  0
LINE
  8
Layer1$C$L1
 62
     3
 10
-116.6930926025
 20
69.2075203627
 11
-115.0930926025
 21
69.2075203627
  0
LINE
  8
Layer1$C$L1
 62
     3
 10
-116.6930926025
 20
77.9075203627
 11
-115.0930926025
 21
77.9075203627
  0
LINE
  8
Layer1$C$L1
 62
     3
 10
-116.6930926025
 20
69.7075203627
 11
-115.0930926025
 21
69.7075203627
  0
LINE
  8
Layer1$C$L1
 62
     3
 10
-116.6901488774
 20
78.4075203627
 11
-116.6901488774
 21
77.9075203627
  0
LINE
  8
Layer1$C$L1
 62
     3
 10
-116.6901488774
 20
82.3075203627
 11
-115.0930926025
 21
82.3075203627
  0
LINE
  8
Layer1$C$L1
 62
     3
 10
-116.6901488774
 20
62.5075203627
 11
-115.0930926025
 21
62.5075203627
  0
LINE
  8
Layer1$C$L1
 62
     3
 10
-116.6901488774
 20
65.3075203627
 11
-115.0930926025
 21
65.3075203627
  0
LINE
  8
Layer1$C$L1
 62
     3
 10
-116.6901488774
 20
85.1075203627
 11
-115.0930926025
 21
85.1075203627
  0
LINE
  8
Layer1$C$L1
 62
     3
 10
-116.6901488774
 20
69.7075203627
 11
-116.6901488774
 21
69.2075203627
  0
LINE
  8
Layer1$C$L1
 62
     3
 10
-116.5930926025
 20
68.7075203627
 11
-116.2930926025
 21
69.0075203627
  0
LINE
  8
Layer1$C$L1
 62
     3
 10
-116.5930926025
 20
67.7075203627
 11
-116.5930926025
 21
68.7075203627
  0
LINE
  8
Layer1$C$L1
 62
     3
 10
-116.5930926025
 20
79.9075203627
 11
-116.2930926025
 21
80.2075203627
  0
LINE
  8
Layer1$C$L1
 62
     3
 10
-116.5930926025
 20
78.9075203627
 11
-116.2930926025
 21
78.6075203627
  0
LINE
  8
Layer1$C$L1
 62
     3
 10
-116.5930926025
 20
78.9075203627
 11
-116.5930926025
 21
79.9075203627
  0
LINE
  8
Layer1$C$L1
 62
     3
 10
-116.5930926025
 20
67.7075203627
 11
-116.2930926025
 21
67.4075203627
  0
LINE
  8
Layer1$C$L1
 62
     3
 10
-116.2930926025
 20
67.4075203627
 11
-116.2930926025
 21
69.0075203627
  0
LINE
  8
Layer1$C$L1
 62
     3
 10
-116.2930926025
 20
67.4075203627
 11
-115.0930926025
 21
67.4075203627
  0
LINE
  8
Layer1$C$L1
 62
     3
 10
-116.2930926025
 20
78.6075203627
 11
-116.2930926025
 21
80.2075203627
  0
LINE
  8
Layer1$C$L1
 62
     3
 10
-116.2930926025
 20
69.0075203627
 11
-115.0930926025
 21
69.0075203627
  0
LINE
  8
Layer1$C$L1
 62
     3
 10
-116.2930926025
 20
80.2075203627
 11
-115.0930926025
 21
80.2075203627
  0
LINE
  8
Layer1$C$L1
 62
     3
 10
-116.2930926025
 20
78.6075203627
 11
-115.0930926025
 21
78.6075203627
  0
LINE
  8
Layer1$C$L1
 62
     3
 10
-115.7930926025
 20
63.3075203627
 11
-115.0930926025
 21
63.3075203627
  0
LINE
  8
Layer1$C$L1
 62
     3
 10
-115.7930926025
 20
84.3075203627
 11
-115.0930926025
 21
84.3075203627
  0
LINE
  8
Layer1$C$L1
 62
     3
 10
-115.7930926025
 20
83.1075203627
 11
-115.0930926025
 21
83.1075203627
  0
LINE
  8
Layer1$C$L1
 62
     3
 10
-115.7930926025
 20
64.5075203627
 11
-115.0930926025
 21
64.5075203627
  0
LINE
  8
Layer1$C$L1
 62
     3
 10
-115.0930926025
 20
82.0075203627
 11
-103.5930926025
 21
82.0075203627
  0
LINE
  8
Layer1$C$L1
 62
     3
 10
-115.0930926025
 20
86.2481795092
 11
-103.5930926025
 21
86.2481795092
  0
LINE
  8
Layer1$C$L1
 62
     3
 10
-115.0930926025
 20
87.4075203627
 11
-103.5930926025
 21
87.4075203627
  0
LINE
  8
Layer1$C$L1
 62
     3
 10
-115.0930926025
 20
87.4075203627
 11
-115.0930926025
 21
60.2075203627
  0
LINE
  8
Layer1$C$L1
 62
     3
 10
-115.0930926025
 20
61.7112399427
 11
-103.5930926025
 21
61.7112399427
  0
LINE
  8
Layer1$C$L1
 62
     3
 10
-115.0930926025
 20
67.7206492453
 11
-101.8930926025
 21
67.7206492453
  0
LINE
  8
Layer1$C$L1
 62
     3
 10
-115.0930926025
 20
79.8943914801
 11
-101.8930926025
 21
79.8943914801
  0
LINE
  8
Layer1$C$L1
 62
     3
 10
-115.0930926025
 20
65.6075203627
 11
-103.5930926025
 21
65.6075203627
  0
LINE
  8
Layer1$C$L1
 62
     3
 10
-115.0930926025
 20
60.2075203627
 11
-101.8930926025
 21
60.2075203627
  0
LINE
  8
Layer1$C$L1
 62
     3
 10
-115.0930926025
 20
82.5075203627
 11
-112.7930926025
 21
82.5075203627
  0
LINE
  8
Layer1$C$L1
 62
     3
 10
-113.2930926025
 20
82.0075203627
 11
-112.5930926025
 21
82.7075203627
  0
LINE
  8
Layer1$C$L1
 62
     3
 10
-113.2930926025
 20
65.6075203627
 11
-112.5930926025
 21
64.9075203627
  0
LINE
  8
Layer1$C$L1
 62
     3
 10
-112.5930926025
 20
82.7075203627
 11
-111.5930926025
 21
82.7075203627
  0
LINE
  8
Layer1$C$L1
 62
     3
 10
-112.5930926025
 20
64.9075203627
 11
-111.5930926025
 21
64.9075203627
  0
LINE
  8
Layer1$C$L1
 62
     3
 10
-111.5930926025
 20
82.7075203627
 11
-111.5930926025
 21
82.0075203627
  0
LINE
  8
Layer1$C$L1
 62
     3
 10
-111.5930926025
 20
82.5075203627
 11
-103.5930926025
 21
82.5075203627
  0
LINE
  8
Layer1$C$L1
 62
     3
 10
-111.5930926025
 20
65.6075203627
 11
-111.5930926025
 21
64.9075203627
  0
LINE
  8
Layer1$C$L1
 62
     3
 10
-103.5930926025
 20
87.4075203627
 11
-103.5930926025
 21
88.7075203627
  0
LINE
  8
Layer1$C$L1
 62
     3
 10
-103.5930926025
 20
82.0075203627
 11
-103.5930926025
 21
86.2481795092
  0
LINE
  8
Layer1$C$L1
 62
     3
 10
-103.5930926025
 20
88.7075203627
 11
-101.8930926025
 21
88.7075203627
  0
LINE
  8
Layer1$C$L1
 62
     3
 10
-103.5930926025
 20
61.7112399427
 11
-103.5930926025
 21
65.6075203627
  0
LINE
  8
Layer1$C$L1
 62
     3
 10
-102.8930926025
 20
82.0075203627
 11
-101.8930926025
 21
82.0075203627
  0
LINE
  8
Layer1$C$L1
 62
     3
 10
-102.5930926025
 20
82.0075203627
 11
-102.5930926025
 21
85.2246128122
  0
LINE
  8
Layer1$C$L1
 62
     3
 10
-101.5930926025
 20
88.4075203627
 11
-101.5930926025
 21
79.6075203627
  0
LINE
  8
Layer1$C$L1
 62
     3
 10
-101.5930926025
 20
85.1328095223
 11
-101.2930926025
 21
85.4282518482
  0
LINE
  8
Layer1$C$L1
 62
     3
 10
-101.5930926025
 20
84.4434440952
 11
-100.6930926025
 21
84.4434440952
  0
LINE
  8
Layer1$C$L1
 62
     3
 10
-101.5930926025
 20
62.3075203627
 11
-101.2930926025
 21
62.0075203627
  0
LINE
  8
Layer1$C$L1
 62
     3
 10
-101.5930926025
 20
85.3075203627
 11
-101.2930926025
 21
85.6075203627
  0
LINE
  8
Layer1$C$L1
 62
     3
 10
-101.5930926025
 20
68.0075203627
 11
-101.5930926025
 21
60.5075203627
  0
LINE
  8
Layer1$C$L1
 62
     3
 10
-101.5930926025
 20
64.3366039882
 11
-98.8930926025
 21
64.3366039882
  0
LINE
  8
Layer1$C$L1
 62
     3
 10
-101.5930926025
 20
63.3849808118
 11
-101.2930926025
 21
63.1130884757
  0
LINE
  8
Layer1$C$L1
 62
     3
 10
-101.2930926025
 20
85.4282518482
 11
-101.2930926025
 21
85.6075203627
  0
LINE
  8
Layer1$C$L1
 62
     3
 10
-101.2930926025
 20
85.4282518482
 11
-98.8930926025
 21
85.4282518482
  0
LINE
  8
Layer1$C$L1
 62
     3
 10
-101.2930926025
 20
68.3075203627
 11
-96.4930926025
 21
68.3075203627
  0
LINE
  8
Layer1$C$L1
 62
     3
 10
-101.2930926025
 20
79.3075203627
 11
-96.4930926025
 21
79.3075203627
  0
LINE
  8
Layer1$C$L1
 62
     3
 10
-101.2930926025
 20
62.0075203627
 11
-97.9930926025
 21
62.0075203627
  0
LINE
  8
Layer1$C$L1
 62
     3
 10
-101.2930926025
 20
85.6075203627
 11
-97.9930926025
 21
85.6075203627
  0
LINE
  8
Layer1$C$L1
 62
     3
 10
-101.2930926025
 20
62.0075203627
 11
-101.2930926025
 21
63.1130884757
  0
LINE
  8
Layer1$C$L1
 62
     3
 10
-101.2930926025
 20
63.1130884757
 11
-98.8930926025
 21
63.1130884757
  0
LINE
  8
Layer1$C$L1
 62
     3
 10
-100.6930926025
 20
79.3075203627
 11
-100.6930926025
 21
84.4434440952
  0
LINE
  8
Layer1$C$L1
 62
     3
 10
-100.6930926025
 20
84.4434440952
 11
-98.8930926025
 21
85.4282518482
  0
LINE
  8
Layer1$C$L1
 62
     3
 10
-100.6078439200
 20
87.1177576236
 11
-100.5930926025
 21
87.0396140290
  0
LINE
  8
Layer1$C$L1
 62
     3
 10
-100.6066305020
 20
85.6075203627
 11
-100.5930926192
 21
85.6800619070
  0
LINE
  8
Layer1$C$L1
 62
     3
 10
-100.5930926025
 20
87.0396140534
 11
-100.5930926025
 21
85.6166746718
  0
LINE
  8
Layer1$C$L1
 62
     3
 10
-98.8930926025
 20
68.3075203627
 11
-98.8930926025
 21
63.1130884757
  0
LINE
  8
Layer1$C$L1
 62
     3
 10
-98.8930926025
 20
86.4346912845
 11
-97.9930926025
 21
86.4346912845
  0
LINE
  8
Layer1$C$L1
 62
     3
 10
-98.8930926025
 20
86.4346912845
 11
-98.8930926025
 21
85.6075203627
  0
LINE
  8
Layer1$C$L1
 62
     3
 10
-98.8930926025
 20
85.4282518482
 11
-98.8930926025
 21
79.3075203627
  0
LINE
  8
Layer1$C$L1
 62
     3
 10
-97.6930926025
 20
62.3075203627
 11
-97.6930926025
 21
68.3075203627
  0
LINE
  8
Layer1$C$L1
 62
     3
 10
-97.6930926025
 20
79.3075203627
 11
-97.6930926025
 21
86.1346912845
  0
LINE
  8
Layer1$C$L1
 62
     3
 10
-97.6930926025
 20
84.5075203627
 11
-96.9930926025
 21
84.5075203627
  0
LINE
  8
Layer1$C$L1
 62
     3
 10
-97.6930926025
 20
63.1075203627
 11
-96.9930926025
 21
63.1075203627
  0
LINE
  8
Layer1$C$L1
 62
     3
 10
-96.9930926025
 20
84.5075203627
 11
-96.6930926025
 21
84.2075203627
  0
LINE
  8
Layer1$C$L1
 62
     3
 10
-96.9930926025
 20
63.1075203627
 11
-96.9930926025
 21
68.3075203627
  0
LINE
  8
Layer1$C$L1
 62
     3
 10
-96.9930926025
 20
79.3075203627
 11
-96.9930926025
 21
84.5075203627
  0
LINE
  8
Layer1$C$L1
 62
     3
 10
-96.9930926025
 20
63.1075203627
 11
-96.6930926025
 21
63.4075203627
  0
LINE
  8
Layer1$C$L1
 62
     3
 10
-96.6930926025
 20
79.3075203627
 11
-96.6930926025
 21
84.2075203627
  0
LINE
  8
Layer1$C$L1
 62
     3
 10
-96.6930926025
 20
63.4075203627
 11
-96.6930926025
 21
68.3075203627
  0
LINE
  8
Layer1$C$L1
 62
     3
 10
-96.6930926025
 20
65.9710670833
 11
-96.2930926025
 21
65.9710670833
  0
LINE
  8
Layer1$C$L1
 62
     3
 10
-96.6930926025
 20
81.6439736421
 11
-96.2930926025
 21
81.6439736421
  0
LINE
  8
Layer1$C$L1
 62
     3
 10
-96.1930926025
 20
76.5733836999
 11
-95.3930926025
 21
76.5733836999
  0
LINE
  8
Layer1$C$L1
 62
     3
 10
-96.1930926025
 20
71.0416570255
 11
-95.3930926025
 21
71.0416570255
  0
LINE
  8
Layer1$C$L1
 62
     3
 10
-96.1930926025
 20
79.0075203627
 11
-96.1930926025
 21
68.6075203627
  0
LINE
  8
Layer1$C$L1
 62
     3
 10
-91.1930926025
 20
71.0416570255
 11
-89.3930926025
 21
71.0416570255
  0
LINE
  8
Layer1$C$L1
 62
     3
 10
-91.1930926025
 20
76.5733836999
 11
-89.3930926025
 21
76.5733836999
  0
LINE
  8
Layer1$C$L1
 62
     3
 10
-91.1930926025
 20
65.9710670833
 11
-89.3930926025
 21
65.9710670833
  0
LINE
  8
Layer1$C$L1
 62
     3
 10
-91.1930926025
 20
83.1075203627
 11
-89.2930926025
 21
83.1075203627
  0
LINE
  8
Layer1$C$L1
 62
     3
 10
-91.1930926025
 20
81.6616593989
 11
-89.2930926025
 21
81.6616593989
  0
LINE
  8
Layer1$C$L1
 62
     3
 10
-91.1930926025
 20
82.8434410721
 11
-89.2930926025
 21
82.8434410721
  0
LINE
  8
Layer1$C$L1
 62
     3
 10
-89.3930926025
 20
65.9075203627
 11
-89.3930926025
 21
65.9710670833
  0
LINE
  8
Layer1$C$L1
 62
     3
 10
-89.3930926025
 20
65.9075203627
 11
-89.2930926025
 21
65.9075203627
  0
LINE
  8
Layer1$C$L1
 62
     3
 10
-89.3930926025
 20
71.0416570255
 11
-89.3930926025
 21
76.5733836999
  0
LINE
  8
Layer1$C$L1
 62
     3
 10
-89.2930926025
 20
62.3575203627
 11
-89.2930926025
 21
85.2575203627
  0
LINE
  8
Layer1$C$L1
 62
     3
 10
-89.2930926025
 20
85.2575203627
 11
-88.6930926025
 21
85.2575203627
  0
LINE
  8
Layer1$C$L1
 62
     3
 10
-89.2930926025
 20
62.3575203627
 11
-88.6930926025
 21
62.3575203627
  0
LINE
  8
Layer1$C$L1
 62
     3
 10
-88.6930926025
 20
61.2575203627
 11
-88.6930926025
 21
86.3575203627
  0
LINE
  8
Layer1$C$L1
 62
     3
 10
-88.6930926025
 20
61.2575203627
 11
-87.0930926025
 21
61.2575203627
  0
LINE
  8
Layer1$C$L1
 62
     3
 10
-88.6930926025
 20
86.3575203627
 11
-87.0930926025
 21
86.3575203627
  0
LINE
  8
Layer1$C$L1
 62
     3
 10
-87.0930926025
 20
61.2575203627
 11
-87.0485389006
 21
61.3020740646
  0
LINE
  8
Layer1$C$L1
 62
     3
 10
-87.0930926025
 20
86.3129666607
 11
-84.1930926025
 21
86.3129666607
  0
LINE
  8
Layer1$C$L1
 62
     3
 10
-87.0930926025
 20
86.3129666607
 11
-87.0930926025
 21
86.3575203627
  0
LINE
  8
Layer1$C$L1
 62
     3
 10
-87.0930926025
 20
86.3575203627
 11
-87.0485389006
 21
86.3129666607
  0
LINE
  8
Layer1$C$L1
 62
     3
 10
-87.0930926025
 20
61.3020740646
 11
-84.1930926025
 21
61.3020740646
  0
LINE
  8
Layer1$C$L1
 62
     3
 10
-87.0930926025
 20
61.2575203627
 11
-87.0930926025
 21
61.3020740646
  0
LINE
  8
Layer1$C$L1
 62
     3
 10
-87.0930926025
 20
64.9069345244
 11
-86.9283473426
 21
64.5468334115
  0
LINE
  8
Layer1$C$L1
 62
     3
 10
-87.0930926025
 20
80.9752487931
 11
-84.1930926025
 21
80.9752487931
  0
LINE
  8
Layer1$C$L1
 62
     3
 10
-87.0930926025
 20
79.1452382303
 11
-87.0930926025
 21
80.9752487931
  0
LINE
  8
Layer1$C$L1
 62
     3
 10
-87.0930926025
 20
82.7081062010
 11
-87.0930926025
 21
84.0663898151
  0
LINE
  8
Layer1$C$L1
 62
     3
 10
-87.0930926025
 20
77.0195739381
 11
-84.1930926025
 21
77.0195739381
  0
LINE
  8
Layer1$C$L1
 62
     3
 10
-87.0930926025
 20
74.9385627085
 11
-87.0930926025
 21
77.0195739381
  0
LINE
  8
Layer1$C$L1
 62
     3
 10
-87.0930926025
 20
84.0663898151
 11
-84.1930926025
 21
84.0663898151
  0
LINE
  8
Layer1$C$L1
 62
     3
 10
-87.0930926025
 20
74.9385627085
 11
-84.1930926025
 21
74.9385627085
  0
LINE
  8
Layer1$C$L1
 62
     3
 10
-87.0930926025
 20
82.7081062010
 11
-84.1930926025
 21
82.7081062010
  0
LINE
  8
Layer1$C$L1
 62
     3
 10
-87.0930926025
 20
62.4176085645
 11
-84.1930926025
 21
62.4176085645
  0
LINE
  8
Layer1$C$L1
 62
     3
 10
-87.0930926025
 20
79.1452382303
 11
-84.1930926025
 21
79.1452382303
  0
LINE
  8
Layer1$C$L1
 62
     3
 10
-87.0930926025
 20
68.4698024951
 11
-84.1930926025
 21
68.4698024951
  0
LINE
  8
Layer1$C$L1
 62
     3
 10
-87.0930926025
 20
66.6397919322
 11
-87.0930926025
 21
68.4698024951
  0
LINE
  8
Layer1$C$L1
 62
     3
 10
-87.0930926025
 20
66.6397919322
 11
-84.1930926025
 21
66.6397919322
  0
LINE
  8
Layer1$C$L1
 62
     3
 10
-87.0930926025
 20
64.9069345244
 11
-84.1930926025
 21
64.9069345244
  0
LINE
  8
Layer1$C$L1
 62
     3
 10
-87.0930926025
 20
63.5486509103
 11
-87.0930926025
 21
64.9069345244
  0
LINE
  8
Layer1$C$L1
 62
     3
 10
-87.0930926025
 20
63.5486509103
 11
-84.1930926025
 21
63.5486509103
  0
LINE
  8
Layer1$C$L1
 62
     3
 10
-87.0930926025
 20
61.6948809491
 11
-87.0930926025
 21
62.4176085645
  0
LINE
  8
Layer1$C$L1
 62
     3
 10
-87.0930926025
 20
61.6948809491
 11
-84.1930926025
 21
61.6948809491
  0
LINE
  8
Layer1$C$L1
 62
     3
 10
-87.0930926025
 20
77.0195739381
 11
-86.9283473426
 21
76.2993717122
  0
LINE
  8
Layer1$C$L1
 62
     3
 10
-87.0930926025
 20
84.0663898151
 11
-86.9283473426
 21
83.5146829021
  0
LINE
  8
Layer1$C$L1
 62
     3
 10
-87.0930926025
 20
80.9752487931
 11
-86.9283473426
 21
80.2984800760
  0
LINE
  8
Layer1$C$L1
 62
     3
 10
-87.0930926025
 20
62.4176085645
 11
-86.9283473426
 21
62.2925467604
  0
LINE
  8
Layer1$C$L1
 62
     3
 10
-87.0930926025
 20
68.4698024951
 11
-86.9283473426
 21
67.9180955821
  0
LINE
  8
Layer1$C$L1
 62
     3
 10
-87.0930926025
 20
74.9385627085
 11
-86.9283473426
 21
75.6153314256
  0
LINE
  8
Layer1$C$L1
 62
     3
 10
-87.0930926025
 20
79.1452382303
 11
-86.9283473426
 21
79.6969451433
  0
LINE
  8
Layer1$C$L1
 62
     3
 10
-87.0930926025
 20
66.6397919322
 11
-86.9283473426
 21
67.3165606493
  0
LINE
  8
Layer1$C$L1
 62
     3
 10
-87.0930926025
 20
61.6948809491
 11
-86.9283473426
 21
62.0549820620
  0
LINE
  8
Layer1$C$L1
 62
     3
 10
-87.0930926025
 20
85.9201597763
 11
-86.9283473426
 21
85.5600586634
  0
LINE
  8
Layer1$C$L1
 62
     3
 10
-87.0930926025
 20
82.7081062010
 11
-86.9283473426
 21
83.0682073139
  0
LINE
  8
Layer1$C$L1
 62
     3
 10
-87.0930926025
 20
85.1974321609
 11
-84.1930926025
 21
85.1974321609
  0
LINE
  8
Layer1$C$L1
 62
     3
 10
-87.0930926025
 20
63.5486509103
 11
-86.9283473426
 21
64.1003578233
  0
LINE
  8
Layer1$C$L1
 62
     3
 10
-87.0930926025
 20
85.1974321609
 11
-87.0930926025
 21
85.9201597763
  0
LINE
  8
Layer1$C$L1
 62
     3
 10
-87.0930926025
 20
85.9201597763
 11
-84.1930926025
 21
85.9201597763
  0
LINE
  8
Layer1$C$L1
 62
     3
 10
-87.0930926025
 20
70.5954667873
 11
-84.1930926025
 21
70.5954667873
  0
LINE
  8
Layer1$C$L1
 62
     3
 10
-87.0930926025
 20
85.1974321609
 11
-86.9283473426
 21
85.3224939649
  0
LINE
  8
Layer1$C$L1
 62
     3
 10
-87.0930926025
 20
72.6764780169
 11
-86.9283473426
 21
71.9997092998
  0
LINE
  8
Layer1$C$L1
 62
     3
 10
-87.0930926025
 20
72.6764780169
 11
-84.1930926025
 21
72.6764780169
  0
LINE
  8
Layer1$C$L1
 62
     3
 10
-87.0930926025
 20
70.5954667873
 11
-87.0930926025
 21
72.6764780169
  0
LINE
  8
Layer1$C$L1
 62
     3
 10
-87.0930926025
 20
70.5954667873
 11
-86.9283473426
 21
71.3156690132
  0
LINE
  8
Layer1$C$L1
 62
     3
 10
-86.9283473426
 20
62.0549820620
 11
-86.8930926025
 21
62.2023164960
  0
LINE
  8
Layer1$C$L1
 62
     3
 10
-86.9283473426
 20
83.0682073139
 11
-86.8930926025
 21
83.2681692352
  0
LINE
  8
Layer1$C$L1
 62
     3
 10
-86.9283473426
 20
83.5146829021
 11
-86.8930926025
 21
83.2681692352
  0
LINE
  8
Layer1$C$L1
 62
     3
 10
-86.9283473426
 20
62.2925467604
 11
-86.8930926025
 21
62.2023164960
  0
LINE
  8
Layer1$C$L1
 62
     3
 10
-86.9283473426
 20
76.2993717122
 11
-86.8930926025
 21
75.9520753569
  0
LINE
  8
Layer1$C$L1
 62
     3
 10
-86.9283473426
 20
79.6969451433
 11
-86.8930926025
 21
79.9825203627
  0
LINE
  8
Layer1$C$L1
 62
     3
 10
-86.9283473426
 20
75.6153314256
 11
-86.8930926025
 21
75.9520753569
  0
LINE
  8
Layer1$C$L1
 62
     3
 10
-86.9283473426
 20
85.5600586634
 11
-86.8930926025
 21
85.4127242294
  0
LINE
  8
Layer1$C$L1
 62
     3
 10
-86.9283473426
 20
67.3165606493
 11
-86.8930926025
 21
67.6325203627
  0
LINE
  8
Layer1$C$L1
 62
     3
 10
-86.9283473426
 20
85.3224939649
 11
-86.8930926025
 21
85.4127242294
  0
LINE
  8
Layer1$C$L1
 62
     3
 10
-86.9283473426
 20
64.5468334115
 11
-86.8930926025
 21
64.3468714902
  0
LINE
  8
Layer1$C$L1
 62
     3
 10
-86.9283473426
 20
64.1003578233
 11
-86.8930926025
 21
64.3468714902
  0
LINE
  8
Layer1$C$L1
 62
     3
 10
-86.9283473426
 20
67.9180955821
 11
-86.8930926025
 21
67.6325203627
  0
LINE
  8
Layer1$C$L1
 62
     3
 10
-86.9283473426
 20
80.2984800760
 11
-86.8930926025
 21
79.9825203627
  0
LINE
  8
Layer1$C$L1
 62
     3
 10
-86.9283473426
 20
71.3156690132
 11
-86.8930926025
 21
71.6629653685
  0
LINE
  8
Layer1$C$L1
 62
     3
 10
-86.9283473426
 20
71.9997092998
 11
-86.8930926025
 21
71.6629653685
  0
LINE
  8
Layer1$C$L1
 62
     3
 10
-84.1930926025
 20
87.3075203627
 11
-82.6930926025
 21
87.8075203627
  0
LINE
  8
Layer1$C$L1
 62
     3
 10
-84.1930926025
 20
60.3075203627
 11
-82.6930926025
 21
59.8075203627
  0
LINE
  8
Layer1$C$L1
 62
     3
 10
-84.1930926025
 20
60.3075203627
 11
-84.1930926025
 21
87.3075203627
  0
LINE
  8
Layer1$C$L1
 62
     3
 10
-82.6930926025
 20
59.8075203627
 11
-75.5668313123
 21
59.8075203627
  0
LINE
  8
Layer1$C$L1
 62
     3
 10
-82.6930926025
 20
87.8075203627
 11
-75.5668313123
 21
87.8075203627
  0
LINE
  8
Layer1$C$L1
 62
     3
 10
-82.6930926025
 20
59.8075203627
 11
-82.6930926025
 21
87.8075203627
  0
LINE
  8
Layer1$C$L1
 62
     3
 10
-75.5668313123
 20
87.8075203627
 11
-74.4416323465
 21
88.2170592939
  0
LINE
  8
Layer1$C$L1
 62
     3
 10
-75.5668313123
 20
59.8075203627
 11
-75.5668313123
 21
87.8075203627
  0
LINE
  8
Layer1$C$L1
 62
     3
 10
-75.5668313123
 20
59.8075203627
 11
-74.4416323465
 21
59.3979814315
  0
LINE
  8
Layer1$C$L1
 62
     3
 10
-73.9286021315
 20
88.3075203627
 11
-73.3930926025
 21
88.3075203627
  0
LINE
  8
Layer1$C$L1
 62
     3
 10
-73.9286021315
 20
59.3075203627
 11
-73.3930926025
 21
59.3075203627
  0
LINE
  8
Layer1$C$L1
 62
     3
 10
-73.3930926025
 20
59.9510033889
 11
-71.3943714771
 21
59.9510033889
  0
LINE
  8
Layer1$C$L1
 62
     3
 10
-73.3930926025
 20
87.1679876434
 11
-73.3930926025
 21
87.6640373364
  0
LINE
  8
Layer1$C$L1
 62
     3
 10
-73.3930926025
 20
88.2893752014
 11
-71.3943714771
 21
88.2893752014
  0
LINE
  8
Layer1$C$L1
 62
     3
 10
-73.3930926025
 20
63.1799101735
 11
-71.3943714771
 21
63.1799101735
  0
LINE
  8
Layer1$C$L1
 62
     3
 10
-73.3930926025
 20
75.6081089821
 11
-71.3943714771
 21
75.6081089821
  0
LINE
  8
Layer1$C$L1
 62
     3
 10
-73.3930926025
 20
88.2893752014
 11
-73.3930926025
 21
88.3075203627
  0
LINE
  8
Layer1$C$L1
 62
     3
 10
-73.3930926025
 20
84.4351305518
 11
-71.3943714771
 21
84.4351305518
  0
LINE
  8
Layer1$C$L1
 62
     3
 10
-73.3930926025
 20
81.6764687394
 11
-71.3943714771
 21
81.6764687394
  0
LINE
  8
Layer1$C$L1
 62
     3
 10
-73.3930926025
 20
80.4204268247
 11
-73.3930926025
 21
81.6764687394
  0
LINE
  8
Layer1$C$L1
 62
     3
 10
-73.3930926025
 20
65.9385719860
 11
-71.3943714771
 21
65.9385719860
  0
LINE
  8
Layer1$C$L1
 62
     3
 10
-73.3930926025
 20
59.9510033889
 11
-73.3930926025
 21
60.4470530820
  0
LINE
  8
Layer1$C$L1
 62
     3
 10
-73.3930926025
 20
62.2476417013
 11
-73.3930926025
 21
63.1799101735
  0
LINE
  8
Layer1$C$L1
 62
     3
 10
-73.3930926025
 20
85.3673990240
 11
-71.3943714771
 21
85.3673990240
  0
LINE
  8
Layer1$C$L1
 62
     3
 10
-73.3930926025
 20
60.4470530820
 11
-71.3943714771
 21
60.4470530820
  0
LINE
  8
Layer1$C$L1
 62
     3
 10
-73.3930926025
 20
84.4351305518
 11
-73.3930926025
 21
85.3673990240
  0
LINE
  8
Layer1$C$L1
 62
     3
 10
-73.3930926025
 20
80.4204268247
 11
-71.3943714771
 21
80.4204268247
  0
LINE
  8
Layer1$C$L1
 62
     3
 10
-73.3930926025
 20
72.0069317433
 11
-71.3943714771
 21
72.0069317433
  0
LINE
  8
Layer1$C$L1
 62
     3
 10
-73.3930926025
 20
67.1946139007
 11
-71.3943714771
 21
67.1946139007
  0
LINE
  8
Layer1$C$L1
 62
     3
 10
-73.3930926025
 20
62.2476417013
 11
-71.3943714771
 21
62.2476417013
  0
LINE
  8
Layer1$C$L1
 62
     3
 10
-73.3930926025
 20
75.6081089821
 11
-73.3930926025
 21
77.0364271473
  0
LINE
  8
Layer1$C$L1
 62
     3
 10
-73.3930926025
 20
65.9385719860
 11
-73.3930926025
 21
67.1946139007
  0
LINE
  8
Layer1$C$L1
 62
     3
 10
-73.3930926025
 20
77.0364271473
 11
-71.3943714771
 21
77.0364271473
  0
LINE
  8
Layer1$C$L1
 62
     3
 10
-73.3930926025
 20
59.3075203627
 11
-73.3930926025
 21
59.3256655240
  0
LINE
  8
Layer1$C$L1
 62
     3
 10
-73.3930926025
 20
59.3256655240
 11
-71.3943714771
 21
59.3256655240
  0
LINE
  8
Layer1$C$L1
 62
     3
 10
-73.3930926025
 20
70.5786135781
 11
-71.3943714771
 21
70.5786135781
  0
LINE
  8
Layer1$C$L1
 62
     3
 10
-73.3930926025
 20
70.5786135781
 11
-73.3930926025
 21
72.0069317433
  0
LINE
  8
Layer1$C$L1
 62
     3
 10
-73.3930926025
 20
87.6640373364
 11
-71.3943714771
 21
87.6640373364
  0
LINE
  8
Layer1$C$L1
 62
     3
 10
-73.3930926025
 20
87.1679876434
 11
-71.3943714771
 21
87.1679876434
  0
LINE
  8
Layer1$C$L1
 62
     3
 10
-69.1375269607
 20
72.9011006381
 11
-69.0651346581
 21
72.9011006381
  0
LINE
  8
Layer1$C$L1
 62
     3
 10
-69.0872591976
 20
72.9722582060
 11
-69.0631419436
 21
72.9708252323
  0
LINE
  8
Layer1$C$L1
 62
     3
 10
-69.0651346581
 20
63.7618917693
 11
-69.0651346581
 21
72.9011006381
  0
LINE
  8
Layer1$C$L1
 62
     3
 10
-69.0651346581
 20
81.1614308870
 11
-69.0651346581
 21
84.2075203627
  0
LINE
  8
Layer1$C$L1
 62
     3
 10
-69.0651346581
 20
83.4075203627
 11
-68.9643428318
 21
83.4075203627
  0
LINE
  8
Layer1$C$L1
 62
     3
 10
-69.0631419436
 20
72.9708252323
 11
-68.9643428318
 21
72.9708252323
  0
LINE
  8
Layer1$C$L1
 62
     3
 10
-69.0631419436
 20
64.5346324303
 11
-68.9643428318
 21
64.5346324303
  0
LINE
  8
Layer1$C$L1
 62
     3
 10
-68.9925353784
 20
73.0416996775
 11
-68.9707600637
 21
73.0405498265
  0
LINE
  8
Layer1$C$L1
 62
     3
 10
-68.9707600637
 20
73.0405498265
 11
-68.8717271915
 21
73.0405498265
  0
LINE
  8
Layer1$C$L1
 62
     3
 10
-68.9643428318
 20
80.5957454621
 11
-68.9643428318
 21
83.4075203627
  0
LINE
  8
Layer1$C$L1
 62
     3
 10
-68.9643428318
 20
64.5346324303
 11
-68.9643428318
 21
72.9708252323
  0
LINE
  8
Layer1$C$L1
 62
     3
 10
-68.6930926025
 20
67.0302336168
 11
-68.6930926025
 21
80.5848071086
  0
ARC
  8
Layer1$C$L1
 62
     3
 10
-148.3862541661
 20
73.8075203627
 40
80.0000000000
 50
5.1845379159
 51
6.8921025793
  0
ARC
  8
Layer1$C$L1
 62
     3
 10
-148.3862541661
 20
73.8075203627
 40
80.0000000000
 50
350.7782205027
 51
354.8154620841
  0
ARC
  8
Layer1$C$L1
 62
     3
 10
-148.3862541660
 20
73.8075203627
 40
79.9999999998
 50
7.4695923164
 51
9.2217794973
  0
ARC
  8
Layer1$C$L1
 62
     3
 10
-115.7930926025
 20
83.7075203627
 40
0.6000000000
 50
90.0000000000
 51
270.0000000000
  0
ARC
  8
Layer1$C$L1
 62
     3
 10
-115.7930926025
 20
63.9075203627
 40
0.6000000000
 50
90.0000000000
 51
270.0000000000
  0
ARC
  8
Layer1$C$L1
 62
     3
 10
-114.9930926025
 20
63.9075203627
 40
2.2000000000
 50
140.4788036414
 51
219.5211963586
  0
ARC
  8
Layer1$C$L1
 62
     3
 10
-114.9930926025
 20
83.7075203627
 40
2.2000000000
 50
140.4788036414
 51
219.5211963586
  0
ARC
  8
Layer1$C$L1
 62
     3
 10
-102.9002046740
 20
85.2349714636
 40
0.3072867164
 50
358.0681902476
 51
385.5541848092
  0
ARC
  8
Layer1$C$L1
 62
     3
 10
-101.8930926025
 20
81.7075203627
 40
0.3000000000
 50
360.0000000000
 51
450.0000000000
  0
ARC
  8
Layer1$C$L1
 62
     3
 10
-101.8930926025
 20
60.5075203627
 40
0.3000000000
 50
270.0000000000
 51
360.0000000000
  0
ARC
  8
Layer1$C$L1
 62
     3
 10
-101.8930926025
 20
88.4075203627
 40
0.3000000000
 50
41.4507193579
 51
90.0000000000
  0
ARC
  8
Layer1$C$L1
 62
     3
 10
-101.8879839499
 20
85.9630205213
 40
0.2950133659
 50
358.3520472225
 51
383.0075764499
  0
ARC
  8
Layer1$C$L1
 62
     3
 10
-101.2930926025
 20
68.0075203627
 40
0.3000000000
 50
90.0000000000
 51
180.0000000000
  0
ARC
  8
Layer1$C$L1
 62
     3
 10
-101.2930926025
 20
79.6075203627
 40
0.3000000000
 50
180.0000000000
 51
270.0000000000
  0
ARC
  8
Layer1$C$L1
 62
     3
 10
-97.9930926025
 20
85.3075203627
 40
0.3000000000
 50
3.3925916602E-13
 51
90.0000000000
  0
ARC
  8
Layer1$C$L1
 62
     3
 10
-97.9930926025
 20
62.3075203627
 40
0.3000000000
 50
270.0000000000
 51
360.0000000000
  0
ARC
  8
Layer1$C$L1
 62
     3
 10
-97.9930926025
 20
86.1346912845
 40
0.3000000000
 50
3.3925916602E-13
 51
90.0000000000
  0
ARC
  8
Layer1$C$L1
 62
     3
 10
-96.4930926025
 20
68.6075203627
 40
0.3000000000
 50
270.0000000000
 51
360.0000000000
  0
ARC
  8
Layer1$C$L1
 62
     3
 10
-96.4930926025
 20
79.0075203627
 40
0.3000000000
 50
360.0000000000
 51
450.0000000000
  0
ARC
  8
Layer1$C$L1
 62
     3
 10
-73.9286021315
 20
86.8075203627
 40
1.5000000000
 50
90.0000000000
 51
110.0000000000
  0
ARC
  8
Layer1$C$L1
 62
     3
 10
-73.9286021315
 20
60.8075203627
 40
1.5000000000
 50
250.0000000000
 51
270.0000000000
  0
ARC
  8
Layer1$C$L1
 62
     3
 10
-73.6930926025
 20
80.5848071086
 40
5.0000000000
 50
360.0000000000
 51
365.1845379159
  0
ARC
  8
Layer1$C$L1
 62
     3
 10
-73.6930926025
 20
67.0302336168
 40
5.0000000000
 50
354.8154620841
 51
360.0000000000
  0
ARC
  8
Layer1$C$L1
 62
     3
 10
-71.3943714771
 20
61.3075203627
 40
2.0000000000
 50
298.7223961284
 51
350.7782205027
  0
ARC
  8
Layer1$C$L1
 62
     3
 10
-71.3943714771
 20
86.3075203627
 40
2.0000000000
 50
9.2217794973
 51
61.2978331205
  0
ARC
  8
Layer1$C$L1
 62
     3
 10
-69.0716576615
 20
73.1546219661
 40
0.1830299127
 50
238.7431002377
 51
265.1101532084
  0
ARC
  8
Layer1$C$L1
 62
     3
 10
-21.2885723134
 20
71.1159736088
 40
1.2500000000
 50
134.5395458868
 51
205.4604541132
  0
ARC
  8
Layer1$C$L1
 62
     3
 10
-21.2885723134
 20
76.4990671165
 40
1.2500000000
 50
154.5395458868
 51
225.4604541132
  0
ARC
  8
Layer1$C$L1
 62
     3
 10
-23.1296987264
 20
66.0575203627
 40
1.2500000000
 50
114.5395458868
 51
185.4604541132
  0
ARC
  8
Layer1$C$L1
 62
     3
 10
-23.1296987264
 20
81.5575203627
 40
1.2500000000
 50
174.5395458868
 51
245.4604541132
  0
ARC
  8
Layer1$C$L1
 62
     3
 10
-23.2530924851
 20
79.0075203627
 40
0.3000000000
 50
360.0000000000
 51
424.7102604852
  0
ARC
  8
Layer1$C$L1
 62
     3
 10
-23.2530924851
 20
68.6075203627
 40
0.3000000000
 50
295.2897395147
 51
360.0000000000
  0
ARC
  8
Layer1$C$L1
 62
     3
 10
-25.6317539826
 20
81.5718210597
 40
1.5000000000
 50
350.4389859769
 51
395.4101402465
  0
ARC
  8
Layer1$C$L1
 62
     3
 10
-26.5898845350
 20
61.9338314943
 40
1.2500000000
 50
94.5395458868
 51
165.4604541132
  0
ARC
  8
Layer1$C$L1
 62
     3
 10
-26.5898845350
 20
85.6812092310
 40
1.2500000000
 50
194.5395458868
 51
265.4604541132
  0
ARC
  8
Layer1$C$L1
 62
     3
 10
-29.0867635828
 20
84.9346912845
 40
1.5000000000
 50
56.1383986292
 51
101.1095528988
  0
ARC
  8
Layer1$C$L1
 62
     3
 10
-31.2517802636
 20
59.2422847405
 40
1.2500000000
 50
74.5395458868
 51
145.4604541132
  0
ARC
  8
Layer1$C$L1
 62
     3
 10
-31.2517802636
 20
88.3727559849
 40
1.2500000000
 50
214.5395458868
 51
285.4604541132
  0
ARC
  8
Layer1$C$L1
 62
     3
 10
-36.5530924851
 20
58.3075203627
 40
1.2500000000
 50
54.5395458868
 51
125.4604541132
  0
ARC
  8
Layer1$C$L1
 62
     3
 10
-36.5530924851
 20
73.8075203627
 40
14.9000000000
 50
294.1115734676
 51
335.8884265324
  0
ARC
  8
Layer1$C$L1
 62
     3
 10
-36.5530924851
 20
73.8075203627
 40
14.9000000000
 50
204.1115734676
 51
245.8884265324
  0
ARC
  8
Layer1$C$L1
 62
     3
 10
-36.5530924851
 20
73.8075203627
 40
10.4000000000
 50
185.0000000000
 51
255.0000000000
  0
ARC
  8
Layer1$C$L1
 62
     3
 10
-36.5530924851
 20
73.8075203627
 40
10.4000000000
 50
305.0000000000
 51
375.0000000000
  0
ARC
  8
Layer1$C$L1
 62
     3
 10
-36.5530924851
 20
73.8075203627
 40
10.4000000000
 50
65.0000000000
 51
135.0000000000
  0
ARC
  8
Layer1$C$L1
 62
     3
 10
-36.5530924851
 20
73.8075203627
 40
9.6000000000
 50
305.0000000000
 51
375.0000000000
  0
ARC
  8
Layer1$C$L1
 62
     3
 10
-36.5530924851
 20
89.3075203627
 40
1.2500000000
 50
234.5395458868
 51
305.4604541132
  0
ARC
  8
Layer1$C$L1
 62
     3
 10
-36.5530924851
 20
73.8075203627
 40
9.6000000000
 50
65.0000000000
 51
135.0000000000
  0
ARC
  8
Layer1$C$L1
 62
     3
 10
-36.5530924851
 20
73.8075203627
 40
9.6000000000
 50
185.0000000000
 51
255.0000000000
  0
ARC
  8
Layer1$C$L1
 62
     3
 10
-36.5530924851
 20
73.8075203627
 40
14.9000000000
 50
35.4101402465
 51
56.1383986292
  0
ARC
  8
Layer1$C$L1
 62
     3
 10
-36.5530924851
 20
73.8075203627
 40
14.9000000000
 50
56.6099624493
 51
155.8884265324
  0
ARC
  8
Layer1$C$L1
 62
     3
 10
-36.5530924851
 20
73.8075203627
 40
14.9000000000
 50
24.1115734676
 51
33.3900375507
  0
CIRCLE
  8
Layer1$C$L1
 62
     3
 10
-36.5530924851
 20
73.8075203627
 40
14.5000000000
  0
ARC
  8
Layer1$C$L1
 62
     3
 10
-41.8544047067
 20
59.2422847405
 40
1.2500000000
 50
34.5395458868
 51
105.4604541132
  0
ARC
  8
Layer1$C$L1
 62
     3
 10
-41.8544047067
 20
88.3727559849
 40
1.2500000000
 50
254.5395458868
 51
325.4604541132
  0
ARC
  8
Layer1$C$L1
 62
     3
 10
-44.9479838324
 20
85.9630205213
 40
0.2950133659
 50
358.3520472225
 51
383.0075764499
  0
ARC
  8
Layer1$C$L1
 62
     3
 10
-45.9602045566
 20
85.2349714636
 40
0.3072867164
 50
358.0681902476
 51
385.5541848092
  0
ARC
  8
Layer1$C$L1
 62
     3
 10
-46.5163004352
 20
61.9338314943
 40
1.2500000000
 50
14.5395458868
 51
85.4604541132
  0
ARC
  8
Layer1$C$L1
 62
     3
 10
-46.5163004352
 20
85.6812092310
 40
1.2500000000
 50
274.5395458868
 51
345.4604541132
  0
ARC
  8
Layer1$C$L1
 62
     3
 10
-49.8530924851
 20
79.0075203627
 40
0.3000000000
 50
115.2897395148
 51
180.0000000000
  0
ARC
  8
Layer1$C$L1
 62
     3
 10
-49.8530924851
 20
68.6075203627
 40
0.3000000000
 50
180.0000000000
 51
244.7102604852
  0
ARC
  8
Layer1$C$L1
 62
     3
 10
-49.9764862438
 20
66.0575203627
 40
1.2500000000
 50
354.5395458868
 51
425.4604541132
  0
ARC
  8
Layer1$C$L1
 62
     3
 10
-49.9764862438
 20
81.5575203627
 40
1.2500000000
 50
294.5395458868
 51
365.4604541132
  0
ARC
  8
Layer1$C$L1
 62
     3
 10
-51.8176126568
 20
71.1159736088
 40
1.2500000000
 50
334.5395458868
 51
405.4604541132
  0
ARC
  8
Layer1$C$L1
 62
     3
 10
-51.8176126568
 20
76.4990671165
 40
1.2500000000
 50
314.5395458868
 51
385.4604541132
  0
LINE
  8
Layer1$C$L1
 62
     3
 10
-22.9530924851
 20
79.8943914801
 11
-22.9530924851
 21
78.8364367470
  0
LINE
  8
Layer1$C$L1
 62
     3
 10
-22.9530924851
 20
68.7786039784
 11
-22.9530924851
 21
67.7206492453
  0
LINE
  8
Layer1$C$L1
 62
     3
 10
-24.1964261046
 20
82.0075203627
 11
-24.1124333386
 21
82.0075203627
  0
LINE
  8
Layer1$C$L1
 62
     3
 10
-27.2802045527
 20
76.2921831957
 11
-26.5074638917
 21
76.4992384318
  0
LINE
  8
Layer1$C$L1
 62
     3
 10
-28.3530924851
 20
86.2430210290
 11
-28.3530924851
 21
86.2481795092
  0
LINE
  8
Layer1$C$L1
 62
     3
 10
-30.4251276899
 20
86.9489832747
 11
-30.3828658637
 21
87.0396140534
  0
LINE
  8
Layer1$C$L1
 62
     3
 10
-30.5878975471
 20
65.2883391021
 11
-30.1290363980
 21
64.6330174666
  0
LINE
  8
Layer1$C$L1
 62
     3
 10
-31.5056198452
 20
66.5989823729
 11
-31.0467586961
 21
65.9436607375
  0
LINE
  8
Layer1$C$L1
 62
     3
 10
-31.5241761008
 20
60.2075203627
 11
-30.4662213677
 21
60.2075203627
  0
LINE
  8
Layer1$C$L1
 62
     3
 10
-31.8197679536
 20
83.9581675775
 11
-29.4820246732
 21
80.8785881746
  0
LINE
  8
Layer1$C$L1
 62
     3
 10
-32.1578625630
 20
83.2331213479
 11
-31.8197679536
 21
83.9581675775
  0
LINE
  8
Layer1$C$L1
 62
     3
 10
-32.8340517818
 20
81.7830288886
 11
-29.4820246732
 21
80.8785881746
  0
LINE
  8
Layer1$C$L1
 62
     3
 10
-32.8340517818
 20
81.7830288886
 11
-32.4959571724
 21
82.5080751182
  0
LINE
  8
Layer1$C$L1
 62
     3
 10
-33.9649020341
 20
64.1482620998
 11
-30.1290363980
 21
64.6330174666
  0
LINE
  8
Layer1$C$L1
 62
     3
 10
-33.9649020341
 20
64.1482620998
 11
-31.5056198452
 21
66.5989823729
  0
LINE
  8
Layer1$C$L1
 62
     3
 10
-36.5530924851
 20
88.4075203627
 11
-36.5530924851
 21
88.3075203627
  0
LINE
  8
Layer1$C$L1
 62
     3
 10
-39.2448105542
 20
63.7618917693
 11
-39.0377553181
 21
64.5346324303
  0
LINE
  8
Layer1$C$L1
 62
     3
 10
-42.6399636025
 20
60.2075203627
 11
-41.5820088694
 21
60.2075203627
  0
LINE
  8
Layer1$C$L1
 62
     3
 10
-43.9070030094
 20
81.1614308870
 11
-43.3413175845
 21
80.5957454621
  0
LINE
  8
Layer1$C$L1
 62
     3
 10
-44.6530924851
 20
85.8341574654
 11
-44.6530924851
 21
85.9545364572
  0
LINE
  8
Layer1$C$L1
 62
     3
 10
-45.6530924851
 20
85.0964529960
 11
-45.6530924851
 21
85.2246128122
  0
LINE
  8
Layer1$C$L1
 62
     3
 10
-46.1165615868
 20
72.9708252323
 11
-45.3196058283
 21
73.0405498265
  0
LINE
  8
Layer1$C$L1
 62
     3
 10
-47.7104731037
 20
72.8313760439
 11
-46.2123507480
 21
76.3957108137
  0
LINE
  8
Layer1$C$L1
 62
     3
 10
-47.7104731037
 20
72.8313760439
 11
-46.9135173453
 21
72.9011006381
  0
LINE
  8
Layer1$C$L1
 62
     3
 10
-48.9937516316
 20
82.0075203627
 11
-48.5117713419
 21
82.0075203627
  0
LINE
  8
Layer1$C$L1
 62
     3
 10
-50.1530924851
 20
78.8364367470
 11
-50.1530924851
 21
79.8943914801
  0
LINE
  8
Layer1$C$L1
 62
     3
 10
-50.1530924851
 20
67.7206492453
 11
-50.1530924851
 21
68.7786039784
  0
POLYLINE
  8
Layer1$C$L1
 62
     3
 66
     1
  0
VERTEX
  8
Layer1$C$L1
 62
     3
 10
-22.9530924851
 20
67.7206492453
  0
VERTEX
  8
Layer1$C$L1
 62
     3
 10
-22.9694330462
 20
67.7241401723
  0
VERTEX
  8
Layer1$C$L1
 62
     3
 10
-23.0163739990
 20
67.7341795964
  0
VERTEX
  8
Layer1$C$L1
 62
     3
 10
-23.0890639354
 20
67.7497588760
  0
VERTEX
  8
Layer1$C$L1
 62
     3
 10
-23.1809114318
 20
67.7695015868
  0
VERTEX
  8
Layer1$C$L1
 62
     3
 10
-23.2478202755
 20
67.7839244479
  0
VERTEX
  8
Layer1$C$L1
 62
     3
 10
-23.2530924851
 20
67.7850623927
  0
SEQEND
  8
Layer1$C$L1
 62
     3
  0
POLYLINE
  8
Layer1$C$L1
 62
     3
 66
     1
  0
VERTEX
  8
Layer1$C$L1
 62
     3
 10
-22.9530924851
 20
79.8943914801
  0
VERTEX
  8
Layer1$C$L1
 62
     3
 10
-22.9694330462
 20
79.8909005531
  0
VERTEX
  8
Layer1$C$L1
 62
     3
 10
-23.0163739990
 20
79.8808611290
  0
VERTEX
  8
Layer1$C$L1
 62
     3
 10
-23.0890639354
 20
79.8652818493
  0
VERTEX
  8
Layer1$C$L1
 62
     3
 10
-23.1809114318
 20
79.8455391386
  0
VERTEX
  8
Layer1$C$L1
 62
     3
 10
-23.2478202755
 20
79.8311162775
  0
VERTEX
  8
Layer1$C$L1
 62
     3
 10
-23.2530924851
 20
79.8299783327
  0
SEQEND
  8
Layer1$C$L1
 62
     3
  0
POLYLINE
  8
Layer1$C$L1
 62
     3
 66
     1
  0
VERTEX
  8
Layer1$C$L1
 62
     3
 10
-50.1530924851
 20
79.8943914801
  0
VERTEX
  8
Layer1$C$L1
 62
     3
 10
-50.1367519240
 20
79.8909005531
  0
VERTEX
  8
Layer1$C$L1
 62
     3
 10
-50.0898109712
 20
79.8808611290
  0
VERTEX
  8
Layer1$C$L1
 62
     3
 10
-50.0171210348
 20
79.8652818493
  0
VERTEX
  8
Layer1$C$L1
 62
     3
 10
-49.9252735384
 20
79.8455391386
  0
VERTEX
  8
Layer1$C$L1
 62
     3
 10
-49.8583646947
 20
79.8311162775
  0
VERTEX
  8
Layer1$C$L1
 62
     3
 10
-49.8530924851
 20
79.8299783327
  0
SEQEND
  8
Layer1$C$L1
 62
     3
  0
POLYLINE
  8
Layer1$C$L1
 62
     3
 66
     1
  0
VERTEX
  8
Layer1$C$L1
 62
     3
 10
-30.2345856943
 20
87.3014624084
  0
VERTEX
  8
Layer1$C$L1
 62
     3
 10
-30.2352659484
 20
87.3016352694
  0
VERTEX
  8
Layer1$C$L1
 62
     3
 10
-30.2424485928
 20
87.2968565772
  0
VERTEX
  8
Layer1$C$L1
 62
     3
 10
-30.2653164646
 20
87.2650169144
  0
VERTEX
  8
Layer1$C$L1
 62
     3
 10
-30.2989768075
 20
87.2068193261
  0
VERTEX
  8
Layer1$C$L1
 62
     3
 10
-30.3396662107
 20
87.1287974727
  0
VERTEX
  8
Layer1$C$L1
 62
     3
 10
-30.3828658112
 20
87.0396140289
  0
SEQEND
  8
Layer1$C$L1
 62
     3
  0
POLYLINE
  8
Layer1$C$L1
 62
     3
 66
     1
  0
VERTEX
  8
Layer1$C$L1
 62
     3
 10
-30.4662213677
 20
60.2075203627
  0
VERTEX
  8
Layer1$C$L1
 62
     3
 10
-30.4697122947
 20
60.2238609238
  0
VERTEX
  8
Layer1$C$L1
 62
     3
 10
-30.4797517188
 20
60.2708018766
  0
VERTEX
  8
Layer1$C$L1
 62
     3
 10
-30.4953309985
 20
60.3434918130
  0
VERTEX
  8
Layer1$C$L1
 62
     3
 10
-30.5150737092
 20
60.4353393094
  0
VERTEX
  8
Layer1$C$L1
 62
     3
 10
-30.5294965703
 20
60.5022481531
  0
VERTEX
  8
Layer1$C$L1
 62
     3
 10
-30.5306345151
 20
60.5075203627
  0
SEQEND
  8
Layer1$C$L1
 62
     3
  0
POLYLINE
  8
Layer1$C$L1
 62
     3
 66
     1
  0
VERTEX
  8
Layer1$C$L1
 62
     3
 10
-48.9937516316
 20
82.0075203627
  0
VERTEX
  8
Layer1$C$L1
 62
     3
 10
-48.9862193951
 20
81.9935386283
  0
VERTEX
  8
Layer1$C$L1
 62
     3
 10
-48.9650289433
 20
81.9542492165
  0
VERTEX
  8
Layer1$C$L1
 62
     3
 10
-48.9316284532
 20
81.8924571324
  0
VERTEX
  8
Layer1$C$L1
 62
     3
 10
-48.8856835197
 20
81.8077294392
  0
VERTEX
  8
Layer1$C$L1
 62
     3
 10
-48.8329309990
 20
81.7108363274
  0
VERTEX
  8
Layer1$C$L1
 62
     3
 10
-48.8311216429
 20
81.7075203627
  0
SEQEND
  8
Layer1$C$L1
 62
     3
  0
POLYLINE
  8
Layer1$C$L1
 62
     3
 66
     1
  0
VERTEX
  8
Layer1$C$L1
 62
     3
 10
-50.1530924851
 20
67.7206492453
  0
VERTEX
  8
Layer1$C$L1
 62
     3
 10
-50.1367519240
 20
67.7241401723
  0
VERTEX
  8
Layer1$C$L1
 62
     3
 10
-50.0898109712
 20
67.7341795964
  0
VERTEX
  8
Layer1$C$L1
 62
     3
 10
-50.0171210348
 20
67.7497588760
  0
VERTEX
  8
Layer1$C$L1
 62
     3
 10
-49.9252735384
 20
67.7695015868
  0
VERTEX
  8
Layer1$C$L1
 62
     3
 10
-49.8583646947
 20
67.7839244479
  0
VERTEX
  8
Layer1$C$L1
 62
     3
 10
-49.8530924851
 20
67.7850623927
  0
SEQEND
  8
Layer1$C$L1
 62
     3
  0
POLYLINE
  8
Layer1$C$L1
 62
     3
 66
     1
  0
VERTEX
  8
Layer1$C$L1
 62
     3
 10
-36.5292319730
 20
88.7075012578
  0
VERTEX
  8
Layer1$C$L1
 62
     3
 10
-36.5299235662
 20
88.7073712136
  0
VERTEX
  8
Layer1$C$L1
 62
     3
 10
-36.5344426053
 20
88.7000018986
  0
VERTEX
  8
Layer1$C$L1
 62
     3
 10
-36.5417534542
 20
88.6614785203
  0
VERTEX
  8
Layer1$C$L1
 62
     3
 10
-36.5476977278
 20
88.5945082405
  0
VERTEX
  8
Layer1$C$L1
 62
     3
 10
-36.5516228596
 20
88.5066025427
  0
VERTEX
  8
Layer1$C$L1
 62
     3
 10
-36.5530924263
 20
88.4075203627
  0
SEQEND
  8
Layer1$C$L1
 62
     3
  0
POLYLINE
  8
Layer1$C$L1
 62
     3
 66
     1
  0
VERTEX
  8
Layer1$C$L1
 62
     3
 10
-42.6399636025
 20
60.2075203627
  0
VERTEX
  8
Layer1$C$L1
 62
     3
 10
-42.6364726755
 20
60.2238609238
  0
VERTEX
  8
Layer1$C$L1
 62
     3
 10
-42.6264332514
 20
60.2708018766
  0
VERTEX
  8
Layer1$C$L1
 62
     3
 10
-42.6108539718
 20
60.3434918130
  0
VERTEX
  8
Layer1$C$L1
 62
     3
 10
-42.5911112610
 20
60.4353393094
  0
VERTEX
  8
Layer1$C$L1
 62
     3
 10
-42.5766883999
 20
60.5022481531
  0
VERTEX
  8
Layer1$C$L1
 62
     3
 10
-42.5755504551
 20
60.5075203627
  0
SEQEND
  8
Layer1$C$L1
 62
     3
  0
POLYLINE
  8
Layer1$C$L1
 62
     3
 66
     1
  0
VERTEX
  8
Layer1$C$L1
 62
     3
 10
-44.6927134013
 20
86.2877676095
  0
VERTEX
  8
Layer1$C$L1
 62
     3
 10
-44.6939516559
 20
86.2869263471
  0
VERTEX
  8
Layer1$C$L1
 62
     3
 10
-44.7061643564
 20
86.2734917129
  0
VERTEX
  8
Layer1$C$L1
 62
     3
 10
-44.7165148579
 20
86.2262504675
  0
VERTEX
  8
Layer1$C$L1
 62
     3
 10
-44.7063412845
 20
86.1597599805
  0
VERTEX
  8
Layer1$C$L1
 62
     3
 10
-44.6764378424
 20
86.0783273353
  0
SEQEND
  8
Layer1$C$L1
 62
     3
  0
POLYLINE
  8
Layer1$C$L1
 62
     3
 66
     1
  0
VERTEX
  8
Layer1$C$L1
 62
     3
 10
-45.7132613465
 20
85.5591715842
  0
VERTEX
  8
Layer1$C$L1
 62
     3
 10
-45.7143962931
 20
85.5582494515
  0
VERTEX
  8
Layer1$C$L1
 62
     3
 10
-45.7214928114
 20
85.5502279829
  0
VERTEX
  8
Layer1$C$L1
 62
     3
 10
-45.7306289816
 20
85.5070082053
  0
VERTEX
  8
Layer1$C$L1
 62
     3
 10
-45.7174307625
 20
85.4446648376
  0
VERTEX
  8
Layer1$C$L1
 62
     3
 10
-45.6829773197
 20
85.3675240389
  0
SEQEND
  8
Layer1$C$L1
 62
     3
  0
POLYLINE
  8
Layer1$C$L1
 62
     3
 66
     1
  0
VERTEX
  8
Layer1$C$L1
 62
     3
 10
-24.1124333386
 20
82.0075203627
  0
VERTEX
  8
Layer1$C$L1
 62
     3
 10
-24.1199655751
 20
81.9935386283
  0
VERTEX
  8
Layer1$C$L1
 62
     3
 10
-24.1411560269
 20
81.9542492165
  0
VERTEX
  8
Layer1$C$L1
 62
     3
 10
-24.1697420599
 20
81.9013640477
  0
SEQEND
  8
Layer1$C$L1
 62
     3
  0
LINE
  8
Layer1$C$L1
 62
     3
 10
-46.2123507480
 20
76.3957108137
 11
-45.3196058283
 21
73.0405498265
  0
ARC
  8
Layer1$C$L1
 62
     3
 10
-93.7052246369
 20
73.8075203627
 40
14.6000000000
 50
122.8106147437
 51
127.6477315020
  0
CIRCLE
  8
Layer1$C$L1
 62
     3
 10
-36.5530924851
 20
73.8075203627
 40
6.2000000000
  0
CIRCLE
  8
Layer1$C$L1
 62
     3
 10
-36.5530924851
 20
73.8075203627
 40
6.5000000000
  0
ARC
  8
Layer1$C$L1
  6
DASH
 62
     3
 10
-119.2930926025
 20
88.6075203627
 40
0.4000000000
 50
90.0000000000
 51
180.0000000000
  0
ARC
  8
Layer1$C$L1
  6
DASH
 62
     3
 10
-119.2930926025
 20
59.0075203627
 40
0.4000000000
 50
180.0000000000
 51
270.0000000000
  0
ARC
  8
Layer1$C$L1
  6
DASH
 62
     3
 10
-118.8930926025
 20
88.6075203627
 40
0.4000000000
 50
360.0000000000
 51
450.0000000000
  0
ARC
  8
Layer1$C$L1
  6
DASH
 62
     3
 10
-118.8930926025
 20
59.0075203627
 40
0.4000000000
 50
270.0000000000
 51
360.0000000000
  0
LINE
  8
Layer1$C$L1
  6
DASH
 62
     3
 10
-119.6930926025
 20
88.6075203627
 11
-119.6930926025
 21
59.0075203627
  0
LINE
  8
Layer1$C$L1
  6
DASH
 62
     3
 10
-118.8930926025
 20
58.6075203627
 11
-119.2930926025
 21
58.6075203627
  0
LINE
  8
Layer1$C$L1
  6
DASH
 62
     3
 10
-118.8930926025
 20
89.0075203627
 11
-119.2930926025
 21
89.0075203627
  0
LINE
  8
Layer1$C$L1
  6
DASH
 62
     3
 10
-118.4930926025
 20
59.0075203627
 11
-118.4930926025
 21
59.1075203627
  0
LINE
  8
Layer1$C$L1
  6
DASH
 62
     3
 10
-118.4930926025
 20
88.5075203627
 11
-118.4930926025
 21
88.6075203627
  0
LINE
  8
Layer1$C$L1
  6
DASH
 62
     3
 10
-115.0930926025
 20
62.7075203627
 11
-115.0930926025
 21
63.7075203627
  0
LINE
  8
Layer1$C$L1
  6
DASH
 62
     3
 10
-115.0930926025
 20
83.9075203627
 11
-115.0930926025
 21
84.9075203627
  0
LINE
  8
Layer1$C$L1
  6
DASH
 62
     3
 10
-113.5930926025
 20
79.0075203627
 11
-113.5930926025
 21
68.6075203627
  0
LINE
  8
Layer1$C$L1
  6
DASH
 62
     3
 10
-109.0930926025
 20
88.5075203627
 11
-118.4930926025
 21
88.5075203627
  0
LINE
  8
Layer1$C$L1
  6
DASH
 62
     3
 10
-109.0930926025
 20
84.9075203627
 11
-115.0930926025
 21
84.9075203627
  0
LINE
  8
Layer1$C$L1
  6
DASH
 62
     3
 10
-109.0930926025
 20
62.7075203627
 11
-115.0930926025
 21
62.7075203627
  0
LINE
  8
Layer1$C$L1
  6
DASH
 62
     3
 10
-109.0930926025
 20
59.1075203627
 11
-118.4930926025
 21
59.1075203627
  0
LINE
  8
Layer1$C$L1
  6
DASH
 62
     3
 10
-109.0930926025
 20
79.0075203627
 11
-113.5930926025
 21
79.0075203627
  0
LINE
  8
Layer1$C$L1
  6
DASH
 62
     3
 10
-109.0930926025
 20
59.1075203627
 11
-109.0930926025
 21
62.7075203627
  0
LINE
  8
Layer1$C$L1
  6
DASH
 62
     3
 10
-109.0930926025
 20
68.6075203627
 11
-113.5930926025
 21
68.6075203627
  0
LINE
  8
Layer1$C$L1
  6
DASH
 62
     3
 10
-109.0930926025
 20
83.9075203627
 11
-115.0930926025
 21
83.9075203627
  0
LINE
  8
Layer1$C$L1
  6
DASH
 62
     3
 10
-109.0930926025
 20
79.0075203627
 11
-109.0930926025
 21
83.9075203627
  0
LINE
  8
Layer1$C$L1
  6
DASH
 62
     3
 10
-109.0930926025
 20
63.7075203627
 11
-109.0930926025
 21
68.6075203627
  0
LINE
  8
Layer1$C$L1
  6
DASH
 62
     3
 10
-109.0930926025
 20
63.7075203627
 11
-115.0930926025
 21
63.7075203627
  0
LINE
  8
Layer1$C$L1
  6
DASH
 62
     3
 10
-109.0930926025
 20
84.9075203627
 11
-109.0930926025
 21
88.5075203627
  0
LINE
  8
Layer1$C$L1
  6
DASH
 62
     3
 10
-119.2930926025
 20
151.5488301533
 11
-109.0930926025
 21
151.5488301533
  0
LINE
  8
Layer1$C$L1
  6
DASH
 62
     3
 10
-109.0930926025
 20
151.5488301533
 11
-109.0930926025
 21
122.1488301533
  0
LINE
  8
Layer1$C$L1
  6
DASH
 62
     3
 10
-119.6930926025
 20
151.1488301533
 11
-119.6930926025
 21
122.5488301533
  0
LINE
  8
Layer1$C$L1
  6
DASH
 62
     3
 10
-119.2930926025
 20
122.1488301533
 11
-109.0930926025
 21
122.1488301533
  0
ARC
  8
Layer1$C$L1
  6
DASH
 62
     3
 10
-119.2930926025
 20
151.1488301533
 40
0.4000000000
 50
90.0000000000
 51
180.0000000000
  0
ARC
  8
Layer1$C$L1
  6
DASH
 62
     3
 10
-119.2930926025
 20
122.5488301533
 40
0.4000000000
 50
180.0000000000
 51
270.0000000000
  0
LINE
  8
Layer1$C$L1
  6
DASH
 62
     3
 10
-178.5331104381
 20
67.4900841739
 11
-178.5331104381
 21
80.1249565515
  0
LINE
  8
Layer1$C$L1
  6
DASH
 62
     3
 10
-176.0507206791
 20
63.7075203627
 11
-173.6331104381
 21
63.7075203627
  0
LINE
  8
Layer1$C$L1
  6
DASH
 62
     3
 10
-176.0507206791
 20
83.9075203627
 11
-173.6331104381
 21
83.9075203627
  0
LINE
  8
Layer1$C$L1
  6
DASH
 62
     3
 10
-173.6331104381
 20
63.7075203627
 11
-173.6331104381
 21
61.3576207647
  0
LINE
  8
Layer1$C$L1
  6
DASH
 62
     3
 10
-173.6331104381
 20
86.2574199607
 11
-173.6331104381
 21
83.9075203627
  0
LINE
  8
Layer1$C$L1
  6
DASH
 62
     3
 10
-170.1505466270
 20
88.5075203627
 11
-169.3331104381
 21
88.5075203627
  0
LINE
  8
Layer1$C$L1
  6
DASH
 62
     3
 10
-170.1505466270
 20
59.1075203627
 11
-169.3331104381
 21
59.1075203627
  0
LINE
  8
Layer1$C$L1
  6
DASH
 62
     3
 10
-169.3331104381
 20
88.5075203627
 11
-168.9502677257
 21
88.8903630752
  0
LINE
  8
Layer1$C$L1
  6
DASH
 62
     3
 10
-169.3331104381
 20
59.1075203627
 11
-168.9502677257
 21
58.7246776502
  0
LINE
  8
Layer1$C$L1
  6
DASH
 62
     3
 10
-168.6674250132
 20
58.6075203627
 11
-158.9987958631
 21
58.6075203627
  0
LINE
  8
Layer1$C$L1
  6
DASH
 62
     3
 10
-168.6674250132
 20
89.0075203627
 11
-158.9987958631
 21
89.0075203627
  0
LINE
  8
Layer1$C$L1
  6
DASH
 62
     3
 10
-158.7159531506
 20
58.7246776502
 11
-158.3331104381
 21
59.1075203627
  0
LINE
  8
Layer1$C$L1
  6
DASH
 62
     3
 10
-158.7159531506
 20
88.8903630752
 11
-158.3331104381
 21
88.5075203627
  0
LINE
  8
Layer1$C$L1
  6
DASH
 62
     3
 10
-158.3331104381
 20
59.1075203627
 11
-157.5156742493
 21
59.1075203627
  0
LINE
  8
Layer1$C$L1
  6
DASH
 62
     3
 10
-158.3331104381
 20
88.5075203627
 11
-157.5156742493
 21
88.5075203627
  0
LINE
  8
Layer1$C$L1
  6
DASH
 62
     3
 10
-154.0331104381
 20
63.7075203627
 11
-151.6155001972
 21
63.7075203627
  0
LINE
  8
Layer1$C$L1
  6
DASH
 62
     3
 10
-154.0331104381
 20
63.7075203627
 11
-154.0331104381
 21
61.3576207647
  0
LINE
  8
Layer1$C$L1
  6
DASH
 62
     3
 10
-154.0331104381
 20
83.9075203627
 11
-151.6155001972
 21
83.9075203627
  0
LINE
  8
Layer1$C$L1
  6
DASH
 62
     3
 10
-154.0331104381
 20
86.2574199607
 11
-154.0331104381
 21
83.9075203627
  0
LINE
  8
Layer1$C$L1
  6
DASH
 62
     3
 10
-149.1331104381
 20
80.1249565515
 11
-149.1331104381
 21
67.4900841739
  0
ARC
  8
Layer1$C$L1
  6
DASH
 62
     3
 10
-176.0507206791
 20
83.5075203627
 40
0.4000000000
 50
90.0000000000
 51
141.5526756839
  0
ARC
  8
Layer1$C$L1
  6
DASH
 62
     3
 10
-176.0507206791
 20
64.1075203627
 40
0.4000000000
 50
218.4473243160
 51
270.0000000000
  0
ARC
  8
Layer1$C$L1
  6
DASH
 62
     3
 10
-173.2331104381
 20
61.3576207647
 40
0.4000000000
 50
180.0000000000
 51
232.9462404654
  0
ARC
  8
Layer1$C$L1
  6
DASH
 62
     3
 10
-173.2331104381
 20
86.2574199607
 40
0.4000000000
 50
127.0537595346
 51
180.0000000000
  0
ARC
  8
Layer1$C$L1
  6
DASH
 62
     3
 10
-168.6674250132
 20
59.0075203627
 40
0.4000000000
 50
225.0000000000
 51
270.0000000000
  0
ARC
  8
Layer1$C$L1
  6
DASH
 62
     3
 10
-168.6674250132
 20
88.6075203627
 40
0.4000000000
 50
90.0000000000
 51
135.0000000000
  0
ARC
  8
Layer1$C$L1
  6
DASH
 62
     3
 10
-163.8331104381
 20
73.8075203627
 40
16.0000000000
 50
23.2559807918
 51
38.4473243160
  0
ARC
  8
Layer1$C$L1
  6
DASH
 62
     3
 10
-163.8331104381
 20
73.8075203627
 40
16.0000000000
 50
321.5526756840
 51
336.7440192082
  0
ARC
  8
Layer1$C$L1
  6
DASH
 62
     3
 10
-163.8331104381
 20
73.8075203627
 40
16.0000000000
 50
113.2559807918
 51
127.0537595346
  0
ARC
  8
Layer1$C$L1
  6
DASH
 62
     3
 10
-163.8331104381
 20
73.8075203627
 40
16.0000000000
 50
232.9462404654
 51
246.7440192082
  0
ARC
  8
Layer1$C$L1
  6
DASH
 62
     3
 10
-163.8331104381
 20
73.8075203627
 40
16.0000000000
 50
52.9462404654
 51
66.7440192082
  0
ARC
  8
Layer1$C$L1
  6
DASH
 62
     3
 10
-163.8331104381
 20
73.8075203627
 40
16.0000000000
 50
141.5526756840
 51
156.7440192082
  0
ARC
  8
Layer1$C$L1
  6
DASH
 62
     3
 10
-163.8331104381
 20
73.8075203627
 40
16.0000000000
 50
293.2559807918
 51
307.0537595346
  0
ARC
  8
Layer1$C$L1
  6
DASH
 62
     3
 10
-163.8331104381
 20
73.8075203627
 40
16.0000000000
 50
203.2559807918
 51
218.4473243160
  0
ARC
  8
Layer1$C$L1
  6
DASH
 62
     3
 10
-158.9987958631
 20
59.0075203627
 40
0.4000000000
 50
270.0000000000
 51
315.0000000000
  0
ARC
  8
Layer1$C$L1
  6
DASH
 62
     3
 10
-158.9987958631
 20
88.6075203627
 40
0.4000000000
 50
45.0000000000
 51
90.0000000000
  0
ARC
  8
Layer1$C$L1
  6
DASH
 62
     3
 10
-154.4331104381
 20
61.3576207647
 40
0.4000000000
 50
307.0537595346
 51
360.0000000000
  0
ARC
  8
Layer1$C$L1
  6
DASH
 62
     3
 10
-154.4331104381
 20
86.2574199607
 40
0.4000000000
 50
360.0000000000
 51
412.9462404654
  0
ARC
  8
Layer1$C$L1
  6
DASH
 62
     3
 10
-151.6155001972
 20
83.5075203627
 40
0.4000000000
 50
38.4473243160
 51
90.0000000000
  0
ARC
  8
Layer1$C$L1
  6
DASH
 62
     3
 10
-151.6155001972
 20
64.1075203627
 40
0.4000000000
 50
270.0000000000
 51
321.5526756840
  0
LINE
  8
Layer0$C$L0
 62
     3
 10
-93.7027109397
 20
126.1563094028
 11
-93.7027109397
 21
125.9488301533
  0
LINE
  8
Layer0$C$L0
 62
     3
 10
-93.7027109397
 20
147.7488301533
 11
-93.7027109397
 21
147.5413509038
  0
LINE
  8
Layer0$C$L0
 62
     3
 10
-93.7968285867
 20
147.5321280027
 11
-93.7968285867
 21
147.4861395764
  0
LINE
  8
Layer0$C$L0
 62
     3
 10
-93.7968285867
 20
126.2149697410
 11
-93.7968285867
 21
126.1655323039
  0
LINE
  8
Layer0$C$L0
 62
     3
 10
-93.7968285867
 20
147.0134285817
 11
-93.7968285867
 21
146.5002895847
  0
LINE
  8
Layer0$C$L0
 62
     3
 10
-93.7968285867
 20
127.1946358644
 11
-93.7968285867
 21
126.6842317249
  0
LINE
  8
Layer0$C$L0
 62
     3
 10
-93.7027109397
 20
146.0781704472
 11
-93.7027109397
 21
146.5088218983
  0
LINE
  8
Layer0$C$L0
 62
     3
 10
-93.7027109397
 20
127.1888394314
 11
-93.7027109397
 21
127.8888355529
  0
POLYLINE
  8
Layer0$C$L0
 62
     3
 66
     1
  0
VERTEX
  8
Layer0$C$L0
 62
     3
 10
-93.9690030345
 20
127.3432526850
  0
VERTEX
  8
Layer0$C$L0
 62
     3
 10
-93.9721137551
 20
127.3506653477
  0
VERTEX
  8
Layer0$C$L0
 62
     3
 10
-93.9741565503
 20
127.3632995059
  0
SEQEND
  8
Layer0$C$L0
 62
     3
  0
ARC
  8
Layer0$C$L0
 62
     3
 10
-93.8847533281
 20
144.7138530372
 40
8.9404031597E-02
 50
147.2227396325
 51
179.7562069071
  0
LINE
  8
Layer0$C$L0
 62
     3
 10
-93.7027109397
 20
144.2627770952
 11
-93.7027109397
 21
144.8924252914
  0
LINE
  8
Layer0$C$L0
 62
     3
 10
-93.7027109397
 20
128.8052526836
 11
-93.7027109397
 21
129.7123402914
  0
ARC
  8
Layer0$C$L0
 62
     3
 10
-93.8848383860
 20
128.9837942248
 40
8.9318919821E-02
 50
180.2356575737
 51
213.2024652158
  0
ARC
  8
Layer0$C$L0
 62
     3
 10
-93.8396456090
 20
142.5589909861
 40
0.1345139463
 50
137.7166214837
 51
180.3829819034
  0
LINE
  8
Layer0$C$L0
 62
     3
 10
-93.7027109397
 20
141.9421355112
 11
-93.7027109397
 21
142.7414963282
  0
LINE
  8
Layer0$C$L0
 62
     3
 10
-93.7027109397
 20
130.9561853998
 11
-93.7027109397
 21
131.7555247954
  0
ARC
  8
Layer0$C$L0
 62
     3
 10
-93.8386450726
 20
131.1390381202
 40
0.1355125154
 50
179.7757739582
 51
221.8620062197
  0
LINE
  8
Layer0$C$L0
 62
     3
 10
-93.7027109397
 20
139.2743935842
 11
-93.7027109397
 21
140.2026231361
  0
LINE
  8
Layer0$C$L0
 62
     3
 10
-93.7027109397
 20
133.4950318128
 11
-93.7027109397
 21
134.6609576387
  0
LINE
  8
Layer0$C$L0
 62
     3
 10
-93.9741565503
 20
147.5689894629
 11
-93.9741565503
 21
147.5765692642
  0
LINE
  8
Layer0$C$L0
 62
     3
 10
-93.9741565503
 20
126.1210910424
 11
-93.9741565503
 21
126.1286708437
  0
LINE
  8
Layer0$C$L0
 62
     3
 10
-93.7027109397
 20
147.7412111047
 11
-91.1930926025
 21
147.7412111047
  0
LINE
  8
Layer0$C$L0
 62
     3
 10
-91.1930926025
 20
147.5413509038
 11
-93.7027109397
 21
147.5413509038
  0
LINE
  8
Layer0$C$L0
 62
     3
 10
-91.1930926025
 20
125.9564492018
 11
-93.7027109397
 21
125.9564492018
  0
LINE
  8
Layer0$C$L0
 62
     3
 10
-93.7027109397
 20
126.1563094028
 11
-91.1930926025
 21
126.1563094028
  0
ARC
  8
Layer0$C$L0
 62
     3
 10
-93.7027231829
 20
147.4412012872
 40
0.3000098178
 50
89.9976617844
 51
154.7894022591
  0
LINE
  8
Layer0$C$L0
 62
     3
 10
-93.8756273615
 20
147.5226555467
 11
-93.9741565503
 21
147.5689894629
  0
POLYLINE
  8
Layer0$C$L0
 62
     3
 66
     1
  0
VERTEX
  8
Layer0$C$L0
 62
     3
 10
-93.7027109397
 20
147.5413509038
  0
VERTEX
  8
Layer0$C$L0
 62
     3
 10
-93.7145564913
 20
147.5406463473
  0
VERTEX
  8
Layer0$C$L0
 62
     3
 10
-93.7449312623
 20
147.5319944785
  0
SEQEND
  8
Layer0$C$L0
 62
     3
  0
POLYLINE
  8
Layer0$C$L0
 62
     3
 66
     1
  0
VERTEX
  8
Layer0$C$L0
 62
     3
 10
-93.7449312623
 20
126.1656658281
  0
VERTEX
  8
Layer0$C$L0
 62
     3
 10
-93.7357941039
 20
126.1619443644
  0
VERTEX
  8
Layer0$C$L0
 62
     3
 10
-93.7027109397
 20
126.1563094028
  0
SEQEND
  8
Layer0$C$L0
 62
     3
  0
LINE
  8
Layer0$C$L0
 62
     3
 10
-93.9741565503
 20
126.1286708437
 11
-93.8756273615
 21
126.1750047599
  0
ARC
  8
Layer0$C$L0
 62
     3
 10
-93.7027300324
 20
126.2564482236
 40
0.2999990224
 50
205.2092894979
 51
270.0036464586
  0
LINE
  8
Layer0$C$L0
 62
     3
 10
-93.7449312623
 20
147.5319944785
 11
-93.7968285867
 21
147.5321280027
  0
LINE
  8
Layer0$C$L0
 62
     3
 10
-93.7449312623
 20
147.5319944785
 11
-91.1930926025
 21
147.5319944785
  0
LINE
  8
Layer0$C$L0
 62
     3
 10
-93.7968285867
 20
126.1655323039
 11
-93.7449312623
 21
126.1656658281
  0
LINE
  8
Layer0$C$L0
 62
     3
 10
-93.7449312623
 20
126.1656658281
 11
-91.1930926025
 21
126.1656658281
  0
ARC
  8
Layer0$C$L0
 62
     3
 10
-93.8085723893
 20
147.2411214189
 40
0.2894094581
 50
103.3969344913
 51
153.8119972952
  0
LINE
  8
Layer0$C$L0
 62
     3
 10
-93.8756273615
 20
147.5226555467
 11
-93.7968285867
 21
147.5321280027
  0
ARC
  8
Layer0$C$L0
 62
     3
 10
-93.8085723893
 20
126.4565388877
 40
0.2894094581
 50
206.1880027046
 51
256.6030655089
  0
LINE
  8
Layer0$C$L0
 62
     3
 10
-93.7968285867
 20
126.1655323039
 11
-93.8756273615
 21
126.1750047599
  0
LINE
  8
Layer0$C$L0
 62
     3
 10
-93.9741565503
 20
147.3080649139
 11
-93.9730224448
 21
147.3125657931
  0
LINE
  8
Layer0$C$L0
 62
     3
 10
-93.7027109397
 20
147.2645995104
 11
-93.7027109397
 21
147.4805397124
  0
LINE
  8
Layer0$C$L0
 62
     3
 10
-93.7027109397
 20
126.2171205942
 11
-93.7027109397
 21
126.4330607962
  0
LINE
  8
Layer0$C$L0
 62
     3
 10
-93.9730161882
 20
126.3850816291
 11
-93.9741565503
 21
126.3895953927
  0
LINE
  8
Layer0$C$L0
 62
     3
 10
-91.1930926025
 20
147.4755249378
 11
-93.7027109397
 21
147.4755249378
  0
LINE
  8
Layer0$C$L0
 62
     3
 10
-91.1930926025
 20
131.7555247954
 11
-91.1930926025
 21
125.9488301533
  0
LINE
  8
Layer0$C$L0
 62
     3
 10
-93.7027109397
 20
126.2221353688
 11
-91.1930926025
 21
126.2221353688
  0
ARC
  8
Layer0$C$L0
 62
     3
 10
-93.7042238986
 20
126.5234138611
 40
0.3012822911
 50
206.3698048711
 51
270.2877252641
  0
ARC
  8
Layer0$C$L0
 62
     3
 10
-93.7050621727
 20
147.1756052523
 40
0.2999289016
 50
89.5508365205
 51
153.7916333443
  0
LINE
  8
Layer0$C$L0
 62
     3
 10
-93.7027109397
 20
147.2645995104
 11
-91.1930926025
 21
147.2645995104
  0
LINE
  8
Layer0$C$L0
 62
     3
 10
-91.1930926025
 20
147.0217206673
 11
-93.7027109397
 21
147.0217206673
  0
LINE
  8
Layer0$C$L0
 62
     3
 10
-93.7027109397
 20
126.6759396393
 11
-91.1930926025
 21
126.6759396393
  0
LINE
  8
Layer0$C$L0
 62
     3
 10
-91.1930926025
 20
126.4330607962
 11
-93.7027109397
 21
126.4330607962
  0
LINE
  8
Layer0$C$L0
 62
     3
 10
-93.7027109397
 20
147.0217206673
 11
-93.7027109397
 21
147.2645995104
  0
ARC
  8
Layer0$C$L0
 62
     3
 10
-93.7049007407
 20
146.9626256006
 40
0.3019818495
 50
89.5845198748
 51
153.0786801627
  0
ARC
  8
Layer0$C$L0
 62
     3
 10
-93.7953805832
 20
147.1961182696
 40
0.2032840103
 50
208.4251881673
 51
246.7494894857
  0
POLYLINE
  8
Layer0$C$L0
 62
     3
 66
     1
  0
VERTEX
  8
Layer0$C$L0
 62
     3
 10
-93.7027109397
 20
147.0217206673
  0
VERTEX
  8
Layer0$C$L0
 62
     3
 10
-93.7145564913
 20
147.0210401180
  0
VERTEX
  8
Layer0$C$L0
 62
     3
 10
-93.7449312623
 20
147.0126830545
  0
SEQEND
  8
Layer0$C$L0
 62
     3
  0
POLYLINE
  8
Layer0$C$L0
 62
     3
 66
     1
  0
VERTEX
  8
Layer0$C$L0
 62
     3
 10
-93.7449312623
 20
126.6849772521
  0
VERTEX
  8
Layer0$C$L0
 62
     3
 10
-93.7357941039
 20
126.6813825943
  0
VERTEX
  8
Layer0$C$L0
 62
     3
 10
-93.7027109397
 20
126.6759396393
  0
SEQEND
  8
Layer0$C$L0
 62
     3
  0
ARC
  8
Layer0$C$L0
 62
     3
 10
-93.7953805832
 20
126.5015420370
 40
0.2032840103
 50
113.2505105143
 51
151.5748118327
  0
ARC
  8
Layer0$C$L0
 62
     3
 10
-93.7061154162
 20
126.7330393957
 40
0.2999979177
 50
206.6865743778
 51
270.6502255847
  0
LINE
  8
Layer0$C$L0
 62
     3
 10
-93.7027109397
 20
126.4330607962
 11
-93.7027109397
 21
126.6759396393
  0
LINE
  8
Layer0$C$L0
 62
     3
 10
-93.7449312623
 20
147.0126830545
 11
-93.7968285867
 21
147.0134285817
  0
LINE
  8
Layer0$C$L0
 62
     3
 10
-93.7449312623
 20
147.0126830545
 11
-91.1930926025
 21
147.0126830545
  0
LINE
  8
Layer0$C$L0
 62
     3
 10
-93.7968285867
 20
126.6842317249
 11
-93.7449312623
 21
126.6849772521
  0
LINE
  8
Layer0$C$L0
 62
     3
 10
-93.7449312623
 20
126.6849772521
 11
-91.1930926025
 21
126.6849772521
  0
ARC
  8
Layer0$C$L0
 62
     3
 10
-93.8630343239
 20
146.7546207465
 40
0.2550337750
 50
92.8302974115
 51
143.5866644969
  0
LINE
  8
Layer0$C$L0
 62
     3
 10
-93.8756273615
 20
147.0093434228
 11
-93.7968285867
 21
147.0134285817
  0
ARC
  8
Layer0$C$L0
 62
     3
 10
-93.8630343239
 20
126.9430395601
 40
0.2550337750
 50
216.4133355018
 51
267.1697025897
  0
LINE
  8
Layer0$C$L0
 62
     3
 10
-93.7968285867
 20
126.6842317249
 11
-93.8756273615
 21
126.6883168838
  0
POLYLINE
  8
Layer0$C$L0
 62
     3
 66
     1
  0
VERTEX
  8
Layer0$C$L0
 62
     3
 10
-94.0404787800
 20
146.2225888756
  0
VERTEX
  8
Layer0$C$L0
 62
     3
 10
-94.0671024891
 20
146.1642344690
  0
VERTEX
  8
Layer0$C$L0
 62
     3
 10
-94.0682741974
 20
146.1610595401
  0
SEQEND
  8
Layer0$C$L0
 62
     3
  0
POLYLINE
  8
Layer0$C$L0
 62
     3
 66
     1
  0
VERTEX
  8
Layer0$C$L0
 62
     3
 10
-94.0682741974
 20
127.5366007665
  0
VERTEX
  8
Layer0$C$L0
 62
     3
 10
-94.0671024891
 20
127.5334258376
  0
VERTEX
  8
Layer0$C$L0
 62
     3
 10
-94.0404852517
 20
127.4750856159
  0
SEQEND
  8
Layer0$C$L0
 62
     3
  0
POLYLINE
  8
Layer0$C$L0
 62
     3
 66
     1
  0
VERTEX
  8
Layer0$C$L0
 62
     3
 10
-93.9741565503
 20
146.3343608007
  0
VERTEX
  8
Layer0$C$L0
 62
     3
 10
-93.9721137551
 20
146.3469949589
  0
VERTEX
  8
Layer0$C$L0
 62
     3
 10
-93.9689397610
 20
146.3545244146
  0
SEQEND
  8
Layer0$C$L0
 62
     3
  0
LINE
  8
Layer0$C$L0
 62
     3
 10
-91.1930926025
 20
146.4856470827
 11
-93.7027109397
 21
146.4856470827
  0
LINE
  8
Layer0$C$L0
 62
     3
 10
-93.7027109397
 20
127.2120132239
 11
-91.1930926025
 21
127.2120132239
  0
ARC
  8
Layer0$C$L0
 62
     3
 10
-93.7090014903
 20
127.5198903583
 40
0.3079413920
 50
210.5645406655
 51
271.1705054393
  0
ARC
  8
Layer0$C$L0
 62
     3
 10
-93.7124879123
 20
146.1840254656
 40
0.3017800343
 50
88.1434248597
 51
150.1215290355
  0
LINE
  8
Layer0$C$L0
 62
     3
 10
-93.7027109397
 20
146.0781704472
 11
-91.1930926025
 21
146.0781704472
  0
LINE
  8
Layer0$C$L0
 62
     3
 10
-91.1930926025
 20
145.8088247537
 11
-93.7027109397
 21
145.8088247537
  0
LINE
  8
Layer0$C$L0
 62
     3
 10
-93.7027109397
 20
145.8088247537
 11
-93.7027109397
 21
146.0781704472
  0
ARC
  8
Layer0$C$L0
 62
     3
 10
-93.7101723580
 20
145.7678384759
 40
0.3104216571
 50
88.6226832298
 51
148.2557689016
  0
ARC
  8
Layer0$C$L0
 62
     3
 10
-93.7809060332
 20
145.9786092728
 40
0.1989904189
 50
193.7950501103
 51
241.5749016466
  0
POLYLINE
  8
Layer0$C$L0
 62
     3
 66
     1
  0
VERTEX
  8
Layer0$C$L0
 62
     3
 10
-93.7027109397
 20
145.8088247537
  0
VERTEX
  8
Layer0$C$L0
 62
     3
 10
-93.7145564913
 20
145.8082145899
  0
VERTEX
  8
Layer0$C$L0
 62
     3
 10
-93.7449312623
 20
145.8007218518
  0
SEQEND
  8
Layer0$C$L0
 62
     3
  0
LINE
  8
Layer0$C$L0
 62
     3
 10
-93.7027109397
 20
127.8888355529
 11
-91.1930926025
 21
127.8888355529
  0
LINE
  8
Layer0$C$L0
 62
     3
 10
-91.1930926025
 20
127.6194898594
 11
-93.7027109397
 21
127.6194898594
  0
POLYLINE
  8
Layer0$C$L0
 62
     3
 66
     1
  0
VERTEX
  8
Layer0$C$L0
 62
     3
 10
-93.7449312623
 20
127.8969384548
  0
VERTEX
  8
Layer0$C$L0
 62
     3
 10
-93.7357941039
 20
127.8937155728
  0
VERTEX
  8
Layer0$C$L0
 62
     3
 10
-93.7027109397
 20
127.8888355529
  0
SEQEND
  8
Layer0$C$L0
 62
     3
  0
ARC
  8
Layer0$C$L0
 62
     3
 10
-93.7809060332
 20
127.7190510338
 40
0.1989904189
 50
118.4250983535
 51
166.2049498897
  0
ARC
  8
Layer0$C$L0
 62
     3
 10
-93.7143102143
 20
127.9221815324
 40
0.3029138361
 50
210.9270228092
 51
272.1945250594
  0
LINE
  8
Layer0$C$L0
 62
     3
 10
-93.7449312623
 20
145.8007218518
 11
-93.7968285867
 21
145.8020285757
  0
LINE
  8
Layer0$C$L0
 62
     3
 10
-93.7449312623
 20
145.8007218518
 11
-91.1930926025
 21
145.8007218518
  0
LINE
  8
Layer0$C$L0
 62
     3
 10
-93.7968285867
 20
127.8956317309
 11
-93.7449312623
 21
127.8969384548
  0
LINE
  8
Layer0$C$L0
 62
     3
 10
-93.7449312623
 20
127.8969384548
 11
-91.1930926025
 21
127.8969384548
  0
ARC
  8
Layer0$C$L0
 62
     3
 10
-93.9098497505
 20
145.5195560857
 40
0.2861071353
 50
83.1301800841
 51
123.6228862930
  0
LINE
  8
Layer0$C$L0
 62
     3
 10
-93.7968285867
 20
145.8020285757
 11
-93.7968285867
 21
144.8256421230
  0
LINE
  8
Layer0$C$L0
 62
     3
 10
-93.8756273615
 20
145.8036091106
 11
-93.7968285867
 21
145.8020285757
  0
ARC
  8
Layer0$C$L0
 62
     3
 10
-93.9098497505
 20
128.1781042208
 40
0.2861071352
 50
236.3771137032
 51
276.8698199195
  0
LINE
  8
Layer0$C$L0
 62
     3
 10
-93.7968285867
 20
127.8956317309
 11
-93.8756273615
 21
127.8940511960
  0
LINE
  8
Layer0$C$L0
 62
     3
 10
-93.7968285867
 20
128.8720181836
 11
-93.7968285867
 21
127.8956317309
  0
ARC
  8
Layer0$C$L0
 62
     3
 10
-93.7734201620
 20
144.4772241253
 40
0.3099426636
 50
140.4975176643
 51
162.0485461383
  0
ARC
  8
Layer0$C$L0
 62
     3
 10
-93.7734737897
 20
129.2204134774
 40
0.3098846490
 50
197.9505164478
 51
219.4976402841
  0
LINE
  8
Layer0$C$L0
 62
     3
 10
-91.1930926025
 20
139.2743935842
 11
-91.1930926025
 21
147.7488301533
  0
LINE
  8
Layer0$C$L0
 62
     3
 10
-91.1930926025
 20
144.8390360795
 11
-93.7027109397
 21
144.8390360795
  0
LINE
  8
Layer0$C$L0
 62
     3
 10
-93.7027109397
 20
128.8586242271
 11
-91.1930926025
 21
128.8586242271
  0
ARC
  8
Layer0$C$L0
 62
     3
 10
-93.7157767569
 20
129.1878043835
 40
0.3294393585
 50
218.3438754700
 51
272.2729906514
  0
ARC
  8
Layer0$C$L0
 62
     3
 10
-93.7230188150
 20
144.5256073931
 40
0.3140858979
 50
86.2928364539
 51
143.0902974247
  0
LINE
  8
Layer0$C$L0
 62
     3
 10
-93.7027109397
 20
144.2627770952
 11
-91.1930926025
 21
144.2627770952
  0
LINE
  8
Layer0$C$L0
 62
     3
 10
-91.1930926025
 20
143.9853200152
 11
-93.7027109397
 21
143.9853200152
  0
LINE
  8
Layer0$C$L0
 62
     3
 10
-93.7027109397
 20
143.9853200152
 11
-93.7027109397
 21
144.2627770952
  0
ARC
  8
Layer0$C$L0
 62
     3
 10
-93.7171244668
 20
143.9261165261
 40
0.3369689727
 50
87.5484796044
 51
139.7096015739
  0
ARC
  8
Layer0$C$L0
 62
     3
 10
-93.7582187194
 20
144.1708225314
 40
0.2175946685
 50
187.0750487282
 51
237.3452884237
  0
POLYLINE
  8
Layer0$C$L0
 62
     3
 66
     1
  0
VERTEX
  8
Layer0$C$L0
 62
     3
 10
-93.7027109397
 20
143.9853200152
  0
VERTEX
  8
Layer0$C$L0
 62
     3
 10
-93.7145564913
 20
143.9848218186
  0
VERTEX
  8
Layer0$C$L0
 62
     3
 10
-93.7449312623
 20
143.9787040235
  0
SEQEND
  8
Layer0$C$L0
 62
     3
  0
POLYLINE
  8
Layer0$C$L0
 62
     3
 66
     1
  0
VERTEX
  8
Layer0$C$L0
 62
     3
 10
-93.7449312623
 20
129.7189562831
  0
VERTEX
  8
Layer0$C$L0
 62
     3
 10
-93.7357941039
 20
129.7163248109
  0
VERTEX
  8
Layer0$C$L0
 62
     3
 10
-93.7027109397
 20
129.7123402914
  0
SEQEND
  8
Layer0$C$L0
 62
     3
  0
ARC
  8
Layer0$C$L0
 62
     3
 10
-93.7582187194
 20
129.5268377752
 40
0.2175946685
 50
122.6547115763
 51
172.9249512718
  0
ARC
  8
Layer0$C$L0
 62
     3
 10
-93.7251172287
 20
129.7532743178
 40
0.3191785369
 50
218.7164521542
 51
274.0254666676
  0
LINE
  8
Layer0$C$L0
 62
     3
 10
-93.7027109397
 20
129.7123402914
 11
-91.1930926025
 21
129.7123402914
  0
LINE
  8
Layer0$C$L0
 62
     3
 10
-91.1930926025
 20
129.4348832114
 11
-93.7027109397
 21
129.4348832114
  0
LINE
  8
Layer0$C$L0
 62
     3
 10
-93.7449312623
 20
143.9787040235
 11
-93.7968285867
 21
143.9804828930
  0
LINE
  8
Layer0$C$L0
 62
     3
 10
-93.7449312623
 20
143.9787040235
 11
-91.1930926025
 21
143.9787040235
  0
LINE
  8
Layer0$C$L0
 62
     3
 10
-93.7968285867
 20
129.7171774136
 11
-93.7449312623
 21
129.7189562831
  0
LINE
  8
Layer0$C$L0
 62
     3
 10
-93.7449312623
 20
129.7189562831
 11
-91.1930926025
 21
129.7189562831
  0
ARC
  8
Layer0$C$L0
 62
     3
 10
-94.0483769248
 20
143.0023606439
 40
1.0002905532
 50
80.0551957582
 51
91.1397737692
  0
LINE
  8
Layer0$C$L0
 62
     3
 10
-93.7968285867
 20
143.9804828930
 11
-93.7968285867
 21
142.7080312942
  0
LINE
  8
Layer0$C$L0
 62
     3
 10
-93.8756273615
 20
143.9876214110
 11
-93.7968285867
 21
143.9804828930
  0
ARC
  8
Layer0$C$L0
 62
     3
 10
-94.0483769248
 20
130.6952996628
 40
1.0002905532
 50
268.8602262311
 51
279.9448042414
  0
LINE
  8
Layer0$C$L0
 62
     3
 10
-93.7968285867
 20
129.7171774136
 11
-93.8756273615
 21
129.7100388956
  0
LINE
  8
Layer0$C$L0
 62
     3
 10
-93.7968285867
 20
130.9896290124
 11
-93.7968285867
 21
129.7171774136
  0
ARC
  8
Layer0$C$L0
 62
     3
 10
-93.6705162505
 20
142.3131767843
 40
0.4233272115
 50
135.3438021581
 51
159.9843707355
  0
ARC
  8
Layer0$C$L0
 62
     3
 10
-93.6706096160
 20
131.3844440645
 40
0.4232259799
 50
200.0149364441
 51
224.6540462048
  0
LINE
  8
Layer0$C$L0
 62
     3
 10
-95.3930926025
 20
145.5459561154
 11
-95.3930926025
 21
146.0488301533
  0
LINE
  8
Layer0$C$L0
 62
     3
 10
-95.3930926025
 20
145.5459561154
 11
-96.2930926025
 21
145.5459561154
  0
LINE
  8
Layer0$C$L0
 62
     3
 10
-96.2930926025
 20
139.8488301533
 11
-96.2930926025
 21
145.5459561154
  0
LINE
  8
Layer0$C$L0
 62
     3
 10
-95.3930926025
 20
139.8488301533
 11
-96.2930926025
 21
139.8488301533
  0
LINE
  8
Layer0$C$L0
 62
     3
 10
-95.3930926025
 20
133.8488301533
 11
-95.3930926025
 21
139.8488301533
  0
LINE
  8
Layer0$C$L0
 62
     3
 10
-95.3930926025
 20
133.8488301533
 11
-96.2930926025
 21
133.8488301533
  0
LINE
  8
Layer0$C$L0
 62
     3
 10
-96.2930926025
 20
128.1517041912
 11
-96.2930926025
 21
133.8488301533
  0
LINE
  8
Layer0$C$L0
 62
     3
 10
-95.3930926025
 20
128.1517041912
 11
-96.2930926025
 21
128.1517041912
  0
LINE
  8
Layer0$C$L0
 62
     3
 10
-95.3930926025
 20
127.6488301533
 11
-95.3930926025
 21
128.1517041912
  0
LINE
  8
Layer0$C$L0
 62
     3
 10
-91.1930926025
 20
131.7555247954
 11
-91.1930926025
 21
134.6609576387
  0
LINE
  8
Layer0$C$L0
 62
     3
 10
-91.1930926025
 20
142.6479057468
 11
-93.7027109397
 21
142.6479057468
  0
LINE
  8
Layer0$C$L0
 62
     3
 10
-93.7027109397
 20
131.0497545598
 11
-91.1930926025
 21
131.0497545598
  0
ARC
  8
Layer0$C$L0
 62
     3
 10
-93.7227360940
 20
131.4443359377
 40
0.3950891933
 50
230.4787922423
 51
272.9052899239
  0
ARC
  8
Layer0$C$L0
 62
     3
 10
-93.7338355969
 20
142.2868705332
 40
0.3623743503
 50
85.0727432487
 51
131.5431745852
  0
ARC
  8
Layer0$C$L0
 62
     3
 10
-93.7238920766
 20
141.5236390781
 40
0.4190321050
 50
87.1025915763
 51
126.6727784016
  0
ARC
  8
Layer0$C$L0
 62
     3
 10
-93.7456467034
 20
141.8735881780
 40
0.2289298178
 50
183.4710626942
 51
235.4047756087
  0
POLYLINE
  8
Layer0$C$L0
 62
     3
 66
     1
  0
VERTEX
  8
Layer0$C$L0
 62
     3
 10
-93.7027109397
 20
141.6754752863
  0
VERTEX
  8
Layer0$C$L0
 62
     3
 10
-93.7145564913
 20
141.6751230080
  0
VERTEX
  8
Layer0$C$L0
 62
     3
 10
-93.7449312623
 20
141.6707970736
  0
SEQEND
  8
Layer0$C$L0
 62
     3
  0
LINE
  8
Layer0$C$L0
 62
     3
 10
-93.7027109397
 20
141.9421355112
 11
-91.1930926025
 21
141.9421355112
  0
LINE
  8
Layer0$C$L0
 62
     3
 10
-93.7027109397
 20
141.6754752863
 11
-93.7027109397
 21
141.9421355112
  0
LINE
  8
Layer0$C$L0
 62
     3
 10
-91.1930926025
 20
141.6754752863
 11
-93.7027109397
 21
141.6754752863
  0
POLYLINE
  8
Layer0$C$L0
 62
     3
 66
     1
  0
VERTEX
  8
Layer0$C$L0
 62
     3
 10
-93.7449312623
 20
132.0268632330
  0
VERTEX
  8
Layer0$C$L0
 62
     3
 10
-93.7357941039
 20
132.0250025011
  0
VERTEX
  8
Layer0$C$L0
 62
     3
 10
-93.7027109397
 20
132.0221850203
  0
SEQEND
  8
Layer0$C$L0
 62
     3
  0
ARC
  8
Layer0$C$L0
 62
     3
 10
-93.7456467034
 20
131.8240721286
 40
0.2289298178
 50
124.5952243913
 51
176.5289373059
  0
ARC
  8
Layer0$C$L0
 62
     3
 10
-93.7356377841
 20
132.1353316578
 40
0.3812314649
 50
231.2698378579
 51
274.9547921642
  0
LINE
  8
Layer0$C$L0
 62
     3
 10
-93.7027109397
 20
132.0221850203
 11
-91.1930926025
 21
132.0221850203
  0
LINE
  8
Layer0$C$L0
 62
     3
 10
-93.7027109397
 20
131.7555247954
 11
-93.7027109397
 21
132.0221850203
  0
LINE
  8
Layer0$C$L0
 62
     3
 10
-91.1930926025
 20
131.7555247954
 11
-93.7027109397
 21
131.7555247954
  0
LINE
  8
Layer0$C$L0
 62
     3
 10
-93.7449312623
 20
141.6707970736
 11
-93.7968285867
 21
141.6729268618
  0
LINE
  8
Layer0$C$L0
 62
     3
 10
-93.7449312623
 20
141.6707970736
 11
-91.1930926025
 21
141.6707970736
  0
LINE
  8
Layer0$C$L0
 62
     3
 10
-93.7968285867
 20
132.0247334448
 11
-93.7449312623
 21
132.0268632330
  0
ARC
  8
Layer0$C$L0
 62
     3
 10
-93.7587654508
 20
142.2738997329
 40
0.6002486133
 50
238.9601410931
 51
258.7734330286
  0
LINE
  8
Layer0$C$L0
 62
     3
 10
-93.7968285867
 20
141.6729268618
 11
-93.7968285867
 21
140.1911255904
  0
LINE
  8
Layer0$C$L0
 62
     3
 10
-93.8756273615
 20
141.6851368845
 11
-93.7968285867
 21
141.6729268618
  0
ARC
  8
Layer0$C$L0
 62
     3
 10
-93.7587654506
 20
131.4237605733
 40
0.6002486137
 50
101.2265669782
 51
121.0398588996
  0
LINE
  8
Layer0$C$L0
 62
     3
 10
-93.7968285867
 20
132.0247334448
 11
-93.8756273615
 21
132.0125234221
  0
LINE
  8
Layer0$C$L0
 62
     3
 10
-93.7968285867
 20
133.5065347162
 11
-93.7968285867
 21
132.0247334448
  0
ARC
  8
Layer0$C$L0
 62
     3
 10
-93.6912336749
 20
139.8062552928
 40
0.4076101659
 50
116.8963274744
 51
157.6687689882
  0
ARC
  8
Layer0$C$L0
 62
     3
 10
-93.6912336749
 20
133.8914050138
 40
0.4076101658
 50
202.3312310096
 51
243.1036725275
  0
LINE
  8
Layer0$C$L0
 62
     3
 10
-93.7968285867
 20
140.1911255904
 11
-93.8756273615
 21
140.1697728517
  0
ARC
  8
Layer0$C$L0
 62
     3
 10
-93.8055253667
 20
140.0163637003
 40
0.1686672980
 50
114.5585508105
 51
181.1856872126
  0
ARC
  8
Layer0$C$L0
 62
     3
 10
-93.8055253667
 20
133.6812966063
 40
0.1686672980
 50
178.8143127877
 51
245.4414491895
  0
LINE
  8
Layer0$C$L0
 62
     3
 10
-93.8756273615
 20
133.5278874549
 11
-93.7968285867
 21
133.5065347162
  0
LINE
  8
Layer0$C$L0
 62
     3
 10
-93.7449312623
 20
133.5042682682
 11
-93.7968285867
 21
133.5065347162
  0
LINE
  8
Layer0$C$L0
 62
     3
 10
-91.1930926025
 20
140.0615779959
 11
-93.7027109397
 21
140.0615779959
  0
LINE
  8
Layer0$C$L0
 62
     3
 10
-93.7027109397
 20
133.6360823107
 11
-91.1930926025
 21
133.6360823107
  0
LINE
  8
Layer0$C$L0
 62
     3
 10
-91.1930926025
 20
139.2743935842
 11
-91.1930926025
 21
139.0367026679
  0
LINE
  8
Layer0$C$L0
 62
     3
 10
-93.7027109397
 20
139.2743935842
 11
-91.1930926025
 21
139.2743935842
  0
LINE
  8
Layer0$C$L0
 62
     3
 10
-91.1930926025
 20
139.0367026679
 11
-93.7027109397
 21
139.0367026679
  0
LINE
  8
Layer0$C$L0
 62
     3
 10
-93.7027109397
 20
134.6609576387
 11
-91.1930926025
 21
134.6609576387
  0
LINE
  8
Layer0$C$L0
 62
     3
 10
-91.1930926025
 20
134.4232667224
 11
-93.7027109397
 21
134.4232667224
  0
POLYLINE
  8
Layer0$C$L0
 62
     3
 66
     1
  0
VERTEX
  8
Layer0$C$L0
 62
     3
 10
-93.7449312623
 20
134.6633792597
  0
VERTEX
  8
Layer0$C$L0
 62
     3
 10
-93.7357941039
 20
134.6624160741
  0
VERTEX
  8
Layer0$C$L0
 62
     3
 10
-93.7027109397
 20
134.6609576387
  0
SEQEND
  8
Layer0$C$L0
 62
     3
  0
ARC
  8
Layer0$C$L0
 62
     3
 10
-93.7498407602
 20
134.4588002407
 40
0.2243695314
 50
124.0988567696
 51
178.7459398236
  0
ARC
  8
Layer0$C$L0
 62
     3
 10
-93.7430408702
 20
135.0837313094
 40
0.6616947740
 50
249.5568158987
 51
273.4943118216
  0
ARC
  8
Layer0$C$L0
 62
     3
 10
-93.7280210182
 20
134.2758000093
 40
0.6402181925
 50
247.3900465067
 51
272.2656942675
  0
ARC
  8
Layer0$C$L0
 62
     3
 10
-93.7420483753
 20
139.5000392474
 40
0.5629149136
 50
85.9928090954
 51
114.3514501305
  0
LINE
  8
Layer0$C$L0
 62
     3
 10
-93.7027109397
 20
139.0367026679
 11
-93.7027109397
 21
139.2743935842
  0
ARC
  8
Layer0$C$L0
 62
     3
 10
-93.7286529068
 20
138.5173621748
 40
0.7574757689
 50
88.0373551062
 51
108.9115171736
  0
ARC
  8
Layer0$C$L0
 62
     3
 10
-93.7498407602
 20
139.2388600659
 40
0.2243695314
 50
181.2540601764
 51
235.9011432304
  0
POLYLINE
  8
Layer0$C$L0
 62
     3
 66
     1
  0
VERTEX
  8
Layer0$C$L0
 62
     3
 10
-93.7027109397
 20
139.0367026679
  0
VERTEX
  8
Layer0$C$L0
 62
     3
 10
-93.7145564913
 20
139.0365203153
  0
VERTEX
  8
Layer0$C$L0
 62
     3
 10
-93.7449312623
 20
139.0342810469
  0
SEQEND
  8
Layer0$C$L0
 62
     3
  0
LINE
  8
Layer0$C$L0
 62
     3
 10
-91.1930926025
 20
134.6633792597
 11
-91.1930926025
 21
139.0342810469
  0
LINE
  8
Layer0$C$L0
 62
     3
 10
-93.7449312623
 20
139.0342810469
 11
-93.7968285867
 21
139.0366166120
  0
LINE
  8
Layer0$C$L0
 62
     3
 10
-93.7449312623
 20
139.0342810469
 11
-91.1930926025
 21
139.0342810469
  0
LINE
  8
Layer0$C$L0
 62
     3
 10
-93.7968285867
 20
134.6610436946
 11
-93.7449312623
 21
134.6633792597
  0
LINE
  8
Layer0$C$L0
 62
     3
 10
-93.7449312623
 20
134.6633792597
 11
-91.1930926025
 21
134.6633792597
  0
ARC
  8
Layer0$C$L0
 62
     3
 10
-93.7672513607
 20
134.2744411978
 40
0.3856924252
 50
106.3193441979
 51
141.3039775184
  0
LINE
  8
Layer0$C$L0
 62
     3
 10
-93.7968285867
 20
134.6610436946
 11
-93.8756273615
 21
134.6445942599
  0
LINE
  8
Layer0$C$L0
 62
     3
 10
-93.7968285867
 20
136.2512123306
 11
-93.7968285867
 21
134.6610436946
  0
ARC
  8
Layer0$C$L0
 62
     3
 10
-93.7672513607
 20
139.4232191087
 40
0.3856924252
 50
218.6960224810
 51
253.6806558027
  0
LINE
  8
Layer0$C$L0
 62
     3
 10
-93.7968285867
 20
139.0366166120
 11
-93.7968285867
 21
137.4464479760
  0
LINE
  8
Layer0$C$L0
 62
     3
 10
-93.8756273615
 20
139.0530660467
 11
-93.7968285867
 21
139.0366166120
  0
ARC
  8
Layer0$C$L0
 62
     3
 10
-93.7294446245
 20
137.0722020579
 40
0.3836221164
 50
112.3993074217
 51
152.0354443692
  0
ARC
  8
Layer0$C$L0
 62
     3
 10
-93.7294446245
 20
136.6254582486
 40
0.3836221164
 50
207.9645556273
 51
247.6006925815
  0
POLYLINE
  8
Layer0$C$L0
 62
     3
 66
     1
  0
VERTEX
  8
Layer0$C$L0
 62
     3
 10
-93.9741565503
 20
146.3343608007
  0
VERTEX
  8
Layer0$C$L0
 62
     3
 10
-93.9842107373
 20
146.3158479407
  0
VERTEX
  8
Layer0$C$L0
 62
     3
 10
-93.9872102496
 20
146.3103249053
  0
VERTEX
  8
Layer0$C$L0
 62
     3
 10
-94.0682741974
 20
146.1610595401
  0
SEQEND
  8
Layer0$C$L0
 62
     3
  0
LINE
  8
Layer0$C$L0
 62
     3
 10
-94.0682741974
 20
146.1610595401
 11
-94.0682741974
 21
146.9060103787
  0
POLYLINE
  8
Layer0$C$L0
 62
     3
 66
     1
  0
VERTEX
  8
Layer0$C$L0
 62
     3
 10
-94.0682741974
 20
146.9060103787
  0
VERTEX
  8
Layer0$C$L0
 62
     3
 10
-93.9872102496
 20
147.0725374836
  0
VERTEX
  8
Layer0$C$L0
 62
     3
 10
-93.9842107373
 20
147.0786992016
  0
VERTEX
  8
Layer0$C$L0
 62
     3
 10
-93.9741565503
 20
147.0993528708
  0
SEQEND
  8
Layer0$C$L0
 62
     3
  0
LINE
  8
Layer0$C$L0
 62
     3
 10
-93.9741565503
 20
147.0993528708
 11
-93.9741565503
 21
147.3080649139
  0
POLYLINE
  8
Layer0$C$L0
 62
     3
 66
     1
  0
VERTEX
  8
Layer0$C$L0
 62
     3
 10
-93.9741565503
 20
147.3080649139
  0
VERTEX
  8
Layer0$C$L0
 62
     3
 10
-93.9842107373
 20
147.2874145775
  0
VERTEX
  8
Layer0$C$L0
 62
     3
 10
-93.9872102496
 20
147.2812538564
  0
VERTEX
  8
Layer0$C$L0
 62
     3
 10
-94.0682741974
 20
147.1147541536
  0
SEQEND
  8
Layer0$C$L0
 62
     3
  0
LINE
  8
Layer0$C$L0
 62
     3
 10
-94.0682741974
 20
147.1147541536
 11
-94.0682741974
 21
147.3688430117
  0
POLYLINE
  8
Layer0$C$L0
 62
     3
 66
     1
  0
VERTEX
  8
Layer0$C$L0
 62
     3
 10
-94.0682741974
 20
147.3688430117
  0
VERTEX
  8
Layer0$C$L0
 62
     3
 10
-93.9872102496
 20
147.5412303724
  0
VERTEX
  8
Layer0$C$L0
 62
     3
 10
-93.9847482987
 20
147.5464657943
  0
VERTEX
  8
Layer0$C$L0
 62
     3
 10
-93.9741565503
 20
147.5689894629
  0
SEQEND
  8
Layer0$C$L0
 62
     3
  0
POLYLINE
  8
Layer0$C$L0
 62
     3
 66
     1
  0
VERTEX
  8
Layer0$C$L0
 62
     3
 10
-93.9741565503
 20
126.1286708437
  0
VERTEX
  8
Layer0$C$L0
 62
     3
 10
-93.9847482987
 20
126.1511945123
  0
VERTEX
  8
Layer0$C$L0
 62
     3
 10
-93.9872102496
 20
126.1564299342
  0
VERTEX
  8
Layer0$C$L0
 62
     3
 10
-94.0682741974
 20
126.3288172949
  0
SEQEND
  8
Layer0$C$L0
 62
     3
  0
LINE
  8
Layer0$C$L0
 62
     3
 10
-94.0682741974
 20
126.3288172949
 11
-94.0682741974
 21
126.5829061530
  0
POLYLINE
  8
Layer0$C$L0
 62
     3
 66
     1
  0
VERTEX
  8
Layer0$C$L0
 62
     3
 10
-94.0682741974
 20
126.5829061530
  0
VERTEX
  8
Layer0$C$L0
 62
     3
 10
-93.9872102496
 20
126.4164064502
  0
VERTEX
  8
Layer0$C$L0
 62
     3
 10
-93.9842107373
 20
126.4102457291
  0
VERTEX
  8
Layer0$C$L0
 62
     3
 10
-93.9741565503
 20
126.3895953927
  0
SEQEND
  8
Layer0$C$L0
 62
     3
  0
LINE
  8
Layer0$C$L0
 62
     3
 10
-93.9741565503
 20
126.3895953927
 11
-93.9741565503
 21
126.5983074358
  0
POLYLINE
  8
Layer0$C$L0
 62
     3
 66
     1
  0
VERTEX
  8
Layer0$C$L0
 62
     3
 10
-93.9741565503
 20
126.5983074358
  0
VERTEX
  8
Layer0$C$L0
 62
     3
 10
-93.9842107373
 20
126.6189611050
  0
VERTEX
  8
Layer0$C$L0
 62
     3
 10
-93.9872102496
 20
126.6251228230
  0
VERTEX
  8
Layer0$C$L0
 62
     3
 10
-94.0682741974
 20
126.7916499279
  0
SEQEND
  8
Layer0$C$L0
 62
     3
  0
LINE
  8
Layer0$C$L0
 62
     3
 10
-94.0682741974
 20
126.7916499279
 11
-94.0682741974
 21
127.5366007665
  0
POLYLINE
  8
Layer0$C$L0
 62
     3
 66
     1
  0
VERTEX
  8
Layer0$C$L0
 62
     3
 10
-94.0682741974
 20
127.5366007665
  0
VERTEX
  8
Layer0$C$L0
 62
     3
 10
-93.9872102496
 20
127.3873354013
  0
VERTEX
  8
Layer0$C$L0
 62
     3
 10
-93.9842107373
 20
127.3818123659
  0
VERTEX
  8
Layer0$C$L0
 62
     3
 10
-93.9741565503
 20
127.3632995059
  0
SEQEND
  8
Layer0$C$L0
 62
     3
  0
LINE
  8
Layer0$C$L0
 62
     3
 10
-93.9741565503
 20
127.3632995059
 11
-93.9741565503
 21
127.7665002113
  0
POLYLINE
  8
Layer0$C$L0
 62
     3
 66
     1
  0
VERTEX
  8
Layer0$C$L0
 62
     3
 10
-93.9741565503
 20
127.7665002113
  0
VERTEX
  8
Layer0$C$L0
 62
     3
 10
-93.9842107373
 20
127.7850195097
  0
VERTEX
  8
Layer0$C$L0
 62
     3
 10
-93.9872102496
 20
127.7905444709
  0
VERTEX
  8
Layer0$C$L0
 62
     3
 10
-94.0682741974
 20
127.9398627730
  0
SEQEND
  8
Layer0$C$L0
 62
     3
  0
LINE
  8
Layer0$C$L0
 62
     3
 10
-94.0682741974
 20
127.9398627730
 11
-94.0682741974
 21
129.1249084236
  0
POLYLINE
  8
Layer0$C$L0
 62
     3
 66
     1
  0
VERTEX
  8
Layer0$C$L0
 62
     3
 10
-94.0682741974
 20
129.1249084236
  0
VERTEX
  8
Layer0$C$L0
 62
     3
 10
-93.9872102496
 20
129.0030495838
  0
VERTEX
  8
Layer0$C$L0
 62
     3
 10
-93.9842107373
 20
128.9985406198
  0
VERTEX
  8
Layer0$C$L0
 62
     3
 10
-93.9741565503
 20
128.9834268571
  0
SEQEND
  8
Layer0$C$L0
 62
     3
  0
LINE
  8
Layer0$C$L0
 62
     3
 10
-93.9741565503
 20
128.9834268571
 11
-93.9741565503
 21
129.5536387631
  0
POLYLINE
  8
Layer0$C$L0
 62
     3
 66
     1
  0
VERTEX
  8
Layer0$C$L0
 62
     3
 10
-93.9741565503
 20
129.5536387631
  0
VERTEX
  8
Layer0$C$L0
 62
     3
 10
-93.9842107373
 20
129.5687616311
  0
VERTEX
  8
Layer0$C$L0
 62
     3
 10
-93.9872102496
 20
129.5732733186
  0
VERTEX
  8
Layer0$C$L0
 62
     3
 10
-94.0682741974
 20
129.6952070223
  0
SEQEND
  8
Layer0$C$L0
 62
     3
  0
LINE
  8
Layer0$C$L0
 62
     3
 10
-94.0682741974
 20
129.6952070223
 11
-94.0682741974
 21
131.2395885821
  0
POLYLINE
  8
Layer0$C$L0
 62
     3
 66
     1
  0
VERTEX
  8
Layer0$C$L0
 62
     3
 10
-94.0682741974
 20
131.2395885821
  0
VERTEX
  8
Layer0$C$L0
 62
     3
 10
-93.9872102496
 20
131.1534407464
  0
VERTEX
  8
Layer0$C$L0
 62
     3
 10
-93.9842107373
 20
131.1502531323
  0
VERTEX
  8
Layer0$C$L0
 62
     3
 10
-93.9741565503
 20
131.1395684448
  0
SEQEND
  8
Layer0$C$L0
 62
     3
  0
LINE
  8
Layer0$C$L0
 62
     3
 10
-93.9741565503
 20
131.1395684448
 11
-93.9741565503
 21
131.8379325523
  0
POLYLINE
  8
Layer0$C$L0
 62
     3
 66
     1
  0
VERTEX
  8
Layer0$C$L0
 62
     3
 10
-93.9741565503
 20
131.8379325523
  0
VERTEX
  8
Layer0$C$L0
 62
     3
 10
-93.9842107373
 20
131.8486283914
  0
VERTEX
  8
Layer0$C$L0
 62
     3
 10
-93.9872102496
 20
131.8518193411
  0
VERTEX
  8
Layer0$C$L0
 62
     3
 10
-94.0682741974
 20
131.9380588661
  0
SEQEND
  8
Layer0$C$L0
 62
     3
  0
LINE
  8
Layer0$C$L0
 62
     3
 10
-94.0682741974
 20
131.9380588661
 11
-94.0682741974
 21
133.7365292840
  0
POLYLINE
  8
Layer0$C$L0
 62
     3
 66
     1
  0
VERTEX
  8
Layer0$C$L0
 62
     3
 10
-94.0682741974
 20
133.7365292840
  0
VERTEX
  8
Layer0$C$L0
 62
     3
 10
-93.9872102496
 20
133.6919632849
  0
VERTEX
  8
Layer0$C$L0
 62
     3
 10
-93.9741565503
 20
133.6847867829
  0
SEQEND
  8
Layer0$C$L0
 62
     3
  0
LINE
  8
Layer0$C$L0
 62
     3
 10
-93.9741565503
 20
133.6847867829
 11
-93.9741565503
 21
134.4637107320
  0
POLYLINE
  8
Layer0$C$L0
 62
     3
 66
     1
  0
VERTEX
  8
Layer0$C$L0
 62
     3
 10
-93.9741565503
 20
134.4637107320
  0
VERTEX
  8
Layer0$C$L0
 62
     3
 10
-93.9842107373
 20
134.4692506385
  0
VERTEX
  8
Layer0$C$L0
 62
     3
 10
-94.0682741974
 20
134.5155716577
  0
SEQEND
  8
Layer0$C$L0
 62
     3
  0
LINE
  8
Layer0$C$L0
 62
     3
 10
-94.0682741974
 20
134.5155716577
 11
-94.0682741974
 21
136.4455681468
  0
POLYLINE
  8
Layer0$C$L0
 62
     3
 66
     1
  0
VERTEX
  8
Layer0$C$L0
 62
     3
 10
-94.0682741974
 20
136.4455681468
  0
VERTEX
  8
Layer0$C$L0
 62
     3
 10
-93.9872102496
 20
136.4456210836
  0
VERTEX
  8
Layer0$C$L0
 62
     3
 10
-93.9741565503
 20
136.4456294478
  0
SEQEND
  8
Layer0$C$L0
 62
     3
  0
POLYLINE
  8
Layer0$C$L0
 62
     3
 66
     1
  0
VERTEX
  8
Layer0$C$L0
 62
     3
 10
-93.9741565503
 20
137.2520308588
  0
VERTEX
  8
Layer0$C$L0
 62
     3
 10
-93.9847482987
 20
137.2520376421
  0
VERTEX
  8
Layer0$C$L0
 62
     3
 10
-94.0682741974
 20
137.2520921598
  0
SEQEND
  8
Layer0$C$L0
 62
     3
  0
LINE
  8
Layer0$C$L0
 62
     3
 10
-94.0682741974
 20
137.2520921598
 11
-94.0682741974
 21
139.1820886489
  0
POLYLINE
  8
Layer0$C$L0
 62
     3
 66
     1
  0
VERTEX
  8
Layer0$C$L0
 62
     3
 10
-94.0682741974
 20
139.1820886489
  0
VERTEX
  8
Layer0$C$L0
 62
     3
 10
-93.9872102496
 20
139.2267569141
  0
VERTEX
  8
Layer0$C$L0
 62
     3
 10
-93.9741565503
 20
139.2339495746
  0
SEQEND
  8
Layer0$C$L0
 62
     3
  0
LINE
  8
Layer0$C$L0
 62
     3
 10
-93.9741565503
 20
139.2339495746
 11
-93.9741565503
 21
140.0128735237
  0
POLYLINE
  8
Layer0$C$L0
 62
     3
 66
     1
  0
VERTEX
  8
Layer0$C$L0
 62
     3
 10
-93.9741565503
 20
140.0128735237
  0
VERTEX
  8
Layer0$C$L0
 62
     3
 10
-93.9842107373
 20
140.0073460553
  0
VERTEX
  8
Layer0$C$L0
 62
     3
 10
-94.0682741974
 20
139.9611310226
  0
SEQEND
  8
Layer0$C$L0
 62
     3
  0
LINE
  8
Layer0$C$L0
 62
     3
 10
-94.0682741974
 20
139.9611310226
 11
-94.0682741974
 21
141.7596014405
  0
POLYLINE
  8
Layer0$C$L0
 62
     3
 66
     1
  0
VERTEX
  8
Layer0$C$L0
 62
     3
 10
-94.0682741974
 20
141.7596014405
  0
VERTEX
  8
Layer0$C$L0
 62
     3
 10
-93.9872102496
 20
141.8458409655
  0
VERTEX
  8
Layer0$C$L0
 62
     3
 10
-93.9842107373
 20
141.8490319152
  0
VERTEX
  8
Layer0$C$L0
 62
     3
 10
-93.9741565503
 20
141.8597277543
  0
SEQEND
  8
Layer0$C$L0
 62
     3
  0
LINE
  8
Layer0$C$L0
 62
     3
 10
-93.9741565503
 20
141.8597277543
 11
-93.9741565503
 21
142.5580918618
  0
POLYLINE
  8
Layer0$C$L0
 62
     3
 66
     1
  0
VERTEX
  8
Layer0$C$L0
 62
     3
 10
-93.9741565503
 20
142.5580918618
  0
VERTEX
  8
Layer0$C$L0
 62
     3
 10
-93.9842107373
 20
142.5474071743
  0
VERTEX
  8
Layer0$C$L0
 62
     3
 10
-93.9872102496
 20
142.5442195602
  0
VERTEX
  8
Layer0$C$L0
 62
     3
 10
-94.0682741974
 20
142.4580717245
  0
SEQEND
  8
Layer0$C$L0
 62
     3
  0
LINE
  8
Layer0$C$L0
 62
     3
 10
-94.0682741974
 20
142.4580717245
 11
-94.0682741974
 21
144.0024532843
  0
POLYLINE
  8
Layer0$C$L0
 62
     3
 66
     1
  0
VERTEX
  8
Layer0$C$L0
 62
     3
 10
-94.0682741974
 20
144.0024532843
  0
VERTEX
  8
Layer0$C$L0
 62
     3
 10
-93.9872102496
 20
144.1243869880
  0
VERTEX
  8
Layer0$C$L0
 62
     3
 10
-93.9842107373
 20
144.1288986755
  0
VERTEX
  8
Layer0$C$L0
 62
     3
 10
-93.9741565503
 20
144.1440215435
  0
SEQEND
  8
Layer0$C$L0
 62
     3
  0
LINE
  8
Layer0$C$L0
 62
     3
 10
-93.9741565503
 20
144.1440215435
 11
-93.9741565503
 21
144.7142334495
  0
POLYLINE
  8
Layer0$C$L0
 62
     3
 66
     1
  0
VERTEX
  8
Layer0$C$L0
 62
     3
 10
-93.9741565503
 20
144.7142334495
  0
VERTEX
  8
Layer0$C$L0
 62
     3
 10
-93.9842107373
 20
144.6991196868
  0
VERTEX
  8
Layer0$C$L0
 62
     3
 10
-93.9872102496
 20
144.6946107228
  0
VERTEX
  8
Layer0$C$L0
 62
     3
 10
-94.0682741974
 20
144.5727518830
  0
SEQEND
  8
Layer0$C$L0
 62
     3
  0
LINE
  8
Layer0$C$L0
 62
     3
 10
-94.0682741974
 20
144.5727518830
 11
-94.0682741974
 21
145.7577975336
  0
POLYLINE
  8
Layer0$C$L0
 62
     3
 66
     1
  0
VERTEX
  8
Layer0$C$L0
 62
     3
 10
-94.0682741974
 20
145.7577975336
  0
VERTEX
  8
Layer0$C$L0
 62
     3
 10
-93.9872102496
 20
145.9071158357
  0
VERTEX
  8
Layer0$C$L0
 62
     3
 10
-93.9842107373
 20
145.9126407969
  0
VERTEX
  8
Layer0$C$L0
 62
     3
 10
-93.9741565503
 20
145.9311600953
  0
SEQEND
  8
Layer0$C$L0
 62
     3
  0
LINE
  8
Layer0$C$L0
 62
     3
 10
-93.9741565503
 20
145.9311600953
 11
-93.9741565503
 21
146.3343608007
  0
LINE
  8
Layer0$C$L0
 62
     3
 10
-94.6930926025
 20
127.6488301533
 11
-94.6930926025
 21
146.0488301533
  0
LINE
  8
Layer0$C$L0
 62
     3
 10
-93.7449312623
 20
137.4488301533
 11
-91.1930926025
 21
137.4488301533
  0
LINE
  8
Layer0$C$L0
 62
     3
 10
-91.1930926025
 20
136.2488301533
 11
-93.7449312623
 21
136.2488301533
  0
LINE
  8
Layer0$C$L0
 62
     3
 10
-91.1930926025
 20
137.2563067888
 11
-93.7027109397
 21
137.2563067888
  0
LINE
  8
Layer0$C$L0
 62
     3
 10
-93.7027109397
 20
136.4413535178
 11
-91.1930926025
 21
136.4413535178
  0
LINE
  8
Layer0$C$L0
 62
     3
 10
-93.7968285867
 20
137.4464479760
 11
-93.7449312623
 21
137.4488301533
  0
LINE
  8
Layer0$C$L0
 62
     3
 10
-93.7968285867
 20
137.4464479760
 11
-93.8756273615
 21
137.4268801311
  0
ARC
  8
Layer0$C$L0
 62
     3
 10
-93.7713181522
 20
137.2529152303
 40
0.2028403260
 50
120.9468666764
 51
180.2498069313
  0
LINE
  8
Layer0$C$L0
 62
     3
 10
-93.7027109397
 20
136.4413535178
 11
-93.7027109397
 21
137.4488301533
  0
ARC
  8
Layer0$C$L0
 62
     3
 10
-93.7457546456
 20
131.3706921598
 40
5.8857720243
 50
89.5809819578
 51
92.2239651490
  0
LINE
  8
Layer0$C$L0
 62
     3
 10
-93.9741565503
 20
136.4456294478
 11
-93.9741565503
 21
137.2520308588
  0
LINE
  8
Layer0$C$L0
 62
     3
 10
-93.7027109397
 20
136.2488301533
 11
-93.7027109397
 21
136.4413535178
  0
ARC
  8
Layer0$C$L0
 62
     3
 10
-93.7304363058
 20
143.2994106419
 40
6.8581131671
 50
267.9634220121
 51
270.2316308810
  0
ARC
  8
Layer0$C$L0
 62
     3
 10
-93.7713181522
 20
136.4447450763
 40
0.2028403260
 50
179.7501930688
 51
239.0531333236
  0
LINE
  8
Layer0$C$L0
 62
     3
 10
-93.8756273615
 20
136.2707801755
 11
-93.7968285867
 21
136.2512123306
  0
LINE
  8
Layer0$C$L0
 62
     3
 10
-93.7449312623
 20
136.2488301533
 11
-93.7968285867
 21
136.2512123306
  0
LINE
  8
Layer0$C$L0
 62
     3
 10
-91.1930926025
 20
147.7488301533
 11
-93.7027109397
 21
147.7488301533
  0
LINE
  8
Layer0$C$L0
 62
     3
 10
-93.7027109397
 20
125.9488301533
 11
-91.1930926025
 21
125.9488301533
  0
ARC
  8
Layer0$C$L0
 62
     3
 10
-93.7027109397
 20
126.2488301533
 40
0.3000000000
 50
205.2011236455
 51
270.0000000000
  0
ARC
  8
Layer0$C$L0
 62
     3
 10
-93.7027109397
 20
147.4488301533
 40
0.3000000000
 50
90.0000000000
 51
154.7988763545
  0
LINE
  8
Layer0$C$L0
 62
     3
 10
-93.9730224448
 20
147.3125657931
 11
-94.0670160935
 21
147.1193190962
  0
LINE
  8
Layer0$C$L0
 62
     3
 10
-94.0662645488
 20
126.5767292895
 11
-93.9730161882
 21
126.3850816291
  0
LINE
  8
Layer0$C$L0
 62
     3
 10
-91.1930926025
 20
147.4805397124
 11
-93.7027109397
 21
147.4805397124
  0
LINE
  8
Layer0$C$L0
 62
     3
 10
-93.7027109397
 20
126.2171205942
 11
-91.1930926025
 21
126.2171205942
  0
LINE
  8
Layer0$C$L0
 62
     3
 10
-93.9689397610
 20
146.3545244146
 11
-94.0404825401
 21
146.2225906921
  0
LINE
  8
Layer0$C$L0
 62
     3
 10
-94.0405220769
 20
127.4750678265
 11
-93.9690030345
 21
127.3432526850
  0
LINE
  8
Layer0$C$L0
 62
     3
 10
-91.1930926025
 20
146.5088247537
 11
-93.7027109397
 21
146.5088218983
  0
LINE
  8
Layer0$C$L0
 62
     3
 10
-93.7027109397
 20
127.1888394314
 11
-91.1930926025
 21
127.1888355529
  0
ARC
  8
Layer0$C$L0
 62
     3
 10
-93.7231116370
 20
146.2362502451
 40
0.2697603281
 50
85.6586747201
 51
159.2285472535
  0
ARC
  8
Layer0$C$L0
 62
     3
 10
-93.7289716295
 20
127.4504703390
 40
0.2579078688
 50
203.9792163611
 51
275.8388421568
  0
LINE
  8
Layer0$C$L0
 62
     3
 10
-93.9599225866
 20
144.7622541057
 11
-94.0163805611
 21
144.6771923903
  0
LINE
  8
Layer0$C$L0
 62
     3
 10
-94.0164396739
 20
129.0204775607
 11
-93.9595751662
 21
128.9348832535
  0
LINE
  8
Layer0$C$L0
 62
     3
 10
-91.1930926025
 20
144.8924267964
 11
-93.7027109397
 21
144.8924252914
  0
LINE
  8
Layer0$C$L0
 62
     3
 10
-93.7027109397
 20
128.8052526836
 11
-91.1930926025
 21
128.8052335102
  0
ARC
  8
Layer0$C$L0
 62
     3
 10
-93.7291234341
 20
144.6271838782
 40
0.2639717496
 50
84.2532583675
 51
149.6262924656
  0
ARC
  8
Layer0$C$L0
 62
     3
 10
-93.7317415816
 20
129.0672959845
 40
0.2589411109
 50
210.0665087627
 51
276.4417478588
  0
LINE
  8
Layer0$C$L0
 62
     3
 10
-93.9391625648
 20
142.6494916891
 11
-93.9739252672
 21
142.6123805846
  0
LINE
  8
Layer0$C$L0
 62
     3
 10
-93.9740086419
 20
131.0852855054
 11
-93.9388261818
 21
131.0478825776
  0
LINE
  8
Layer0$C$L0
 62
     3
 10
-94.6930926025
 20
146.0488301533
 11
-95.3930926025
 21
146.0488301533
  0
LINE
  8
Layer0$C$L0
 62
     3
 10
-95.3930926025
 20
127.6488301533
 11
-94.6930926025
 21
127.6488301533
  0
LINE
  8
Layer0$C$L0
 62
     3
 10
-91.1930926025
 20
142.7415006901
 11
-93.7027109397
 21
142.7414963282
  0
LINE
  8
Layer0$C$L0
 62
     3
 10
-93.7027109397
 20
130.9561853998
 11
-91.1930926025
 21
130.9561596165
  0
ARC
  8
Layer0$C$L0
 62
     3
 10
-93.7210595882
 20
142.4482851903
 40
0.2960029566
 50
80.7163397618
 51
137.3814105422
  0
ARC
  8
Layer0$C$L0
 62
     3
 10
-93.7364263334
 20
131.2178058650
 40
0.2597759119
 50
219.7947290055
 51
277.4516279052
  0
LINE
  8
Layer0$C$L0
 62
     3
 10
-91.1930926025
 20
140.2026284942
 11
-93.7027109397
 21
140.2026231361
  0
LINE
  8
Layer0$C$L0
 62
     3
 10
-93.7027109397
 20
133.4950318128
 11
-91.1930926025
 21
133.4950318124
  0
POLYLINE
  8
Layer0$C$L0
 62
     3
 66
     1
  0
VERTEX
  8
Layer0$C$L0
 62
     3
 10
-93.6804227269
 20
140.2022005917
  0
VERTEX
  8
Layer0$C$L0
 62
     3
 10
-93.7339082572
 20
140.2017897579
  0
VERTEX
  8
Layer0$C$L0
 62
     3
 10
-93.7822853110
 20
140.1950285766
  0
SEQEND
  8
Layer0$C$L0
 62
     3
  0
LINE
  8
Layer0$C$L0
 62
     3
 10
-93.7364420513
 20
133.4977103366
 11
-93.7025765850
 21
133.4950674148
  0
LINE
  8
Layer0$C$L0
 62
     3
 10
-94.6930926025
 20
127.6488301533
 11
-93.9741565503
 21
126.1210910424
  0
LINE
  8
Layer0$C$L0
 62
     3
 10
-93.9741565503
 20
147.5765692642
 11
-94.6930926025
 21
146.0488301533
  0
LINE
  8
Layer0$C$L0
 62
     3
 10
-93.9741565503
 20
84.5352594736
 11
-94.6930926025
 21
83.0075203627
  0
LINE
  8
Layer0$C$L0
 62
     3
 10
-94.6930926025
 20
64.6075203627
 11
-93.9741565503
 21
63.0797812518
  0
LINE
  8
Layer0$C$L0
 62
     3
 10
-93.7364420513
 20
70.4564005460
 11
-93.7025765850
 21
70.4537576242
  0
POLYLINE
  8
Layer0$C$L0
 62
     3
 66
     1
  0
VERTEX
  8
Layer0$C$L0
 62
     3
 10
-93.6804227269
 20
77.1608908011
  0
VERTEX
  8
Layer0$C$L0
 62
     3
 10
-93.7339082572
 20
77.1604799673
  0
VERTEX
  8
Layer0$C$L0
 62
     3
 10
-93.7822853110
 20
77.1537187860
  0
SEQEND
  8
Layer0$C$L0
 62
     3
  0
LINE
  8
Layer0$C$L0
 62
     3
 10
-93.7027109397
 20
70.4537220222
 11
-91.1930926025
 21
70.4537220218
  0
LINE
  8
Layer0$C$L0
 62
     3
 10
-91.1930926025
 20
77.1613187036
 11
-93.7027109397
 21
77.1613133455
  0
ARC
  8
Layer0$C$L0
 62
     3
 10
-93.7364263334
 20
68.1764960744
 40
0.2597759119
 50
219.7947290055
 51
277.4516279052
  0
ARC
  8
Layer0$C$L0
 62
     3
 10
-93.7210595882
 20
79.4069753997
 40
0.2960029566
 50
80.7163397618
 51
137.3814105422
  0
LINE
  8
Layer0$C$L0
 62
     3
 10
-93.7027109397
 20
67.9148756092
 11
-91.1930926025
 21
67.9148498259
  0
LINE
  8
Layer0$C$L0
 62
     3
 10
-91.1930926025
 20
79.7001908995
 11
-93.7027109397
 21
79.7001865376
  0
LINE
  8
Layer0$C$L0
 62
     3
 10
-95.3930926025
 20
64.6075203627
 11
-94.6930926025
 21
64.6075203627
  0
LINE
  8
Layer0$C$L0
 62
     3
 10
-94.6930926025
 20
83.0075203627
 11
-95.3930926025
 21
83.0075203627
  0
LINE
  8
Layer0$C$L0
 62
     3
 10
-93.9740086419
 20
68.0439757148
 11
-93.9388261818
 21
68.0065727870
  0
LINE
  8
Layer0$C$L0
 62
     3
 10
-93.9391625648
 20
79.6081818985
 11
-93.9739252672
 21
79.5710707940
  0
ARC
  8
Layer0$C$L0
 62
     3
 10
-93.7317415816
 20
66.0259861939
 40
0.2589411109
 50
210.0665087627
 51
276.4417478588
  0
ARC
  8
Layer0$C$L0
 62
     3
 10
-93.7291234341
 20
81.5858740876
 40
0.2639717496
 50
84.2532583675
 51
149.6262924656
  0
LINE
  8
Layer0$C$L0
 62
     3
 10
-93.7027109397
 20
65.7639428930
 11
-91.1930926025
 21
65.7639237196
  0
LINE
  8
Layer0$C$L0
 62
     3
 10
-91.1930926025
 20
81.8511170058
 11
-93.7027109397
 21
81.8511155008
  0
LINE
  8
Layer0$C$L0
 62
     3
 10
-94.0164396739
 20
65.9791677701
 11
-93.9595751662
 21
65.8935734629
  0
LINE
  8
Layer0$C$L0
 62
     3
 10
-93.9599225866
 20
81.7209443151
 11
-94.0163805611
 21
81.6358825997
  0
ARC
  8
Layer0$C$L0
 62
     3
 10
-93.7289716295
 20
64.4091605484
 40
0.2579078688
 50
203.9792163611
 51
275.8388421568
  0
ARC
  8
Layer0$C$L0
 62
     3
 10
-93.7231116370
 20
83.1949404545
 40
0.2697603281
 50
85.6586747201
 51
159.2285472535
  0
LINE
  8
Layer0$C$L0
 62
     3
 10
-93.7027109397
 20
64.1475296408
 11
-91.1930926025
 21
64.1475257623
  0
LINE
  8
Layer0$C$L0
 62
     3
 10
-91.1930926025
 20
83.4675149631
 11
-93.7027109397
 21
83.4675121077
  0
LINE
  8
Layer0$C$L0
 62
     3
 10
-94.0405220769
 20
64.4337580359
 11
-93.9690030345
 21
64.3019428944
  0
LINE
  8
Layer0$C$L0
 62
     3
 10
-93.9689397610
 20
83.3132146240
 11
-94.0404825401
 21
83.1812809015
  0
LINE
  8
Layer0$C$L0
 62
     3
 10
-93.7027109397
 20
63.1758108036
 11
-91.1930926025
 21
63.1758108036
  0
LINE
  8
Layer0$C$L0
 62
     3
 10
-91.1930926025
 20
84.4392299218
 11
-93.7027109397
 21
84.4392299218
  0
LINE
  8
Layer0$C$L0
 62
     3
 10
-94.0662645488
 20
63.5354194989
 11
-93.9730161882
 21
63.3437718385
  0
LINE
  8
Layer0$C$L0
 62
     3
 10
-93.9730224448
 20
84.2712560025
 11
-94.0670160935
 21
84.0780093056
  0
ARC
  8
Layer0$C$L0
 62
     3
 10
-93.7027109397
 20
84.4075203627
 40
0.3000000000
 50
90.0000000000
 51
154.7988763545
  0
ARC
  8
Layer0$C$L0
 62
     3
 10
-93.7027109397
 20
63.2075203627
 40
0.3000000000
 50
205.2011236455
 51
270.0000000000
  0
LINE
  8
Layer0$C$L0
 62
     3
 10
-93.7027109397
 20
62.9075203627
 11
-91.1930926025
 21
62.9075203627
  0
LINE
  8
Layer0$C$L0
 62
     3
 10
-91.1930926025
 20
84.7075203627
 11
-93.7027109397
 21
84.7075203627
  0
LINE
  8
Layer0$C$L0
 62
     3
 10
-93.7449312623
 20
73.2075203627
 11
-93.7968285867
 21
73.2099025400
  0
LINE
  8
Layer0$C$L0
 62
     3
 10
-93.8756273615
 20
73.2294703849
 11
-93.7968285867
 21
73.2099025400
  0
ARC
  8
Layer0$C$L0
 62
     3
 10
-93.7713181522
 20
73.4034352857
 40
0.2028403260
 50
179.7501930688
 51
239.0531333236
  0
ARC
  8
Layer0$C$L0
 62
     3
 10
-93.7304363058
 20
80.2581008513
 40
6.8581131671
 50
267.9634220121
 51
270.2316308810
  0
LINE
  8
Layer0$C$L0
 62
     3
 10
-93.7027109397
 20
73.2075203627
 11
-93.7027109397
 21
73.4000437272
  0
LINE
  8
Layer0$C$L0
 62
     3
 10
-93.9741565503
 20
73.4043196572
 11
-93.9741565503
 21
74.2107210682
  0
ARC
  8
Layer0$C$L0
 62
     3
 10
-93.7457546456
 20
68.3293823692
 40
5.8857720243
 50
89.5809819578
 51
92.2239651490
  0
LINE
  8
Layer0$C$L0
 62
     3
 10
-93.7027109397
 20
73.4000437272
 11
-93.7027109397
 21
74.4075203627
  0
ARC
  8
Layer0$C$L0
 62
     3
 10
-93.7713181522
 20
74.2116054397
 40
0.2028403260
 50
120.9468666764
 51
180.2498069313
  0
LINE
  8
Layer0$C$L0
 62
     3
 10
-93.7968285867
 20
74.4051381854
 11
-93.8756273615
 21
74.3855703405
  0
LINE
  8
Layer0$C$L0
 62
     3
 10
-93.7968285867
 20
74.4051381854
 11
-93.7449312623
 21
74.4075203627
  0
LINE
  8
Layer0$C$L0
 62
     3
 10
-93.7027109397
 20
73.4000437272
 11
-91.1930926025
 21
73.4000437272
  0
LINE
  8
Layer0$C$L0
 62
     3
 10
-91.1930926025
 20
74.2149969982
 11
-93.7027109397
 21
74.2149969982
  0
LINE
  8
Layer0$C$L0
 62
     3
 10
-91.1930926025
 20
73.2075203627
 11
-93.7449312623
 21
73.2075203627
  0
LINE
  8
Layer0$C$L0
 62
     3
 10
-93.7449312623
 20
74.4075203627
 11
-91.1930926025
 21
74.4075203627
  0
LINE
  8
Layer0$C$L0
 62
     3
 10
-94.6930926025
 20
64.6075203627
 11
-94.6930926025
 21
83.0075203627
  0
LINE
  8
Layer0$C$L0
 62
     3
 10
-93.9741565503
 20
82.8898503047
 11
-93.9741565503
 21
83.2930510101
  0
POLYLINE
  8
Layer0$C$L0
 62
     3
 66
     1
  0
VERTEX
  8
Layer0$C$L0
 62
     3
 10
-94.0682741974
 20
82.7164877430
  0
VERTEX
  8
Layer0$C$L0
 62
     3
 10
-93.9872102496
 20
82.8658060451
  0
VERTEX
  8
Layer0$C$L0
 62
     3
 10
-93.9842107373
 20
82.8713310063
  0
VERTEX
  8
Layer0$C$L0
 62
     3
 10
-93.9741565503
 20
82.8898503047
  0
SEQEND
  8
Layer0$C$L0
 62
     3
  0
LINE
  8
Layer0$C$L0
 62
     3
 10
-94.0682741974
 20
81.5314420924
 11
-94.0682741974
 21
82.7164877430
  0
POLYLINE
  8
Layer0$C$L0
 62
     3
 66
     1
  0
VERTEX
  8
Layer0$C$L0
 62
     3
 10
-93.9741565503
 20
81.6729236589
  0
VERTEX
  8
Layer0$C$L0
 62
     3
 10
-93.9842107373
 20
81.6578098962
  0
VERTEX
  8
Layer0$C$L0
 62
     3
 10
-93.9872102496
 20
81.6533009322
  0
VERTEX
  8
Layer0$C$L0
 62
     3
 10
-94.0682741974
 20
81.5314420924
  0
SEQEND
  8
Layer0$C$L0
 62
     3
  0
LINE
  8
Layer0$C$L0
 62
     3
 10
-93.9741565503
 20
81.1027117529
 11
-93.9741565503
 21
81.6729236589
  0
POLYLINE
  8
Layer0$C$L0
 62
     3
 66
     1
  0
VERTEX
  8
Layer0$C$L0
 62
     3
 10
-94.0682741974
 20
80.9611434937
  0
VERTEX
  8
Layer0$C$L0
 62
     3
 10
-93.9872102496
 20
81.0830771974
  0
VERTEX
  8
Layer0$C$L0
 62
     3
 10
-93.9842107373
 20
81.0875888849
  0
VERTEX
  8
Layer0$C$L0
 62
     3
 10
-93.9741565503
 20
81.1027117529
  0
SEQEND
  8
Layer0$C$L0
 62
     3
  0
LINE
  8
Layer0$C$L0
 62
     3
 10
-94.0682741974
 20
79.4167619339
 11
-94.0682741974
 21
80.9611434937
  0
POLYLINE
  8
Layer0$C$L0
 62
     3
 66
     1
  0
VERTEX
  8
Layer0$C$L0
 62
     3
 10
-93.9741565503
 20
79.5167820712
  0
VERTEX
  8
Layer0$C$L0
 62
     3
 10
-93.9842107373
 20
79.5060973837
  0
VERTEX
  8
Layer0$C$L0
 62
     3
 10
-93.9872102496
 20
79.5029097696
  0
VERTEX
  8
Layer0$C$L0
 62
     3
 10
-94.0682741974
 20
79.4167619339
  0
SEQEND
  8
Layer0$C$L0
 62
     3
  0
LINE
  8
Layer0$C$L0
 62
     3
 10
-93.9741565503
 20
78.8184179637
 11
-93.9741565503
 21
79.5167820712
  0
POLYLINE
  8
Layer0$C$L0
 62
     3
 66
     1
  0
VERTEX
  8
Layer0$C$L0
 62
     3
 10
-94.0682741974
 20
78.7182916499
  0
VERTEX
  8
Layer0$C$L0
 62
     3
 10
-93.9872102496
 20
78.8045311749
  0
VERTEX
  8
Layer0$C$L0
 62
     3
 10
-93.9842107373
 20
78.8077221246
  0
VERTEX
  8
Layer0$C$L0
 62
     3
 10
-93.9741565503
 20
78.8184179637
  0
SEQEND
  8
Layer0$C$L0
 62
     3
  0
LINE
  8
Layer0$C$L0
 62
     3
 10
-94.0682741974
 20
76.9198212320
 11
-94.0682741974
 21
78.7182916499
  0
POLYLINE
  8
Layer0$C$L0
 62
     3
 66
     1
  0
VERTEX
  8
Layer0$C$L0
 62
     3
 10
-93.9741565503
 20
76.9715637331
  0
VERTEX
  8
Layer0$C$L0
 62
     3
 10
-93.9842107373
 20
76.9660362647
  0
VERTEX
  8
Layer0$C$L0
 62
     3
 10
-94.0682741974
 20
76.9198212320
  0
SEQEND
  8
Layer0$C$L0
 62
     3
  0
LINE
  8
Layer0$C$L0
 62
     3
 10
-93.9741565503
 20
76.1926397840
 11
-93.9741565503
 21
76.9715637331
  0
POLYLINE
  8
Layer0$C$L0
 62
     3
 66
     1
  0
VERTEX
  8
Layer0$C$L0
 62
     3
 10
-94.0682741974
 20
76.1407788583
  0
VERTEX
  8
Layer0$C$L0
 62
     3
 10
-93.9872102496
 20
76.1854471235
  0
VERTEX
  8
Layer0$C$L0
 62
     3
 10
-93.9741565503
 20
76.1926397840
  0
SEQEND
  8
Layer0$C$L0
 62
     3
  0
LINE
  8
Layer0$C$L0
 62
     3
 10
-94.0682741974
 20
74.2107823692
 11
-94.0682741974
 21
76.1407788583
  0
POLYLINE
  8
Layer0$C$L0
 62
     3
 66
     1
  0
VERTEX
  8
Layer0$C$L0
 62
     3
 10
-93.9741565503
 20
74.2107210682
  0
VERTEX
  8
Layer0$C$L0
 62
     3
 10
-93.9847482987
 20
74.2107278515
  0
VERTEX
  8
Layer0$C$L0
 62
     3
 10
-94.0682741974
 20
74.2107823692
  0
SEQEND
  8
Layer0$C$L0
 62
     3
  0
POLYLINE
  8
Layer0$C$L0
 62
     3
 66
     1
  0
VERTEX
  8
Layer0$C$L0
 62
     3
 10
-94.0682741974
 20
73.4042583562
  0
VERTEX
  8
Layer0$C$L0
 62
     3
 10
-93.9872102496
 20
73.4043112930
  0
VERTEX
  8
Layer0$C$L0
 62
     3
 10
-93.9741565503
 20
73.4043196572
  0
SEQEND
  8
Layer0$C$L0
 62
     3
  0
LINE
  8
Layer0$C$L0
 62
     3
 10
-94.0682741974
 20
71.4742618671
 11
-94.0682741974
 21
73.4042583562
  0
POLYLINE
  8
Layer0$C$L0
 62
     3
 66
     1
  0
VERTEX
  8
Layer0$C$L0
 62
     3
 10
-93.9741565503
 20
71.4224009414
  0
VERTEX
  8
Layer0$C$L0
 62
     3
 10
-93.9842107373
 20
71.4279408479
  0
VERTEX
  8
Layer0$C$L0
 62
     3
 10
-94.0682741974
 20
71.4742618671
  0
SEQEND
  8
Layer0$C$L0
 62
     3
  0
LINE
  8
Layer0$C$L0
 62
     3
 10
-93.9741565503
 20
70.6434769923
 11
-93.9741565503
 21
71.4224009414
  0
POLYLINE
  8
Layer0$C$L0
 62
     3
 66
     1
  0
VERTEX
  8
Layer0$C$L0
 62
     3
 10
-94.0682741974
 20
70.6952194934
  0
VERTEX
  8
Layer0$C$L0
 62
     3
 10
-93.9872102496
 20
70.6506534943
  0
VERTEX
  8
Layer0$C$L0
 62
     3
 10
-93.9741565503
 20
70.6434769923
  0
SEQEND
  8
Layer0$C$L0
 62
     3
  0
LINE
  8
Layer0$C$L0
 62
     3
 10
-94.0682741974
 20
68.8967490755
 11
-94.0682741974
 21
70.6952194934
  0
POLYLINE
  8
Layer0$C$L0
 62
     3
 66
     1
  0
VERTEX
  8
Layer0$C$L0
 62
     3
 10
-93.9741565503
 20
68.7966227617
  0
VERTEX
  8
Layer0$C$L0
 62
     3
 10
-93.9842107373
 20
68.8073186008
  0
VERTEX
  8
Layer0$C$L0
 62
     3
 10
-93.9872102496
 20
68.8105095505
  0
VERTEX
  8
Layer0$C$L0
 62
     3
 10
-94.0682741974
 20
68.8967490755
  0
SEQEND
  8
Layer0$C$L0
 62
     3
  0
LINE
  8
Layer0$C$L0
 62
     3
 10
-93.9741565503
 20
68.0982586542
 11
-93.9741565503
 21
68.7966227617
  0
POLYLINE
  8
Layer0$C$L0
 62
     3
 66
     1
  0
VERTEX
  8
Layer0$C$L0
 62
     3
 10
-94.0682741974
 20
68.1982787915
  0
VERTEX
  8
Layer0$C$L0
 62
     3
 10
-93.9872102496
 20
68.1121309558
  0
VERTEX
  8
Layer0$C$L0
 62
     3
 10
-93.9842107373
 20
68.1089433417
  0
VERTEX
  8
Layer0$C$L0
 62
     3
 10
-93.9741565503
 20
68.0982586542
  0
SEQEND
  8
Layer0$C$L0
 62
     3
  0
LINE
  8
Layer0$C$L0
 62
     3
 10
-94.0682741974
 20
66.6538972317
 11
-94.0682741974
 21
68.1982787915
  0
POLYLINE
  8
Layer0$C$L0
 62
     3
 66
     1
  0
VERTEX
  8
Layer0$C$L0
 62
     3
 10
-93.9741565503
 20
66.5123289725
  0
VERTEX
  8
Layer0$C$L0
 62
     3
 10
-93.9842107373
 20
66.5274518405
  0
VERTEX
  8
Layer0$C$L0
 62
     3
 10
-93.9872102496
 20
66.5319635280
  0
VERTEX
  8
Layer0$C$L0
 62
     3
 10
-94.0682741974
 20
66.6538972317
  0
SEQEND
  8
Layer0$C$L0
 62
     3
  0
LINE
  8
Layer0$C$L0
 62
     3
 10
-93.9741565503
 20
65.9421170665
 11
-93.9741565503
 21
66.5123289725
  0
POLYLINE
  8
Layer0$C$L0
 62
     3
 66
     1
  0
VERTEX
  8
Layer0$C$L0
 62
     3
 10
-94.0682741974
 20
66.0835986330
  0
VERTEX
  8
Layer0$C$L0
 62
     3
 10
-93.9872102496
 20
65.9617397932
  0
VERTEX
  8
Layer0$C$L0
 62
     3
 10
-93.9842107373
 20
65.9572308292
  0
VERTEX
  8
Layer0$C$L0
 62
     3
 10
-93.9741565503
 20
65.9421170665
  0
SEQEND
  8
Layer0$C$L0
 62
     3
  0
LINE
  8
Layer0$C$L0
 62
     3
 10
-94.0682741974
 20
64.8985529824
 11
-94.0682741974
 21
66.0835986330
  0
POLYLINE
  8
Layer0$C$L0
 62
     3
 66
     1
  0
VERTEX
  8
Layer0$C$L0
 62
     3
 10
-93.9741565503
 20
64.7251904207
  0
VERTEX
  8
Layer0$C$L0
 62
     3
 10
-93.9842107373
 20
64.7437097191
  0
VERTEX
  8
Layer0$C$L0
 62
     3
 10
-93.9872102496
 20
64.7492346803
  0
VERTEX
  8
Layer0$C$L0
 62
     3
 10
-94.0682741974
 20
64.8985529824
  0
SEQEND
  8
Layer0$C$L0
 62
     3
  0
LINE
  8
Layer0$C$L0
 62
     3
 10
-93.9741565503
 20
64.3219897153
 11
-93.9741565503
 21
64.7251904207
  0
POLYLINE
  8
Layer0$C$L0
 62
     3
 66
     1
  0
VERTEX
  8
Layer0$C$L0
 62
     3
 10
-94.0682741974
 20
64.4952909759
  0
VERTEX
  8
Layer0$C$L0
 62
     3
 10
-93.9872102496
 20
64.3460256107
  0
VERTEX
  8
Layer0$C$L0
 62
     3
 10
-93.9842107373
 20
64.3405025753
  0
VERTEX
  8
Layer0$C$L0
 62
     3
 10
-93.9741565503
 20
64.3219897153
  0
SEQEND
  8
Layer0$C$L0
 62
     3
  0
LINE
  8
Layer0$C$L0
 62
     3
 10
-94.0682741974
 20
63.7503401373
 11
-94.0682741974
 21
64.4952909759
  0
POLYLINE
  8
Layer0$C$L0
 62
     3
 66
     1
  0
VERTEX
  8
Layer0$C$L0
 62
     3
 10
-93.9741565503
 20
63.5569976452
  0
VERTEX
  8
Layer0$C$L0
 62
     3
 10
-93.9842107373
 20
63.5776513144
  0
VERTEX
  8
Layer0$C$L0
 62
     3
 10
-93.9872102496
 20
63.5838130324
  0
VERTEX
  8
Layer0$C$L0
 62
     3
 10
-94.0682741974
 20
63.7503401373
  0
SEQEND
  8
Layer0$C$L0
 62
     3
  0
LINE
  8
Layer0$C$L0
 62
     3
 10
-93.9741565503
 20
63.3482856021
 11
-93.9741565503
 21
63.5569976452
  0
POLYLINE
  8
Layer0$C$L0
 62
     3
 66
     1
  0
VERTEX
  8
Layer0$C$L0
 62
     3
 10
-94.0682741974
 20
63.5415963624
  0
VERTEX
  8
Layer0$C$L0
 62
     3
 10
-93.9872102496
 20
63.3750966596
  0
VERTEX
  8
Layer0$C$L0
 62
     3
 10
-93.9842107373
 20
63.3689359385
  0
VERTEX
  8
Layer0$C$L0
 62
     3
 10
-93.9741565503
 20
63.3482856021
  0
SEQEND
  8
Layer0$C$L0
 62
     3
  0
LINE
  8
Layer0$C$L0
 62
     3
 10
-94.0682741974
 20
63.2875075043
 11
-94.0682741974
 21
63.5415963624
  0
POLYLINE
  8
Layer0$C$L0
 62
     3
 66
     1
  0
VERTEX
  8
Layer0$C$L0
 62
     3
 10
-93.9741565503
 20
63.0873610531
  0
VERTEX
  8
Layer0$C$L0
 62
     3
 10
-93.9847482987
 20
63.1098847217
  0
VERTEX
  8
Layer0$C$L0
 62
     3
 10
-93.9872102496
 20
63.1151201436
  0
VERTEX
  8
Layer0$C$L0
 62
     3
 10
-94.0682741974
 20
63.2875075043
  0
SEQEND
  8
Layer0$C$L0
 62
     3
  0
POLYLINE
  8
Layer0$C$L0
 62
     3
 66
     1
  0
VERTEX
  8
Layer0$C$L0
 62
     3
 10
-94.0682741974
 20
84.3275332211
  0
VERTEX
  8
Layer0$C$L0
 62
     3
 10
-93.9872102496
 20
84.4999205818
  0
VERTEX
  8
Layer0$C$L0
 62
     3
 10
-93.9847482987
 20
84.5051560037
  0
VERTEX
  8
Layer0$C$L0
 62
     3
 10
-93.9741565503
 20
84.5276796723
  0
SEQEND
  8
Layer0$C$L0
 62
     3
  0
LINE
  8
Layer0$C$L0
 62
     3
 10
-94.0682741974
 20
84.0734443630
 11
-94.0682741974
 21
84.3275332211
  0
POLYLINE
  8
Layer0$C$L0
 62
     3
 66
     1
  0
VERTEX
  8
Layer0$C$L0
 62
     3
 10
-93.9741565503
 20
84.2667551233
  0
VERTEX
  8
Layer0$C$L0
 62
     3
 10
-93.9842107373
 20
84.2461047869
  0
VERTEX
  8
Layer0$C$L0
 62
     3
 10
-93.9872102496
 20
84.2399440658
  0
VERTEX
  8
Layer0$C$L0
 62
     3
 10
-94.0682741974
 20
84.0734443630
  0
SEQEND
  8
Layer0$C$L0
 62
     3
  0
LINE
  8
Layer0$C$L0
 62
     3
 10
-93.9741565503
 20
84.0580430802
 11
-93.9741565503
 21
84.2667551233
  0
POLYLINE
  8
Layer0$C$L0
 62
     3
 66
     1
  0
VERTEX
  8
Layer0$C$L0
 62
     3
 10
-94.0682741974
 20
83.8647005881
  0
VERTEX
  8
Layer0$C$L0
 62
     3
 10
-93.9872102496
 20
84.0312276930
  0
VERTEX
  8
Layer0$C$L0
 62
     3
 10
-93.9842107373
 20
84.0373894110
  0
VERTEX
  8
Layer0$C$L0
 62
     3
 10
-93.9741565503
 20
84.0580430802
  0
SEQEND
  8
Layer0$C$L0
 62
     3
  0
LINE
  8
Layer0$C$L0
 62
     3
 10
-94.0682741974
 20
83.1197497495
 11
-94.0682741974
 21
83.8647005881
  0
POLYLINE
  8
Layer0$C$L0
 62
     3
 66
     1
  0
VERTEX
  8
Layer0$C$L0
 62
     3
 10
-93.9741565503
 20
83.2930510101
  0
VERTEX
  8
Layer0$C$L0
 62
     3
 10
-93.9842107373
 20
83.2745381501
  0
VERTEX
  8
Layer0$C$L0
 62
     3
 10
-93.9872102496
 20
83.2690151147
  0
VERTEX
  8
Layer0$C$L0
 62
     3
 10
-94.0682741974
 20
83.1197497495
  0
SEQEND
  8
Layer0$C$L0
 62
     3
  0
ARC
  8
Layer0$C$L0
 62
     3
 10
-93.7294446245
 20
73.5841484580
 40
0.3836221164
 50
207.9645556273
 51
247.6006925815
  0
ARC
  8
Layer0$C$L0
 62
     3
 10
-93.7294446245
 20
74.0308922673
 40
0.3836221164
 50
112.3993074217
 51
152.0354443692
  0
LINE
  8
Layer0$C$L0
 62
     3
 10
-93.8756273615
 20
76.0117562561
 11
-93.7968285867
 21
75.9953068214
  0
LINE
  8
Layer0$C$L0
 62
     3
 10
-93.7968285867
 20
75.9953068214
 11
-93.7968285867
 21
74.4051381854
  0
ARC
  8
Layer0$C$L0
 62
     3
 10
-93.7672513607
 20
76.3819093181
 40
0.3856924252
 50
218.6960224810
 51
253.6806558027
  0
LINE
  8
Layer0$C$L0
 62
     3
 10
-93.7968285867
 20
73.2099025400
 11
-93.7968285867
 21
71.6197339040
  0
LINE
  8
Layer0$C$L0
 62
     3
 10
-93.7968285867
 20
71.6197339040
 11
-93.8756273615
 21
71.6032844693
  0
ARC
  8
Layer0$C$L0
 62
     3
 10
-93.7672513607
 20
71.2331314072
 40
0.3856924252
 50
106.3193441979
 51
141.3039775184
  0
LINE
  8
Layer0$C$L0
 62
     3
 10
-93.7449312623
 20
71.6220694691
 11
-91.1930926025
 21
71.6220694691
  0
LINE
  8
Layer0$C$L0
 62
     3
 10
-93.7968285867
 20
71.6197339040
 11
-93.7449312623
 21
71.6220694691
  0
LINE
  8
Layer0$C$L0
 62
     3
 10
-93.7449312623
 20
75.9929712563
 11
-91.1930926025
 21
75.9929712563
  0
LINE
  8
Layer0$C$L0
 62
     3
 10
-93.7449312623
 20
75.9929712563
 11
-93.7968285867
 21
75.9953068214
  0
LINE
  8
Layer0$C$L0
 62
     3
 10
-91.1930926025
 20
71.6220694691
 11
-91.1930926025
 21
75.9929712563
  0
POLYLINE
  8
Layer0$C$L0
 62
     3
 66
     1
  0
VERTEX
  8
Layer0$C$L0
 62
     3
 10
-93.7027109397
 20
75.9953928773
  0
VERTEX
  8
Layer0$C$L0
 62
     3
 10
-93.7145564913
 20
75.9952105247
  0
VERTEX
  8
Layer0$C$L0
 62
     3
 10
-93.7449312623
 20
75.9929712563
  0
SEQEND
  8
Layer0$C$L0
 62
     3
  0
ARC
  8
Layer0$C$L0
 62
     3
 10
-93.7498407602
 20
76.1975502753
 40
0.2243695314
 50
181.2540601764
 51
235.9011432304
  0
ARC
  8
Layer0$C$L0
 62
     3
 10
-93.7286529068
 20
75.4760523842
 40
0.7574757689
 50
88.0373551062
 51
108.9115171736
  0
LINE
  8
Layer0$C$L0
 62
     3
 10
-93.7027109397
 20
75.9953928773
 11
-93.7027109397
 21
76.2330837936
  0
ARC
  8
Layer0$C$L0
 62
     3
 10
-93.7420483753
 20
76.4587294568
 40
0.5629149136
 50
85.9928090954
 51
114.3514501305
  0
ARC
  8
Layer0$C$L0
 62
     3
 10
-93.7280210182
 20
71.2344902187
 40
0.6402181925
 50
247.3900465067
 51
272.2656942675
  0
ARC
  8
Layer0$C$L0
 62
     3
 10
-93.7430408702
 20
72.0424215188
 40
0.6616947740
 50
249.5568158987
 51
273.4943118216
  0
ARC
  8
Layer0$C$L0
 62
     3
 10
-93.7498407602
 20
71.4174904501
 40
0.2243695314
 50
124.0988567696
 51
178.7459398236
  0
POLYLINE
  8
Layer0$C$L0
 62
     3
 66
     1
  0
VERTEX
  8
Layer0$C$L0
 62
     3
 10
-93.7449312623
 20
71.6220694691
  0
VERTEX
  8
Layer0$C$L0
 62
     3
 10
-93.7357941039
 20
71.6211062835
  0
VERTEX
  8
Layer0$C$L0
 62
     3
 10
-93.7027109397
 20
71.6196478481
  0
SEQEND
  8
Layer0$C$L0
 62
     3
  0
LINE
  8
Layer0$C$L0
 62
     3
 10
-91.1930926025
 20
71.3819569318
 11
-93.7027109397
 21
71.3819569318
  0
LINE
  8
Layer0$C$L0
 62
     3
 10
-93.7027109397
 20
71.6196478481
 11
-91.1930926025
 21
71.6196478481
  0
LINE
  8
Layer0$C$L0
 62
     3
 10
-91.1930926025
 20
75.9953928773
 11
-93.7027109397
 21
75.9953928773
  0
LINE
  8
Layer0$C$L0
 62
     3
 10
-93.7027109397
 20
76.2330837936
 11
-91.1930926025
 21
76.2330837936
  0
LINE
  8
Layer0$C$L0
 62
     3
 10
-91.1930926025
 20
76.2330837936
 11
-91.1930926025
 21
75.9953928773
  0
LINE
  8
Layer0$C$L0
 62
     3
 10
-93.7027109397
 20
70.5947725201
 11
-91.1930926025
 21
70.5947725201
  0
LINE
  8
Layer0$C$L0
 62
     3
 10
-91.1930926025
 20
77.0202682053
 11
-93.7027109397
 21
77.0202682053
  0
LINE
  8
Layer0$C$L0
 62
     3
 10
-93.7449312623
 20
70.4629584776
 11
-93.7968285867
 21
70.4652249256
  0
LINE
  8
Layer0$C$L0
 62
     3
 10
-93.8756273615
 20
70.4865776643
 11
-93.7968285867
 21
70.4652249256
  0
ARC
  8
Layer0$C$L0
 62
     3
 10
-93.8055253667
 20
70.6399868157
 40
0.1686672980
 50
178.8143127877
 51
245.4414491895
  0
ARC
  8
Layer0$C$L0
 62
     3
 10
-93.8055253667
 20
76.9750539097
 40
0.1686672980
 50
114.5585508105
 51
181.1856872126
  0
LINE
  8
Layer0$C$L0
 62
     3
 10
-93.7968285867
 20
77.1498157998
 11
-93.8756273615
 21
77.1284630611
  0
ARC
  8
Layer0$C$L0
 62
     3
 10
-93.6912336749
 20
70.8500952232
 40
0.4076101658
 50
202.3312310096
 51
243.1036725275
  0
ARC
  8
Layer0$C$L0
 62
     3
 10
-93.6912336749
 20
76.7649455022
 40
0.4076101659
 50
116.8963274744
 51
157.6687689882
  0
LINE
  8
Layer0$C$L0
 62
     3
 10
-93.7968285867
 20
70.4652249256
 11
-93.7968285867
 21
68.9834236542
  0
LINE
  8
Layer0$C$L0
 62
     3
 10
-93.7968285867
 20
68.9834236542
 11
-93.8756273615
 21
68.9712136315
  0
ARC
  8
Layer0$C$L0
 62
     3
 10
-93.7587654506
 20
68.3824507827
 40
0.6002486137
 50
101.2265669782
 51
121.0398588996
  0
LINE
  8
Layer0$C$L0
 62
     3
 10
-93.8756273615
 20
78.6438270939
 11
-93.7968285867
 21
78.6316170712
  0
LINE
  8
Layer0$C$L0
 62
     3
 10
-93.7968285867
 20
78.6316170712
 11
-93.7968285867
 21
77.1498157998
  0
ARC
  8
Layer0$C$L0
 62
     3
 10
-93.7587654508
 20
79.2325899423
 40
0.6002486133
 50
238.9601410931
 51
258.7734330286
  0
LINE
  8
Layer0$C$L0
 62
     3
 10
-93.7968285867
 20
68.9834236542
 11
-93.7449312623
 21
68.9855534424
  0
LINE
  8
Layer0$C$L0
 62
     3
 10
-93.7449312623
 20
78.6294872830
 11
-91.1930926025
 21
78.6294872830
  0
LINE
  8
Layer0$C$L0
 62
     3
 10
-93.7449312623
 20
78.6294872830
 11
-93.7968285867
 21
78.6316170712
  0
LINE
  8
Layer0$C$L0
 62
     3
 10
-91.1930926025
 20
68.7142150048
 11
-93.7027109397
 21
68.7142150048
  0
LINE
  8
Layer0$C$L0
 62
     3
 10
-93.7027109397
 20
68.7142150048
 11
-93.7027109397
 21
68.9808752297
  0
LINE
  8
Layer0$C$L0
 62
     3
 10
-93.7027109397
 20
68.9808752297
 11
-91.1930926025
 21
68.9808752297
  0
ARC
  8
Layer0$C$L0
 62
     3
 10
-93.7356377841
 20
69.0940218672
 40
0.3812314649
 50
231.2698378579
 51
274.9547921642
  0
ARC
  8
Layer0$C$L0
 62
     3
 10
-93.7456467034
 20
68.7827623380
 40
0.2289298178
 50
124.5952243913
 51
176.5289373059
  0
POLYLINE
  8
Layer0$C$L0
 62
     3
 66
     1
  0
VERTEX
  8
Layer0$C$L0
 62
     3
 10
-93.7449312623
 20
68.9855534424
  0
VERTEX
  8
Layer0$C$L0
 62
     3
 10
-93.7357941039
 20
68.9836927105
  0
VERTEX
  8
Layer0$C$L0
 62
     3
 10
-93.7027109397
 20
68.9808752297
  0
SEQEND
  8
Layer0$C$L0
 62
     3
  0
LINE
  8
Layer0$C$L0
 62
     3
 10
-91.1930926025
 20
78.6341654957
 11
-93.7027109397
 21
78.6341654957
  0
LINE
  8
Layer0$C$L0
 62
     3
 10
-93.7027109397
 20
78.6341654957
 11
-93.7027109397
 21
78.9008257206
  0
LINE
  8
Layer0$C$L0
 62
     3
 10
-93.7027109397
 20
78.9008257206
 11
-91.1930926025
 21
78.9008257206
  0
POLYLINE
  8
Layer0$C$L0
 62
     3
 66
     1
  0
VERTEX
  8
Layer0$C$L0
 62
     3
 10
-93.7027109397
 20
78.6341654957
  0
VERTEX
  8
Layer0$C$L0
 62
     3
 10
-93.7145564913
 20
78.6338132174
  0
VERTEX
  8
Layer0$C$L0
 62
     3
 10
-93.7449312623
 20
78.6294872830
  0
SEQEND
  8
Layer0$C$L0
 62
     3
  0
ARC
  8
Layer0$C$L0
 62
     3
 10
-93.7456467034
 20
78.8322783874
 40
0.2289298178
 50
183.4710626942
 51
235.4047756087
  0
ARC
  8
Layer0$C$L0
 62
     3
 10
-93.7238920766
 20
78.4823292875
 40
0.4190321050
 50
87.1025915763
 51
126.6727784016
  0
ARC
  8
Layer0$C$L0
 62
     3
 10
-93.7338355969
 20
79.2455607426
 40
0.3623743503
 50
85.0727432487
 51
131.5431745852
  0
ARC
  8
Layer0$C$L0
 62
     3
 10
-93.7227360940
 20
68.4030261471
 40
0.3950891933
 50
230.4787922423
 51
272.9052899239
  0
LINE
  8
Layer0$C$L0
 62
     3
 10
-93.7027109397
 20
68.0084447692
 11
-91.1930926025
 21
68.0084447692
  0
LINE
  8
Layer0$C$L0
 62
     3
 10
-91.1930926025
 20
79.6065959562
 11
-93.7027109397
 21
79.6065959562
  0
LINE
  8
Layer0$C$L0
 62
     3
 10
-91.1930926025
 20
68.7142150048
 11
-91.1930926025
 21
71.6196478481
  0
LINE
  8
Layer0$C$L0
 62
     3
 10
-95.3930926025
 20
64.6075203627
 11
-95.3930926025
 21
65.1103944006
  0
LINE
  8
Layer0$C$L0
 62
     3
 10
-95.3930926025
 20
65.1103944006
 11
-96.2930926025
 21
65.1103944006
  0
LINE
  8
Layer0$C$L0
 62
     3
 10
-96.2930926025
 20
65.1103944006
 11
-96.2930926025
 21
68.3839135650
  0
LINE
  8
Layer0$C$L0
 62
     3
 10
-95.3930926025
 20
70.8075203627
 11
-96.1930926025
 21
70.8075203627
  0
LINE
  8
Layer0$C$L0
 62
     3
 10
-95.3930926025
 20
70.8075203627
 11
-95.3930926025
 21
76.8075203627
  0
LINE
  8
Layer0$C$L0
 62
     3
 10
-95.3930926025
 20
76.8075203627
 11
-96.1930926025
 21
76.8075203627
  0
LINE
  8
Layer0$C$L0
 62
     3
 10
-96.2930926025
 20
79.2311271604
 11
-96.2930926025
 21
82.5046463248
  0
LINE
  8
Layer0$C$L0
 62
     3
 10
-95.3930926025
 20
82.5046463248
 11
-96.2930926025
 21
82.5046463248
  0
LINE
  8
Layer0$C$L0
 62
     3
 10
-95.3930926025
 20
82.5046463248
 11
-95.3930926025
 21
83.0075203627
  0
ARC
  8
Layer0$C$L0
 62
     3
 10
-93.6706096160
 20
68.3431342739
 40
0.4232259799
 50
200.0149364441
 51
224.6540462048
  0
ARC
  8
Layer0$C$L0
 62
     3
 10
-93.6705162505
 20
79.2718669937
 40
0.4233272115
 50
135.3438021581
 51
159.9843707355
  0
LINE
  8
Layer0$C$L0
 62
     3
 10
-93.7968285867
 20
67.9483192218
 11
-93.7968285867
 21
66.6758676230
  0
LINE
  8
Layer0$C$L0
 62
     3
 10
-93.7968285867
 20
66.6758676230
 11
-93.8756273615
 21
66.6687291050
  0
ARC
  8
Layer0$C$L0
 62
     3
 10
-94.0483769248
 20
67.6539898722
 40
1.0002905532
 50
268.8602262311
 51
279.9448042414
  0
LINE
  8
Layer0$C$L0
 62
     3
 10
-93.8756273615
 20
80.9463116204
 11
-93.7968285867
 21
80.9391731024
  0
LINE
  8
Layer0$C$L0
 62
     3
 10
-93.7968285867
 20
80.9391731024
 11
-93.7968285867
 21
79.6667215036
  0
ARC
  8
Layer0$C$L0
 62
     3
 10
-94.0483769248
 20
79.9610508533
 40
1.0002905532
 50
80.0551957582
 51
91.1397737692
  0
LINE
  8
Layer0$C$L0
 62
     3
 10
-93.7449312623
 20
66.6776464925
 11
-91.1930926025
 21
66.6776464925
  0
LINE
  8
Layer0$C$L0
 62
     3
 10
-93.7968285867
 20
66.6758676230
 11
-93.7449312623
 21
66.6776464925
  0
LINE
  8
Layer0$C$L0
 62
     3
 10
-93.7449312623
 20
80.9373942329
 11
-91.1930926025
 21
80.9373942329
  0
LINE
  8
Layer0$C$L0
 62
     3
 10
-93.7449312623
 20
80.9373942329
 11
-93.7968285867
 21
80.9391731024
  0
LINE
  8
Layer0$C$L0
 62
     3
 10
-91.1930926025
 20
66.3935734208
 11
-93.7027109397
 21
66.3935734208
  0
LINE
  8
Layer0$C$L0
 62
     3
 10
-93.7027109397
 20
66.6710305008
 11
-91.1930926025
 21
66.6710305008
  0
ARC
  8
Layer0$C$L0
 62
     3
 10
-93.7251172287
 20
66.7119645272
 40
0.3191785369
 50
218.7164521542
 51
274.0254666676
  0
ARC
  8
Layer0$C$L0
 62
     3
 10
-93.7582187194
 20
66.4855279846
 40
0.2175946685
 50
122.6547115763
 51
172.9249512718
  0
POLYLINE
  8
Layer0$C$L0
 62
     3
 66
     1
  0
VERTEX
  8
Layer0$C$L0
 62
     3
 10
-93.7449312623
 20
66.6776464925
  0
VERTEX
  8
Layer0$C$L0
 62
     3
 10
-93.7357941039
 20
66.6750150203
  0
VERTEX
  8
Layer0$C$L0
 62
     3
 10
-93.7027109397
 20
66.6710305008
  0
SEQEND
  8
Layer0$C$L0
 62
     3
  0
POLYLINE
  8
Layer0$C$L0
 62
     3
 66
     1
  0
VERTEX
  8
Layer0$C$L0
 62
     3
 10
-93.7027109397
 20
80.9440102246
  0
VERTEX
  8
Layer0$C$L0
 62
     3
 10
-93.7145564913
 20
80.9435120280
  0
VERTEX
  8
Layer0$C$L0
 62
     3
 10
-93.7449312623
 20
80.9373942329
  0
SEQEND
  8
Layer0$C$L0
 62
     3
  0
ARC
  8
Layer0$C$L0
 62
     3
 10
-93.7582187194
 20
81.1295127408
 40
0.2175946685
 50
187.0750487282
 51
237.3452884237
  0
ARC
  8
Layer0$C$L0
 62
     3
 10
-93.7171244668
 20
80.8848067355
 40
0.3369689727
 50
87.5484796044
 51
139.7096015739
  0
LINE
  8
Layer0$C$L0
 62
     3
 10
-93.7027109397
 20
80.9440102246
 11
-93.7027109397
 21
81.2214673046
  0
LINE
  8
Layer0$C$L0
 62
     3
 10
-91.1930926025
 20
80.9440102246
 11
-93.7027109397
 21
80.9440102246
  0
LINE
  8
Layer0$C$L0
 62
     3
 10
-93.7027109397
 20
81.2214673046
 11
-91.1930926025
 21
81.2214673046
  0
ARC
  8
Layer0$C$L0
 62
     3
 10
-93.7230188150
 20
81.4842976025
 40
0.3140858979
 50
86.2928364539
 51
143.0902974247
  0
ARC
  8
Layer0$C$L0
 62
     3
 10
-93.7157767569
 20
66.1464945929
 40
0.3294393585
 50
218.3438754700
 51
272.2729906514
  0
LINE
  8
Layer0$C$L0
 62
     3
 10
-93.7027109397
 20
65.8173144365
 11
-91.1930926025
 21
65.8173144365
  0
LINE
  8
Layer0$C$L0
 62
     3
 10
-91.1930926025
 20
81.7977262889
 11
-93.7027109397
 21
81.7977262889
  0
LINE
  8
Layer0$C$L0
 62
     3
 10
-91.1930926025
 20
76.2330837936
 11
-91.1930926025
 21
84.7075203627
  0
ARC
  8
Layer0$C$L0
 62
     3
 10
-93.7734737897
 20
66.1791036868
 40
0.3098846490
 50
197.9505164478
 51
219.4976402841
  0
ARC
  8
Layer0$C$L0
 62
     3
 10
-93.7734201620
 20
81.4359143347
 40
0.3099426636
 50
140.4975176643
 51
162.0485461383
  0
LINE
  8
Layer0$C$L0
 62
     3
 10
-93.7968285867
 20
65.8307083930
 11
-93.7968285867
 21
64.8543219403
  0
LINE
  8
Layer0$C$L0
 62
     3
 10
-93.7968285867
 20
64.8543219403
 11
-93.8756273615
 21
64.8527414054
  0
ARC
  8
Layer0$C$L0
 62
     3
 10
-93.9098497505
 20
65.1367944302
 40
0.2861071352
 50
236.3771137032
 51
276.8698199195
  0
LINE
  8
Layer0$C$L0
 62
     3
 10
-93.8756273615
 20
82.7622993200
 11
-93.7968285867
 21
82.7607187851
  0
LINE
  8
Layer0$C$L0
 62
     3
 10
-93.7968285867
 20
82.7607187851
 11
-93.7968285867
 21
81.7843323324
  0
ARC
  8
Layer0$C$L0
 62
     3
 10
-93.9098497505
 20
82.4782462951
 40
0.2861071353
 50
83.1301800841
 51
123.6228862930
  0
LINE
  8
Layer0$C$L0
 62
     3
 10
-93.7449312623
 20
64.8556286642
 11
-91.1930926025
 21
64.8556286642
  0
LINE
  8
Layer0$C$L0
 62
     3
 10
-93.7968285867
 20
64.8543219403
 11
-93.7449312623
 21
64.8556286642
  0
LINE
  8
Layer0$C$L0
 62
     3
 10
-93.7449312623
 20
82.7594120612
 11
-91.1930926025
 21
82.7594120612
  0
LINE
  8
Layer0$C$L0
 62
     3
 10
-93.7449312623
 20
82.7594120612
 11
-93.7968285867
 21
82.7607187851
  0
ARC
  8
Layer0$C$L0
 62
     3
 10
-93.7143102143
 20
64.8808717418
 40
0.3029138361
 50
210.9270228092
 51
272.1945250594
  0
ARC
  8
Layer0$C$L0
 62
     3
 10
-93.7809060332
 20
64.6777412432
 40
0.1989904189
 50
118.4250983535
 51
166.2049498897
  0
POLYLINE
  8
Layer0$C$L0
 62
     3
 66
     1
  0
VERTEX
  8
Layer0$C$L0
 62
     3
 10
-93.7449312623
 20
64.8556286642
  0
VERTEX
  8
Layer0$C$L0
 62
     3
 10
-93.7357941039
 20
64.8524057822
  0
VERTEX
  8
Layer0$C$L0
 62
     3
 10
-93.7027109397
 20
64.8475257623
  0
SEQEND
  8
Layer0$C$L0
 62
     3
  0
LINE
  8
Layer0$C$L0
 62
     3
 10
-91.1930926025
 20
64.5781800688
 11
-93.7027109397
 21
64.5781800688
  0
LINE
  8
Layer0$C$L0
 62
     3
 10
-93.7027109397
 20
64.8475257623
 11
-91.1930926025
 21
64.8475257623
  0
POLYLINE
  8
Layer0$C$L0
 62
     3
 66
     1
  0
VERTEX
  8
Layer0$C$L0
 62
     3
 10
-93.7027109397
 20
82.7675149631
  0
VERTEX
  8
Layer0$C$L0
 62
     3
 10
-93.7145564913
 20
82.7669047993
  0
VERTEX
  8
Layer0$C$L0
 62
     3
 10
-93.7449312623
 20
82.7594120612
  0
SEQEND
  8
Layer0$C$L0
 62
     3
  0
ARC
  8
Layer0$C$L0
 62
     3
 10
-93.7809060332
 20
82.9372994822
 40
0.1989904189
 50
193.7950501103
 51
241.5749016466
  0
ARC
  8
Layer0$C$L0
 62
     3
 10
-93.7101723580
 20
82.7265286853
 40
0.3104216571
 50
88.6226832298
 51
148.2557689016
  0
LINE
  8
Layer0$C$L0
 62
     3
 10
-93.7027109397
 20
82.7675149631
 11
-93.7027109397
 21
83.0368606566
  0
LINE
  8
Layer0$C$L0
 62
     3
 10
-91.1930926025
 20
82.7675149631
 11
-93.7027109397
 21
82.7675149631
  0
LINE
  8
Layer0$C$L0
 62
     3
 10
-93.7027109397
 20
83.0368606566
 11
-91.1930926025
 21
83.0368606566
  0
ARC
  8
Layer0$C$L0
 62
     3
 10
-93.7124879123
 20
83.1427156750
 40
0.3017800343
 50
88.1434248597
 51
150.1215290355
  0
ARC
  8
Layer0$C$L0
 62
     3
 10
-93.7090014903
 20
64.4785805677
 40
0.3079413920
 50
210.5645406655
 51
271.1705054393
  0
LINE
  8
Layer0$C$L0
 62
     3
 10
-93.7027109397
 20
64.1707034333
 11
-91.1930926025
 21
64.1707034333
  0
LINE
  8
Layer0$C$L0
 62
     3
 10
-91.1930926025
 20
83.4443372921
 11
-93.7027109397
 21
83.4443372921
  0
POLYLINE
  8
Layer0$C$L0
 62
     3
 66
     1
  0
VERTEX
  8
Layer0$C$L0
 62
     3
 10
-93.9741565503
 20
83.2930510101
  0
VERTEX
  8
Layer0$C$L0
 62
     3
 10
-93.9721137551
 20
83.3056851683
  0
VERTEX
  8
Layer0$C$L0
 62
     3
 10
-93.9689397610
 20
83.3132146240
  0
SEQEND
  8
Layer0$C$L0
 62
     3
  0
POLYLINE
  8
Layer0$C$L0
 62
     3
 66
     1
  0
VERTEX
  8
Layer0$C$L0
 62
     3
 10
-94.0682741974
 20
64.4952909759
  0
VERTEX
  8
Layer0$C$L0
 62
     3
 10
-94.0671024891
 20
64.4921160470
  0
VERTEX
  8
Layer0$C$L0
 62
     3
 10
-94.0404852517
 20
64.4337758253
  0
SEQEND
  8
Layer0$C$L0
 62
     3
  0
POLYLINE
  8
Layer0$C$L0
 62
     3
 66
     1
  0
VERTEX
  8
Layer0$C$L0
 62
     3
 10
-94.0404787800
 20
83.1812790850
  0
VERTEX
  8
Layer0$C$L0
 62
     3
 10
-94.0671024891
 20
83.1229246784
  0
VERTEX
  8
Layer0$C$L0
 62
     3
 10
-94.0682741974
 20
83.1197497495
  0
SEQEND
  8
Layer0$C$L0
 62
     3
  0
LINE
  8
Layer0$C$L0
 62
     3
 10
-93.7968285867
 20
63.6429219343
 11
-93.8756273615
 21
63.6470070932
  0
ARC
  8
Layer0$C$L0
 62
     3
 10
-93.8630343239
 20
63.9017297695
 40
0.2550337750
 50
216.4133355018
 51
267.1697025897
  0
LINE
  8
Layer0$C$L0
 62
     3
 10
-93.8756273615
 20
83.9680336322
 11
-93.7968285867
 21
83.9721187911
  0
ARC
  8
Layer0$C$L0
 62
     3
 10
-93.8630343239
 20
83.7133109559
 40
0.2550337750
 50
92.8302974115
 51
143.5866644969
  0
LINE
  8
Layer0$C$L0
 62
     3
 10
-93.7449312623
 20
63.6436674615
 11
-91.1930926025
 21
63.6436674615
  0
LINE
  8
Layer0$C$L0
 62
     3
 10
-93.7968285867
 20
63.6429219343
 11
-93.7449312623
 21
63.6436674615
  0
LINE
  8
Layer0$C$L0
 62
     3
 10
-93.7449312623
 20
83.9713732639
 11
-91.1930926025
 21
83.9713732639
  0
LINE
  8
Layer0$C$L0
 62
     3
 10
-93.7449312623
 20
83.9713732639
 11
-93.7968285867
 21
83.9721187911
  0
LINE
  8
Layer0$C$L0
 62
     3
 10
-93.7027109397
 20
63.3917510056
 11
-93.7027109397
 21
63.6346298487
  0
ARC
  8
Layer0$C$L0
 62
     3
 10
-93.7061154162
 20
63.6917296051
 40
0.2999979177
 50
206.6865743778
 51
270.6502255847
  0
ARC
  8
Layer0$C$L0
 62
     3
 10
-93.7953805832
 20
63.4602322464
 40
0.2032840103
 50
113.2505105143
 51
151.5748118327
  0
POLYLINE
  8
Layer0$C$L0
 62
     3
 66
     1
  0
VERTEX
  8
Layer0$C$L0
 62
     3
 10
-93.7449312623
 20
63.6436674615
  0
VERTEX
  8
Layer0$C$L0
 62
     3
 10
-93.7357941039
 20
63.6400728037
  0
VERTEX
  8
Layer0$C$L0
 62
     3
 10
-93.7027109397
 20
63.6346298487
  0
SEQEND
  8
Layer0$C$L0
 62
     3
  0
POLYLINE
  8
Layer0$C$L0
 62
     3
 66
     1
  0
VERTEX
  8
Layer0$C$L0
 62
     3
 10
-93.7027109397
 20
83.9804108767
  0
VERTEX
  8
Layer0$C$L0
 62
     3
 10
-93.7145564913
 20
83.9797303274
  0
VERTEX
  8
Layer0$C$L0
 62
     3
 10
-93.7449312623
 20
83.9713732639
  0
SEQEND
  8
Layer0$C$L0
 62
     3
  0
ARC
  8
Layer0$C$L0
 62
     3
 10
-93.7953805832
 20
84.1548084790
 40
0.2032840103
 50
208.4251881673
 51
246.7494894857
  0
ARC
  8
Layer0$C$L0
 62
     3
 10
-93.7049007407
 20
83.9213158100
 40
0.3019818495
 50
89.5845198748
 51
153.0786801627
  0
LINE
  8
Layer0$C$L0
 62
     3
 10
-93.7027109397
 20
83.9804108767
 11
-93.7027109397
 21
84.2232897198
  0
LINE
  8
Layer0$C$L0
 62
     3
 10
-91.1930926025
 20
63.3917510056
 11
-93.7027109397
 21
63.3917510056
  0
LINE
  8
Layer0$C$L0
 62
     3
 10
-93.7027109397
 20
63.6346298487
 11
-91.1930926025
 21
63.6346298487
  0
LINE
  8
Layer0$C$L0
 62
     3
 10
-91.1930926025
 20
83.9804108767
 11
-93.7027109397
 21
83.9804108767
  0
LINE
  8
Layer0$C$L0
 62
     3
 10
-93.7027109397
 20
84.2232897198
 11
-91.1930926025
 21
84.2232897198
  0
ARC
  8
Layer0$C$L0
 62
     3
 10
-93.7050621727
 20
84.1342954617
 40
0.2999289016
 50
89.5508365205
 51
153.7916333443
  0
ARC
  8
Layer0$C$L0
 62
     3
 10
-93.7042238986
 20
63.4821040705
 40
0.3012822911
 50
206.3698048711
 51
270.2877252641
  0
LINE
  8
Layer0$C$L0
 62
     3
 10
-93.7027109397
 20
63.1808255782
 11
-91.1930926025
 21
63.1808255782
  0
LINE
  8
Layer0$C$L0
 62
     3
 10
-91.1930926025
 20
84.4342151472
 11
-93.7027109397
 21
84.4342151472
  0
LINE
  8
Layer0$C$L0
 62
     3
 10
-93.9730161882
 20
63.3437718385
 11
-93.9741565503
 21
63.3482856021
  0
LINE
  8
Layer0$C$L0
 62
     3
 10
-93.7027109397
 20
63.1758108036
 11
-93.7027109397
 21
63.3917510056
  0
LINE
  8
Layer0$C$L0
 62
     3
 10
-93.7027109397
 20
84.2232897198
 11
-93.7027109397
 21
84.4392299218
  0
LINE
  8
Layer0$C$L0
 62
     3
 10
-93.9741565503
 20
84.2667551233
 11
-93.9730224448
 21
84.2712560025
  0
LINE
  8
Layer0$C$L0
 62
     3
 10
-93.7968285867
 20
63.1242225133
 11
-93.8756273615
 21
63.1336949693
  0
ARC
  8
Layer0$C$L0
 62
     3
 10
-93.8085723893
 20
63.4152290971
 40
0.2894094581
 50
206.1880027046
 51
256.6030655089
  0
LINE
  8
Layer0$C$L0
 62
     3
 10
-93.8756273615
 20
84.4813457561
 11
-93.7968285867
 21
84.4908182121
  0
ARC
  8
Layer0$C$L0
 62
     3
 10
-93.8085723893
 20
84.1998116283
 40
0.2894094581
 50
103.3969344913
 51
153.8119972952
  0
LINE
  8
Layer0$C$L0
 62
     3
 10
-93.7449312623
 20
63.1243560375
 11
-91.1930926025
 21
63.1243560375
  0
LINE
  8
Layer0$C$L0
 62
     3
 10
-93.7968285867
 20
63.1242225133
 11
-93.7449312623
 21
63.1243560375
  0
LINE
  8
Layer0$C$L0
 62
     3
 10
-93.7449312623
 20
84.4906846879
 11
-91.1930926025
 21
84.4906846879
  0
LINE
  8
Layer0$C$L0
 62
     3
 10
-93.7449312623
 20
84.4906846879
 11
-93.7968285867
 21
84.4908182121
  0
ARC
  8
Layer0$C$L0
 62
     3
 10
-93.7027300324
 20
63.2151384330
 40
0.2999990224
 50
205.2092894979
 51
270.0036464586
  0
LINE
  8
Layer0$C$L0
 62
     3
 10
-93.9741565503
 20
63.0873610531
 11
-93.8756273615
 21
63.1336949693
  0
POLYLINE
  8
Layer0$C$L0
 62
     3
 66
     1
  0
VERTEX
  8
Layer0$C$L0
 62
     3
 10
-93.7449312623
 20
63.1243560375
  0
VERTEX
  8
Layer0$C$L0
 62
     3
 10
-93.7357941039
 20
63.1206345738
  0
VERTEX
  8
Layer0$C$L0
 62
     3
 10
-93.7027109397
 20
63.1149996122
  0
SEQEND
  8
Layer0$C$L0
 62
     3
  0
POLYLINE
  8
Layer0$C$L0
 62
     3
 66
     1
  0
VERTEX
  8
Layer0$C$L0
 62
     3
 10
-93.7027109397
 20
84.5000411132
  0
VERTEX
  8
Layer0$C$L0
 62
     3
 10
-93.7145564913
 20
84.4993365567
  0
VERTEX
  8
Layer0$C$L0
 62
     3
 10
-93.7449312623
 20
84.4906846879
  0
SEQEND
  8
Layer0$C$L0
 62
     3
  0
LINE
  8
Layer0$C$L0
 62
     3
 10
-93.8756273615
 20
84.4813457561
 11
-93.9741565503
 21
84.5276796723
  0
ARC
  8
Layer0$C$L0
 62
     3
 10
-93.7027231829
 20
84.3998914966
 40
0.3000098178
 50
89.9976617844
 51
154.7894022591
  0
LINE
  8
Layer0$C$L0
 62
     3
 10
-93.7027109397
 20
63.1149996122
 11
-91.1930926025
 21
63.1149996122
  0
LINE
  8
Layer0$C$L0
 62
     3
 10
-91.1930926025
 20
62.9151394112
 11
-93.7027109397
 21
62.9151394112
  0
LINE
  8
Layer0$C$L0
 62
     3
 10
-91.1930926025
 20
84.5000411132
 11
-93.7027109397
 21
84.5000411132
  0
LINE
  8
Layer0$C$L0
 62
     3
 10
-93.7027109397
 20
84.6999013141
 11
-91.1930926025
 21
84.6999013141
  0
LINE
  8
Layer0$C$L0
 62
     3
 10
-91.1930926025
 20
68.7142150048
 11
-91.1930926025
 21
62.9075203627
  0
LINE
  8
Layer0$C$L0
 62
     3
 10
-93.9741565503
 20
63.0797812518
 11
-93.9741565503
 21
63.0873610531
  0
LINE
  8
Layer0$C$L0
 62
     3
 10
-93.9741565503
 20
84.5276796723
 11
-93.9741565503
 21
84.5352594736
  0
LINE
  8
Layer0$C$L0
 62
     3
 10
-93.7027109397
 20
70.4537220222
 11
-93.7027109397
 21
71.6196478481
  0
LINE
  8
Layer0$C$L0
 62
     3
 10
-93.7027109397
 20
76.2330837936
 11
-93.7027109397
 21
77.1613133455
  0
ARC
  8
Layer0$C$L0
 62
     3
 10
-93.8386450726
 20
68.0977283296
 40
0.1355125154
 50
179.7757739582
 51
221.8620062197
  0
LINE
  8
Layer0$C$L0
 62
     3
 10
-93.7027109397
 20
67.9148756092
 11
-93.7027109397
 21
68.7142150048
  0
LINE
  8
Layer0$C$L0
 62
     3
 10
-93.7027109397
 20
78.9008257206
 11
-93.7027109397
 21
79.7001865376
  0
ARC
  8
Layer0$C$L0
 62
     3
 10
-93.8396456090
 20
79.5176811955
 40
0.1345139463
 50
137.7166214837
 51
180.3829819034
  0
ARC
  8
Layer0$C$L0
 62
     3
 10
-93.8848383860
 20
65.9424844342
 40
8.9318919821E-02
 50
180.2356575737
 51
213.2024652158
  0
LINE
  8
Layer0$C$L0
 62
     3
 10
-93.7027109397
 20
65.7639428930
 11
-93.7027109397
 21
66.6710305008
  0
LINE
  8
Layer0$C$L0
 62
     3
 10
-93.7027109397
 20
81.2214673046
 11
-93.7027109397
 21
81.8511155008
  0
ARC
  8
Layer0$C$L0
 62
     3
 10
-93.8847533281
 20
81.6725432466
 40
8.9404031597E-02
 50
147.2227396325
 51
179.7562069071
  0
POLYLINE
  8
Layer0$C$L0
 62
     3
 66
     1
  0
VERTEX
  8
Layer0$C$L0
 62
     3
 10
-93.9690030345
 20
64.3019428944
  0
VERTEX
  8
Layer0$C$L0
 62
     3
 10
-93.9721137551
 20
64.3093555571
  0
VERTEX
  8
Layer0$C$L0
 62
     3
 10
-93.9741565503
 20
64.3219897153
  0
SEQEND
  8
Layer0$C$L0
 62
     3
  0
LINE
  8
Layer0$C$L0
 62
     3
 10
-93.7027109397
 20
64.1475296408
 11
-93.7027109397
 21
64.8475257623
  0
LINE
  8
Layer0$C$L0
 62
     3
 10
-93.7027109397
 20
83.0368606566
 11
-93.7027109397
 21
83.4675121077
  0
LINE
  8
Layer0$C$L0
 62
     3
 10
-93.7968285867
 20
64.1533260738
 11
-93.7968285867
 21
63.6429219343
  0
LINE
  8
Layer0$C$L0
 62
     3
 10
-93.7968285867
 20
83.9721187911
 11
-93.7968285867
 21
83.4589797941
  0
LINE
  8
Layer0$C$L0
 62
     3
 10
-93.7968285867
 20
63.1736599504
 11
-93.7968285867
 21
63.1242225133
  0
LINE
  8
Layer0$C$L0
 62
     3
 10
-93.7968285867
 20
84.4908182121
 11
-93.7968285867
 21
84.4448297858
  0
LINE
  8
Layer0$C$L0
 62
     3
 10
-93.7027109397
 20
84.7075203627
 11
-93.7027109397
 21
84.5000411132
  0
LINE
  8
Layer0$C$L0
 62
     3
 10
-93.7027109397
 20
63.1149996122
 11
-93.7027109397
 21
62.9075203627
  0
ENDSEC
  0
EOF
