ISO-10303-21;
HEADER;
FILE_DESCRIPTION (( 'STEP AP203' ),
    '1' );
FILE_NAME ('OUTSIDE-IAC-RS2.STEP',
    '2014-08-21T10:19:31',
    ( 'IDEC' ),
    ( '' ),
    'SwSTEP 2.0',
    'SolidWorks 2012',
    '' );
FILE_SCHEMA (( 'CONFIG_CONTROL_DESIGN' ));
ENDSEC;

DATA;
#1 = PRODUCT_RELATED_PRODUCT_CATEGORY ( 'detail', '', ( #61 ) ) ;
#2 = LOCAL_TIME ( 19, 19, 31.00000000000000000, #146 ) ;
#3 = APPROVAL ( #215, 'UNSPECIFIED' ) ;
#4 = ADVANCED_FACE ( 'NONE', ( #184 ), #104, .F. ) ;
#5 = CC_DESIGN_DATE_AND_TIME_ASSIGNMENT ( #218, #217, ( #151 ) ) ;
#6 = LOCAL_TIME ( 19, 19, 31.00000000000000000, #150 ) ;
#7 = CC_DESIGN_PERSON_AND_ORGANIZATION_ASSIGNMENT ( #220, #219, ( #151 ) ) ;
#8 = CC_DESIGN_PERSON_AND_ORGANIZATION_ASSIGNMENT ( #223, #222, ( #159 ) ) ;
#9 = CC_DESIGN_PERSON_AND_ORGANIZATION_ASSIGNMENT ( #225, #224, ( #159 ) ) ;
#10 = LOCAL_TIME ( 19, 19, 31.00000000000000000, #156 ) ;
#11 = APPROVAL ( #229, 'UNSPECIFIED' ) ;
#12 = CC_DESIGN_DATE_AND_TIME_ASSIGNMENT ( #232, #231, ( #19 ) ) ;
#13 = LOCAL_TIME ( 19, 19, 31.00000000000000000, #161 ) ;
#14 = CC_DESIGN_PERSON_AND_ORGANIZATION_ASSIGNMENT ( #234, #233, ( #19 ) ) ;
#15 = LOCAL_TIME ( 19, 19, 31.00000000000000000, #165 ) ;
#16 = APPROVAL ( #238, 'UNSPECIFIED' ) ;
#17 = CC_DESIGN_PERSON_AND_ORGANIZATION_ASSIGNMENT ( #242, #241, ( #61 ) ) ;
#18 = ADVANCED_FACE ( 'NONE', ( #206 ), #371, .T. ) ;
#19 = PRODUCT_DEFINITION ( 'UNKNOWN', '', #159, #211 ) ;
#20 = CIRCLE ( 'NONE', #144, 1.000000000000000900 ) ;
#21 = CIRCLE ( 'NONE', #155, 1.000000000000000900 ) ;
#22 = CIRCLE ( 'NONE', #175, 1.000000000000000900 ) ;
#23 = CIRCLE ( 'NONE', #166, 1.000000000000000900 ) ;
#24 = CIRCLE ( 'NONE', #169, 1.000000000000000900 ) ;
#25 = CIRCLE ( 'NONE', #178, 1.000000000000000900 ) ;
#26 = CIRCLE ( 'NONE', #179, 1.000000000000000900 ) ;
#27 = CIRCLE ( 'NONE', #187, 1.000000000000000900 ) ;
#28 = ADVANCED_FACE ( 'NONE', ( #190 ), #367, .F. ) ;
#29 = ADVANCED_FACE ( 'NONE', ( #205 ), #202, .T. ) ;
#30 = ADVANCED_FACE ( 'NONE', ( #203 ), #198, .T. ) ;
#31 = ADVANCED_FACE ( 'NONE', ( #200 ), #357, .F. ) ;
#32 = ADVANCED_FACE ( 'NONE', ( #197 ), #194, .T. ) ;
#33 = ADVANCED_FACE ( 'NONE', ( #196 ), #188, .T. ) ;
#34 = ADVANCED_FACE ( 'NONE', ( #191 ), #344, .F. ) ;
#35 =( GEOMETRIC_REPRESENTATION_CONTEXT ( 3 ) GLOBAL_UNCERTAINTY_ASSIGNED_CONTEXT ( ( #377 ) ) GLOBAL_UNIT_ASSIGNED_CONTEXT ( ( #251, #250, #249 ) ) REPRESENTATION_CONTEXT ( 'NONE', 'WORKASPACE' ) );
#36 = EDGE_CURVE ( 'NONE', #115, #114, #27, .T. ) ;
#37 = EDGE_CURVE ( 'NONE', #116, #115, #336, .T. ) ;
#38 = ADVANCED_FACE ( 'NONE', ( #182 ), #331, .F. ) ;
#39 = EDGE_CURVE ( 'NONE', #83, #117, #325, .T. ) ;
#40 = EDGE_CURVE ( 'NONE', #70, #83, #25, .T. ) ;
#41 = EDGE_CURVE ( 'NONE', #67, #117, #26, .T. ) ;
#42 = EDGE_CURVE ( 'NONE', #69, #118, #316, .T. ) ;
#43 = EDGE_CURVE ( 'NONE', #117, #71, #313, .T. ) ;
#44 = EDGE_CURVE ( 'NONE', #81, #112, #311, .T. ) ;
#45 = EDGE_CURVE ( 'NONE', #114, #103, #309, .T. ) ;
#46 = EDGE_CURVE ( 'NONE', #100, #116, #306, .T. ) ;
#47 = EDGE_CURVE ( 'NONE', #122, #115, #303, .T. ) ;
#48 = EDGE_CURVE ( 'NONE', #112, #100, #24, .T. ) ;
#49 = EDGE_CURVE ( 'NONE', #122, #100, #297, .T. ) ;
#50 = EDGE_CURVE ( 'NONE', #71, #81, #23, .T. ) ;
#51 = EDGE_CURVE ( 'NONE', #69, #122, #22, .T. ) ;
#52 = EDGE_CURVE ( 'NONE', #69, #112, #288, .T. ) ;
#53 = EDGE_CURVE ( 'NONE', #83, #119, #338, .T. ) ;
#54 = EDGE_CURVE ( 'NONE', #119, #118, #21, .T. ) ;
#55 = EDGE_CURVE ( 'NONE', #81, #118, #284, .T. ) ;
#56 = EDGE_CURVE ( 'NONE', #114, #70, #281, .T. ) ;
#57 = EDGE_CURVE ( 'NONE', #116, #103, #20, .T. ) ;
#58 = EDGE_CURVE ( 'NONE', #70, #67, #275, .T. ) ;
#59 = EDGE_CURVE ( 'NONE', #103, #67, #272, .T. ) ;
#60 = EDGE_CURVE ( 'NONE', #119, #71, #269, .T. ) ;
#61 = PRODUCT ( 'OUTSIDE-IAC-RS2', 'OUTSIDE-IAC-RS2', '', ( #243 ) ) ;
#62 = ORIENTED_EDGE ( 'NONE', *, *, #43, .F. ) ;
#63 = ORIENTED_EDGE ( 'NONE', *, *, #58, .T. ) ;
#64 = ORIENTED_EDGE ( 'NONE', *, *, #39, .F. ) ;
#65 = ORIENTED_EDGE ( 'NONE', *, *, #45, .T. ) ;
#66 = ORIENTED_EDGE ( 'NONE', *, *, #60, .T. ) ;
#67 = VERTEX_POINT ( 'NONE', #276 ) ;
#68 = ORIENTED_EDGE ( 'NONE', *, *, #56, .T. ) ;
#69 = VERTEX_POINT ( 'NONE', #266 ) ;
#70 = VERTEX_POINT ( 'NONE', #265 ) ;
#71 = VERTEX_POINT ( 'NONE', #264 ) ;
#72 = ORIENTED_EDGE ( 'NONE', *, *, #47, .F. ) ;
#73 = ORIENTED_EDGE ( 'NONE', *, *, #51, .F. ) ;
#74 = ORIENTED_EDGE ( 'NONE', *, *, #41, .F. ) ;
#75 = ORIENTED_EDGE ( 'NONE', *, *, #59, .T. ) ;
#76 = ORIENTED_EDGE ( 'NONE', *, *, #48, .T. ) ;
#77 = ORIENTED_EDGE ( 'NONE', *, *, #42, .T. ) ;
#78 = ORIENTED_EDGE ( 'NONE', *, *, #41, .T. ) ;
#79 = ORIENTED_EDGE ( 'NONE', *, *, #54, .F. ) ;
#80 = ORIENTED_EDGE ( 'NONE', *, *, #53, .F. ) ;
#81 = VERTEX_POINT ( 'NONE', #263 ) ;
#82 = ORIENTED_EDGE ( 'NONE', *, *, #54, .T. ) ;
#83 = VERTEX_POINT ( 'NONE', #262 ) ;
#84 = ORIENTED_EDGE ( 'NONE', *, *, #39, .T. ) ;
#85 = ORIENTED_EDGE ( 'NONE', *, *, #55, .T. ) ;
#86 = ORIENTED_EDGE ( 'NONE', *, *, #44, .F. ) ;
#87 = ORIENTED_EDGE ( 'NONE', *, *, #40, .T. ) ;
#88 = ORIENTED_EDGE ( 'NONE', *, *, #42, .F. ) ;
#89 = ORIENTED_EDGE ( 'NONE', *, *, #49, .T. ) ;
#90 = ORIENTED_EDGE ( 'NONE', *, *, #46, .F. ) ;
#91 = ORIENTED_EDGE ( 'NONE', *, *, #57, .T. ) ;
#92 = ORIENTED_EDGE ( 'NONE', *, *, #56, .F. ) ;
#93 = ORIENTED_EDGE ( 'NONE', *, *, #40, .F. ) ;
#94 = ORIENTED_EDGE ( 'NONE', *, *, #47, .T. ) ;
#95 = ORIENTED_EDGE ( 'NONE', *, *, #50, .T. ) ;
#96 = EDGE_LOOP ( 'NONE', ( #109, #94, #106, #90 ) ) ;
#97 = ORIENTED_EDGE ( 'NONE', *, *, #52, .T. ) ;
#98 = ORIENTED_EDGE ( 'NONE', *, *, #36, .F. ) ;
#99 = EDGE_LOOP ( 'NONE', ( #126, #68, #63, #136 ) ) ;
#100 = VERTEX_POINT ( 'NONE', #261 ) ;
#101 = ORIENTED_EDGE ( 'NONE', *, *, #43, .T. ) ;
#102 = ORIENTED_EDGE ( 'NONE', *, *, #44, .T. ) ;
#103 = VERTEX_POINT ( 'NONE', #260 ) ;
#104 = PLANE ( 'NONE',  #193 ) ;
#105 = EDGE_LOOP ( 'NONE', ( #73, #77, #79, #80, #93, #92, #98, #72 ) ) ;
#106 = ORIENTED_EDGE ( 'NONE', *, *, #37, .F. ) ;
#107 = EDGE_LOOP ( 'NONE', ( #66, #62, #64, #129 ) ) ;
#108 = EDGE_LOOP ( 'NONE', ( #132, #121, #65, #120 ) ) ;
#109 = ORIENTED_EDGE ( 'NONE', *, *, #49, .F. ) ;
#110 = EDGE_LOOP ( 'NONE', ( #135, #87, #84, #74 ) ) ;
#111 = ORIENTED_EDGE ( 'NONE', *, *, #48, .F. ) ;
#112 = VERTEX_POINT ( 'NONE', #259 ) ;
#113 = ORIENTED_EDGE ( 'NONE', *, *, #51, .T. ) ;
#114 = VERTEX_POINT ( 'NONE', #258 ) ;
#115 = VERTEX_POINT ( 'NONE', #257 ) ;
#116 = VERTEX_POINT ( 'NONE', #256 ) ;
#117 = VERTEX_POINT ( 'NONE', #255 ) ;
#118 = VERTEX_POINT ( 'NONE', #254 ) ;
#119 = VERTEX_POINT ( 'NONE', #253 ) ;
#120 = ORIENTED_EDGE ( 'NONE', *, *, #57, .F. ) ;
#121 = ORIENTED_EDGE ( 'NONE', *, *, #36, .T. ) ;
#122 = VERTEX_POINT ( 'NONE', #252 ) ;
#123 = EDGE_LOOP ( 'NONE', ( #101, #95, #102, #76, #130, #91, #75, #78 ) ) ;
#124 = EDGE_LOOP ( 'NONE', ( #131, #82, #125, #133 ) ) ;
#125 = ORIENTED_EDGE ( 'NONE', *, *, #55, .F. ) ;
#126 = ORIENTED_EDGE ( 'NONE', *, *, #45, .F. ) ;
#127 = EDGE_LOOP ( 'NONE', ( #128, #113, #89, #111 ) ) ;
#128 = ORIENTED_EDGE ( 'NONE', *, *, #52, .F. ) ;
#129 = ORIENTED_EDGE ( 'NONE', *, *, #53, .T. ) ;
#130 = ORIENTED_EDGE ( 'NONE', *, *, #46, .T. ) ;
#131 = ORIENTED_EDGE ( 'NONE', *, *, #60, .F. ) ;
#132 = ORIENTED_EDGE ( 'NONE', *, *, #37, .T. ) ;
#133 = ORIENTED_EDGE ( 'NONE', *, *, #50, .F. ) ;
#134 = EDGE_LOOP ( 'NONE', ( #97, #86, #85, #88 ) ) ;
#135 = ORIENTED_EDGE ( 'NONE', *, *, #58, .F. ) ;
#136 = ORIENTED_EDGE ( 'NONE', *, *, #59, .F. ) ;
#137 = AXIS2_PLACEMENT_3D ( 'NONE', #247, #246, #245 ) ;
#138 = VECTOR ( 'NONE', #267, 1000.000000000000000 ) ;
#139 = VECTOR ( 'NONE', #270, 1000.000000000000000 ) ;
#140 = VECTOR ( 'NONE', #273, 1000.000000000000000 ) ;
#141 = VECTOR ( 'NONE', #279, 1000.000000000000000 ) ;
#142 = CC_DESIGN_SECURITY_CLASSIFICATION ( #151, ( #159 ) ) ;
#143 = CC_DESIGN_APPROVAL ( #3, ( #151 ) ) ;
#144 = AXIS2_PLACEMENT_3D ( 'NONE', #285, #278, #277 ) ;
#145 = CALENDAR_DATE ( 2014, 21, 8 ) ;
#146 = COORDINATED_UNIVERSAL_TIME_OFFSET ( 9, 0, .AHEAD. ) ;
#147 = VECTOR ( 'NONE', #282, 1000.000000000000000 ) ;
#148 = APPROVAL_PERSON_ORGANIZATION ( #216, #3, #214 ) ;
#149 = CALENDAR_DATE ( 2014, 21, 8 ) ;
#150 = COORDINATED_UNIVERSAL_TIME_OFFSET ( 9, 0, .AHEAD. ) ;
#151 = SECURITY_CLASSIFICATION ( '', '', #221 ) ;
#152 = VECTOR ( 'NONE', #346, 1000.000000000000000 ) ;
#153 = CC_DESIGN_APPROVAL ( #11, ( #159 ) ) ;
#154 = CALENDAR_DATE ( 2014, 21, 8 ) ;
#155 = AXIS2_PLACEMENT_3D ( 'NONE', #289, #345, #337 ) ;
#156 = COORDINATED_UNIVERSAL_TIME_OFFSET ( 9, 0, .AHEAD. ) ;
#157 = VECTOR ( 'NONE', #286, 1000.000000000000000 ) ;
#158 = APPROVAL_PERSON_ORGANIZATION ( #230, #11, #228 ) ;
#159 = PRODUCT_DEFINITION_FORMATION_WITH_SPECIFIED_SOURCE ( 'ANY', '', #61, .NOT_KNOWN. ) ;
#160 = CALENDAR_DATE ( 2014, 21, 8 ) ;
#161 = COORDINATED_UNIVERSAL_TIME_OFFSET ( 9, 0, .AHEAD. ) ;
#162 = CC_DESIGN_APPROVAL ( #16, ( #19 ) ) ;
#163 = CALENDAR_DATE ( 2014, 21, 8 ) ;
#164 = VECTOR ( 'NONE', #295, 1000.000000000000000 ) ;
#165 = COORDINATED_UNIVERSAL_TIME_OFFSET ( 9, 0, .AHEAD. ) ;
#166 = AXIS2_PLACEMENT_3D ( 'NONE', #298, #294, #293 ) ;
#167 = APPROVAL_PERSON_ORGANIZATION ( #239, #16, #237 ) ;
#168 = VECTOR ( 'NONE', #301, 1000.000000000000000 ) ;
#169 = AXIS2_PLACEMENT_3D ( 'NONE', #317, #300, #299 ) ;
#170 = VECTOR ( 'NONE', #304, 1000.000000000000000 ) ;
#171 = VECTOR ( 'NONE', #307, 1000.000000000000000 ) ;
#172 = VECTOR ( 'NONE', #310, 1000.000000000000000 ) ;
#173 = VECTOR ( 'NONE', #342, 1000.000000000000000 ) ;
#174 = VECTOR ( 'NONE', #314, 1000.000000000000000 ) ;
#175 = AXIS2_PLACEMENT_3D ( 'NONE', #292, #291, #290 ) ;
#176 = VECTOR ( 'NONE', #323, 1000.000000000000000 ) ;
#177 = VECTOR ( 'NONE', #329, 1000.000000000000000 ) ;
#178 = AXIS2_PLACEMENT_3D ( 'NONE', #322, #321, #343 ) ;
#179 = AXIS2_PLACEMENT_3D ( 'NONE', #320, #319, #318 ) ;
#180 = ORGANIZATION ( 'UNSPECIFIED', 'UNSPECIFIED', '' ) ;
#181 = CLOSED_SHELL ( 'NONE', ( #38, #4, #18, #34, #33, #32, #31, #30, #28, #29 ) ) ;
#182 = FACE_OUTER_BOUND ( 'NONE', #134, .T. ) ;
#183 = AXIS2_PLACEMENT_3D ( 'NONE', #328, #327, #326 ) ;
#184 = FACE_OUTER_BOUND ( 'NONE', #105, .T. ) ;
#185 = AXIS2_PLACEMENT_3D ( 'NONE', #341, #340, #339 ) ;
#186 = AXIS2_PLACEMENT_3D ( 'NONE', #370, #369, #368 ) ;
#187 = AXIS2_PLACEMENT_3D ( 'NONE', #334, #333, #332 ) ;
#188 = CYLINDRICAL_SURFACE ( 'NONE', #189, 1.000000000000000900 ) ;
#189 = AXIS2_PLACEMENT_3D ( 'NONE', #348, #349, #350 ) ;
#190 = FACE_OUTER_BOUND ( 'NONE', #99, .T. ) ;
#191 = FACE_OUTER_BOUND ( 'NONE', #96, .T. ) ;
#192 = AXIS2_PLACEMENT_3D ( 'NONE', #351, #352, #353 ) ;
#193 = AXIS2_PLACEMENT_3D ( 'NONE', #374, #373, #372 ) ;
#194 = CYLINDRICAL_SURFACE ( 'NONE', #192, 1.000000000000000900 ) ;
#195 = AXIS2_PLACEMENT_3D ( 'NONE', #354, #355, #356 ) ;
#196 = FACE_OUTER_BOUND ( 'NONE', #127, .T. ) ;
#197 = FACE_OUTER_BOUND ( 'NONE', #124, .T. ) ;
#198 = CYLINDRICAL_SURFACE ( 'NONE', #199, 1.000000000000000900 ) ;
#199 = AXIS2_PLACEMENT_3D ( 'NONE', #360, #359, #358 ) ;
#200 = FACE_OUTER_BOUND ( 'NONE', #107, .T. ) ;
#201 = AXIS2_PLACEMENT_3D ( 'NONE', #363, #362, #361 ) ;
#202 = CYLINDRICAL_SURFACE ( 'NONE', #201, 1.000000000000000900 ) ;
#203 = FACE_OUTER_BOUND ( 'NONE', #110, .T. ) ;
#204 = AXIS2_PLACEMENT_3D ( 'NONE', #366, #365, #364 ) ;
#205 = FACE_OUTER_BOUND ( 'NONE', #108, .T. ) ;
#206 = FACE_OUTER_BOUND ( 'NONE', #123, .T. ) ;
#207 = APPLICATION_CONTEXT ( 'configuration controlled 3d designs of mechanical parts and assemblies' ) ;
#208 = APPLICATION_CONTEXT ( 'configuration controlled 3d designs of mechanical parts and assemblies' ) ;
#209 = PRODUCT_DEFINITION_SHAPE ( 'NONE', 'NONE',  #19 ) ;
#210 = MANIFOLD_SOLID_BREP ( '²ÝÎß°Ä1', #181 ) ;
#211 = DESIGN_CONTEXT ( 'detailed design', #207, 'design' ) ;
#212 = APPROVAL_DATE_TIME ( #213, #3 ) ;
#213 = DATE_AND_TIME ( #145, #2 ) ;
#214 = APPROVAL_ROLE ( '' ) ;
#215 = APPROVAL_STATUS ( 'not_yet_approved' ) ;
#216 = PERSON_AND_ORGANIZATION ( #375, #180 ) ;
#217 = DATE_TIME_ROLE ( 'classification_date' ) ;
#218 = DATE_AND_TIME ( #149, #6 ) ;
#219 = PERSON_AND_ORGANIZATION_ROLE ( 'classification_officer' ) ;
#220 = PERSON_AND_ORGANIZATION ( #375, #180 ) ;
#221 = SECURITY_CLASSIFICATION_LEVEL ( 'unclassified' ) ;
#222 = PERSON_AND_ORGANIZATION_ROLE ( 'design_supplier' ) ;
#223 = PERSON_AND_ORGANIZATION ( #375, #180 ) ;
#224 = PERSON_AND_ORGANIZATION_ROLE ( 'creator' ) ;
#225 = PERSON_AND_ORGANIZATION ( #375, #180 ) ;
#226 = APPROVAL_DATE_TIME ( #227, #11 ) ;
#227 = DATE_AND_TIME ( #154, #10 ) ;
#228 = APPROVAL_ROLE ( '' ) ;
#229 = APPROVAL_STATUS ( 'not_yet_approved' ) ;
#230 = PERSON_AND_ORGANIZATION ( #375, #180 ) ;
#231 = DATE_TIME_ROLE ( 'creation_date' ) ;
#232 = DATE_AND_TIME ( #160, #13 ) ;
#233 = PERSON_AND_ORGANIZATION_ROLE ( 'creator' ) ;
#234 = PERSON_AND_ORGANIZATION ( #375, #180 ) ;
#235 = APPROVAL_DATE_TIME ( #236, #16 ) ;
#236 = DATE_AND_TIME ( #163, #15 ) ;
#237 = APPROVAL_ROLE ( '' ) ;
#238 = APPROVAL_STATUS ( 'not_yet_approved' ) ;
#239 = PERSON_AND_ORGANIZATION ( #375, #180 ) ;
#240 = APPLICATION_PROTOCOL_DEFINITION ( 'international standard', 'config_control_design', 1994, #207 ) ;
#241 = PERSON_AND_ORGANIZATION_ROLE ( 'design_owner' ) ;
#242 = PERSON_AND_ORGANIZATION ( #375, #180 ) ;
#243 = MECHANICAL_CONTEXT ( 'NONE', #208, 'mechanical' ) ;
#244 = APPLICATION_PROTOCOL_DEFINITION ( 'international standard', 'config_control_design', 1994, #208 ) ;
#245 = DIRECTION ( 'NONE',  ( 1.000000000000000000, 0.0000000000000000000, 0.0000000000000000000 ) ) ;
#246 = DIRECTION ( 'NONE',  ( 0.0000000000000000000, 0.0000000000000000000, 1.000000000000000000 ) ) ;
#247 = CARTESIAN_POINT ( 'NONE',  ( 0.0000000000000000000, 0.0000000000000000000, 0.0000000000000000000 ) ) ;
#248 = SHAPE_DEFINITION_REPRESENTATION ( #209, #376 ) ;
#249 =( NAMED_UNIT ( * ) SI_UNIT ( $, .STERADIAN. ) SOLID_ANGLE_UNIT ( ) );
#250 =( NAMED_UNIT ( * ) PLANE_ANGLE_UNIT ( ) SI_UNIT ( $, .RADIAN. ) );
#251 =( LENGTH_UNIT ( ) NAMED_UNIT ( * ) SI_UNIT ( .MILLI., .METRE. ) );
#252 = CARTESIAN_POINT ( 'NONE',  ( -34.00000000000000000, -40.00000000000000000, 0.0000000000000000000 ) ) ;
#253 = CARTESIAN_POINT ( 'NONE',  ( -33.99999999989745400, 40.00000000000000000, 0.0000000000000000000 ) ) ;
#254 = CARTESIAN_POINT ( 'NONE',  ( -35.00000000000000000, 39.00000000000000000, 0.0000000000000000000 ) ) ;
#255 = CARTESIAN_POINT ( 'NONE',  ( 34.00000000000000000, 40.00000000000000000, 0.5000000000000000000 ) ) ;
#256 = CARTESIAN_POINT ( 'NONE',  ( 34.00000000000000000, -40.00000000000000000, 0.5000000000000000000 ) ) ;
#257 = CARTESIAN_POINT ( 'NONE',  ( 34.00000000000000000, -40.00000000000000000, 0.0000000000000000000 ) ) ;
#258 = CARTESIAN_POINT ( 'NONE',  ( 35.00000000000000000, -39.00000000000000000, 0.0000000000000000000 ) ) ;
#259 = CARTESIAN_POINT ( 'NONE',  ( -35.00000000000000000, -39.00000000008979800, 0.5000000000000000000 ) ) ;
#260 = CARTESIAN_POINT ( 'NONE',  ( 35.00000000000000000, -39.00000000000000000, 0.5000000000000000000 ) ) ;
#261 = CARTESIAN_POINT ( 'NONE',  ( -34.00000000000000000, -40.00000000000000000, 0.5000000000000000000 ) ) ;
#262 = CARTESIAN_POINT ( 'NONE',  ( 34.00000000000000000, 40.00000000000000000, 0.0000000000000000000 ) ) ;
#263 = CARTESIAN_POINT ( 'NONE',  ( -35.00000000000000000, 39.00000000000000000, 0.5000000000000000000 ) ) ;
#264 = CARTESIAN_POINT ( 'NONE',  ( -33.99999999989745400, 40.00000000000000000, 0.5000000000000000000 ) ) ;
#265 = CARTESIAN_POINT ( 'NONE',  ( 35.00000000000000000, 38.99999999979489500, 0.0000000000000000000 ) ) ;
#266 = CARTESIAN_POINT ( 'NONE',  ( -35.00000000000000000, -39.00000000008979800, 0.0000000000000000000 ) ) ;
#267 = DIRECTION ( 'NONE',  ( -0.0000000000000000000, -0.0000000000000000000, 1.000000000000000000 ) ) ;
#268 = CARTESIAN_POINT ( 'NONE',  ( -33.99999999979490200, 40.00000000000000000, 0.2500000000000000000 ) ) ;
#269 = LINE ( 'NONE', #268, #138 ) ;
#270 = DIRECTION ( 'NONE',  ( 0.0000000000000000000, 1.000000000000000000, 0.0000000000000000000 ) ) ;
#271 = CARTESIAN_POINT ( 'NONE',  ( 35.00000000000000000, 0.0000000000000000000, 0.5000000000000000000 ) ) ;
#272 = LINE ( 'NONE', #271, #139 ) ;
#273 = DIRECTION ( 'NONE',  ( -0.0000000000000000000, -0.0000000000000000000, 1.000000000000000000 ) ) ;
#274 = CARTESIAN_POINT ( 'NONE',  ( 35.00000000000000000, 38.99999999958978900, 0.2500000000000000000 ) ) ;
#275 = LINE ( 'NONE', #274, #140 ) ;
#276 = CARTESIAN_POINT ( 'NONE',  ( 35.00000000000000000, 38.99999999979489500, 0.5000000000000000000 ) ) ;
#277 = DIRECTION ( 'NONE',  ( -1.000000000000000000, 0.0000000000000000000, 0.0000000000000000000 ) ) ;
#278 = DIRECTION ( 'NONE',  ( -0.0000000000000000000, -0.0000000000000000000, 1.000000000000000000 ) ) ;
#279 = DIRECTION ( 'NONE',  ( 0.0000000000000000000, 1.000000000000000000, 0.0000000000000000000 ) ) ;
#280 = CARTESIAN_POINT ( 'NONE',  ( 35.00000000000000000, 0.0000000000000000000, 0.0000000000000000000 ) ) ;
#281 = LINE ( 'NONE', #280, #141 ) ;
#282 = DIRECTION ( 'NONE',  ( 0.0000000000000000000, 0.0000000000000000000, -1.000000000000000000 ) ) ;
#283 = CARTESIAN_POINT ( 'NONE',  ( -35.00000000000000000, 39.00000000000000000, 0.2500000000000000000 ) ) ;
#284 = LINE ( 'NONE', #283, #147 ) ;
#285 = CARTESIAN_POINT ( 'NONE',  ( 34.00000000000000000, -39.00000000000000000, 0.5000000000000000000 ) ) ;
#286 = DIRECTION ( 'NONE',  ( -0.0000000000000000000, -0.0000000000000000000, 1.000000000000000000 ) ) ;
#287 = CARTESIAN_POINT ( 'NONE',  ( -35.00000000000000000, -39.00000000017958300, 0.2500000000000000000 ) ) ;
#288 = LINE ( 'NONE', #287, #157 ) ;
#289 = CARTESIAN_POINT ( 'NONE',  ( -34.00000000000000000, 39.00000000000000000, 0.0000000000000000000 ) ) ;
#290 = DIRECTION ( 'NONE',  ( -1.000000000000000000, 0.0000000000000000000, 0.0000000000000000000 ) ) ;
#291 = DIRECTION ( 'NONE',  ( -0.0000000000000000000, -0.0000000000000000000, 1.000000000000000000 ) ) ;
#292 = CARTESIAN_POINT ( 'NONE',  ( -34.00000000000000000, -39.00000000000000000, 0.0000000000000000000 ) ) ;
#293 = DIRECTION ( 'NONE',  ( -1.000000000000000000, 0.0000000000000000000, 0.0000000000000000000 ) ) ;
#294 = DIRECTION ( 'NONE',  ( -0.0000000000000000000, -0.0000000000000000000, 1.000000000000000000 ) ) ;
#295 = DIRECTION ( 'NONE',  ( 0.0000000000000000000, 0.0000000000000000000, 1.000000000000000000 ) ) ;
#296 = CARTESIAN_POINT ( 'NONE',  ( -34.00000000000000000, -40.00000000000000000, 0.2500000000000000000 ) ) ;
#297 = LINE ( 'NONE', #296, #164 ) ;
#298 = CARTESIAN_POINT ( 'NONE',  ( -34.00000000000000000, 39.00000000000000000, 0.5000000000000000000 ) ) ;
#299 = DIRECTION ( 'NONE',  ( -1.000000000000000000, 0.0000000000000000000, 0.0000000000000000000 ) ) ;
#300 = DIRECTION ( 'NONE',  ( -0.0000000000000000000, -0.0000000000000000000, 1.000000000000000000 ) ) ;
#301 = DIRECTION ( 'NONE',  ( 1.000000000000000000, 0.0000000000000000000, 0.0000000000000000000 ) ) ;
#302 = CARTESIAN_POINT ( 'NONE',  ( 0.0000000000000000000, -40.00000000000000000, 0.0000000000000000000 ) ) ;
#303 = LINE ( 'NONE', #302, #168 ) ;
#304 = DIRECTION ( 'NONE',  ( 1.000000000000000000, 0.0000000000000000000, 0.0000000000000000000 ) ) ;
#305 = CARTESIAN_POINT ( 'NONE',  ( 0.0000000000000000000, -40.00000000000000000, 0.5000000000000000000 ) ) ;
#306 = LINE ( 'NONE', #305, #170 ) ;
#307 = DIRECTION ( 'NONE',  ( 0.0000000000000000000, 0.0000000000000000000, 1.000000000000000000 ) ) ;
#308 = CARTESIAN_POINT ( 'NONE',  ( 35.00000000000000000, -39.00000000000000000, 0.2500000000000000000 ) ) ;
#309 = LINE ( 'NONE', #308, #171 ) ;
#310 = DIRECTION ( 'NONE',  ( -0.0000000000000000000, -1.000000000000000000, -0.0000000000000000000 ) ) ;
#311 = LINE ( 'NONE', #335, #172 ) ;
#312 = CARTESIAN_POINT ( 'NONE',  ( 0.0000000000000000000, 40.00000000000000000, 0.5000000000000000000 ) ) ;
#313 = LINE ( 'NONE', #312, #173 ) ;
#314 = DIRECTION ( 'NONE',  ( 0.0000000000000000000, 1.000000000000000000, 0.0000000000000000000 ) ) ;
#315 = CARTESIAN_POINT ( 'NONE',  ( -35.00000000000000000, 0.0000000000000000000, 0.0000000000000000000 ) ) ;
#316 = LINE ( 'NONE', #315, #174 ) ;
#317 = CARTESIAN_POINT ( 'NONE',  ( -34.00000000000000000, -39.00000000000000000, 0.5000000000000000000 ) ) ;
#318 = DIRECTION ( 'NONE',  ( -1.000000000000000000, 0.0000000000000000000, 0.0000000000000000000 ) ) ;
#319 = DIRECTION ( 'NONE',  ( -0.0000000000000000000, -0.0000000000000000000, 1.000000000000000000 ) ) ;
#320 = CARTESIAN_POINT ( 'NONE',  ( 34.00000000000000000, 39.00000000000000000, 0.5000000000000000000 ) ) ;
#321 = DIRECTION ( 'NONE',  ( -0.0000000000000000000, -0.0000000000000000000, 1.000000000000000000 ) ) ;
#322 = CARTESIAN_POINT ( 'NONE',  ( 34.00000000000000000, 39.00000000000000000, 0.0000000000000000000 ) ) ;
#323 = DIRECTION ( 'NONE',  ( 0.0000000000000000000, 0.0000000000000000000, 1.000000000000000000 ) ) ;
#324 = CARTESIAN_POINT ( 'NONE',  ( 34.00000000000000000, 40.00000000000000000, 0.2500000000000000000 ) ) ;
#325 = LINE ( 'NONE', #324, #176 ) ;
#326 = DIRECTION ( 'NONE',  ( 0.0000000000000000000, 0.0000000000000000000, -1.000000000000000000 ) ) ;
#327 = DIRECTION ( 'NONE',  ( 1.000000000000000000, -0.0000000000000000000, 0.0000000000000000000 ) ) ;
#328 = CARTESIAN_POINT ( 'NONE',  ( -35.00000000000000000, -39.00000000000000000, 0.5000000000000000000 ) ) ;
#329 = DIRECTION ( 'NONE',  ( -0.0000000000000000000, -0.0000000000000000000, -1.000000000000000000 ) ) ;
#330 = CARTESIAN_POINT ( 'NONE',  ( 34.00000000000000000, -40.00000000000000000, 0.2500000000000000000 ) ) ;
#331 = PLANE ( 'NONE',  #183 ) ;
#332 = DIRECTION ( 'NONE',  ( -1.000000000000000000, 0.0000000000000000000, 0.0000000000000000000 ) ) ;
#333 = DIRECTION ( 'NONE',  ( -0.0000000000000000000, -0.0000000000000000000, 1.000000000000000000 ) ) ;
#334 = CARTESIAN_POINT ( 'NONE',  ( 34.00000000000000000, -39.00000000000000000, 0.0000000000000000000 ) ) ;
#335 = CARTESIAN_POINT ( 'NONE',  ( -35.00000000000000000, 0.0000000000000000000, 0.5000000000000000000 ) ) ;
#336 = LINE ( 'NONE', #330, #177 ) ;
#337 = DIRECTION ( 'NONE',  ( -1.000000000000000000, 0.0000000000000000000, 0.0000000000000000000 ) ) ;
#338 = LINE ( 'NONE', #347, #152 ) ;
#339 = DIRECTION ( 'NONE',  ( -1.000000000000000000, 0.0000000000000000000, 0.0000000000000000000 ) ) ;
#340 = DIRECTION ( 'NONE',  ( 0.0000000000000000000, 1.000000000000000000, -0.0000000000000000000 ) ) ;
#341 = CARTESIAN_POINT ( 'NONE',  ( 34.00000000000000000, -40.00000000000000000, 0.0000000000000000000 ) ) ;
#342 = DIRECTION ( 'NONE',  ( -1.000000000000000000, -0.0000000000000000000, -0.0000000000000000000 ) ) ;
#343 = DIRECTION ( 'NONE',  ( -1.000000000000000000, 0.0000000000000000000, 0.0000000000000000000 ) ) ;
#344 = PLANE ( 'NONE',  #185 ) ;
#345 = DIRECTION ( 'NONE',  ( -0.0000000000000000000, -0.0000000000000000000, 1.000000000000000000 ) ) ;
#346 = DIRECTION ( 'NONE',  ( -1.000000000000000000, -0.0000000000000000000, -0.0000000000000000000 ) ) ;
#347 = CARTESIAN_POINT ( 'NONE',  ( 0.0000000000000000000, 40.00000000000000000, 0.0000000000000000000 ) ) ;
#348 = CARTESIAN_POINT ( 'NONE',  ( -34.00000000000000000, -39.00000000000000000, 0.5000000000000000000 ) ) ;
#349 = DIRECTION ( 'NONE',  ( 0.0000000000000000000, 0.0000000000000000000, -1.000000000000000000 ) ) ;
#350 = DIRECTION ( 'NONE',  ( -1.000000000000000000, 0.0000000000000000000, 0.0000000000000000000 ) ) ;
#351 = CARTESIAN_POINT ( 'NONE',  ( -34.00000000000000000, 39.00000000000000000, 0.5000000000000000000 ) ) ;
#352 = DIRECTION ( 'NONE',  ( 0.0000000000000000000, 0.0000000000000000000, -1.000000000000000000 ) ) ;
#353 = DIRECTION ( 'NONE',  ( -1.000000000000000000, 0.0000000000000000000, 0.0000000000000000000 ) ) ;
#354 = CARTESIAN_POINT ( 'NONE',  ( -34.00000000000000000, 40.00000000000000000, 0.0000000000000000000 ) ) ;
#355 = DIRECTION ( 'NONE',  ( 0.0000000000000000000, -1.000000000000000000, 0.0000000000000000000 ) ) ;
#356 = DIRECTION ( 'NONE',  ( 1.000000000000000000, 0.0000000000000000000, 0.0000000000000000000 ) ) ;
#357 = PLANE ( 'NONE',  #195 ) ;
#358 = DIRECTION ( 'NONE',  ( -1.000000000000000000, 0.0000000000000000000, 0.0000000000000000000 ) ) ;
#359 = DIRECTION ( 'NONE',  ( 0.0000000000000000000, 0.0000000000000000000, -1.000000000000000000 ) ) ;
#360 = CARTESIAN_POINT ( 'NONE',  ( 34.00000000000000000, 39.00000000000000000, 0.5000000000000000000 ) ) ;
#361 = DIRECTION ( 'NONE',  ( -1.000000000000000000, 0.0000000000000000000, 0.0000000000000000000 ) ) ;
#362 = DIRECTION ( 'NONE',  ( 0.0000000000000000000, 0.0000000000000000000, -1.000000000000000000 ) ) ;
#363 = CARTESIAN_POINT ( 'NONE',  ( 34.00000000000000000, -39.00000000000000000, 0.5000000000000000000 ) ) ;
#364 = DIRECTION ( 'NONE',  ( 0.0000000000000000000, 0.0000000000000000000, 1.000000000000000000 ) ) ;
#365 = DIRECTION ( 'NONE',  ( -1.000000000000000000, 0.0000000000000000000, 0.0000000000000000000 ) ) ;
#366 = CARTESIAN_POINT ( 'NONE',  ( 35.00000000000000000, -39.00000000000000000, 0.0000000000000000000 ) ) ;
#367 = PLANE ( 'NONE',  #204 ) ;
#368 = DIRECTION ( 'NONE',  ( 1.000000000000000000, 0.0000000000000000000, 0.0000000000000000000 ) ) ;
#369 = DIRECTION ( 'NONE',  ( 0.0000000000000000000, 0.0000000000000000000, 1.000000000000000000 ) ) ;
#370 = CARTESIAN_POINT ( 'NONE',  ( -35.00000000000000000, -40.00000000000000000, 0.5000000000000000000 ) ) ;
#371 = PLANE ( 'NONE',  #186 ) ;
#372 = DIRECTION ( 'NONE',  ( 1.000000000000000000, 0.0000000000000000000, 0.0000000000000000000 ) ) ;
#373 = DIRECTION ( 'NONE',  ( 0.0000000000000000000, 0.0000000000000000000, 1.000000000000000000 ) ) ;
#374 = CARTESIAN_POINT ( 'NONE',  ( -35.00000000000000000, -40.00000000000000000, 0.0000000000000000000 ) ) ;
#375 = PERSON ( 'UNSPECIFIED', 'UNSPECIFIED', 'UNSPECIFIED', ('UNSPECIFIED'), ('UNSPECIFIED'), ('UNSPECIFIED') ) ;
#376 = ADVANCED_BREP_SHAPE_REPRESENTATION ( 'OUTSIDE-IAC-RS2', ( #210, #137 ), #35 ) ;
#377 = UNCERTAINTY_MEASURE_WITH_UNIT (LENGTH_MEASURE( 1.000000000000000100E-005 ), #251, 'distance_accuracy_value', 'NONE');
ENDSEC;
END-ISO-10303-21;
