  0
SECTION
  2
HEADER
  9
$ACADVER
  1
AC1015
  9
$ACADMAINTVER
 70
    13
  9
$DWGCODEPAGE
  3
ANSI_932
  9
$INSBASE
 10
0.0
 20
0.0
 30
0.0
  9
$EXTMIN
 10
-0.0276110892524457
 20
-0.0006537740625845
 30
-0.0000000000112498
  9
$EXTMAX
 10
210.024482431661
 20
297.0044886908847
 30
0.0000000000002956
  9
$LIMMIN
 10
-189.175
 20
-3.174999999999998
  9
$LIMMAX
 10
3.174999999999998
 20
291.2585876465
  9
$ORTHOMODE
 70
     0
  9
$REGENMODE
 70
     1
  9
$FILLMODE
 70
     1
  9
$QTEXTMODE
 70
     0
  9
$MIRRTEXT
 70
     0
  9
$LTSCALE
 40
1.0
  9
$ATTMODE
 70
     1
  9
$TEXTSIZE
 40
2.999994039499998
  9
$TRACEWID
 40
0.05
  9
$TEXTSTYLE
  7
STANDARD
  9
$CLAYER
  8
0
  9
$CELTYPE
  6
ByLayer
  9
$CECOLOR
 62
   256
  9
$CELTSCALE
 40
1.0
  9
$DISPSILH
 70
     0
  9
$DIMSCALE
 40
1.0
  9
$DIMASZ
 40
1.9727878465
  9
$DIMEXO
 40
2.539999961899999
  9
$DIMDLI
 40
0.38
  9
$DIMRND
 40
0.0
  9
$DIMDLE
 40
0.0
  9
$DIMEXE
 40
3.809999942799998
  9
$DIMTP
 40
0.0
  9
$DIMTM
 40
0.0
  9
$DIMTXT
 40
2.999994039499998
  9
$DIMCEN
 40
0.09
  9
$DIMTSZ
 40
0.0
  9
$DIMTOL
 70
     0
  9
$DIMLIM
 70
     0
  9
$DIMTIH
 70
     0
  9
$DIMTOH
 70
     1
  9
$DIMSE1
 70
     0
  9
$DIMSE2
 70
     0
  9
$DIMTAD
 70
     0
  9
$DIMZIN
 70
     0
  9
$DIMBLK
  1

  9
$DIMASO
 70
     1
  9
$DIMSHO
 70
     0
  9
$DIMPOST
  1

  9
$DIMAPOST
  1

  9
$DIMALT
 70
     0
  9
$DIMALTD
 70
     2
  9
$DIMALTF
 40
25.4
  9
$DIMLFAC
 40
1.0
  9
$DIMTOFL
 70
     0
  9
$DIMTVP
 40
0.0
  9
$DIMTIX
 70
     0
  9
$DIMSOXD
 70
     0
  9
$DIMSAH
 70
     0
  9
$DIMBLK1
  1

  9
$DIMBLK2
  1

  9
$DIMSTYLE
  2
Standard
  9
$DIMCLRD
 70
     0
  9
$DIMCLRE
 70
     0
  9
$DIMCLRT
 70
     0
  9
$DIMTFAC
 40
1.0
  9
$DIMGAP
 40
0.09
  9
$DIMJUST
 70
     0
  9
$DIMSD1
 70
     0
  9
$DIMSD2
 70
     0
  9
$DIMTOLJ
 70
     1
  9
$DIMTZIN
 70
     0
  9
$DIMALTZ
 70
     0
  9
$DIMALTTZ
 70
     0
  9
$DIMUPT
 70
     0
  9
$DIMDEC
 70
     4
  9
$DIMTDEC
 70
     4
  9
$DIMALTU
 70
     2
  9
$DIMALTTD
 70
     2
  9
$DIMTXSTY
  7
STANDARD
  9
$DIMAUNIT
 70
     0
  9
$DIMADEC
 70
     0
  9
$DIMALTRND
 40
0.0
  9
$DIMAZIN
 70
     0
  9
$DIMDSEP
 70
    46
  9
$DIMATFIT
 70
     3
  9
$DIMFRAC
 70
     0
  9
$DIMLDRBLK
  1

  9
$DIMLUNIT
 70
     2
  9
$DIMLWD
 70
    -2
  9
$DIMLWE
 70
    -2
  9
$DIMTMOVE
 70
     0
  9
$LUNITS
 70
     2
  9
$LUPREC
 70
     3
  9
$SKETCHINC
 40
0.1
  9
$FILLETRAD
 40
0.0625
  9
$AUNITS
 70
     0
  9
$AUPREC
 70
     0
  9
$MENU
  1
ACAD
  9
$ELEVATION
 40
0.0
  9
$PELEVATION
 40
0.0
  9
$THICKNESS
 40
0.0
  9
$LIMCHECK
 70
     0
  9
$CHAMFERA
 40
0.0
  9
$CHAMFERB
 40
0.0
  9
$CHAMFERC
 40
0.0
  9
$CHAMFERD
 40
0.0
  9
$SKPOLY
 70
     0
  9
$TDCREATE
 40
2452522.692534722
  9
$TDUCREATE
 40
2452522.317534722
  9
$TDUPDATE
 40
2453353.721495220
  9
$TDUUPDATE
 40
2453353.346495219
  9
$TDINDWG
 40
0.0023589468
  9
$TDUSRTIMER
 40
0.0023587616
  9
$USRTIMER
 70
     1
  9
$ANGBASE
 50
0.0
  9
$ANGDIR
 70
     0
  9
$PDMODE
 70
     0
  9
$PDSIZE
 40
0.0
  9
$PLINEWID
 40
0.0
  9
$SPLFRAME
 70
     0
  9
$SPLINETYPE
 70
     6
  9
$SPLINESEGS
 70
     8
  9
$HANDSEED
  5
8D3
  9
$SURFTAB1
 70
     6
  9
$SURFTAB2
 70
     6
  9
$SURFTYPE
 70
     6
  9
$SURFU
 70
     6
  9
$SURFV
 70
     6
  9
$UCSBASE
  2

  9
$UCSNAME
  2

  9
$UCSORG
 10
0.0
 20
0.0
 30
0.0
  9
$UCSXDIR
 10
1.0
 20
0.0
 30
0.0
  9
$UCSYDIR
 10
0.0
 20
1.0
 30
0.0
  9
$UCSORTHOREF
  2

  9
$UCSORTHOVIEW
 70
     0
  9
$UCSORGTOP
 10
0.0
 20
0.0
 30
0.0
  9
$UCSORGBOTTOM
 10
0.0
 20
0.0
 30
0.0
  9
$UCSORGLEFT
 10
0.0
 20
0.0
 30
0.0
  9
$UCSORGRIGHT
 10
0.0
 20
0.0
 30
0.0
  9
$UCSORGFRONT
 10
0.0
 20
0.0
 30
0.0
  9
$UCSORGBACK
 10
0.0
 20
0.0
 30
0.0
  9
$PUCSBASE
  2

  9
$PUCSNAME
  2

  9
$PUCSORG
 10
0.0
 20
0.0
 30
0.0
  9
$PUCSXDIR
 10
1.0
 20
0.0
 30
0.0
  9
$PUCSYDIR
 10
0.0
 20
1.0
 30
0.0
  9
$PUCSORTHOREF
  2

  9
$PUCSORTHOVIEW
 70
     0
  9
$PUCSORGTOP
 10
0.0
 20
0.0
 30
0.0
  9
$PUCSORGBOTTOM
 10
0.0
 20
0.0
 30
0.0
  9
$PUCSORGLEFT
 10
0.0
 20
0.0
 30
0.0
  9
$PUCSORGRIGHT
 10
0.0
 20
0.0
 30
0.0
  9
$PUCSORGFRONT
 10
0.0
 20
0.0
 30
0.0
  9
$PUCSORGBACK
 10
0.0
 20
0.0
 30
0.0
  9
$USERI1
 70
     8
  9
$USERI2
 70
     0
  9
$USERI3
 70
     0
  9
$USERI4
 70
     0
  9
$USERI5
 70
     0
  9
$USERR1
 40
0.0
  9
$USERR2
 40
0.0
  9
$USERR3
 40
0.0
  9
$USERR4
 40
0.0
  9
$USERR5
 40
0.0
  9
$WORLDVIEW
 70
     1
  9
$SHADEDGE
 70
     3
  9
$SHADEDIF
 70
    70
  9
$TILEMODE
 70
     1
  9
$MAXACTVP
 70
    64
  9
$PINSBASE
 10
0.0
 20
0.0
 30
0.0
  9
$PLIMCHECK
 70
     0
  9
$PEXTMIN
 10
1.000000000000000E+20
 20
1.000000000000000E+20
 30
1.000000000000000E+20
  9
$PEXTMAX
 10
-1.000000000000000E+20
 20
-1.000000000000000E+20
 30
-1.000000000000000E+20
  9
$PLIMMIN
 10
0.0
 20
0.0
  9
$PLIMMAX
 10
12.0
 20
9.0
  9
$UNITMODE
 70
     0
  9
$VISRETAIN
 70
     1
  9
$PLINEGEN
 70
     0
  9
$PSLTSCALE
 70
     1
  9
$TREEDEPTH
 70
  3020
  9
$CMLSTYLE
  2
Standard
  9
$CMLJUST
 70
     0
  9
$CMLSCALE
 40
1.0
  9
$PROXYGRAPHICS
 70
     1
  9
$MEASUREMENT
 70
     0
  9
$CELWEIGHT
370
    -1
  9
$ENDCAPS
280
     0
  9
$JOINSTYLE
280
     0
  9
$LWDISPLAY
290
     0
  9
$INSUNITS
 70
     0
  9
$HYPERLINKBASE
  1

  9
$STYLESHEET
  1

  9
$XEDIT
290
     1
  9
$CEPSNTYPE
380
     0
  9
$PSTYLEMODE
290
     1
  9
$FINGERPRINTGUID
  2
{CB971A19-9ED6-470F-BE9B-C6074E84AF18}
  9
$VERSIONGUID
  2
{4F84BAD4-E4B1-4FE3-85D5-DCB8744B44B1}
  9
$EXTNAMES
290
     1
  9
$PSVPSCALE
 40
0.0
  9
$OLESTARTUP
290
     0
  0
ENDSEC
  0
SECTION
  2
CLASSES
  0
CLASS
  1
ACDBDICTIONARYWDFLT
  2
AcDbDictionaryWithDefault
  3
AutoCAD 2000
 90
        0
280
     0
281
     0
  0
CLASS
  1
ACDBPLACEHOLDER
  2
AcDbPlaceHolder
  3
AutoCAD 2000
 90
        0
280
     0
281
     0
  0
CLASS
  1
LAYOUT
  2
AcDbLayout
  3
AutoCAD 2000
 90
        0
280
     0
281
     0
  0
CLASS
  1
DICTIONARYVAR
  2
AcDbDictionaryVar
  3
AutoCAD 2000
 90
        0
280
     0
281
     0
  0
ENDSEC
  0
SECTION
  2
TABLES
  0
TABLE
  2
VPORT
  5
8
330
0
100
AcDbSymbolTable
 70
     2
  0
VPORT
  5
8D2
330
8
100
AcDbSymbolTableRecord
100
AcDbViewportTableRecord
  2
*Active
 70
     0
 10
0.0
 20
0.0
 11
1.0
 21
1.0
 12
104.9984356712042
 22
148.501917458411
 13
0.0
 23
0.0
 14
1.0
 24
1.0
 15
0.0
 25
0.0
 16
0.0
 26
0.0
 36
1.0
 17
0.0
 27
0.0
 37
0.0
 40
301.0007273411573
 41
2.253932584269663
 42
50.0
 43
0.0
 44
0.0
 50
0.0
 51
0.0
 71
     0
 72
   100
 73
     1
 74
     1
 75
     0
 76
     0
 77
     0
 78
     0
281
     0
 65
     1
110
0.0
120
0.0
130
0.0
111
1.0
121
0.0
131
0.0
112
0.0
122
1.0
132
0.0
 79
     0
146
0.0
  0
ENDTAB
  0
TABLE
  2
LTYPE
  5
5
330
0
100
AcDbSymbolTable
 70
     2
  0
LTYPE
  5
13
330
5
100
AcDbSymbolTableRecord
100
AcDbLinetypeTableRecord
  2
ByBlock
 70
     0
  3

 72
    65
 73
     0
 40
0.0
  0
LTYPE
  5
14
330
5
100
AcDbSymbolTableRecord
100
AcDbLinetypeTableRecord
  2
ByLayer
 70
     0
  3

 72
    65
 73
     0
 40
0.0
  0
LTYPE
  5
15
330
5
100
AcDbSymbolTableRecord
100
AcDbLinetypeTableRecord
  2
Continuous
 70
     0
  3
Solid line
 72
    65
 73
     0
 40
0.0
  0
LTYPE
  5
24
330
5
100
AcDbSymbolTableRecord
100
AcDbLinetypeTableRecord
  2
CENTER
 70
     0
  3
Center
 72
    65
 73
     4
 40
9.100006759199999
 49
6.5000119209
 74
     0
 49
-0.7999984026000001
 74
     0
 49
0.9999980329999999
 74
     0
 49
-0.7999984026000001
 74
     0
  0
ENDTAB
  0
TABLE
  2
LAYER
  5
2
330
0
100
AcDbSymbolTable
 70
     1
  0
LAYER
  5
10
330
2
100
AcDbSymbolTableRecord
100
AcDbLayerTableRecord
  2
0
 70
     0
 62
     7
  6
Continuous
370
    -3
390
F
  0
ENDTAB
  0
TABLE
  2
STYLE
  5
3
330
0
100
AcDbSymbolTable
 70
     1
  0
STYLE
  5
11
330
3
100
AcDbSymbolTableRecord
100
AcDbTextStyleTableRecord
  2
STANDARD
 70
     0
 40
0.0
 41
1.0
 50
0.0
 71
     0
 42
2.999994039499998
  3
romans.shx
  4
bigfont.shx
  0
ENDTAB
  0
TABLE
  2
VIEW
  5
6
330
0
100
AcDbSymbolTable
 70
     0
  0
ENDTAB
  0
TABLE
  2
UCS
  5
7
330
0
100
AcDbSymbolTable
 70
     0
  0
ENDTAB
  0
TABLE
  2
APPID
  5
9
330
0
100
AcDbSymbolTable
 70
     1
  0
APPID
  5
12
330
9
100
AcDbSymbolTableRecord
100
AcDbRegAppTableRecord
  2
ACAD
 70
     0
  0
ENDTAB
  0
TABLE
  2
DIMSTYLE
  5
A
330
0
100
AcDbSymbolTable
 70
     1
100
AcDbDimStyleTable
 71
     0
  0
DIMSTYLE
105
8A8
330
A
100
AcDbSymbolTableRecord
100
AcDbDimStyleTableRecord
  2
Standard
 70
     0
340
11
  0
ENDTAB
  0
TABLE
  2
BLOCK_RECORD
  5
1
330
0
100
AcDbSymbolTable
 70
     1
  0
BLOCK_RECORD
  5
1E
330
1
100
AcDbSymbolTableRecord
100
AcDbBlockTableRecord
  2
*Model_Space
340
21
  0
BLOCK_RECORD
  5
1A
330
1
100
AcDbSymbolTableRecord
100
AcDbBlockTableRecord
  2
*Paper_Space
340
1D
  0
ENDTAB
  0
ENDSEC
  0
SECTION
  2
BLOCKS
  0
BLOCK
  5
1F
330
1E
100
AcDbEntity
  8
0
100
AcDbBlockBegin
  2
*Model_Space
 70
     0
 10
0.0
 20
0.0
 30
0.0
  3
*Model_Space
  1

  0
ENDBLK
  5
20
330
1E
100
AcDbEntity
  8
0
100
AcDbBlockEnd
  0
BLOCK
  5
1B
330
1A
100
AcDbEntity
 67
     1
  8
0
100
AcDbBlockBegin
  2
*Paper_Space
 70
     0
 10
0.0
 20
0.0
 30
0.0
  3
*Paper_Space
  1

  0
ENDBLK
  5
1C
330
1A
100
AcDbEntity
 67
     1
  8
0
100
AcDbBlockEnd
  0
ENDSEC
  0
SECTION
  2
ENTITIES
  0
LINE
  5
F8
330
1E
100
AcDbEntity
  8
0
 62
     3
100
AcDbLine
 10
148.4168758028999
 20
220.2658777946
 30
0.0
 11
149.4168769487998
 21
221.2658788561999
 31
0.0
  0
LINE
  5
F9
330
1E
100
AcDbEntity
  8
0
 62
     3
100
AcDbLine
 10
79.78356415469995
 20
198.2158508300998
 30
0.0
 11
80.28356415469998
 21
198.2158508300998
 31
0.0
  0
LINE
  5
FA
330
1E
100
AcDbEntity
  8
0
 62
     3
100
AcDbLine
 10
79.78356415469995
 20
200.2158508301
 30
0.0
 11
80.28356415469998
 21
200.2158508301
 31
0.0
  0
LINE
  5
FB
330
1E
100
AcDbEntity
  8
0
 62
     3
100
AcDbLine
 10
79.78356415469995
 20
197.2158508300998
 30
0.0
 11
80.28356415469998
 21
197.2158508300998
 31
0.0
  0
LINE
  5
FC
330
1E
100
AcDbEntity
  8
0
 62
     3
100
AcDbLine
 10
79.78356415469995
 20
196.7158508300999
 30
0.0
 11
80.28356415469998
 21
196.7158508300999
 31
0.0
  0
LINE
  5
FD
330
1E
100
AcDbEntity
  8
0
 62
     3
100
AcDbLine
 10
79.78356415469995
 20
201.7158508300998
 30
0.0
 11
80.28356415469998
 21
201.7158508300998
 31
0.0
  0
LINE
  5
FE
330
1E
100
AcDbEntity
  8
0
 62
     3
100
AcDbLine
 10
84.48357636169999
 20
201.7158508300998
 30
0.0
 11
84.48357636169999
 21
196.7158508300999
 31
0.0
  0
LINE
  5
FF
330
1E
100
AcDbEntity
  8
0
 62
     3
100
AcDbLine
 10
84.98357636169998
 20
201.7158508300998
 30
0.0
 11
84.98357636169998
 21
196.7158508300999
 31
0.0
  0
LINE
  5
100
330
1E
100
AcDbEntity
  8
0
 62
     3
100
AcDbLine
 10
84.48357636169999
 20
199.2158508300999
 30
0.0
 11
84.98357636169998
 21
199.2158508300999
 31
0.0
  0
LINE
  5
101
330
1E
100
AcDbEntity
  8
0
 62
     3
100
AcDbLine
 10
79.78356415469995
 20
201.2158508300998
 30
0.0
 11
80.28356415469998
 21
201.2158508300998
 31
0.0
  0
LINE
  5
102
330
1E
100
AcDbEntity
  8
0
 62
     3
100
AcDbLine
 10
84.48357636169999
 20
198.2158508300998
 30
0.0
 11
84.98357636169998
 21
198.2158508300998
 31
0.0
  0
LINE
  5
103
330
1E
100
AcDbEntity
  8
0
 62
     3
100
AcDbLine
 10
84.48357636169999
 20
197.2158508300998
 30
0.0
 11
84.98357636169998
 21
197.2158508300998
 31
0.0
  0
LINE
  5
104
330
1E
100
AcDbEntity
  8
0
 62
     3
100
AcDbLine
 10
84.48357636169999
 20
201.2158508300998
 30
0.0
 11
84.98357636169998
 21
201.2158508300998
 31
0.0
  0
LINE
  5
105
330
1E
100
AcDbEntity
  8
0
 62
     3
100
AcDbLine
 10
84.48357636169999
 20
196.7158508300999
 30
0.0
 11
84.98357636169998
 21
196.7158508300999
 31
0.0
  0
LINE
  5
106
330
1E
100
AcDbEntity
  8
0
 62
     3
100
AcDbLine
 10
84.48357636169999
 20
201.7158508300998
 30
0.0
 11
84.98357636169998
 21
201.7158508300998
 31
0.0
  0
LINE
  5
107
330
1E
100
AcDbEntity
  8
0
 62
     3
100
AcDbLine
 10
84.48357636169999
 20
171.7158508300999
 30
0.0
 11
84.98357636169998
 21
171.7158508300999
 31
0.0
  0
LINE
  5
108
330
1E
100
AcDbEntity
  8
0
 62
     3
100
AcDbLine
 10
84.48357636169999
 20
200.2158508301
 30
0.0
 11
84.98357636169998
 21
200.2158508301
 31
0.0
  0
LINE
  5
109
330
1E
100
AcDbEntity
  8
0
 62
     3
100
AcDbLine
 10
73.88357025819998
 20
171.7158508300999
 30
0.0
 11
73.88357025819998
 21
166.7158508300999
 31
0.0
  0
LINE
  5
10A
330
1E
100
AcDbEntity
  8
0
 62
     3
100
AcDbLine
 10
73.88357025819998
 20
169.2158508300998
 30
0.0
 11
74.3835702582
 21
169.2158508300998
 31
0.0
  0
LINE
  5
10B
330
1E
100
AcDbEntity
  8
0
 62
     3
100
AcDbLine
 10
73.88357025819998
 20
168.2158508300998
 30
0.0
 11
74.3835702582
 21
168.2158508300998
 31
0.0
  0
LINE
  5
10C
330
1E
100
AcDbEntity
  8
0
 62
     3
100
AcDbLine
 10
73.88357025819998
 20
170.2158508300998
 30
0.0
 11
74.3835702582
 21
170.2158508300998
 31
0.0
  0
LINE
  5
10D
330
1E
100
AcDbEntity
  8
0
 62
     3
100
AcDbLine
 10
73.88357025819998
 20
167.2158508300999
 30
0.0
 11
74.3835702582
 21
167.2158508300999
 31
0.0
  0
LINE
  5
10E
330
1E
100
AcDbEntity
  8
0
 62
     3
100
AcDbLine
 10
74.3835702582
 20
171.7158508300999
 30
0.0
 11
74.3835702582
 21
166.7158508300999
 31
0.0
  0
LINE
  5
10F
330
1E
100
AcDbEntity
  8
0
 62
     3
100
AcDbLine
 10
73.88357025819998
 20
171.2158508300998
 30
0.0
 11
74.3835702582
 21
171.2158508300998
 31
0.0
  0
LINE
  5
110
330
1E
100
AcDbEntity
  8
0
 62
     3
100
AcDbLine
 10
73.88357025819998
 20
171.7158508300999
 30
0.0
 11
74.3835702582
 21
171.7158508300999
 31
0.0
  0
LINE
  5
111
330
1E
100
AcDbEntity
  8
0
 62
     3
100
AcDbLine
 10
79.78356415469995
 20
171.7158508300999
 30
0.0
 11
79.78356415469995
 21
166.7158508300999
 31
0.0
  0
LINE
  5
112
330
1E
100
AcDbEntity
  8
0
 62
     3
100
AcDbLine
 10
80.28356415469998
 20
171.7158508300999
 30
0.0
 11
80.28356415469998
 21
166.7158508300999
 31
0.0
  0
LINE
  5
113
330
1E
100
AcDbEntity
  8
0
 62
     3
100
AcDbLine
 10
79.78356415469995
 20
169.2158508300998
 30
0.0
 11
80.28356415469998
 21
169.2158508300998
 31
0.0
  0
LINE
  5
114
330
1E
100
AcDbEntity
  8
0
 62
     3
100
AcDbLine
 10
73.88357025819998
 20
166.7158508300999
 30
0.0
 11
74.3835702582
 21
166.7158508300999
 31
0.0
  0
LINE
  5
115
330
1E
100
AcDbEntity
  8
0
 62
     3
100
AcDbLine
 10
79.78356415469995
 20
168.2158508300998
 30
0.0
 11
80.28356415469998
 21
168.2158508300998
 31
0.0
  0
LINE
  5
116
330
1E
100
AcDbEntity
  8
0
 62
     3
100
AcDbLine
 10
79.78356415469995
 20
167.2158508300999
 30
0.0
 11
80.28356415469998
 21
167.2158508300999
 31
0.0
  0
LINE
  5
117
330
1E
100
AcDbEntity
  8
0
 62
     3
100
AcDbLine
 10
79.78356415469995
 20
171.2158508300998
 30
0.0
 11
80.28356415469998
 21
171.2158508300998
 31
0.0
  0
LINE
  5
118
330
1E
100
AcDbEntity
  8
0
 62
     3
100
AcDbLine
 10
79.78356415469995
 20
166.7158508300999
 30
0.0
 11
80.28356415469998
 21
166.7158508300999
 31
0.0
  0
LINE
  5
119
330
1E
100
AcDbEntity
  8
0
 62
     3
100
AcDbLine
 10
79.78356415469995
 20
171.7158508300999
 30
0.0
 11
80.28356415469998
 21
171.7158508300999
 31
0.0
  0
LINE
  5
11A
330
1E
100
AcDbEntity
  8
0
 62
     3
100
AcDbLine
 10
79.78356415469995
 20
170.2158508300998
 30
0.0
 11
80.28356415469998
 21
170.2158508300998
 31
0.0
  0
LINE
  5
11B
330
1E
100
AcDbEntity
  8
0
 62
     3
100
AcDbLine
 10
84.48357636169999
 20
171.7158508300999
 30
0.0
 11
84.48357636169999
 21
166.7158508300999
 31
0.0
  0
LINE
  5
11C
330
1E
100
AcDbEntity
  8
0
 62
     3
100
AcDbLine
 10
84.48357636169999
 20
169.2158508300998
 30
0.0
 11
84.98357636169998
 21
169.2158508300998
 31
0.0
  0
LINE
  5
11D
330
1E
100
AcDbEntity
  8
0
 62
     3
100
AcDbLine
 10
84.48357636169999
 20
168.2158508300998
 30
0.0
 11
84.98357636169998
 21
168.2158508300998
 31
0.0
  0
LINE
  5
11E
330
1E
100
AcDbEntity
  8
0
 62
     3
100
AcDbLine
 10
84.48357636169999
 20
170.2158508300998
 30
0.0
 11
84.98357636169998
 21
170.2158508300998
 31
0.0
  0
LINE
  5
11F
330
1E
100
AcDbEntity
  8
0
 62
     3
100
AcDbLine
 10
84.48357636169999
 20
167.2158508300999
 30
0.0
 11
84.98357636169998
 21
167.2158508300999
 31
0.0
  0
LINE
  5
120
330
1E
100
AcDbEntity
  8
0
 62
     3
100
AcDbLine
 10
84.48357636169999
 20
171.2158508300998
 30
0.0
 11
84.98357636169998
 21
171.2158508300998
 31
0.0
  0
LINE
  5
121
330
1E
100
AcDbEntity
  8
0
 62
     3
100
AcDbLine
 10
84.98357636169998
 20
171.7158508300999
 30
0.0
 11
84.98357636169998
 21
166.7158508300999
 31
0.0
  0
LINE
  5
122
330
1E
100
AcDbEntity
  8
0
 62
     3
100
AcDbLine
 10
84.48357636169999
 20
166.7158508300999
 30
0.0
 11
84.98357636169998
 21
166.7158508300999
 31
0.0
  0
LINE
  5
123
330
1E
100
AcDbEntity
  8
0
 62
     3
100
AcDbLine
 10
73.88357025819998
 20
181.7158508300998
 30
0.0
 11
73.88357025819998
 21
176.7158508300999
 31
0.0
  0
LINE
  5
124
330
1E
100
AcDbEntity
  8
0
 62
     3
100
AcDbLine
 10
74.3835702582
 20
181.7158508300998
 30
0.0
 11
74.3835702582
 21
176.7158508300999
 31
0.0
  0
LINE
  5
125
330
1E
100
AcDbEntity
  8
0
 62
     3
100
AcDbLine
 10
73.88357025819998
 20
179.2158508300999
 30
0.0
 11
74.3835702582
 21
179.2158508300999
 31
0.0
  0
LINE
  5
126
330
1E
100
AcDbEntity
  8
0
 62
     3
100
AcDbLine
 10
73.88357025819998
 20
178.2158508300998
 30
0.0
 11
74.3835702582
 21
178.2158508300998
 31
0.0
  0
LINE
  5
127
330
1E
100
AcDbEntity
  8
0
 62
     3
100
AcDbLine
 10
84.48357636169999
 20
181.7158508300998
 30
0.0
 11
84.98357636169998
 21
181.7158508300998
 31
0.0
  0
LINE
  5
128
330
1E
100
AcDbEntity
  8
0
 62
     3
100
AcDbLine
 10
73.88357025819998
 20
180.2158508300998
 30
0.0
 11
74.3835702582
 21
180.2158508300998
 31
0.0
  0
LINE
  5
129
330
1E
100
AcDbEntity
  8
0
 62
     3
100
AcDbLine
 10
73.88357025819998
 20
181.2158508300998
 30
0.0
 11
74.3835702582
 21
181.2158508300998
 31
0.0
  0
LINE
  5
12A
330
1E
100
AcDbEntity
  8
0
 62
     3
100
AcDbLine
 10
73.88357025819998
 20
176.7158508300999
 30
0.0
 11
74.3835702582
 21
176.7158508300999
 31
0.0
  0
LINE
  5
12B
330
1E
100
AcDbEntity
  8
0
 62
     3
100
AcDbLine
 10
73.88357025819998
 20
181.7158508300998
 30
0.0
 11
74.3835702582
 21
181.7158508300998
 31
0.0
  0
LINE
  5
12C
330
1E
100
AcDbEntity
  8
0
 62
     3
100
AcDbLine
 10
79.78356415469995
 20
181.7158508300998
 30
0.0
 11
79.78356415469995
 21
176.7158508300999
 31
0.0
  0
LINE
  5
12D
330
1E
100
AcDbEntity
  8
0
 62
     3
100
AcDbLine
 10
73.88357025819998
 20
177.2158508300998
 30
0.0
 11
74.3835702582
 21
177.2158508300998
 31
0.0
  0
LINE
  5
12E
330
1E
100
AcDbEntity
  8
0
 62
     3
100
AcDbLine
 10
80.28356415469998
 20
181.7158508300998
 30
0.0
 11
80.28356415469998
 21
176.7158508300999
 31
0.0
  0
LINE
  5
12F
330
1E
100
AcDbEntity
  8
0
 62
     3
100
AcDbLine
 10
79.78356415469995
 20
178.2158508300998
 30
0.0
 11
80.28356415469998
 21
178.2158508300998
 31
0.0
  0
LINE
  5
130
330
1E
100
AcDbEntity
  8
0
 62
     3
100
AcDbLine
 10
79.78356415469995
 20
180.2158508300998
 30
0.0
 11
80.28356415469998
 21
180.2158508300998
 31
0.0
  0
LINE
  5
131
330
1E
100
AcDbEntity
  8
0
 62
     3
100
AcDbLine
 10
79.78356415469995
 20
177.2158508300998
 30
0.0
 11
80.28356415469998
 21
177.2158508300998
 31
0.0
  0
LINE
  5
132
330
1E
100
AcDbEntity
  8
0
 62
     3
100
AcDbLine
 10
79.78356415469995
 20
181.2158508300998
 30
0.0
 11
80.28356415469998
 21
181.2158508300998
 31
0.0
  0
LINE
  5
133
330
1E
100
AcDbEntity
  8
0
 62
     3
100
AcDbLine
 10
79.78356415469995
 20
176.7158508300999
 30
0.0
 11
80.28356415469998
 21
176.7158508300999
 31
0.0
  0
LINE
  5
134
330
1E
100
AcDbEntity
  8
0
 62
     3
100
AcDbLine
 10
79.78356415469995
 20
179.2158508300999
 30
0.0
 11
80.28356415469998
 21
179.2158508300999
 31
0.0
  0
LINE
  5
135
330
1E
100
AcDbEntity
  8
0
 62
     3
100
AcDbLine
 10
79.78356415469995
 20
181.7158508300998
 30
0.0
 11
80.28356415469998
 21
181.7158508300998
 31
0.0
  0
LINE
  5
136
330
1E
100
AcDbEntity
  8
0
 62
     3
100
AcDbLine
 10
84.98357636169998
 20
181.7158508300998
 30
0.0
 11
84.98357636169998
 21
176.7158508300999
 31
0.0
  0
LINE
  5
137
330
1E
100
AcDbEntity
  8
0
 62
     3
100
AcDbLine
 10
84.48357636169999
 20
179.2158508300999
 30
0.0
 11
84.98357636169998
 21
179.2158508300999
 31
0.0
  0
LINE
  5
138
330
1E
100
AcDbEntity
  8
0
 62
     3
100
AcDbLine
 10
84.48357636169999
 20
178.2158508300998
 30
0.0
 11
84.98357636169998
 21
178.2158508300998
 31
0.0
  0
LINE
  5
139
330
1E
100
AcDbEntity
  8
0
 62
     3
100
AcDbLine
 10
84.48357636169999
 20
180.2158508300998
 30
0.0
 11
84.98357636169998
 21
180.2158508300998
 31
0.0
  0
LINE
  5
13A
330
1E
100
AcDbEntity
  8
0
 62
     3
100
AcDbLine
 10
84.48357636169999
 20
181.7158508300998
 30
0.0
 11
84.48357636169999
 21
176.7158508300999
 31
0.0
  0
LINE
  5
13B
330
1E
100
AcDbEntity
  8
0
 62
     3
100
AcDbLine
 10
84.48357636169999
 20
177.2158508300998
 30
0.0
 11
84.98357636169998
 21
177.2158508300998
 31
0.0
  0
LINE
  5
13C
330
1E
100
AcDbEntity
  8
0
 62
     3
100
AcDbLine
 10
84.48357636169999
 20
176.7158508300999
 30
0.0
 11
84.98357636169998
 21
176.7158508300999
 31
0.0
  0
LINE
  5
13D
330
1E
100
AcDbEntity
  8
0
 62
     3
100
AcDbLine
 10
84.48357636169999
 20
191.7158508300999
 30
0.0
 11
84.98357636169998
 21
191.7158508300999
 31
0.0
  0
LINE
  5
13E
330
1E
100
AcDbEntity
  8
0
 62
     3
100
AcDbLine
 10
73.88357025819998
 20
191.7158508300999
 30
0.0
 11
73.88357025819998
 21
186.7158508300999
 31
0.0
  0
LINE
  5
13F
330
1E
100
AcDbEntity
  8
0
 62
     3
100
AcDbLine
 10
74.3835702582
 20
191.7158508300999
 30
0.0
 11
74.3835702582
 21
186.7158508300999
 31
0.0
  0
LINE
  5
140
330
1E
100
AcDbEntity
  8
0
 62
     3
100
AcDbLine
 10
73.88357025819998
 20
189.2158508300999
 30
0.0
 11
74.3835702582
 21
189.2158508300999
 31
0.0
  0
LINE
  5
141
330
1E
100
AcDbEntity
  8
0
 62
     3
100
AcDbLine
 10
84.48357636169999
 20
181.2158508300998
 30
0.0
 11
84.98357636169998
 21
181.2158508300998
 31
0.0
  0
LINE
  5
142
330
1E
100
AcDbEntity
  8
0
 62
     3
100
AcDbLine
 10
73.88357025819998
 20
188.2158508300999
 30
0.0
 11
74.3835702582
 21
188.2158508300999
 31
0.0
  0
LINE
  5
143
330
1E
100
AcDbEntity
  8
0
 62
     3
100
AcDbLine
 10
73.88357025819998
 20
187.2158508300999
 30
0.0
 11
74.3835702582
 21
187.2158508300999
 31
0.0
  0
LINE
  5
144
330
1E
100
AcDbEntity
  8
0
 62
     3
100
AcDbLine
 10
73.88357025819998
 20
191.2158508300999
 30
0.0
 11
74.3835702582
 21
191.2158508300999
 31
0.0
  0
LINE
  5
145
330
1E
100
AcDbEntity
  8
0
 62
     3
100
AcDbLine
 10
73.88357025819998
 20
186.7158508300999
 30
0.0
 11
74.3835702582
 21
186.7158508300999
 31
0.0
  0
LINE
  5
146
330
1E
100
AcDbEntity
  8
0
 62
     3
100
AcDbLine
 10
73.88357025819998
 20
191.7158508300999
 30
0.0
 11
74.3835702582
 21
191.7158508300999
 31
0.0
  0
LINE
  5
147
330
1E
100
AcDbEntity
  8
0
 62
     3
100
AcDbLine
 10
73.88357025819998
 20
190.2158508300999
 30
0.0
 11
74.3835702582
 21
190.2158508300999
 31
0.0
  0
LINE
  5
148
330
1E
100
AcDbEntity
  8
0
 62
     3
100
AcDbLine
 10
79.78356415469995
 20
191.7158508300999
 30
0.0
 11
79.78356415469995
 21
186.7158508300999
 31
0.0
  0
LINE
  5
149
330
1E
100
AcDbEntity
  8
0
 62
     3
100
AcDbLine
 10
80.28356415469998
 20
191.7158508300999
 30
0.0
 11
80.28356415469998
 21
186.7158508300999
 31
0.0
  0
LINE
  5
14A
330
1E
100
AcDbEntity
  8
0
 62
     3
100
AcDbLine
 10
79.78356415469995
 20
189.2158508300999
 30
0.0
 11
80.28356415469998
 21
189.2158508300999
 31
0.0
  0
LINE
  5
14B
330
1E
100
AcDbEntity
  8
0
 62
     3
100
AcDbLine
 10
79.78356415469995
 20
190.2158508300999
 30
0.0
 11
80.28356415469998
 21
190.2158508300999
 31
0.0
  0
LINE
  5
14C
330
1E
100
AcDbEntity
  8
0
 62
     3
100
AcDbLine
 10
79.78356415469995
 20
187.2158508300999
 30
0.0
 11
80.28356415469998
 21
187.2158508300999
 31
0.0
  0
LINE
  5
14D
330
1E
100
AcDbEntity
  8
0
 62
     3
100
AcDbLine
 10
79.78356415469995
 20
191.2158508300999
 30
0.0
 11
80.28356415469998
 21
191.2158508300999
 31
0.0
  0
LINE
  5
14E
330
1E
100
AcDbEntity
  8
0
 62
     3
100
AcDbLine
 10
79.78356415469995
 20
186.7158508300999
 30
0.0
 11
80.28356415469998
 21
186.7158508300999
 31
0.0
  0
LINE
  5
14F
330
1E
100
AcDbEntity
  8
0
 62
     3
100
AcDbLine
 10
79.78356415469995
 20
191.7158508300999
 30
0.0
 11
80.28356415469998
 21
191.7158508300999
 31
0.0
  0
LINE
  5
150
330
1E
100
AcDbEntity
  8
0
 62
     3
100
AcDbLine
 10
79.78356415469995
 20
188.2158508300999
 30
0.0
 11
80.28356415469998
 21
188.2158508300999
 31
0.0
  0
LINE
  5
151
330
1E
100
AcDbEntity
  8
0
 62
     3
100
AcDbLine
 10
60.93358856869997
 20
226.6658325195
 30
0.0
 11
88.43360382749997
 21
226.6658325195
 31
0.0
  0
LINE
  5
152
330
1E
100
AcDbEntity
  8
0
 62
     3
100
AcDbLine
 10
67.18358856869997
 20
238.3658447265999
 30
0.0
 11
82.18358856869997
 21
238.3658447265999
 31
0.0
  0
LINE
  5
153
330
1E
100
AcDbEntity
  8
0
 62
     3
100
AcDbLine
 10
67.18358856869997
 20
240.3658447265999
 30
0.0
 11
82.18358856869997
 21
240.3658447265999
 31
0.0
  0
LINE
  5
154
330
1E
100
AcDbEntity
  8
0
 62
     3
100
AcDbLine
 10
67.18358856869997
 20
240.3658447265999
 30
0.0
 11
67.18358856869997
 21
238.3658447265999
 31
0.0
  0
LINE
  5
155
330
1E
100
AcDbEntity
  8
0
 62
     3
100
AcDbLine
 10
82.18358856869997
 20
240.3658447265999
 30
0.0
 11
82.18358856869997
 21
238.3658447265999
 31
0.0
  0
LINE
  5
156
330
1E
100
AcDbEntity
  8
0
  6
CENTER
 62
     3
100
AcDbLine
 10
74.68358856869997
 20
265.265625
 30
0.0
 11
74.68358856869997
 21
215.2658233642998
 31
0.0
  0
LINE
  5
157
330
1E
100
AcDbEntity
  8
0
 62
     3
100
AcDbLine
 10
61.48137909609997
 20
260.2656249999999
 30
0.0
 11
87.88582855899997
 21
260.2656249999999
 31
0.0
  0
LINE
  5
158
330
1E
100
AcDbEntity
  8
0
 62
     3
100
AcDbLine
 10
61.18149236859998
 20
259.9678231606
 30
0.0
 11
60.9337097474
 21
226.6658325195
 31
0.0
  0
LINE
  5
159
330
1E
100
AcDbEntity
  8
0
 62
     3
100
AcDbLine
 10
88.18590080939998
 20
259.9678811083999
 30
0.0
 11
88.43368404139999
 21
226.6658083800999
 31
0.0
  0
LINE
  5
15A
330
1E
100
AcDbEntity
  8
0
 62
     3
100
AcDbLine
 10
61.86719563689999
 20
231.1658571933
 30
0.0
 11
61.83371351819999
 21
226.6658595808
 31
0.0
  0
LINE
  5
15B
330
1E
100
AcDbEntity
  8
0
 62
     3
100
AcDbLine
 10
87.5001371888
 20
231.1658231368
 30
0.0
 11
87.53361930759998
 21
226.6658255243
 31
0.0
  0
LINE
  5
15C
330
1E
100
AcDbEntity
  8
0
 62
     3
100
AcDbLine
 10
60.96709686949997
 20
231.1658325195
 30
0.0
 11
61.86712128359997
 21
231.1658325195
 31
0.0
  0
LINE
  5
15D
330
1E
100
AcDbEntity
  8
0
 62
     3
100
AcDbLine
 10
60.974512641
 20
232.1658325195
 30
0.0
 11
63.47460419369998
 21
232.1658325195
 31
0.0
  0
LINE
  5
15E
330
1E
100
AcDbEntity
  8
0
 62
     3
100
AcDbLine
 10
85.89261872009997
 20
232.1658325195
 30
0.0
 11
88.3926797552
 21
232.1658325195
 31
0.0
  0
LINE
  5
15F
330
1E
100
AcDbEntity
  8
0
 62
     3
100
AcDbLine
 10
87.50010163019998
 20
231.1658325195
 30
0.0
 11
88.40012604429999
 21
231.1658325195
 31
0.0
  0
LINE
  5
160
330
1E
100
AcDbEntity
  8
0
 62
     3
100
AcDbLine
 10
63.6837621165
 20
260.2656201008999
 30
0.0
 11
63.47468608469998
 21
232.1657960705
 31
0.0
  0
LINE
  5
161
330
1E
100
AcDbEntity
  8
0
 62
     3
100
AcDbLine
 10
85.68360054479999
 20
260.2656778216999
 30
0.0
 11
85.89267680369998
 21
232.1658232745
 31
0.0
  0
LINE
  5
162
330
1E
100
AcDbEntity
  8
0
 62
     3
100
AcDbLine
 10
61.86714691459997
 20
231.1657760656
 30
0.0
 11
63.4746357624
 21
232.165776771
 31
0.0
  0
LINE
  5
163
330
1E
100
AcDbEntity
  8
0
 62
     3
100
AcDbLine
 10
87.50015690789998
 20
231.1659273609
 30
0.0
 11
85.89266318159998
 21
232.1659329466
 31
0.0
  0
LINE
  5
164
330
1E
100
AcDbEntity
  8
0
 62
     3
100
AcDbLine
 10
72.18358856869997
 20
228.1658325195
 30
0.0
 11
77.18358856869997
 21
228.1658325195
 31
0.0
  0
LINE
  5
165
330
1E
100
AcDbEntity
  8
0
 62
     3
100
AcDbLine
 10
72.18358856869997
 20
230.1658325195
 30
0.0
 11
77.18358856869997
 21
230.1658325195
 31
0.0
  0
LINE
  5
166
330
1E
100
AcDbEntity
  8
0
 62
     3
100
AcDbLine
 10
77.18358856869997
 20
230.1658325195
 30
0.0
 11
77.18358856869997
 21
228.1658325195
 31
0.0
  0
LINE
  5
167
330
1E
100
AcDbEntity
  8
0
 62
     3
100
AcDbLine
 10
72.18358856869997
 20
230.1658325195
 30
0.0
 11
72.18358856869997
 21
228.1658325195
 31
0.0
  0
LINE
  5
168
330
1E
100
AcDbEntity
  8
0
 62
     3
100
AcDbLine
 10
61.98360687929996
 20
224.8658447266
 30
0.0
 11
87.38360077579997
 21
224.8658447266
 31
0.0
  0
LINE
  5
169
330
1E
100
AcDbEntity
  8
0
 62
     3
100
AcDbLine
 10
87.38360077579997
 20
226.6658325195
 30
0.0
 11
87.38360077579997
 21
224.8658447266
 31
0.0
  0
LINE
  5
16A
330
1E
100
AcDbEntity
  8
0
 62
     3
100
AcDbLine
 10
61.98360687929996
 20
226.6658325195
 30
0.0
 11
61.98360687929996
 21
224.8658447266
 31
0.0
  0
LINE
  5
16B
330
1E
100
AcDbEntity
  8
0
  6
CENTER
 62
     3
100
AcDbLine
 10
153.4169564885999
 20
265.265625
 30
0.0
 11
153.4169564885999
 21
215.2658233642998
 31
0.0
  0
LINE
  5
16C
330
1E
100
AcDbEntity
  8
0
 62
     3
100
AcDbLine
 10
132.9169564885999
 20
226.6658325195
 30
0.0
 11
173.9169564885998
 21
226.6658325195
 31
0.0
  0
LINE
  5
16D
330
1E
100
AcDbEntity
  8
0
 62
     3
100
AcDbLine
 10
173.9169325813999
 20
226.6658403875998
 30
0.0
 11
173.6691493493998
 21
259.9679131159999
 31
0.0
  0
LINE
  5
16E
330
1E
100
AcDbEntity
  8
0
 62
     3
100
AcDbLine
 10
173.3691812200999
 20
260.2656249999999
 30
0.0
 11
133.4647317571999
 21
260.2656249999999
 31
0.0
  0
LINE
  5
16F
330
1E
100
AcDbEntity
  8
0
 62
     3
100
AcDbLine
 10
133.1647644196999
 20
259.9678928109
 30
0.0
 11
132.9169814147998
 21
226.6658505993
 31
0.0
  0
LINE
  5
170
330
1E
100
AcDbEntity
  8
0
 62
     3
100
AcDbLine
 10
132.9504342717999
 20
231.1658325195
 30
0.0
 11
133.8504586858998
 21
231.1658325195
 31
0.0
  0
LINE
  5
171
330
1E
100
AcDbEntity
  8
0
 62
     3
100
AcDbLine
 10
132.9578805608998
 20
232.1658325195
 30
0.0
 11
135.4579415961
 21
232.1658325195
 31
0.0
  0
LINE
  5
172
330
1E
100
AcDbEntity
  8
0
 62
     3
100
AcDbLine
 10
133.8504972963999
 20
231.1658045495999
 30
0.0
 11
133.8169654517999
 21
226.6591237724
 31
0.0
  0
LINE
  5
173
330
1E
100
AcDbEntity
  8
0
 62
     3
100
AcDbLine
 10
173.0169788339999
 20
226.6591443045
 30
0.0
 11
172.9834467623
 21
231.1658555984
 31
0.0
  0
LINE
  5
174
330
1E
100
AcDbEntity
  8
0
 62
     3
100
AcDbLine
 10
171.3759408290998
 20
232.1658248788
 30
0.0
 11
171.1668643431998
 21
260.2657099428
 31
0.0
  0
LINE
  5
175
330
1E
100
AcDbEntity
  8
0
 62
     3
100
AcDbLine
 10
171.3759561224
 20
232.1658325195
 30
0.0
 11
173.8760324163999
 21
232.1658325195
 31
0.0
  0
LINE
  5
176
330
1E
100
AcDbEntity
  8
0
 62
     3
100
AcDbLine
 10
135.6670494258999
 20
260.2656896377
 30
0.0
 11
135.4579733940999
 21
232.1658656073
 31
0.0
  0
LINE
  5
177
330
1E
100
AcDbEntity
  8
0
 62
     3
100
AcDbLine
 10
135.4579715415999
 20
232.1657473593999
 30
0.0
 11
133.8504903202999
 21
231.1657507363999
 31
0.0
  0
LINE
  5
178
330
1E
100
AcDbEntity
  8
0
 62
     3
100
AcDbLine
 10
172.9834542914
 20
231.1658325195
 30
0.0
 11
173.8834787053998
 21
231.1658325195
 31
0.0
  0
LINE
  5
179
330
1E
100
AcDbEntity
  8
0
 62
     3
100
AcDbLine
 10
168.4168762983999
 20
220.2659201099999
 30
0.0
 11
169.4168882338999
 21
221.2659319611999
 31
0.0
  0
LINE
  5
17A
330
1E
100
AcDbEntity
  8
0
 62
     3
100
AcDbLine
 10
171.3759147064999
 20
232.1658062723999
 30
0.0
 11
172.9833959277998
 21
231.1658096493999
 31
0.0
  0
LINE
  5
17B
330
1E
100
AcDbEntity
  8
0
 62
     3
100
AcDbLine
 10
169.4169564885999
 20
224.3658447265999
 30
0.0
 11
169.4169564885999
 21
221.2658081054999
 31
0.0
  0
LINE
  5
17C
330
1E
100
AcDbEntity
  8
0
 62
     3
100
AcDbLine
 10
168.4169442319
 20
220.2658117774
 30
0.0
 11
167.4169431702999
 21
221.265812839
 31
0.0
  0
LINE
  5
17D
330
1E
100
AcDbEntity
  8
0
 62
     3
100
AcDbLine
 10
166.4169564885999
 20
224.3658447265999
 30
0.0
 11
167.4169564885999
 21
224.3658447265999
 31
0.0
  0
LINE
  5
17E
330
1E
100
AcDbEntity
  8
0
 62
     3
100
AcDbLine
 10
167.4169564885999
 20
224.3658447265999
 30
0.0
 11
167.4169564885999
 21
221.2658081054999
 31
0.0
  0
LINE
  5
17F
330
1E
100
AcDbEntity
  8
0
 62
     3
100
AcDbLine
 10
165.9169092091999
 20
224.8658037131999
 30
0.0
 11
166.4168989503999
 21
224.365813972
 31
0.0
  0
LINE
  5
180
330
1E
100
AcDbEntity
  8
0
 62
     3
100
AcDbLine
 10
170.9170031598999
 20
224.8657757511
 30
0.0
 11
170.4169842107999
 21
224.3657720595
 31
0.0
  0
LINE
  5
181
330
1E
100
AcDbEntity
  8
0
 62
     3
100
AcDbLine
 10
169.4169564885999
 20
224.3658447265999
 30
0.0
 11
170.4169412298998
 21
224.3658447265999
 31
0.0
  0
LINE
  5
182
330
1E
100
AcDbEntity
  8
0
 62
     3
100
AcDbLine
 10
64.3836774072
 20
224.8657066068999
 30
0.0
 11
64.88362399009997
 21
224.365760024
 31
0.0
  0
LINE
  5
183
330
1E
100
AcDbEntity
  8
0
 62
     3
100
AcDbLine
 10
64.88360077580001
 20
224.3658447265999
 30
0.0
 11
65.8836007758
 21
224.3658447265999
 31
0.0
  0
LINE
  5
184
330
1E
100
AcDbEntity
  8
0
 62
     3
100
AcDbLine
 10
65.8836007758
 20
224.3658447265999
 30
0.0
 11
65.8836007758
 21
221.2658081054999
 31
0.0
  0
LINE
  5
185
330
1E
100
AcDbEntity
  8
0
 62
     3
100
AcDbLine
 10
66.88369085079997
 20
220.2656499334998
 30
0.0
 11
65.88362505159998
 21
221.2657157327
 31
0.0
  0
LINE
  5
186
330
1E
100
AcDbEntity
  8
0
 62
     3
100
AcDbLine
 10
66.88354311079999
 20
220.2658596518
 30
0.0
 11
67.88354425669999
 21
221.2658607133
 31
0.0
  0
LINE
  5
187
330
1E
100
AcDbEntity
  8
0
 62
     3
100
AcDbLine
 10
67.88360077580001
 20
224.3658447265999
 30
0.0
 11
67.88360077580001
 21
221.2658081054999
 31
0.0
  0
LINE
  5
188
330
1E
100
AcDbEntity
  8
0
 62
     3
100
AcDbLine
 10
69.3837389642
 20
224.8656848422
 30
0.0
 11
68.88372001499999
 21
224.3656811505
 31
0.0
  0
LINE
  5
189
330
1E
100
AcDbEntity
  8
0
 62
     3
100
AcDbLine
 10
67.88360077580001
 20
224.3658447265999
 30
0.0
 11
68.88357025819999
 21
224.3658447265999
 31
0.0
  0
LINE
  5
18A
330
1E
100
AcDbEntity
  8
0
 62
     3
100
AcDbLine
 10
135.9169205198998
 20
224.8658037131999
 30
0.0
 11
136.4169318402
 21
224.3657923928
 31
0.0
  0
LINE
  5
18B
330
1E
100
AcDbEntity
  8
0
 62
     3
100
AcDbLine
 10
136.4169564885999
 20
224.3658447265999
 30
0.0
 11
137.4169564885999
 21
224.3658447265999
 31
0.0
  0
LINE
  5
18C
330
1E
100
AcDbEntity
  8
0
 62
     3
100
AcDbLine
 10
137.4169564885999
 20
224.3658447265999
 30
0.0
 11
137.4169564885999
 21
221.2658081054999
 31
0.0
  0
LINE
  5
18D
330
1E
100
AcDbEntity
  8
0
 62
     3
100
AcDbLine
 10
138.4169123841999
 20
220.265768619
 30
0.0
 11
137.4169113226999
 21
221.2657696806
 31
0.0
  0
LINE
  5
18E
330
1E
100
AcDbEntity
  8
0
 62
     3
100
AcDbLine
 10
138.4168539758998
 20
220.2658890056
 30
0.0
 11
139.4168551217999
 21
221.2658900672
 31
0.0
  0
LINE
  5
18F
330
1E
100
AcDbEntity
  8
0
 62
     3
100
AcDbLine
 10
139.4169564885999
 20
224.3658447265999
 30
0.0
 11
139.4169564885999
 21
221.2658081054999
 31
0.0
  0
LINE
  5
190
330
1E
100
AcDbEntity
  8
0
 62
     3
100
AcDbLine
 10
139.4169564885999
 20
224.3658447265999
 30
0.0
 11
140.4169412298998
 21
224.3658447265999
 31
0.0
  0
LINE
  5
191
330
1E
100
AcDbEntity
  8
0
 62
     3
100
AcDbLine
 10
140.9169928844999
 20
224.8657803031
 30
0.0
 11
140.4169847250998
 21
224.3657874009
 31
0.0
  0
LINE
  5
192
330
1E
100
AcDbEntity
  8
0
 62
     3
100
AcDbLine
 10
145.9169311357999
 20
224.8658037131999
 30
0.0
 11
146.416920877
 21
224.365813972
 31
0.0
  0
LINE
  5
193
330
1E
100
AcDbEntity
  8
0
 62
     3
100
AcDbLine
 10
146.4169564885999
 20
224.3658447265999
 30
0.0
 11
147.4169564885999
 21
224.3658447265999
 31
0.0
  0
LINE
  5
194
330
1E
100
AcDbEntity
  8
0
 62
     3
100
AcDbLine
 10
147.4169564885999
 20
224.3658447265999
 30
0.0
 11
147.4169564885999
 21
221.2658081054999
 31
0.0
  0
LINE
  5
195
330
1E
100
AcDbEntity
  8
0
 62
     3
100
AcDbLine
 10
148.4169122104999
 20
220.2658009877999
 30
0.0
 11
147.416911149
 21
221.2658020494
 31
0.0
  0
LINE
  5
196
330
1E
100
AcDbEntity
  8
0
 62
     3
100
AcDbLine
 10
149.4169564885999
 20
224.3658447265999
 30
0.0
 11
149.4169564885999
 21
221.2658081054999
 31
0.0
  0
LINE
  5
197
330
1E
100
AcDbEntity
  8
0
 62
     3
100
AcDbLine
 10
149.4169564885999
 20
224.3658447265999
 30
0.0
 11
150.4169412298999
 21
224.3658447265999
 31
0.0
  0
LINE
  5
198
330
1E
100
AcDbEntity
  8
0
 62
     3
100
AcDbLine
 10
150.9169927125999
 20
224.8657464170999
 30
0.0
 11
150.4169845532
 21
224.3657535149
 31
0.0
  0
LINE
  5
199
330
1E
100
AcDbEntity
  8
0
 62
     3
100
AcDbLine
 10
155.9168985932998
 20
224.8657605548
 30
0.0
 11
156.4168883344999
 21
224.3657708135998
 31
0.0
  0
LINE
  5
19A
330
1E
100
AcDbEntity
  8
0
 62
     3
100
AcDbLine
 10
156.4169564885999
 20
224.3658447265999
 30
0.0
 11
157.4169564885998
 21
224.3658447265999
 31
0.0
  0
LINE
  5
19B
330
1E
100
AcDbEntity
  8
0
 62
     3
100
AcDbLine
 10
157.4169564885998
 20
224.3658447265999
 30
0.0
 11
157.4169564885998
 21
221.2658081054999
 31
0.0
  0
LINE
  5
19C
330
1E
100
AcDbEntity
  8
0
 62
     3
100
AcDbLine
 10
158.4169444055999
 20
220.2658009877999
 30
0.0
 11
157.4169433439998
 21
221.2658020494
 31
0.0
  0
LINE
  5
19D
330
1E
100
AcDbEntity
  8
0
 62
     3
100
AcDbLine
 10
158.4168544715
 20
220.2659097418999
 30
0.0
 11
159.4168556172999
 21
221.2659108034999
 31
0.0
  0
LINE
  5
19E
330
1E
100
AcDbEntity
  8
0
 62
     3
100
AcDbLine
 10
159.4169564885999
 20
224.3658447265999
 30
0.0
 11
159.4169564885999
 21
221.2658081054999
 31
0.0
  0
LINE
  5
19F
330
1E
100
AcDbEntity
  8
0
 62
     3
100
AcDbLine
 10
159.4169564885999
 20
224.3658447265999
 30
0.0
 11
160.4169412298998
 21
224.3658447265999
 31
0.0
  0
LINE
  5
1A0
330
1E
100
AcDbEntity
  8
0
 62
     3
100
AcDbLine
 10
160.9169817523
 20
224.8657880582999
 30
0.0
 11
160.4169628031999
 21
224.3657843667
 31
0.0
  0
LINE
  5
1AE
330
1E
100
AcDbEntity
  8
0
 62
     3
100
AcDbLine
 10
84.98359162049998
 20
224.8658447266
 30
0.0
 11
84.98359162049998
 21
221.2658386229999
 31
0.0
  0
LINE
  5
1AF
330
1E
100
AcDbEntity
  8
0
 62
     3
100
AcDbLine
 10
84.48359162049998
 20
224.8658447266
 30
0.0
 11
84.48359162049998
 21
221.2658081054999
 31
0.0
  0
LINE
  5
1B0
330
1E
100
AcDbEntity
  8
0
 62
     3
100
AcDbLine
 10
133.9669595403999
 20
224.8658447266
 30
0.0
 11
172.8669534368999
 21
224.8658447266
 31
0.0
  0
LINE
  5
1B1
330
1E
100
AcDbEntity
  8
0
 62
     3
100
AcDbLine
 10
172.8669534368999
 20
226.6658325195
 30
0.0
 11
172.8669534368999
 21
224.8658447266
 31
0.0
  0
LINE
  5
1B2
330
1E
100
AcDbEntity
  8
0
 62
     3
100
AcDbLine
 10
133.9669595403999
 20
226.6658325195
 30
0.0
 11
133.9669595403999
 21
224.8658447266
 31
0.0
  0
LINE
  5
1B3
330
1E
100
AcDbEntity
  8
0
 62
     3
100
AcDbLine
 10
84.48359162049998
 20
221.2658081054999
 30
0.0
 11
84.98359162049998
 21
221.2658081054999
 31
0.0
  0
LINE
  5
1B4
330
1E
100
AcDbEntity
  8
0
 62
     3
100
AcDbLine
 10
84.4835961673
 20
221.2658549979
 30
0.0
 11
84.58359519039998
 21
220.2658681813
 31
0.0
  0
LINE
  5
1B5
330
1E
100
AcDbEntity
  8
0
 62
     3
100
AcDbLine
 10
84.58358246519997
 20
220.2658081055
 30
0.0
 11
84.88358551699999
 21
220.2658081055
 31
0.0
  0
LINE
  5
1B6
330
1E
100
AcDbEntity
  8
0
 62
     3
100
AcDbLine
 10
84.88358733289997
 20
220.2657990314
 30
0.0
 11
84.98358787429998
 21
221.2658010311
 31
0.0
  0
LINE
  5
1B7
330
1E
100
AcDbEntity
  8
0
 62
     3
100
AcDbLine
 10
84.48359162049998
 20
224.3658447265999
 30
0.0
 11
84.98359162049998
 21
224.3658447265999
 31
0.0
  0
LINE
  5
1B8
330
1E
100
AcDbEntity
  8
0
 62
     3
100
AcDbLine
 10
73.8836156067
 20
221.2658164934
 30
0.0
 11
73.9836146298
 21
220.2658296767999
 31
0.0
  0
LINE
  5
1B9
330
1E
100
AcDbEntity
  8
0
 62
     3
100
AcDbLine
 10
73.8836007758
 20
221.2658081054999
 30
0.0
 11
74.3836007758
 21
221.2658081054999
 31
0.0
  0
LINE
  5
1BA
330
1E
100
AcDbEntity
  8
0
 62
     3
100
AcDbLine
 10
73.98359162049998
 20
220.2658081055
 30
0.0
 11
74.28359467219998
 21
220.2658081055
 31
0.0
  0
LINE
  5
1BB
330
1E
100
AcDbEntity
  8
0
 62
     3
100
AcDbLine
 10
74.28359007089998
 20
220.2658238710998
 30
0.0
 11
74.38359061239999
 21
221.2658258708
 31
0.0
  0
LINE
  5
1BC
330
1E
100
AcDbEntity
  8
0
 62
     3
100
AcDbLine
 10
73.8836007758
 20
224.8658447266
 30
0.0
 11
73.8836007758
 21
221.2658081054999
 31
0.0
  0
LINE
  5
1BD
330
1E
100
AcDbEntity
  8
0
 62
     3
100
AcDbLine
 10
74.3836007758
 20
224.8658447266
 30
0.0
 11
74.3836007758
 21
221.2658386229999
 31
0.0
  0
LINE
  5
1BE
330
1E
100
AcDbEntity
  8
0
 62
     3
100
AcDbLine
 10
73.8836007758
 20
224.3658447265999
 30
0.0
 11
74.3836007758
 21
224.3658447265999
 31
0.0
  0
LINE
  5
1BF
330
1E
100
AcDbEntity
  8
0
 62
     3
100
AcDbLine
 10
79.78360331129997
 20
221.2658685920998
 30
0.0
 11
79.88360537099999
 21
220.2658514094
 31
0.0
  0
LINE
  5
1C0
330
1E
100
AcDbEntity
  8
0
 62
     3
100
AcDbLine
 10
79.78359467219998
 20
221.2658081054999
 30
0.0
 11
80.28359467219997
 21
221.2658081054999
 31
0.0
  0
LINE
  5
1C1
330
1E
100
AcDbEntity
  8
0
 62
     3
100
AcDbLine
 10
79.88358551699997
 20
220.2658081055
 30
0.0
 11
80.18358856869998
 21
220.2658081055
 31
0.0
  0
LINE
  5
1C2
330
1E
100
AcDbEntity
  8
0
 62
     3
100
AcDbLine
 10
80.18358081219998
 20
220.2658021386
 30
0.0
 11
80.28358135359997
 21
221.2658041383
 31
0.0
  0
LINE
  5
1C3
330
1E
100
AcDbEntity
  8
0
 62
     3
100
AcDbLine
 10
79.78359467219998
 20
224.8658447266
 30
0.0
 11
79.78359467219998
 21
221.2658081054999
 31
0.0
  0
LINE
  5
1C4
330
1E
100
AcDbEntity
  8
0
 62
     3
100
AcDbLine
 10
80.28359467219997
 20
224.8658447266
 30
0.0
 11
80.28359467219997
 21
221.2658386229999
 31
0.0
  0
LINE
  5
1C5
330
1E
100
AcDbEntity
  8
0
 62
     3
100
AcDbLine
 10
79.78359467219998
 20
224.3658447265999
 30
0.0
 11
80.28359467219997
 21
224.3658447265999
 31
0.0
  0
LINE
  5
1C6
330
1E
100
AcDbEntity
  8
0
 62
     3
100
AcDbLine
 10
66.38352448179998
 20
221.2658996581999
 30
0.0
 11
67.38352448179998
 21
221.2658996581999
 31
0.0
  0
LINE
  5
1C7
330
1E
100
AcDbEntity
  8
0
 62
     3
100
AcDbLine
 10
167.9168954534999
 20
221.2658691406
 30
0.0
 11
168.9168954534999
 21
221.2658691406
 31
0.0
  0
LINE
  5
1C8
330
1E
100
AcDbEntity
  8
0
 62
     3
100
AcDbLine
 10
137.9168954534998
 20
221.2658691406
 30
0.0
 11
138.9168954534999
 21
221.2658691406
 31
0.0
  0
LINE
  5
1C9
330
1E
100
AcDbEntity
  8
0
 62
     3
100
AcDbLine
 10
147.9168954534999
 20
221.2658691406
 30
0.0
 11
148.9168954534999
 21
221.2658691406
 31
0.0
  0
LINE
  5
1CA
330
1E
100
AcDbEntity
  8
0
 62
     3
100
AcDbLine
 10
157.9168954534999
 20
221.2658691406
 30
0.0
 11
158.9168954534999
 21
221.2658691406
 31
0.0
  0
LINE
  5
1CB
330
1E
100
AcDbEntity
  8
0
 62
     3
100
AcDbLine
 10
138.2502545271998
 20
220.4324900666998
 30
0.0
 11
138.2669149577999
 21
220.2658863294999
 31
0.0
  0
LINE
  5
1CC
330
1E
100
AcDbEntity
  8
0
 62
     3
100
AcDbLine
 10
138.2669015569999
 20
220.2658691406
 30
0.0
 11
138.5669046087999
 21
220.2658691406
 31
0.0
  0
LINE
  5
1CD
330
1E
100
AcDbEntity
  8
0
 62
     3
100
AcDbLine
 10
138.5668873624998
 20
220.2658902013
 30
0.0
 11
138.5835523479999
 21
220.4325394876
 31
0.0
  0
LINE
  5
1CE
330
1E
100
AcDbEntity
  8
0
 62
     3
100
AcDbLine
 10
168.5836471947999
 20
220.4324722567998
 30
0.0
 11
168.5669875713998
 21
220.265853097
 31
0.0
  0
LINE
  5
1CF
330
1E
100
AcDbEntity
  8
0
 62
     3
100
AcDbLine
 10
168.2670107405998
 20
220.2658887784999
 30
0.0
 11
168.2503503470999
 21
220.4325385241
 31
0.0
  0
LINE
  5
1D0
330
1E
100
AcDbEntity
  8
0
 62
     3
100
AcDbLine
 10
168.5670114202999
 20
220.2658691406
 30
0.0
 11
168.2670083685
 21
220.2658691406
 31
0.0
  0
LINE
  5
1D1
330
1E
100
AcDbEntity
  8
0
  6
CENTER
 62
     3
100
AcDbLine
 10
55.93358856869997
 20
184.2158355713
 30
0.0
 11
93.43358856870001
 21
184.2158355713
 31
0.0
  0
LINE
  5
1D2
330
1E
100
AcDbEntity
  8
0
 62
     3
100
AcDbLine
 10
61.83358246519997
 20
204.7158355712999
 30
0.0
 11
87.53359467219999
 21
204.7158355712999
 31
0.0
  0
LINE
  5
1D3
330
1E
100
AcDbEntity
  8
0
 62
     3
100
AcDbLine
 10
61.83358246519997
 20
163.7158355713
 30
0.0
 11
87.53359467219999
 21
163.7158355713
 31
0.0
  0
LINE
  5
1D4
330
1E
100
AcDbEntity
  8
0
 62
     3
100
AcDbLine
 10
60.93358856869997
 20
203.8158416747999
 30
0.0
 11
60.93358856869997
 21
164.6158447266
 31
0.0
  0
LINE
  5
1D5
330
1E
100
AcDbEntity
  8
0
 62
     3
100
AcDbLine
 10
88.43358856869999
 20
203.8158416747999
 30
0.0
 11
88.43358856869999
 21
164.6158447266
 31
0.0
  0
LINE
  5
1D6
330
1E
100
AcDbEntity
  8
0
 62
     3
100
AcDbLine
 10
61.83376430549998
 20
204.7156244613999
 30
0.0
 11
60.93376210259997
 21
203.8156203618
 31
0.0
  0
LINE
  5
1D7
330
1E
100
AcDbEntity
  8
0
 62
     3
100
AcDbLine
 10
60.93359039509996
 20
164.6158669909999
 30
0.0
 11
61.83358271889996
 21
163.7158746671999
 31
0.0
  0
LINE
  5
1D8
330
1E
100
AcDbEntity
  8
0
 62
     3
100
AcDbLine
 10
87.53366971229999
 20
163.7157357625
 30
0.0
 11
88.43367191519998
 21
164.6157398620998
 31
0.0
  0
LINE
  5
1D9
330
1E
100
AcDbEntity
  8
0
 62
     3
100
AcDbLine
 10
88.43359396359998
 20
203.8159326120999
 30
0.0
 11
87.53361242939998
 21
204.7159141463
 31
0.0
  0
LINE
  5
1DA
330
1E
100
AcDbEntity
  8
0
 62
     3
100
AcDbLine
 10
73.88357025819998
 20
201.7158508300998
 30
0.0
 11
73.88357025819998
 21
196.7158508300999
 31
0.0
  0
LINE
  5
1DB
330
1E
100
AcDbEntity
  8
0
 62
     3
100
AcDbLine
 10
74.3835702582
 20
201.7158508300998
 30
0.0
 11
74.3835702582
 21
196.7158508300999
 31
0.0
  0
LINE
  5
1DC
330
1E
100
AcDbEntity
  8
0
 62
     3
100
AcDbLine
 10
64.3835702582
 20
169.4658355713
 30
0.0
 11
69.3835702582
 21
169.4658355713
 31
0.0
  0
LINE
  5
1DD
330
1E
100
AcDbEntity
  8
0
 62
     3
100
AcDbLine
 10
64.3835702582
 20
168.9658355713
 30
0.0
 11
69.3835702582
 21
168.9658355713
 31
0.0
  0
LINE
  5
1DE
330
1E
100
AcDbEntity
  8
0
 62
     3
100
AcDbLine
 10
87.38357025819999
 20
203.3658294677998
 30
0.0
 11
87.38357025819999
 21
165.065826416
 31
0.0
  0
LINE
  5
1DF
330
1E
100
AcDbEntity
  8
0
 62
     3
100
AcDbLine
 10
61.98357636169999
 20
203.3658294677998
 30
0.0
 11
61.98357636169999
 21
165.0658416748
 31
0.0
  0
LINE
  5
1E0
330
1E
100
AcDbEntity
  8
0
 62
     3
100
AcDbLine
 10
62.28357941339996
 20
203.6658325195
 30
0.0
 11
87.08358246519997
 21
203.6658325195
 31
0.0
  0
LINE
  5
1E1
330
1E
100
AcDbEntity
  8
0
 62
     3
100
AcDbLine
 10
62.28357941339996
 20
164.7658386229998
 30
0.0
 11
87.08358246519997
 21
164.7658386229998
 31
0.0
  0
LINE
  5
1E2
330
1E
100
AcDbEntity
  8
0
 62
     3
100
AcDbLine
 10
62.2835371166
 20
203.6658897664
 30
0.0
 11
61.98353437899999
 21
203.3658832100999
 31
0.0
  0
LINE
  5
1E3
330
1E
100
AcDbEntity
  8
0
 62
     3
100
AcDbLine
 10
61.98356345689997
 20
165.0658307840999
 30
0.0
 11
62.28356809119998
 21
164.7658261496999
 31
0.0
  0
LINE
  5
1E4
330
1E
100
AcDbEntity
  8
0
 62
     3
100
AcDbLine
 10
87.08359063319997
 20
164.7657992063998
 30
0.0
 11
87.38358685499997
 21
165.0657906740998
 31
0.0
  0
LINE
  5
1E5
330
1E
100
AcDbEntity
  8
0
 62
     3
100
AcDbLine
 10
87.38349983399997
 20
203.3657473365
 30
0.0
 11
87.08348296859998
 21
203.6657613441998
 31
0.0
  0
LINE
  5
1E6
330
1E
100
AcDbEntity
  8
0
 62
     3
100
AcDbLine
 10
61.98357636169999
 20
190.2158355713
 30
0.0
 11
63.98357636169999
 21
190.2158355713
 31
0.0
  0
LINE
  5
1E7
330
1E
100
AcDbEntity
  8
0
 62
     3
100
AcDbLine
 10
61.98357636169999
 20
178.2158355713
 30
0.0
 11
63.98357636169999
 21
178.2158355713
 31
0.0
  0
LINE
  5
1E8
330
1E
100
AcDbEntity
  8
0
 62
     3
100
AcDbLine
 10
64.51357514099999
 20
187.7158355713
 30
0.0
 11
64.51357514099999
 21
180.7158355712998
 31
0.0
  0
LINE
  5
1E9
330
1E
100
AcDbEntity
  8
0
 62
     3
100
AcDbLine
 10
64.01356199739999
 20
188.2158103133
 30
0.0
 11
64.5135625282
 21
187.7158097825
 31
0.0
  0
LINE
  5
1EA
330
1E
100
AcDbEntity
  8
0
 62
     3
100
AcDbLine
 10
64.51350664549997
 20
180.7158986829
 30
0.0
 11
63.98350899099997
 21
180.1859050938
 31
0.0
  0
LINE
  5
1EB
330
1E
100
AcDbEntity
  8
0
 62
     3
100
AcDbLine
 10
63.98357636169999
 20
190.2158355713
 30
0.0
 11
63.98357636169999
 21
178.2158355713
 31
0.0
  0
LINE
  5
1EC
330
1E
100
AcDbEntity
  8
0
 62
     3
100
AcDbLine
 10
61.98357636169999
 20
176.2158355713
 30
0.0
 11
63.98357636169999
 21
176.2158355713
 31
0.0
  0
LINE
  5
1ED
330
1E
100
AcDbEntity
  8
0
 62
     3
100
AcDbLine
 10
61.98357636169999
 20
172.2158355712998
 30
0.0
 11
63.98357636169999
 21
172.2158355712998
 31
0.0
  0
LINE
  5
1EE
330
1E
100
AcDbEntity
  8
0
 62
     3
100
AcDbLine
 10
63.98357636169999
 20
176.2158355713
 30
0.0
 11
63.98357636169999
 21
172.2158355712998
 31
0.0
  0
LINE
  5
1EF
330
1E
100
AcDbEntity
  8
0
 62
     3
100
AcDbLine
 10
61.98357636169999
 20
192.2158355713
 30
0.0
 11
63.98357636169999
 21
192.2158355713
 31
0.0
  0
LINE
  5
1F0
330
1E
100
AcDbEntity
  8
0
 62
     3
100
AcDbLine
 10
63.98357636169999
 20
192.2158355713
 30
0.0
 11
63.98357636169999
 21
196.2158355713
 31
0.0
  0
LINE
  5
1F1
330
1E
100
AcDbEntity
  8
0
 62
     3
100
AcDbLine
 10
61.98357636169999
 20
196.2158355713
 30
0.0
 11
63.98357636169999
 21
196.2158355713
 31
0.0
  0
LINE
  5
1F2
330
1E
100
AcDbEntity
  8
0
 62
     3
100
AcDbLine
 10
86.28357941339997
 20
175.7158355713
 30
0.0
 11
86.28357941339997
 21
172.7158355713
 31
0.0
  0
LINE
  5
1F3
330
1E
100
AcDbEntity
  8
0
 62
     3
100
AcDbLine
 10
86.28357941339997
 20
175.7158355713
 30
0.0
 11
87.38357025819999
 21
175.7158355713
 31
0.0
  0
LINE
  5
1F4
330
1E
100
AcDbEntity
  8
0
 62
     3
100
AcDbLine
 10
86.28357941339997
 20
172.7158355713
 30
0.0
 11
87.38357025819999
 21
172.7158355713
 31
0.0
  0
LINE
  5
1F5
330
1E
100
AcDbEntity
  8
0
 62
     3
100
AcDbLine
 10
86.28357941339997
 20
192.7158355713
 30
0.0
 11
87.38357025819999
 21
192.7158355713
 31
0.0
  0
LINE
  5
1F6
330
1E
100
AcDbEntity
  8
0
 62
     3
100
AcDbLine
 10
86.28357941339997
 20
192.7158355713
 30
0.0
 11
86.28357941339997
 21
195.7158355713
 31
0.0
  0
LINE
  5
1F7
330
1E
100
AcDbEntity
  8
0
 62
     3
100
AcDbLine
 10
86.28357941339997
 20
195.7158355713
 30
0.0
 11
87.38357025819999
 21
195.7158355713
 31
0.0
  0
LINE
  5
1F8
330
1E
100
AcDbEntity
  8
0
 62
     3
100
AcDbLine
 10
73.88357025819998
 20
199.2158508300999
 30
0.0
 11
74.3835702582
 21
199.2158508300999
 31
0.0
  0
LINE
  5
1F9
330
1E
100
AcDbEntity
  8
0
 62
     3
100
AcDbLine
 10
73.88357025819998
 20
198.2158508300998
 30
0.0
 11
74.3835702582
 21
198.2158508300998
 31
0.0
  0
LINE
  5
1FA
330
1E
100
AcDbEntity
  8
0
 62
     3
100
AcDbLine
 10
73.88357025819998
 20
200.2158508301
 30
0.0
 11
74.3835702582
 21
200.2158508301
 31
0.0
  0
LINE
  5
1FB
330
1E
100
AcDbEntity
  8
0
 62
     3
100
AcDbLine
 10
73.88357025819998
 20
197.2158508300998
 30
0.0
 11
74.3835702582
 21
197.2158508300998
 31
0.0
  0
LINE
  5
1FC
330
1E
100
AcDbEntity
  8
0
 62
     3
100
AcDbLine
 10
73.88357025819998
 20
201.2158508300998
 30
0.0
 11
74.3835702582
 21
201.2158508300998
 31
0.0
  0
LINE
  5
1FD
330
1E
100
AcDbEntity
  8
0
 62
     3
100
AcDbLine
 10
73.88357025819998
 20
196.7158508300999
 30
0.0
 11
74.3835702582
 21
196.7158508300999
 31
0.0
  0
LINE
  5
1FE
330
1E
100
AcDbEntity
  8
0
 62
     3
100
AcDbLine
 10
73.88357025819998
 20
201.7158508300998
 30
0.0
 11
74.3835702582
 21
201.7158508300998
 31
0.0
  0
LINE
  5
1FF
330
1E
100
AcDbEntity
  8
0
 62
     3
100
AcDbLine
 10
79.78356415469995
 20
201.7158508300998
 30
0.0
 11
79.78356415469995
 21
196.7158508300999
 31
0.0
  0
LINE
  5
200
330
1E
100
AcDbEntity
  8
0
 62
     3
100
AcDbLine
 10
80.28356415469998
 20
201.7158508300998
 30
0.0
 11
80.28356415469998
 21
196.7158508300999
 31
0.0
  0
LINE
  5
201
330
1E
100
AcDbEntity
  8
0
 62
     3
100
AcDbLine
 10
79.78356415469995
 20
199.2158508300999
 30
0.0
 11
80.28356415469998
 21
199.2158508300999
 31
0.0
  0
LINE
  5
202
330
1E
100
AcDbEntity
  8
0
 62
     3
100
AcDbLine
 10
84.48357636169999
 20
191.7158508300999
 30
0.0
 11
84.48357636169999
 21
186.7158508300999
 31
0.0
  0
LINE
  5
203
330
1E
100
AcDbEntity
  8
0
 62
     3
100
AcDbLine
 10
84.98357636169998
 20
191.7158508300999
 30
0.0
 11
84.98357636169998
 21
186.7158508300999
 31
0.0
  0
LINE
  5
204
330
1E
100
AcDbEntity
  8
0
 62
     3
100
AcDbLine
 10
84.48357636169999
 20
189.2158508300999
 30
0.0
 11
84.98357636169998
 21
189.2158508300999
 31
0.0
  0
LINE
  5
205
330
1E
100
AcDbEntity
  8
0
 62
     3
100
AcDbLine
 10
84.48357636169999
 20
188.2158508300999
 30
0.0
 11
84.98357636169998
 21
188.2158508300999
 31
0.0
  0
LINE
  5
206
330
1E
100
AcDbEntity
  8
0
 62
     3
100
AcDbLine
 10
84.48357636169999
 20
190.2158508300999
 30
0.0
 11
84.98357636169998
 21
190.2158508300999
 31
0.0
  0
LINE
  5
207
330
1E
100
AcDbEntity
  8
0
 62
     3
100
AcDbLine
 10
84.48357636169999
 20
187.2158508300999
 30
0.0
 11
84.98357636169998
 21
187.2158508300999
 31
0.0
  0
LINE
  5
208
330
1E
100
AcDbEntity
  8
0
 62
     3
100
AcDbLine
 10
84.48357636169999
 20
191.2158508300999
 30
0.0
 11
84.98357636169998
 21
191.2158508300999
 31
0.0
  0
LINE
  5
209
330
1E
100
AcDbEntity
  8
0
 62
     3
100
AcDbLine
 10
84.48357636169999
 20
186.7158508300999
 30
0.0
 11
84.98357636169998
 21
186.7158508300999
 31
0.0
  0
LINE
  5
20A
330
1E
100
AcDbEntity
  8
0
 62
     3
100
AcDbLine
 10
66.8835702582
 20
169.4658355713
 30
0.0
 11
66.8835702582
 21
168.9658355713
 31
0.0
  0
LINE
  5
20B
330
1E
100
AcDbEntity
  8
0
 62
     3
100
AcDbLine
 10
67.88357025819999
 20
169.4658355713
 30
0.0
 11
67.88357025819999
 21
168.9658355713
 31
0.0
  0
LINE
  5
20C
330
1E
100
AcDbEntity
  8
0
 62
     3
100
AcDbLine
 10
65.88357025819999
 20
169.4658355713
 30
0.0
 11
65.88357025819999
 21
168.9658355713
 31
0.0
  0
LINE
  5
20D
330
1E
100
AcDbEntity
  8
0
 62
     3
100
AcDbLine
 10
68.88357025819999
 20
169.4658355713
 30
0.0
 11
68.88357025819999
 21
168.9658355713
 31
0.0
  0
LINE
  5
20E
330
1E
100
AcDbEntity
  8
0
 62
     3
100
AcDbLine
 10
64.8835702582
 20
169.4658355713
 30
0.0
 11
64.8835702582
 21
168.9658355713
 31
0.0
  0
LINE
  5
20F
330
1E
100
AcDbEntity
  8
0
 62
     3
100
AcDbLine
 10
64.3835702582
 20
169.4658355713
 30
0.0
 11
64.3835702582
 21
168.9658355713
 31
0.0
  0
LINE
  5
210
330
1E
100
AcDbEntity
  8
0
 62
     3
100
AcDbLine
 10
69.3835702582
 20
169.4658355713
 30
0.0
 11
69.3835702582
 21
168.9658355713
 31
0.0
  0
LINE
  5
211
330
1E
100
AcDbEntity
  8
0
 62
     3
100
AcDbLine
 10
64.3835702582
 20
198.9658355713
 30
0.0
 11
69.3835702582
 21
198.9658355713
 31
0.0
  0
LINE
  5
212
330
1E
100
AcDbEntity
  8
0
 62
     3
100
AcDbLine
 10
64.3835702582
 20
199.4658355712998
 30
0.0
 11
69.3835702582
 21
199.4658355712998
 31
0.0
  0
LINE
  5
213
330
1E
100
AcDbEntity
  8
0
 62
     3
100
AcDbLine
 10
66.8835702582
 20
198.9658355713
 30
0.0
 11
66.8835702582
 21
199.4658355712998
 31
0.0
  0
LINE
  5
214
330
1E
100
AcDbEntity
  8
0
 62
     3
100
AcDbLine
 10
67.88357025819999
 20
198.9658355713
 30
0.0
 11
67.88357025819999
 21
199.4658355712998
 31
0.0
  0
LINE
  5
215
330
1E
100
AcDbEntity
  8
0
 62
     3
100
AcDbLine
 10
65.88357025819999
 20
198.9658355713
 30
0.0
 11
65.88357025819999
 21
199.4658355712998
 31
0.0
  0
LINE
  5
216
330
1E
100
AcDbEntity
  8
0
 62
     3
100
AcDbLine
 10
68.88357025819999
 20
198.9658355713
 30
0.0
 11
68.88357025819999
 21
199.4658355712998
 31
0.0
  0
LINE
  5
217
330
1E
100
AcDbEntity
  8
0
 62
     3
100
AcDbLine
 10
64.8835702582
 20
198.9658355713
 30
0.0
 11
64.8835702582
 21
199.4658355712998
 31
0.0
  0
LINE
  5
218
330
1E
100
AcDbEntity
  8
0
 62
     3
100
AcDbLine
 10
64.3835702582
 20
198.9658355713
 30
0.0
 11
64.3835702582
 21
199.4658355712998
 31
0.0
  0
LINE
  5
219
330
1E
100
AcDbEntity
  8
0
 62
     3
100
AcDbLine
 10
69.3835702582
 20
198.9658355713
 30
0.0
 11
69.3835702582
 21
199.4658355712998
 31
0.0
  0
ARC
  5
220
330
1E
100
AcDbEntity
  8
0
 62
     3
100
AcDbCircle
 10
61.48137909609997
 20
259.9658203125
 30
0.0
 40
0.3000000119
100
AcDbArc
 50
89.99998201389999
 51
179.5737602236
  0
ARC
  5
221
330
1E
100
AcDbEntity
  8
0
 62
     3
100
AcDbCircle
 10
87.88582855899997
 20
259.9658203125
 30
0.0
 40
0.3000000119
100
AcDbArc
 50
0.4262078596000002
 51
89.99998201389999
  0
ARC
  5
222
330
1E
100
AcDbEntity
  8
0
 62
     3
100
AcDbCircle
 10
133.4647317571999
 20
259.9658203125
 30
0.0
 40
0.3000000119
100
AcDbArc
 50
89.99998201389999
 51
179.5738148651
  0
ARC
  5
223
330
1E
100
AcDbEntity
  8
0
 62
     3
100
AcDbCircle
 10
173.3691812200999
 20
259.9658203125
 30
0.0
 40
0.3000000119
100
AcDbArc
 50
0.4262104210000002
 51
89.99998201389999
  0
LINE
  5
247
330
1E
100
AcDbEntity
  8
0
  6
CENTER
 62
     3
100
AcDbLine
 10
74.68358856869997
 20
207.7158355713
 30
0.0
 11
74.68358856869997
 21
160.7158355713
 31
0.0
  0
LINE
  5
8B0
330
1E
100
AcDbEntity
  8
0
100
AcDbLine
 10
0.0
 20
0.0
 30
0.0
 11
210.0
 21
0.0
 31
0.0
  0
LINE
  5
8B1
330
1E
100
AcDbEntity
  8
0
100
AcDbLine
 10
210.0
 20
0.0
 30
0.0
 11
210.0
 21
297.0
 31
0.0
  0
LINE
  5
8B2
330
1E
100
AcDbEntity
  8
0
100
AcDbLine
 10
210.0
 20
297.0
 30
0.0
 11
0.0
 21
297.0
 31
0.0
  0
LINE
  5
8B3
330
1E
100
AcDbEntity
  8
0
100
AcDbLine
 10
0.0
 20
297.0
 30
0.0
 11
0.0
 21
0.0
 31
0.0
  0
TEXT
  5
8B8
330
1E
100
AcDbEntity
  8
0
 62
     5
100
AcDbText
 10
145.0
 20
10.0
 30
0.0
 40
5.0
  1
ＭＡ４－Ｒ０００３５Ｂ
 41
0.8443967743953107
 72
     5
 11
199.0413935612998
 21
10.0
 31
0.0
100
AcDbText
  0
TEXT
  5
8CA
330
1E
100
AcDbEntity
  8
0
 62
     7
100
AcDbText
 10
146.0
 20
100.00000295525
 30
0.0
 40
2.999994089499998
  1
RH4V2-ULAC
 11
146.0
 21
101.5
 31
0.0
100
AcDbText
 73
     2
  0
TEXT
  5
8CB
330
1E
100
AcDbEntity
  8
0
 62
     7
100
AcDbText
 10
146.0
 20
95.00000295524992
 30
0.0
 40
2.999994089499998
  1
RH4V2-ULDC
 11
146.0
 21
96.49999999999993
 31
0.0
100
AcDbText
 73
     2
  0
TEXT
  5
8CC
330
1E
100
AcDbEntity
  8
0
 62
     7
100
AcDbText
 10
146.0
 20
90.00000295524987
 30
0.0
 40
2.999994089499998
  1
RH4V2-ULDDC
 11
146.0
 21
91.49999999999987
 31
0.0
100
AcDbText
 73
     2
  0
TEXT
  5
8CD
330
1E
100
AcDbEntity
  8
0
 62
     7
100
AcDbText
 10
146.0
 20
115.0000029552499
 30
0.0
 40
2.999994089499998
  1
RH4V2-UAC
 11
146.0
 21
116.5
 31
0.0
100
AcDbText
 73
     2
  0
TEXT
  5
8CE
330
1E
100
AcDbEntity
  8
0
 62
     7
100
AcDbText
 10
146.0
 20
110.0000029552498
 30
0.0
 40
2.999994089499998
  1
RH4V2-UDC
 11
146.0
 21
111.4999999999999
 31
0.0
100
AcDbText
 73
     2
  0
TEXT
  5
8CF
330
1E
100
AcDbEntity
  8
0
 62
     7
100
AcDbText
 10
146.0
 20
105.0000029552498
 30
0.0
 40
2.999994089499998
  1
RH4V2-UDDC
 11
146.0
 21
106.4999999999999
 31
0.0
100
AcDbText
 73
     2
  0
ENDSEC
  0
SECTION
  2
OBJECTS
  0
DICTIONARY
  5
C
330
0
100
AcDbDictionary
281
     1
  3
ACAD_GROUP
350
D
  3
ACAD_LAYOUT
350
19
  3
ACAD_MLINESTYLE
350
16
  3
ACAD_PLOTSETTINGS
350
18
  3
ACAD_PLOTSTYLENAME
350
E
  3
AcDbVariableDictionary
350
8D0
  0
DICTIONARY
  5
D
102
{ACAD_REACTORS
330
C
102
}
330
C
100
AcDbDictionary
281
     1
  0
DICTIONARY
  5
19
102
{ACAD_REACTORS
330
C
102
}
330
C
100
AcDbDictionary
281
     1
  3
Model
350
21
  3
ﾚｲｱｳﾄ1
350
1D
  0
DICTIONARY
  5
16
102
{ACAD_REACTORS
330
C
102
}
330
C
100
AcDbDictionary
281
     1
  3
Standard
350
17
  0
DICTIONARY
  5
18
102
{ACAD_REACTORS
330
C
102
}
330
C
100
AcDbDictionary
281
     1
  0
ACDBDICTIONARYWDFLT
  5
E
102
{ACAD_REACTORS
330
C
102
}
330
C
100
AcDbDictionary
281
     1
  3
Normal
350
F
100
AcDbDictionaryWithDefault
340
F
  0
DICTIONARY
  5
8D0
102
{ACAD_REACTORS
330
C
102
}
330
C
100
AcDbDictionary
281
     1
  3
DIMASSOC
350
8D1
  0
LAYOUT
  5
21
102
{ACAD_REACTORS
330
19
102
}
330
19
100
AcDbPlotSettings
  1

  2
C:\Program Files\AutoCAD 2000i\plotters\DWF Classic.pc3
  4

  6

 40
0.0
 41
0.0
 42
0.0
 43
0.0
 44
0.0
 45
0.0
 46
0.0
 47
0.0
 48
0.0
 49
0.0
140
0.0
141
0.0
142
1.0
143
1.0
 70
  1712
 72
     0
 73
     0
 74
     0
  7

 75
     0
147
1.0
148
0.0
149
0.0
100
AcDbLayout
  1
Model
 70
     1
 71
     0
 10
0.0
 20
0.0
 11
12.0
 21
9.0
 12
0.0
 22
0.0
 32
0.0
 14
0.0
 24
0.0
 34
0.0
 15
0.0
 25
0.0
 35
0.0
146
0.0
 13
0.0
 23
0.0
 33
0.0
 16
1.0
 26
0.0
 36
0.0
 17
0.0
 27
1.0
 37
0.0
 76
     0
330
1E
  0
LAYOUT
  5
1D
102
{ACAD_REACTORS
330
19
102
}
330
19
100
AcDbPlotSettings
  1

  2
C:\Program Files\AutoCAD 2000i\plotters\DWF Classic.pc3
  4

  6

 40
0.0
 41
0.0
 42
0.0
 43
0.0
 44
0.0
 45
0.0
 46
0.0
 47
0.0
 48
0.0
 49
0.0
140
0.0
141
0.0
142
1.0
143
1.0
 70
   688
 72
     0
 73
     0
 74
     5
  7

 75
    16
147
1.0
148
0.0
149
0.0
100
AcDbLayout
  1
ﾚｲｱｳﾄ1
 70
     1
 71
     1
 10
0.0
 20
0.0
 11
12.0
 21
9.0
 12
0.0
 22
0.0
 32
0.0
 14
1.000000000000000E+20
 24
1.000000000000000E+20
 34
1.000000000000000E+20
 15
-1.000000000000000E+20
 25
-1.000000000000000E+20
 35
-1.000000000000000E+20
146
0.0
 13
0.0
 23
0.0
 33
0.0
 16
1.0
 26
0.0
 36
0.0
 17
0.0
 27
1.0
 37
0.0
 76
     0
330
1A
  0
MLINESTYLE
  5
17
102
{ACAD_REACTORS
330
16
102
}
330
16
100
AcDbMlineStyle
  2
STANDARD
 70
     0
  3

 62
   256
 51
90.0
 52
90.0
 71
     2
 49
0.5
 62
   256
  6
BYLAYER
 49
-0.5
 62
   256
  6
BYLAYER
  0
ACDBPLACEHOLDER
  5
F
102
{ACAD_REACTORS
330
E
102
}
330
E
  0
DICTIONARYVAR
  5
8D1
102
{ACAD_REACTORS
330
8D0
102
}
330
8D0
100
DictionaryVariables
280
     0
  1
1
  0
ENDSEC
  0
EOF
