  0
SECTION
  2
HEADER
  9
$ACADVER
  1
AC1015
  9
$ACADMAINTVER
 70
    13
  9
$DWGCODEPAGE
  3
ANSI_932
  9
$INSBASE
 10
0.0
 20
0.0
 30
0.0
  9
$EXTMIN
 10
-0.0276110892524457
 20
-0.0006537740625845
 30
-0.0000000000112498
  9
$EXTMAX
 10
210.024482431661
 20
297.0044886908847
 30
0.0000000000002956
  9
$LIMMIN
 10
-189.175
 20
-3.174999999999998
  9
$LIMMAX
 10
3.174999999999998
 20
291.2585876465
  9
$ORTHOMODE
 70
     0
  9
$REGENMODE
 70
     1
  9
$FILLMODE
 70
     1
  9
$QTEXTMODE
 70
     0
  9
$MIRRTEXT
 70
     0
  9
$LTSCALE
 40
1.0
  9
$ATTMODE
 70
     1
  9
$TEXTSIZE
 40
2.999994039499998
  9
$TRACEWID
 40
0.05
  9
$TEXTSTYLE
  7
STANDARD
  9
$CLAYER
  8
0
  9
$CELTYPE
  6
ByLayer
  9
$CECOLOR
 62
   256
  9
$CELTSCALE
 40
1.0
  9
$DISPSILH
 70
     0
  9
$DIMSCALE
 40
1.0
  9
$DIMASZ
 40
1.9727878465
  9
$DIMEXO
 40
2.539999961899999
  9
$DIMDLI
 40
0.38
  9
$DIMRND
 40
0.0
  9
$DIMDLE
 40
0.0
  9
$DIMEXE
 40
3.809999942799998
  9
$DIMTP
 40
0.0
  9
$DIMTM
 40
0.0
  9
$DIMTXT
 40
2.999994039499998
  9
$DIMCEN
 40
0.09
  9
$DIMTSZ
 40
0.0
  9
$DIMTOL
 70
     0
  9
$DIMLIM
 70
     0
  9
$DIMTIH
 70
     0
  9
$DIMTOH
 70
     1
  9
$DIMSE1
 70
     0
  9
$DIMSE2
 70
     0
  9
$DIMTAD
 70
     0
  9
$DIMZIN
 70
     0
  9
$DIMBLK
  1

  9
$DIMASO
 70
     1
  9
$DIMSHO
 70
     0
  9
$DIMPOST
  1

  9
$DIMAPOST
  1

  9
$DIMALT
 70
     0
  9
$DIMALTD
 70
     2
  9
$DIMALTF
 40
25.4
  9
$DIMLFAC
 40
1.0
  9
$DIMTOFL
 70
     0
  9
$DIMTVP
 40
0.0
  9
$DIMTIX
 70
     0
  9
$DIMSOXD
 70
     0
  9
$DIMSAH
 70
     0
  9
$DIMBLK1
  1

  9
$DIMBLK2
  1

  9
$DIMSTYLE
  2
Standard
  9
$DIMCLRD
 70
     0
  9
$DIMCLRE
 70
     0
  9
$DIMCLRT
 70
     0
  9
$DIMTFAC
 40
1.0
  9
$DIMGAP
 40
0.09
  9
$DIMJUST
 70
     0
  9
$DIMSD1
 70
     0
  9
$DIMSD2
 70
     0
  9
$DIMTOLJ
 70
     1
  9
$DIMTZIN
 70
     0
  9
$DIMALTZ
 70
     0
  9
$DIMALTTZ
 70
     0
  9
$DIMUPT
 70
     0
  9
$DIMDEC
 70
     4
  9
$DIMTDEC
 70
     4
  9
$DIMALTU
 70
     2
  9
$DIMALTTD
 70
     2
  9
$DIMTXSTY
  7
STANDARD
  9
$DIMAUNIT
 70
     0
  9
$DIMADEC
 70
     0
  9
$DIMALTRND
 40
0.0
  9
$DIMAZIN
 70
     0
  9
$DIMDSEP
 70
    46
  9
$DIMATFIT
 70
     3
  9
$DIMFRAC
 70
     0
  9
$DIMLDRBLK
  1

  9
$DIMLUNIT
 70
     2
  9
$DIMLWD
 70
    -2
  9
$DIMLWE
 70
    -2
  9
$DIMTMOVE
 70
     0
  9
$LUNITS
 70
     2
  9
$LUPREC
 70
     3
  9
$SKETCHINC
 40
0.1
  9
$FILLETRAD
 40
0.0625
  9
$AUNITS
 70
     0
  9
$AUPREC
 70
     0
  9
$MENU
  1
ACAD
  9
$ELEVATION
 40
0.0
  9
$PELEVATION
 40
0.0
  9
$THICKNESS
 40
0.0
  9
$LIMCHECK
 70
     0
  9
$CHAMFERA
 40
0.0
  9
$CHAMFERB
 40
0.0
  9
$CHAMFERC
 40
0.0
  9
$CHAMFERD
 40
0.0
  9
$SKPOLY
 70
     0
  9
$TDCREATE
 40
2452522.688368055
  9
$TDUCREATE
 40
2452522.313368055
  9
$TDUPDATE
 40
2453353.494407546
  9
$TDUUPDATE
 40
2453353.119407546
  9
$TDINDWG
 40
0.0024696181
  9
$TDUSRTIMER
 40
0.0024692477
  9
$USRTIMER
 70
     1
  9
$ANGBASE
 50
0.0
  9
$ANGDIR
 70
     0
  9
$PDMODE
 70
     0
  9
$PDSIZE
 40
0.0
  9
$PLINEWID
 40
0.0
  9
$SPLFRAME
 70
     0
  9
$SPLINETYPE
 70
     6
  9
$SPLINESEGS
 70
     8
  9
$HANDSEED
  5
82E
  9
$SURFTAB1
 70
     6
  9
$SURFTAB2
 70
     6
  9
$SURFTYPE
 70
     6
  9
$SURFU
 70
     6
  9
$SURFV
 70
     6
  9
$UCSBASE
  2

  9
$UCSNAME
  2

  9
$UCSORG
 10
0.0
 20
0.0
 30
0.0
  9
$UCSXDIR
 10
1.0
 20
0.0
 30
0.0
  9
$UCSYDIR
 10
0.0
 20
1.0
 30
0.0
  9
$UCSORTHOREF
  2

  9
$UCSORTHOVIEW
 70
     0
  9
$UCSORGTOP
 10
0.0
 20
0.0
 30
0.0
  9
$UCSORGBOTTOM
 10
0.0
 20
0.0
 30
0.0
  9
$UCSORGLEFT
 10
0.0
 20
0.0
 30
0.0
  9
$UCSORGRIGHT
 10
0.0
 20
0.0
 30
0.0
  9
$UCSORGFRONT
 10
0.0
 20
0.0
 30
0.0
  9
$UCSORGBACK
 10
0.0
 20
0.0
 30
0.0
  9
$PUCSBASE
  2

  9
$PUCSNAME
  2

  9
$PUCSORG
 10
0.0
 20
0.0
 30
0.0
  9
$PUCSXDIR
 10
1.0
 20
0.0
 30
0.0
  9
$PUCSYDIR
 10
0.0
 20
1.0
 30
0.0
  9
$PUCSORTHOREF
  2

  9
$PUCSORTHOVIEW
 70
     0
  9
$PUCSORGTOP
 10
0.0
 20
0.0
 30
0.0
  9
$PUCSORGBOTTOM
 10
0.0
 20
0.0
 30
0.0
  9
$PUCSORGLEFT
 10
0.0
 20
0.0
 30
0.0
  9
$PUCSORGRIGHT
 10
0.0
 20
0.0
 30
0.0
  9
$PUCSORGFRONT
 10
0.0
 20
0.0
 30
0.0
  9
$PUCSORGBACK
 10
0.0
 20
0.0
 30
0.0
  9
$USERI1
 70
     8
  9
$USERI2
 70
     0
  9
$USERI3
 70
     0
  9
$USERI4
 70
     0
  9
$USERI5
 70
     0
  9
$USERR1
 40
0.0
  9
$USERR2
 40
0.0
  9
$USERR3
 40
0.0
  9
$USERR4
 40
0.0
  9
$USERR5
 40
0.0
  9
$WORLDVIEW
 70
     1
  9
$SHADEDGE
 70
     3
  9
$SHADEDIF
 70
    70
  9
$TILEMODE
 70
     1
  9
$MAXACTVP
 70
    64
  9
$PINSBASE
 10
0.0
 20
0.0
 30
0.0
  9
$PLIMCHECK
 70
     0
  9
$PEXTMIN
 10
1.000000000000000E+20
 20
1.000000000000000E+20
 30
1.000000000000000E+20
  9
$PEXTMAX
 10
-1.000000000000000E+20
 20
-1.000000000000000E+20
 30
-1.000000000000000E+20
  9
$PLIMMIN
 10
0.0
 20
0.0
  9
$PLIMMAX
 10
12.0
 20
9.0
  9
$UNITMODE
 70
     0
  9
$VISRETAIN
 70
     1
  9
$PLINEGEN
 70
     0
  9
$PSLTSCALE
 70
     1
  9
$TREEDEPTH
 70
  3020
  9
$CMLSTYLE
  2
Standard
  9
$CMLJUST
 70
     0
  9
$CMLSCALE
 40
1.0
  9
$PROXYGRAPHICS
 70
     1
  9
$MEASUREMENT
 70
     0
  9
$CELWEIGHT
370
    -1
  9
$ENDCAPS
280
     0
  9
$JOINSTYLE
280
     0
  9
$LWDISPLAY
290
     0
  9
$INSUNITS
 70
     0
  9
$HYPERLINKBASE
  1

  9
$STYLESHEET
  1

  9
$XEDIT
290
     1
  9
$CEPSNTYPE
380
     0
  9
$PSTYLEMODE
290
     1
  9
$FINGERPRINTGUID
  2
{E8DF1517-DF61-4BB1-81EA-4D161DCABFE9}
  9
$VERSIONGUID
  2
{F328EEDC-8B53-4648-8DCC-B037974AD697}
  9
$EXTNAMES
290
     1
  9
$PSVPSCALE
 40
0.0
  9
$OLESTARTUP
290
     0
  0
ENDSEC
  0
SECTION
  2
CLASSES
  0
CLASS
  1
ACDBDICTIONARYWDFLT
  2
AcDbDictionaryWithDefault
  3
AutoCAD 2000
 90
        0
280
     0
281
     0
  0
CLASS
  1
ACDBPLACEHOLDER
  2
AcDbPlaceHolder
  3
AutoCAD 2000
 90
        0
280
     0
281
     0
  0
CLASS
  1
LAYOUT
  2
AcDbLayout
  3
AutoCAD 2000
 90
        0
280
     0
281
     0
  0
CLASS
  1
DICTIONARYVAR
  2
AcDbDictionaryVar
  3
AutoCAD 2000
 90
        0
280
     0
281
     0
  0
ENDSEC
  0
SECTION
  2
TABLES
  0
TABLE
  2
VPORT
  5
8
330
0
100
AcDbSymbolTable
 70
     2
  0
VPORT
  5
82D
330
8
100
AcDbSymbolTableRecord
100
AcDbViewportTableRecord
  2
*Active
 70
     0
 10
0.0
 20
0.0
 11
1.0
 21
1.0
 12
104.9984356712042
 22
148.501917458411
 13
0.0
 23
0.0
 14
1.0
 24
1.0
 15
0.0
 25
0.0
 16
0.0
 26
0.0
 36
1.0
 17
0.0
 27
0.0
 37
0.0
 40
301.3409839607859
 41
2.407317073170731
 42
50.0
 43
0.0
 44
0.0
 50
0.0
 51
0.0
 71
     0
 72
   100
 73
     1
 74
     1
 75
     0
 76
     0
 77
     0
 78
     0
281
     0
 65
     1
110
0.0
120
0.0
130
0.0
111
1.0
121
0.0
131
0.0
112
0.0
122
1.0
132
0.0
 79
     0
146
0.0
  0
ENDTAB
  0
TABLE
  2
LTYPE
  5
5
330
0
100
AcDbSymbolTable
 70
     2
  0
LTYPE
  5
13
330
5
100
AcDbSymbolTableRecord
100
AcDbLinetypeTableRecord
  2
ByBlock
 70
     0
  3

 72
    65
 73
     0
 40
0.0
  0
LTYPE
  5
14
330
5
100
AcDbSymbolTableRecord
100
AcDbLinetypeTableRecord
  2
ByLayer
 70
     0
  3

 72
    65
 73
     0
 40
0.0
  0
LTYPE
  5
15
330
5
100
AcDbSymbolTableRecord
100
AcDbLinetypeTableRecord
  2
Continuous
 70
     0
  3
Solid line
 72
    65
 73
     0
 40
0.0
  0
LTYPE
  5
24
330
5
100
AcDbSymbolTableRecord
100
AcDbLinetypeTableRecord
  2
CENTER
 70
     0
  3
Center
 72
    65
 73
     4
 40
9.100006759199999
 49
6.5000119209
 74
     0
 49
-0.7999984026000001
 74
     0
 49
0.9999980329999999
 74
     0
 49
-0.7999984026000001
 74
     0
  0
ENDTAB
  0
TABLE
  2
LAYER
  5
2
330
0
100
AcDbSymbolTable
 70
     1
  0
LAYER
  5
10
330
2
100
AcDbSymbolTableRecord
100
AcDbLayerTableRecord
  2
0
 70
     0
 62
     7
  6
Continuous
370
    -3
390
F
  0
ENDTAB
  0
TABLE
  2
STYLE
  5
3
330
0
100
AcDbSymbolTable
 70
     1
  0
STYLE
  5
11
330
3
100
AcDbSymbolTableRecord
100
AcDbTextStyleTableRecord
  2
STANDARD
 70
     0
 40
0.0
 41
1.0
 50
0.0
 71
     0
 42
2.999994039499998
  3
romans.shx
  4
bigfont.shx
  0
ENDTAB
  0
TABLE
  2
VIEW
  5
6
330
0
100
AcDbSymbolTable
 70
     0
  0
ENDTAB
  0
TABLE
  2
UCS
  5
7
330
0
100
AcDbSymbolTable
 70
     0
  0
ENDTAB
  0
TABLE
  2
APPID
  5
9
330
0
100
AcDbSymbolTable
 70
     1
  0
APPID
  5
12
330
9
100
AcDbSymbolTableRecord
100
AcDbRegAppTableRecord
  2
ACAD
 70
     0
  0
ENDTAB
  0
TABLE
  2
DIMSTYLE
  5
A
330
0
100
AcDbSymbolTable
 70
     1
100
AcDbDimStyleTable
 71
     0
  0
DIMSTYLE
105
803
330
A
100
AcDbSymbolTableRecord
100
AcDbDimStyleTableRecord
  2
Standard
 70
     0
340
11
  0
ENDTAB
  0
TABLE
  2
BLOCK_RECORD
  5
1
330
0
100
AcDbSymbolTable
 70
     1
  0
BLOCK_RECORD
  5
1E
330
1
100
AcDbSymbolTableRecord
100
AcDbBlockTableRecord
  2
*Model_Space
340
21
  0
BLOCK_RECORD
  5
1A
330
1
100
AcDbSymbolTableRecord
100
AcDbBlockTableRecord
  2
*Paper_Space
340
1D
  0
ENDTAB
  0
ENDSEC
  0
SECTION
  2
BLOCKS
  0
BLOCK
  5
1F
330
1E
100
AcDbEntity
  8
0
100
AcDbBlockBegin
  2
*Model_Space
 70
     0
 10
0.0
 20
0.0
 30
0.0
  3
*Model_Space
  1

  0
ENDBLK
  5
20
330
1E
100
AcDbEntity
  8
0
100
AcDbBlockEnd
  0
BLOCK
  5
1B
330
1A
100
AcDbEntity
 67
     1
  8
0
100
AcDbBlockBegin
  2
*Paper_Space
 70
     0
 10
0.0
 20
0.0
 30
0.0
  3
*Paper_Space
  1

  0
ENDBLK
  5
1C
330
1A
100
AcDbEntity
 67
     1
  8
0
100
AcDbBlockEnd
  0
ENDSEC
  0
SECTION
  2
ENTITIES
  0
LINE
  5
B3
330
1E
100
AcDbEntity
  8
0
 62
     3
100
AcDbLine
 10
64.14812714289999
 20
198.6239929199
 30
0.0
 11
89.84813935
 21
198.6239929199
 31
0.0
  0
LINE
  5
B4
330
1E
100
AcDbEntity
  8
0
 62
     3
100
AcDbLine
 10
67.84812409119999
 20
163.3739929198999
 30
0.0
 11
67.84812409119999
 21
162.8739929198999
 31
0.0
  0
LINE
  5
B5
330
1E
100
AcDbEntity
  8
0
 62
     3
100
AcDbLine
 10
76.19813019469998
 20
161.7739868164
 30
0.0
 11
76.69813019469998
 21
161.7739868164
 31
0.0
  0
LINE
  5
B6
330
1E
100
AcDbEntity
  8
0
 62
     3
100
AcDbLine
 10
76.19813019469998
 20
164.4739990234
 30
0.0
 11
76.69813019469998
 21
164.4739990234
 31
0.0
  0
LINE
  5
B7
330
1E
100
AcDbEntity
  8
0
 62
     3
100
AcDbLine
 10
82.09812409119997
 20
161.7739868164
 30
0.0
 11
82.5981240912
 21
161.7739868164
 31
0.0
  0
LINE
  5
B8
330
1E
100
AcDbEntity
  8
0
 62
     3
100
AcDbLine
 10
86.79812103939999
 20
164.4739990234
 30
0.0
 11
87.29812103939995
 21
164.4739990234
 31
0.0
  0
LINE
  5
B9
330
1E
100
AcDbEntity
  8
0
 62
     3
100
AcDbLine
 10
86.79812103939999
 20
161.7739868164
 30
0.0
 11
87.29812103939995
 21
161.7739868164
 31
0.0
  0
LINE
  5
BA
330
1E
100
AcDbEntity
  8
0
 62
     3
100
AcDbLine
 10
76.19813019469998
 20
171.7739868163999
 30
0.0
 11
76.69813019469998
 21
171.7739868163999
 31
0.0
  0
LINE
  5
BB
330
1E
100
AcDbEntity
  8
0
 62
     3
100
AcDbLine
 10
82.09812409119997
 20
164.4739990234
 30
0.0
 11
82.5981240912
 21
164.4739990234
 31
0.0
  0
LINE
  5
BC
330
1E
100
AcDbEntity
  8
0
 62
     3
100
AcDbLine
 10
76.19813019469998
 20
174.4739990234
 30
0.0
 11
76.69813019469998
 21
174.4739990234
 31
0.0
  0
LINE
  5
BD
330
1E
100
AcDbEntity
  8
0
 62
     3
100
AcDbLine
 10
82.09812409119997
 20
171.7739868163999
 30
0.0
 11
82.5981240912
 21
171.7739868163999
 31
0.0
  0
LINE
  5
BE
330
1E
100
AcDbEntity
  8
0
 62
     3
100
AcDbLine
 10
86.79812103939999
 20
174.4739990234
 30
0.0
 11
87.29812103939995
 21
174.4739990234
 31
0.0
  0
LINE
  5
BF
330
1E
100
AcDbEntity
  8
0
 62
     3
100
AcDbLine
 10
86.79812103939999
 20
171.7739868163999
 30
0.0
 11
87.29812103939995
 21
171.7739868163999
 31
0.0
  0
LINE
  5
C0
330
1E
100
AcDbEntity
  8
0
 62
     3
100
AcDbLine
 10
76.19813019469998
 20
181.7739868163999
 30
0.0
 11
76.69813019469998
 21
181.7739868163999
 31
0.0
  0
LINE
  5
C1
330
1E
100
AcDbEntity
  8
0
 62
     3
100
AcDbLine
 10
82.09812409119997
 20
174.4739990234
 30
0.0
 11
82.5981240912
 21
174.4739990234
 31
0.0
  0
LINE
  5
C2
330
1E
100
AcDbEntity
  8
0
 62
     3
100
AcDbLine
 10
76.19813019469998
 20
184.4739990234
 30
0.0
 11
76.69813019469998
 21
184.4739990234
 31
0.0
  0
LINE
  5
C3
330
1E
100
AcDbEntity
  8
0
 62
     3
100
AcDbLine
 10
82.09812409119997
 20
181.7739868163999
 30
0.0
 11
82.5981240912
 21
181.7739868163999
 31
0.0
  0
LINE
  5
C4
330
1E
100
AcDbEntity
  8
0
 62
     3
100
AcDbLine
 10
86.79812103939999
 20
184.4739990234
 30
0.0
 11
87.29812103939995
 21
184.4739990234
 31
0.0
  0
LINE
  5
C5
330
1E
100
AcDbEntity
  8
0
 62
     3
100
AcDbLine
 10
86.79812103939999
 20
181.7739868163999
 30
0.0
 11
87.29812103939995
 21
181.7739868163999
 31
0.0
  0
LINE
  5
C6
330
1E
100
AcDbEntity
  8
0
 62
     3
100
AcDbLine
 10
67.84812409119999
 20
192.8739929199
 30
0.0
 11
67.84812409119999
 21
193.3739929199
 31
0.0
  0
LINE
  5
C7
330
1E
100
AcDbEntity
  8
0
 62
     3
100
AcDbLine
 10
70.54812103939998
 20
192.8739929199
 30
0.0
 11
70.54812103939998
 21
193.3739929199
 31
0.0
  0
LINE
  5
C8
330
1E
100
AcDbEntity
  8
0
 62
     3
100
AcDbLine
 10
82.09812409119997
 20
184.4739990234
 30
0.0
 11
82.5981240912
 21
184.4739990234
 31
0.0
  0
LINE
  5
C9
330
1E
100
AcDbEntity
  8
0
 62
     3
100
AcDbLine
 10
86.79812103939999
 20
214.3973999023
 30
0.0
 11
87.29812103939995
 21
214.3973999023
 31
0.0
  0
LINE
  5
CA
330
1E
100
AcDbEntity
  8
0
 62
     3
100
AcDbLine
 10
86.89812714289997
 20
213.3973999023
 30
0.0
 11
87.1981301947
 21
213.3973999023
 31
0.0
  0
LINE
  5
CB
330
1E
100
AcDbEntity
  8
0
 62
     3
100
AcDbLine
 10
87.19809236689998
 20
213.3974042803
 30
0.0
 11
87.29809324859997
 21
214.0974049306
 31
0.0
  0
LINE
  5
CC
330
1E
100
AcDbEntity
  8
0
 62
     3
100
AcDbLine
 10
76.69813019469998
 20
219.7973937988
 30
0.0
 11
76.69813019469998
 21
214.0973968506
 31
0.0
  0
LINE
  5
CD
330
1E
100
AcDbEntity
  8
0
 62
     3
100
AcDbLine
 10
76.19813019469998
 20
219.7973937988
 30
0.0
 11
76.19813019469998
 21
214.0973968506
 31
0.0
  0
LINE
  5
CE
330
1E
100
AcDbEntity
  8
0
 62
     3
100
AcDbLine
 10
86.79812020569997
 20
214.0974343199
 30
0.0
 11
86.89812108739998
 21
213.3974336695
 31
0.0
  0
LINE
  5
CF
330
1E
100
AcDbEntity
  8
0
 62
     3
100
AcDbLine
 10
76.19813019469998
 20
214.3973999023
 30
0.0
 11
76.69813019469998
 21
214.3973999023
 31
0.0
  0
LINE
  5
D0
330
1E
100
AcDbEntity
  8
0
 62
     3
100
AcDbLine
 10
76.19811300069996
 20
214.0974398781998
 30
0.0
 11
76.29811388229999
 21
213.3974392278
 31
0.0
  0
LINE
  5
D1
330
1E
100
AcDbEntity
  8
0
 62
     3
100
AcDbLine
 10
76.29813629819999
 20
213.3973999023
 30
0.0
 11
76.59813934999998
 21
213.3973999023
 31
0.0
  0
LINE
  5
D2
330
1E
100
AcDbEntity
  8
0
 62
     3
100
AcDbLine
 10
82.5981240912
 20
219.7973937988
 30
0.0
 11
82.5981240912
 21
214.0973968506
 31
0.0
  0
LINE
  5
D3
330
1E
100
AcDbEntity
  8
0
 62
     3
100
AcDbLine
 10
82.09812409119997
 20
219.7973937988
 30
0.0
 11
82.09812409119997
 21
214.0973968506
 31
0.0
  0
LINE
  5
D4
330
1E
100
AcDbEntity
  8
0
 62
     3
100
AcDbLine
 10
82.09812409119997
 20
214.3973999023
 30
0.0
 11
82.5981240912
 21
214.3973999023
 31
0.0
  0
LINE
  5
D5
330
1E
100
AcDbEntity
  8
0
 62
     3
100
AcDbLine
 10
76.59808516179999
 20
213.3973987219
 30
0.0
 11
76.69808604349999
 21
214.0973993723
 31
0.0
  0
LINE
  5
D6
330
1E
100
AcDbEntity
  8
0
 62
     3
100
AcDbLine
 10
82.49809804809999
 20
213.3974008384999
 30
0.0
 11
82.59809892979999
 21
214.0974014889
 31
0.0
  0
LINE
  5
D7
330
1E
100
AcDbEntity
  8
0
 62
     3
100
AcDbLine
 10
82.09811509739997
 20
214.0974053928
 30
0.0
 11
82.1981159791
 21
213.3974047424
 31
0.0
  0
LINE
  5
D8
330
1E
100
AcDbEntity
  8
0
 62
     3
100
AcDbLine
 10
82.19813019469999
 20
213.3973999023
 30
0.0
 11
82.49813324649997
 21
213.3973999023
 31
0.0
  0
LINE
  5
D9
330
1E
100
AcDbEntity
  8
0
  6
CENTER
 62
     3
100
AcDbLine
 10
67.1981301947
 20
216.4974060058999
 30
0.0
 11
71.19813019469998
 21
216.4974060058999
 31
0.0
  0
LINE
  5
DA
330
1E
100
AcDbEntity
  8
0
  6
CENTER
 62
     3
100
AcDbLine
 10
69.19813019469997
 20
218.4974060058999
 30
0.0
 11
69.19813019469997
 21
214.4974060058999
 31
0.0
  0
LINE
  5
DB
330
1E
100
AcDbEntity
  8
0
 62
     3
100
AcDbLine
 10
120.9814859075999
 20
217.7731475829999
 30
0.0
 11
120.9814859075999
 21
215.2216644286998
 31
0.0
  0
LINE
  5
DC
330
1E
100
AcDbEntity
  8
0
 62
     3
100
AcDbLine
 10
120.4814859075999
 20
217.7731475829999
 30
0.0
 11
120.4814859075999
 21
215.2216644286998
 31
0.0
  0
LINE
  5
DD
330
1E
100
AcDbEntity
  8
0
 62
     3
100
AcDbLine
 10
149.2314859075999
 20
214.0973968506
 30
0.0
 11
152.2314859075999
 21
214.0973968506
 31
0.0
  0
LINE
  5
DE
330
1E
100
AcDbEntity
  8
0
 62
     3
100
AcDbLine
 10
67.69813019469999
 20
214.0973968506
 30
0.0
 11
70.69813019469998
 21
214.0973968506
 31
0.0
  0
LINE
  5
DF
330
1E
100
AcDbEntity
  8
0
 62
     3
100
AcDbLine
 10
63.24813324649998
 20
221.5973968506
 30
0.0
 11
90.7481332465
 21
221.5973968506
 31
0.0
  0
LINE
  5
E0
330
1E
100
AcDbEntity
  8
0
 62
     3
100
AcDbLine
 10
69.49813324649998
 20
233.2973937988
 30
0.0
 11
84.4981332465
 21
233.2973937988
 31
0.0
  0
LINE
  5
E1
330
1E
100
AcDbEntity
  8
0
 62
     3
100
AcDbLine
 10
69.49813324649998
 20
235.2973937988
 30
0.0
 11
84.4981332465
 21
235.2973937988
 31
0.0
  0
LINE
  5
E2
330
1E
100
AcDbEntity
  8
0
 62
     3
100
AcDbLine
 10
69.49813324649998
 20
235.2973937988
 30
0.0
 11
69.49813324649998
 21
233.2973937988
 31
0.0
  0
LINE
  5
E3
330
1E
100
AcDbEntity
  8
0
 62
     3
100
AcDbLine
 10
84.4981332465
 20
235.2973937988
 30
0.0
 11
84.4981332465
 21
233.2973937988
 31
0.0
  0
LINE
  5
E4
330
1E
100
AcDbEntity
  8
0
 62
     3
100
AcDbLine
 10
63.79590851499997
 20
255.197265625
 30
0.0
 11
90.20035797790001
 21
255.197265625
 31
0.0
  0
LINE
  5
E5
330
1E
100
AcDbEntity
  8
0
 62
     3
100
AcDbLine
 10
63.49600173719998
 20
254.8995199026999
 30
0.0
 11
63.24821759699998
 21
221.5973251075
 31
0.0
  0
LINE
  5
E6
330
1E
100
AcDbEntity
  8
0
 62
     3
100
AcDbLine
 10
90.5004715689
 20
254.8995956226999
 30
0.0
 11
90.74825570909998
 21
221.5974008274
 31
0.0
  0
LINE
  5
E7
330
1E
100
AcDbEntity
  8
0
 62
     3
100
AcDbLine
 10
64.18179530689997
 20
226.0973854122
 30
0.0
 11
64.14831318809999
 21
221.5973877997
 31
0.0
  0
LINE
  5
E8
330
1E
100
AcDbEntity
  8
0
 62
     3
100
AcDbLine
 10
89.8147090836
 20
226.0973850674
 30
0.0
 11
89.84819120229998
 21
221.5973874549
 31
0.0
  0
LINE
  5
E9
330
1E
100
AcDbEntity
  8
0
 62
     3
100
AcDbLine
 10
63.28162628839996
 20
226.0973968506
 30
0.0
 11
64.18165070249997
 21
226.0973968506
 31
0.0
  0
LINE
  5
EA
330
1E
100
AcDbEntity
  8
0
 62
     3
100
AcDbLine
 10
63.28905731869998
 20
227.0973968505999
 30
0.0
 11
65.78913361269997
 21
227.0973968505999
 31
0.0
  0
LINE
  5
EB
330
1E
100
AcDbEntity
  8
0
 62
     3
100
AcDbLine
 10
88.20714813899998
 20
227.0973968505999
 30
0.0
 11
90.7072091742
 21
227.0973968505999
 31
0.0
  0
LINE
  5
EC
330
1E
100
AcDbEntity
  8
0
 62
     3
100
AcDbLine
 10
89.81463104919999
 20
226.0973968506
 30
0.0
 11
90.71465546330001
 21
226.0973968506
 31
0.0
  0
LINE
  5
ED
330
1E
100
AcDbEntity
  8
0
 62
     3
100
AcDbLine
 10
65.99836303529997
 20
255.1973161618999
 30
0.0
 11
65.78928609519997
 21
227.0973700645
 31
0.0
  0
LINE
  5
EE
330
1E
100
AcDbEntity
  8
0
 62
     3
100
AcDbLine
 10
87.99818837909999
 20
255.1971483156
 30
0.0
 11
88.20726407029999
 21
227.0973700603
 31
0.0
  0
LINE
  5
EF
330
1E
100
AcDbEntity
  8
0
 62
     3
100
AcDbLine
 10
64.18175297249999
 20
226.0972718756
 30
0.0
 11
65.78924080799999
 21
227.0972719511998
 31
0.0
  0
LINE
  5
F0
330
1E
100
AcDbEntity
  8
0
 62
     3
100
AcDbLine
 10
89.81467731869996
 20
226.0975011302999
 30
0.0
 11
88.20718359239998
 21
227.097506716
 31
0.0
  0
LINE
  5
F1
330
1E
100
AcDbEntity
  8
0
 62
     3
100
AcDbLine
 10
74.49813324649999
 20
223.0973968505999
 30
0.0
 11
79.49813324649999
 21
223.0973968505999
 31
0.0
  0
LINE
  5
F2
330
1E
100
AcDbEntity
  8
0
 62
     3
100
AcDbLine
 10
74.49813324649999
 20
225.0973968505999
 30
0.0
 11
79.49813324649999
 21
225.0973968505999
 31
0.0
  0
LINE
  5
F3
330
1E
100
AcDbEntity
  8
0
 62
     3
100
AcDbLine
 10
79.49813324649999
 20
225.0973968505999
 30
0.0
 11
79.49813324649999
 21
223.0973968505999
 31
0.0
  0
LINE
  5
F4
330
1E
100
AcDbEntity
  8
0
 62
     3
100
AcDbLine
 10
74.49813324649999
 20
225.0973968505999
 30
0.0
 11
74.49813324649999
 21
223.0973968505999
 31
0.0
  0
LINE
  5
F5
330
1E
100
AcDbEntity
  8
0
 62
     3
100
AcDbLine
 10
64.29813629819998
 20
219.7973937988
 30
0.0
 11
89.6981301947
 21
219.7973937988
 31
0.0
  0
LINE
  5
F6
330
1E
100
AcDbEntity
  8
0
 62
     3
100
AcDbLine
 10
89.6981301947
 20
221.5973968506
 30
0.0
 11
89.6981301947
 21
219.7973937988
 31
0.0
  0
LINE
  5
F7
330
1E
100
AcDbEntity
  8
0
 62
     3
100
AcDbLine
 10
64.29813629819998
 20
221.5973968506
 30
0.0
 11
64.29813629819998
 21
219.7973937988
 31
0.0
  0
LINE
  5
F8
330
1E
100
AcDbEntity
  8
0
 62
     3
100
AcDbLine
 10
71.54812103939997
 20
219.7973937988
 30
0.0
 11
71.54812103939997
 21
214.3973999023
 31
0.0
  0
LINE
  5
F9
330
1E
100
AcDbEntity
  8
0
 62
     3
100
AcDbLine
 10
67.84812409119999
 20
213.3973999023
 30
0.0
 11
70.54812103939998
 21
213.3973999023
 31
0.0
  0
LINE
  5
FA
330
1E
100
AcDbEntity
  8
0
 62
     3
100
AcDbLine
 10
66.84812409119999
 20
219.7973937988
 30
0.0
 11
66.84812409119999
 21
214.3973999023
 31
0.0
  0
LINE
  5
FB
330
1E
100
AcDbEntity
  8
0
 62
     3
100
AcDbLine
 10
66.84821466889999
 20
214.3972582046
 30
0.0
 11
67.84810783459997
 21
213.3973650389
 31
0.0
  0
LINE
  5
FC
330
1E
100
AcDbEntity
  8
0
 62
     3
100
AcDbLine
 10
71.54819376329998
 20
214.3973337316999
 30
0.0
 11
70.54819270179999
 21
213.3973326700999
 31
0.0
  0
LINE
  5
FD
330
1E
100
AcDbEntity
  8
0
 62
     3
100
AcDbLine
 10
115.2314859075999
 20
221.5973968506
 30
0.0
 11
156.2314859075998
 21
221.5973968506
 31
0.0
  0
LINE
  5
FE
330
1E
100
AcDbEntity
  8
0
 62
     3
100
AcDbLine
 10
156.2314845103999
 20
221.5974005073999
 30
0.0
 11
155.9837010513998
 21
254.8995037524999
 31
0.0
  0
LINE
  5
FF
330
1E
100
AcDbEntity
  8
0
 62
     3
100
AcDbLine
 10
155.6837106389999
 20
255.197265625
 30
0.0
 11
115.7792611760999
 21
255.197265625
 31
0.0
  0
LINE
  5
100
330
1E
100
AcDbEntity
  8
0
 62
     3
100
AcDbLine
 10
115.4793444644999
 20
254.8994686157
 30
0.0
 11
115.2315611189999
 21
221.597380629
 31
0.0
  0
LINE
  5
101
330
1E
100
AcDbEntity
  8
0
 62
     3
100
AcDbLine
 10
115.2724099799
 20
227.0973968505999
 30
0.0
 11
117.7724862737999
 21
227.0973968505999
 31
0.0
  0
LINE
  5
102
330
1E
100
AcDbEntity
  8
0
 62
     3
100
AcDbLine
 10
115.2649636907999
 20
226.0973968506
 30
0.0
 11
116.1649881048999
 21
226.0973968506
 31
0.0
  0
LINE
  5
103
330
1E
100
AcDbEntity
  8
0
 62
     3
100
AcDbLine
 10
155.3315460213999
 20
221.5907045377999
 30
0.0
 11
155.2980140632999
 21
226.0974005733999
 31
0.0
  0
LINE
  5
104
330
1E
100
AcDbEntity
  8
0
 62
     3
100
AcDbLine
 10
116.1650775683999
 20
226.0974108711
 30
0.0
 11
116.1315456101999
 21
221.5907148356
 31
0.0
  0
LINE
  5
105
330
1E
100
AcDbEntity
  8
0
 62
     3
100
AcDbLine
 10
117.9816142123998
 20
255.1972655560998
 30
0.0
 11
117.7725378399999
 21
227.0973957504998
 31
0.0
  0
LINE
  5
106
330
1E
100
AcDbEntity
  8
0
 62
     3
100
AcDbLine
 10
153.6905229342998
 20
227.0974310007999
 30
0.0
 11
153.4814465618999
 21
255.1973008063999
 31
0.0
  0
LINE
  5
107
330
1E
100
AcDbEntity
  8
0
 62
     3
100
AcDbLine
 10
155.2979837102999
 20
226.0973968506
 30
0.0
 11
156.1980081243999
 21
226.0973968506
 31
0.0
  0
LINE
  5
108
330
1E
100
AcDbEntity
  8
0
 62
     3
100
AcDbLine
 10
153.6905008001999
 20
227.0973968505999
 30
0.0
 11
156.1905618352999
 21
227.0973968505999
 31
0.0
  0
LINE
  5
109
330
1E
100
AcDbEntity
  8
0
 62
     3
100
AcDbLine
 10
153.6904505696998
 20
227.0973201408999
 30
0.0
 11
155.2979447472999
 21
226.0973154579
 31
0.0
  0
LINE
  5
10A
330
1E
100
AcDbEntity
  8
0
 62
     3
100
AcDbLine
 10
117.7725271062999
 20
227.0973003258
 30
0.0
 11
116.165045885
 21
226.0973037028
 31
0.0
  0
LINE
  5
10B
330
1E
100
AcDbEntity
  8
0
 62
     3
100
AcDbLine
 10
119.3814950628999
 20
213.3973999023
 30
0.0
 11
122.0814920110999
 21
213.3973999023
 31
0.0
  0
LINE
  5
10C
330
1E
100
AcDbEntity
  8
0
 62
     3
100
AcDbLine
 10
118.3814950628999
 20
219.7973937988
 30
0.0
 11
118.3814950628999
 21
214.3973999023
 31
0.0
  0
LINE
  5
10D
330
1E
100
AcDbEntity
  8
0
 62
     3
100
AcDbLine
 10
123.0814920110999
 20
219.7973937988
 30
0.0
 11
123.0814920110999
 21
214.3973999023
 31
0.0
  0
LINE
  5
10E
330
1E
100
AcDbEntity
  8
0
 62
     3
100
AcDbLine
 10
133.0814920110998
 20
219.7973937988
 30
0.0
 11
133.0814920110998
 21
214.3973999023
 31
0.0
  0
LINE
  5
10F
330
1E
100
AcDbEntity
  8
0
 62
     3
100
AcDbLine
 10
128.3814950628999
 20
219.7973937988
 30
0.0
 11
128.3814950628999
 21
214.3973999023
 31
0.0
  0
LINE
  5
110
330
1E
100
AcDbEntity
  8
0
 62
     3
100
AcDbLine
 10
138.3814950629
 20
219.7973937988
 30
0.0
 11
138.3814950629
 21
214.3973999023
 31
0.0
  0
LINE
  5
111
330
1E
100
AcDbEntity
  8
0
 62
     3
100
AcDbLine
 10
143.0814920110998
 20
219.7973937988
 30
0.0
 11
143.0814920110998
 21
214.3973999023
 31
0.0
  0
LINE
  5
112
330
1E
100
AcDbEntity
  8
0
 62
     3
100
AcDbLine
 10
148.3814950628999
 20
219.7973937988
 30
0.0
 11
148.3814950628999
 21
214.3973999023
 31
0.0
  0
LINE
  5
113
330
1E
100
AcDbEntity
  8
0
 62
     3
100
AcDbLine
 10
153.0814920110999
 20
219.7973937988
 30
0.0
 11
153.0814920110999
 21
214.3973999023
 31
0.0
  0
LINE
  5
114
330
1E
100
AcDbEntity
  8
0
 62
     3
100
AcDbLine
 10
153.0814055859998
 20
214.3974700191999
 30
0.0
 11
152.0814006468999
 21
213.3974727508999
 31
0.0
  0
LINE
  5
115
330
1E
100
AcDbEntity
  8
0
 62
     3
100
AcDbLine
 10
118.3814689184998
 20
214.3973445213
 30
0.0
 11
119.3814699800999
 21
213.3973434597
 31
0.0
  0
LINE
  5
116
330
1E
100
AcDbEntity
  8
0
 62
     3
100
AcDbLine
 10
129.3814950628999
 20
213.3973999023
 30
0.0
 11
132.0814767522998
 21
213.3973999023
 31
0.0
  0
LINE
  5
117
330
1E
100
AcDbEntity
  8
0
 62
     3
100
AcDbLine
 10
139.3814950629
 20
213.3973999023
 30
0.0
 11
142.0814920110998
 21
213.3973999023
 31
0.0
  0
LINE
  5
118
330
1E
100
AcDbEntity
  8
0
 62
     3
100
AcDbLine
 10
149.3814950628999
 20
213.3973999023
 30
0.0
 11
152.0814767522999
 21
213.3973999023
 31
0.0
  0
LINE
  5
119
330
1E
100
AcDbEntity
  8
0
 62
     3
100
AcDbLine
 10
123.0815127504998
 20
214.3973553108998
 30
0.0
 11
122.0815116888998
 21
213.3973542492999
 31
0.0
  0
LINE
  5
11A
330
1E
100
AcDbEntity
  8
0
 62
     3
100
AcDbLine
 10
128.3814579552
 20
214.3973661004999
 30
0.0
 11
129.3814590167999
 21
213.3973650389
 31
0.0
  0
LINE
  5
11B
330
1E
100
AcDbEntity
  8
0
 62
     3
100
AcDbLine
 10
133.0813835109998
 20
214.397481989
 30
0.0
 11
132.0813677822999
 21
213.3974739310998
 31
0.0
  0
LINE
  5
11C
330
1E
100
AcDbEntity
  8
0
 62
     3
100
AcDbLine
 10
138.3814577814999
 20
214.3973553108998
 30
0.0
 11
139.3814588431
 21
213.3973542492999
 31
0.0
  0
LINE
  5
11D
330
1E
100
AcDbEntity
  8
0
 62
     3
100
AcDbLine
 10
143.0815231927
 20
214.3973661004999
 30
0.0
 11
142.0815221310999
 21
213.3973650389
 31
0.0
  0
LINE
  5
11E
330
1E
100
AcDbEntity
  8
0
 62
     3
100
AcDbLine
 10
148.3814683973999
 20
214.3973553108998
 30
0.0
 11
149.3814694589999
 21
213.3973542492999
 31
0.0
  0
LINE
  5
11F
330
1E
100
AcDbEntity
  8
0
 62
     3
100
AcDbLine
 10
64.14812714289999
 20
157.6239929198998
 30
0.0
 11
89.84813935
 21
157.6239929198998
 31
0.0
  0
LINE
  5
120
330
1E
100
AcDbEntity
  8
0
 62
     3
100
AcDbLine
 10
63.24813324649998
 20
197.7239990234
 30
0.0
 11
63.24813324649998
 21
158.5239868164
 31
0.0
  0
LINE
  5
121
330
1E
100
AcDbEntity
  8
0
 62
     3
100
AcDbLine
 10
90.7481332465
 20
197.7239990234
 30
0.0
 11
90.7481332465
 21
158.5239868164
 31
0.0
  0
LINE
  5
122
330
1E
100
AcDbEntity
  8
0
 62
     3
100
AcDbLine
 10
64.14833718329998
 20
198.623759947
 30
0.0
 11
63.24833498029996
 21
197.7237558475
 31
0.0
  0
LINE
  5
123
330
1E
100
AcDbEntity
  8
0
 62
     3
100
AcDbLine
 10
63.24811252699999
 20
158.5239926229
 30
0.0
 11
64.1481048508
 21
157.6240002990998
 31
0.0
  0
LINE
  5
124
330
1E
100
AcDbEntity
  8
0
 62
     3
100
AcDbLine
 10
89.84826416929998
 20
157.6238280897999
 30
0.0
 11
90.74826637219999
 21
158.5238321894
 31
0.0
  0
LINE
  5
125
330
1E
100
AcDbEntity
  8
0
 62
     3
100
AcDbLine
 10
90.74815588209999
 20
197.7240332931
 30
0.0
 11
89.84816355829998
 21
198.6240256168999
 31
0.0
  0
LINE
  5
126
330
1E
100
AcDbEntity
  8
0
 62
     3
100
AcDbLine
 10
76.19813019469998
 20
160.7739868164
 30
0.0
 11
76.69813019469998
 21
160.7739868164
 31
0.0
  0
LINE
  5
127
330
1E
100
AcDbEntity
  8
0
 62
     3
100
AcDbLine
 10
76.19813019469998
 20
165.4739990234
 30
0.0
 11
76.69813019469998
 21
165.4739990234
 31
0.0
  0
LINE
  5
128
330
1E
100
AcDbEntity
  8
0
 62
     3
100
AcDbLine
 10
76.19813019469998
 20
170.7739868163999
 30
0.0
 11
76.69813019469998
 21
170.7739868163999
 31
0.0
  0
LINE
  5
129
330
1E
100
AcDbEntity
  8
0
 62
     3
100
AcDbLine
 10
76.19813019469998
 20
175.4739990234
 30
0.0
 11
76.69813019469998
 21
175.4739990234
 31
0.0
  0
LINE
  5
12A
330
1E
100
AcDbEntity
  8
0
 62
     3
100
AcDbLine
 10
76.19813019469998
 20
180.7739868164
 30
0.0
 11
76.69813019469998
 21
180.7739868164
 31
0.0
  0
LINE
  5
12B
330
1E
100
AcDbEntity
  8
0
 62
     3
100
AcDbLine
 10
76.19813019469998
 20
185.4739990234
 30
0.0
 11
76.69813019469998
 21
185.4739990234
 31
0.0
  0
LINE
  5
12C
330
1E
100
AcDbEntity
  8
0
 62
     3
100
AcDbLine
 10
76.19813019469998
 20
195.4739990234
 30
0.0
 11
76.69813019469998
 21
195.4739990234
 31
0.0
  0
LINE
  5
12D
330
1E
100
AcDbEntity
  8
0
 62
     3
100
AcDbLine
 10
76.19813019469998
 20
190.7739868164
 30
0.0
 11
76.69813019469998
 21
190.7739868164
 31
0.0
  0
LINE
  5
12E
330
1E
100
AcDbEntity
  8
0
 62
     3
100
AcDbLine
 10
71.54812103939997
 20
193.3739929199
 30
0.0
 11
71.54812103939997
 21
192.8739929199
 31
0.0
  0
LINE
  5
12F
330
1E
100
AcDbEntity
  8
0
 62
     3
100
AcDbLine
 10
76.69813019469998
 20
195.4739990234
 30
0.0
 11
76.69813019469998
 21
190.7739868164
 31
0.0
  0
LINE
  5
130
330
1E
100
AcDbEntity
  8
0
 62
     3
100
AcDbLine
 10
82.5981240912
 20
195.4739990234
 30
0.0
 11
82.5981240912
 21
190.7739868164
 31
0.0
  0
LINE
  5
131
330
1E
100
AcDbEntity
  8
0
 62
     3
100
AcDbLine
 10
87.29812103939995
 20
195.4739990234
 30
0.0
 11
87.29812103939995
 21
190.7739868164
 31
0.0
  0
LINE
  5
132
330
1E
100
AcDbEntity
  8
0
 62
     3
100
AcDbLine
 10
86.79812103939999
 20
195.4739990234
 30
0.0
 11
86.79812103939999
 21
190.7739868164
 31
0.0
  0
LINE
  5
133
330
1E
100
AcDbEntity
  8
0
 62
     3
100
AcDbLine
 10
82.09812409119997
 20
195.4739990234
 30
0.0
 11
82.09812409119997
 21
190.7739868164
 31
0.0
  0
LINE
  5
134
330
1E
100
AcDbEntity
  8
0
 62
     3
100
AcDbLine
 10
76.19813019469998
 20
195.4739990234
 30
0.0
 11
76.19813019469998
 21
190.7739868164
 31
0.0
  0
LINE
  5
135
330
1E
100
AcDbEntity
  8
0
 62
     3
100
AcDbLine
 10
66.84812409119999
 20
193.3739929199
 30
0.0
 11
66.84812409119999
 21
192.8739929199
 31
0.0
  0
LINE
  5
136
330
1E
100
AcDbEntity
  8
0
 62
     3
100
AcDbLine
 10
82.09812409119997
 20
160.7739868164
 30
0.0
 11
82.5981240912
 21
160.7739868164
 31
0.0
  0
LINE
  5
137
330
1E
100
AcDbEntity
  8
0
 62
     3
100
AcDbLine
 10
86.79812103939999
 20
160.7739868164
 30
0.0
 11
87.29812103939995
 21
160.7739868164
 31
0.0
  0
LINE
  5
138
330
1E
100
AcDbEntity
  8
0
 62
     3
100
AcDbLine
 10
82.09812409119997
 20
165.4739990234
 30
0.0
 11
82.5981240912
 21
165.4739990234
 31
0.0
  0
LINE
  5
139
330
1E
100
AcDbEntity
  8
0
 62
     3
100
AcDbLine
 10
86.79812103939999
 20
165.4739990234
 30
0.0
 11
87.29812103939995
 21
165.4739990234
 31
0.0
  0
LINE
  5
13A
330
1E
100
AcDbEntity
  8
0
 62
     3
100
AcDbLine
 10
86.79812103939999
 20
170.7739868163999
 30
0.0
 11
87.29812103939995
 21
170.7739868163999
 31
0.0
  0
LINE
  5
13B
330
1E
100
AcDbEntity
  8
0
 62
     3
100
AcDbLine
 10
82.09812409119997
 20
170.7739868163999
 30
0.0
 11
82.5981240912
 21
170.7739868163999
 31
0.0
  0
LINE
  5
13C
330
1E
100
AcDbEntity
  8
0
 62
     3
100
AcDbLine
 10
82.09812409119997
 20
175.4739990234
 30
0.0
 11
82.5981240912
 21
175.4739990234
 31
0.0
  0
LINE
  5
13D
330
1E
100
AcDbEntity
  8
0
 62
     3
100
AcDbLine
 10
86.79812103939999
 20
175.4739990234
 30
0.0
 11
87.29812103939995
 21
175.4739990234
 31
0.0
  0
LINE
  5
13E
330
1E
100
AcDbEntity
  8
0
 62
     3
100
AcDbLine
 10
86.79812103939999
 20
180.7739868164
 30
0.0
 11
87.29812103939995
 21
180.7739868164
 31
0.0
  0
LINE
  5
13F
330
1E
100
AcDbEntity
  8
0
 62
     3
100
AcDbLine
 10
82.09812409119997
 20
180.7739868164
 30
0.0
 11
82.5981240912
 21
180.7739868164
 31
0.0
  0
LINE
  5
140
330
1E
100
AcDbEntity
  8
0
 62
     3
100
AcDbLine
 10
82.09812409119997
 20
185.4739990234
 30
0.0
 11
82.5981240912
 21
185.4739990234
 31
0.0
  0
LINE
  5
141
330
1E
100
AcDbEntity
  8
0
 62
     3
100
AcDbLine
 10
86.79812103939999
 20
185.4739990234
 30
0.0
 11
87.29812103939995
 21
185.4739990234
 31
0.0
  0
LINE
  5
142
330
1E
100
AcDbEntity
  8
0
 62
     3
100
AcDbLine
 10
86.79812103939999
 20
190.7739868164
 30
0.0
 11
87.29812103939995
 21
190.7739868164
 31
0.0
  0
LINE
  5
143
330
1E
100
AcDbEntity
  8
0
 62
     3
100
AcDbLine
 10
82.09812409119997
 20
190.7739868164
 30
0.0
 11
82.5981240912
 21
190.7739868164
 31
0.0
  0
LINE
  5
144
330
1E
100
AcDbEntity
  8
0
 62
     3
100
AcDbLine
 10
82.09812409119997
 20
195.4739990234
 30
0.0
 11
82.5981240912
 21
195.4739990234
 31
0.0
  0
LINE
  5
145
330
1E
100
AcDbEntity
  8
0
 62
     3
100
AcDbLine
 10
86.79812103939999
 20
195.4739990234
 30
0.0
 11
87.29812103939995
 21
195.4739990234
 31
0.0
  0
LINE
  5
146
330
1E
100
AcDbEntity
  8
0
 62
     3
100
AcDbLine
 10
76.19813019469998
 20
165.4739990234
 30
0.0
 11
76.19813019469998
 21
160.7739868164
 31
0.0
  0
LINE
  5
147
330
1E
100
AcDbEntity
  8
0
 62
     3
100
AcDbLine
 10
76.19813019469998
 20
175.4739990234
 30
0.0
 11
76.19813019469998
 21
170.7739868163999
 31
0.0
  0
LINE
  5
148
330
1E
100
AcDbEntity
  8
0
 62
     3
100
AcDbLine
 10
76.19813019469998
 20
185.4739990234
 30
0.0
 11
76.19813019469998
 21
180.7739868164
 31
0.0
  0
LINE
  5
149
330
1E
100
AcDbEntity
  8
0
 62
     3
100
AcDbLine
 10
76.69813019469998
 20
185.4739990234
 30
0.0
 11
76.69813019469998
 21
180.7739868164
 31
0.0
  0
LINE
  5
14A
330
1E
100
AcDbEntity
  8
0
 62
     3
100
AcDbLine
 10
76.69813019469998
 20
175.4739990234
 30
0.0
 11
76.69813019469998
 21
170.7739868163999
 31
0.0
  0
LINE
  5
14B
330
1E
100
AcDbEntity
  8
0
 62
     3
100
AcDbLine
 10
76.69813019469998
 20
165.4739990234
 30
0.0
 11
76.69813019469998
 21
160.7739868164
 31
0.0
  0
LINE
  5
14C
330
1E
100
AcDbEntity
  8
0
 62
     3
100
AcDbLine
 10
82.09812409119997
 20
165.4739990234
 30
0.0
 11
82.09812409119997
 21
160.7739868164
 31
0.0
  0
LINE
  5
14D
330
1E
100
AcDbEntity
  8
0
 62
     3
100
AcDbLine
 10
82.09812409119997
 20
175.4739990234
 30
0.0
 11
82.09812409119997
 21
170.7739868163999
 31
0.0
  0
LINE
  5
14E
330
1E
100
AcDbEntity
  8
0
 62
     3
100
AcDbLine
 10
82.09812409119997
 20
185.4739990234
 30
0.0
 11
82.09812409119997
 21
180.7739868164
 31
0.0
  0
LINE
  5
14F
330
1E
100
AcDbEntity
  8
0
 62
     3
100
AcDbLine
 10
86.79812103939999
 20
185.4739990234
 30
0.0
 11
86.79812103939999
 21
180.7739868164
 31
0.0
  0
LINE
  5
150
330
1E
100
AcDbEntity
  8
0
 62
     3
100
AcDbLine
 10
86.79812103939999
 20
175.4739990234
 30
0.0
 11
86.79812103939999
 21
170.7739868163999
 31
0.0
  0
LINE
  5
151
330
1E
100
AcDbEntity
  8
0
 62
     3
100
AcDbLine
 10
86.79812103939999
 20
165.4739990234
 30
0.0
 11
86.79812103939999
 21
160.7739868164
 31
0.0
  0
LINE
  5
152
330
1E
100
AcDbEntity
  8
0
 62
     3
100
AcDbLine
 10
87.29812103939995
 20
175.4739990234
 30
0.0
 11
87.29812103939995
 21
170.7739868163999
 31
0.0
  0
LINE
  5
153
330
1E
100
AcDbEntity
  8
0
 62
     3
100
AcDbLine
 10
87.29812103939995
 20
165.4739990234
 30
0.0
 11
87.29812103939995
 21
160.7739868164
 31
0.0
  0
LINE
  5
154
330
1E
100
AcDbEntity
  8
0
 62
     3
100
AcDbLine
 10
87.29812103939995
 20
185.4739990234
 30
0.0
 11
87.29812103939995
 21
180.7739868164
 31
0.0
  0
LINE
  5
155
330
1E
100
AcDbEntity
  8
0
 62
     3
100
AcDbLine
 10
82.5981240912
 20
165.4739990234
 30
0.0
 11
82.5981240912
 21
160.7739868164
 31
0.0
  0
LINE
  5
156
330
1E
100
AcDbEntity
  8
0
 62
     3
100
AcDbLine
 10
82.5981240912
 20
175.4739990234
 30
0.0
 11
82.5981240912
 21
170.7739868163999
 31
0.0
  0
LINE
  5
157
330
1E
100
AcDbEntity
  8
0
 62
     3
100
AcDbLine
 10
82.5981240912
 20
185.4739990234
 30
0.0
 11
82.5981240912
 21
180.7739868164
 31
0.0
  0
LINE
  5
158
330
1E
100
AcDbEntity
  8
0
 62
     3
100
AcDbLine
 10
66.84812409119999
 20
163.3739929198999
 30
0.0
 11
71.54812103939997
 21
163.3739929198999
 31
0.0
  0
LINE
  5
159
330
1E
100
AcDbEntity
  8
0
 62
     3
100
AcDbLine
 10
66.84812409119999
 20
162.8739929198999
 30
0.0
 11
71.54812103939997
 21
162.8739929198999
 31
0.0
  0
LINE
  5
15A
330
1E
100
AcDbEntity
  8
0
 62
     3
100
AcDbLine
 10
66.84812409119999
 20
193.3739929199
 30
0.0
 11
71.54812103939997
 21
193.3739929199
 31
0.0
  0
LINE
  5
15B
330
1E
100
AcDbEntity
  8
0
 62
     3
100
AcDbLine
 10
66.84812409119999
 20
192.8739929199
 30
0.0
 11
71.54812103939997
 21
192.8739929199
 31
0.0
  0
LINE
  5
15C
330
1E
100
AcDbEntity
  8
0
 62
     3
100
AcDbLine
 10
66.84812409119999
 20
163.3739929198999
 30
0.0
 11
66.84812409119999
 21
162.8739929198999
 31
0.0
  0
LINE
  5
15D
330
1E
100
AcDbEntity
  8
0
 62
     3
100
AcDbLine
 10
71.54812103939997
 20
163.3739929198999
 30
0.0
 11
71.54812103939997
 21
162.8739929198999
 31
0.0
  0
LINE
  5
15E
330
1E
100
AcDbEntity
  8
0
 62
     3
100
AcDbLine
 10
87.29812103939995
 20
219.7973937988
 30
0.0
 11
87.29812103939995
 21
214.0973968506
 31
0.0
  0
LINE
  5
15F
330
1E
100
AcDbEntity
  8
0
 62
     3
100
AcDbLine
 10
86.79812103939999
 20
219.7973937988
 30
0.0
 11
86.79812103939999
 21
214.0973968506
 31
0.0
  0
LINE
  5
160
330
1E
100
AcDbEntity
  8
0
 62
     3
100
AcDbLine
 10
116.2814889592999
 20
219.7973937988
 30
0.0
 11
155.1814828557999
 21
219.7973937988
 31
0.0
  0
LINE
  5
161
330
1E
100
AcDbEntity
  8
0
 62
     3
100
AcDbLine
 10
116.2814889592999
 20
221.5973968506
 30
0.0
 11
116.2814889592999
 21
219.7973937988
 31
0.0
  0
LINE
  5
162
330
1E
100
AcDbEntity
  8
0
 62
     3
100
AcDbLine
 10
155.1814828557999
 20
221.5973968506
 30
0.0
 11
155.1814828557999
 21
219.7973937988
 31
0.0
  0
LINE
  5
163
330
1E
100
AcDbEntity
  8
0
 62
     3
100
AcDbLine
 10
89.6981301947
 20
197.2739868164
 30
0.0
 11
89.6981301947
 21
158.9739990234
 31
0.0
  0
LINE
  5
164
330
1E
100
AcDbEntity
  8
0
 62
     3
100
AcDbLine
 10
64.29813629819998
 20
197.2739868164
 30
0.0
 11
64.29813629819998
 21
158.9739990234
 31
0.0
  0
LINE
  5
165
330
1E
100
AcDbEntity
  8
0
 62
     3
100
AcDbLine
 10
64.59813934999999
 20
197.5739898681999
 30
0.0
 11
89.39812714289997
 21
197.5739898681999
 31
0.0
  0
LINE
  5
166
330
1E
100
AcDbEntity
  8
0
 62
     3
100
AcDbLine
 10
64.59813934999999
 20
158.6739959717
 30
0.0
 11
89.39814240169999
 21
158.6739959717
 31
0.0
  0
LINE
  5
167
330
1E
100
AcDbEntity
  8
0
 62
     3
100
AcDbLine
 10
64.59805640969998
 20
197.5740914912
 30
0.0
 11
64.29805367199998
 21
197.274084935
 31
0.0
  0
LINE
  5
168
330
1E
100
AcDbEntity
  8
0
 62
     3
100
AcDbLine
 10
64.29813077019996
 20
158.973958439
 30
0.0
 11
64.5981246149
 21
158.6739645943
 31
0.0
  0
LINE
  5
169
330
1E
100
AcDbEntity
  8
0
 62
     3
100
AcDbLine
 10
89.39819516789999
 20
158.6739462848998
 30
0.0
 11
89.69820217929997
 21
158.9739485421
 31
0.0
  0
LINE
  5
16A
330
1E
100
AcDbEntity
  8
0
 62
     3
100
AcDbLine
 10
89.69811612399999
 20
197.2739129861
 30
0.0
 11
89.39809925859998
 21
197.5739269938
 31
0.0
  0
LINE
  5
16B
330
1E
100
AcDbEntity
  8
0
 62
     3
100
AcDbLine
 10
64.29813629819998
 20
184.1239929199
 30
0.0
 11
66.29813629819998
 21
184.1239929199
 31
0.0
  0
LINE
  5
16C
330
1E
100
AcDbEntity
  8
0
 62
     3
100
AcDbLine
 10
64.29813629819998
 20
172.1239929199
 30
0.0
 11
66.29813629819998
 21
172.1239929199
 31
0.0
  0
LINE
  5
16D
330
1E
100
AcDbEntity
  8
0
 62
     3
100
AcDbLine
 10
66.82813507749997
 20
181.6239929199
 30
0.0
 11
66.82813507749997
 21
174.6239929199
 31
0.0
  0
LINE
  5
16E
330
1E
100
AcDbEntity
  8
0
 62
     3
100
AcDbLine
 10
66.32810233669999
 20
182.1239973109999
 30
0.0
 11
66.82811365709998
 21
181.6239859907
 31
0.0
  0
LINE
  5
16F
330
1E
100
AcDbEntity
  8
0
 62
     3
100
AcDbLine
 10
66.8280576096
 20
174.6240875902
 30
0.0
 11
66.29805995519999
 21
174.0940940011
 31
0.0
  0
LINE
  5
170
330
1E
100
AcDbEntity
  8
0
 62
     3
100
AcDbLine
 10
66.29813629819998
 20
184.1239929199
 30
0.0
 11
66.29813629819998
 21
172.1239929199
 31
0.0
  0
LINE
  5
171
330
1E
100
AcDbEntity
  8
0
 62
     3
100
AcDbLine
 10
64.29813629819998
 20
170.1239929198999
 30
0.0
 11
66.29813629819998
 21
170.1239929198999
 31
0.0
  0
LINE
  5
172
330
1E
100
AcDbEntity
  8
0
 62
     3
100
AcDbLine
 10
64.29813629819998
 20
166.1239929198999
 30
0.0
 11
66.29813629819998
 21
166.1239929198999
 31
0.0
  0
LINE
  5
173
330
1E
100
AcDbEntity
  8
0
 62
     3
100
AcDbLine
 10
66.29813629819998
 20
170.1239929198999
 30
0.0
 11
66.29813629819998
 21
166.1239929198999
 31
0.0
  0
LINE
  5
174
330
1E
100
AcDbEntity
  8
0
 62
     3
100
AcDbLine
 10
64.29813629819998
 20
186.1239929199
 30
0.0
 11
66.29813629819998
 21
186.1239929199
 31
0.0
  0
LINE
  5
175
330
1E
100
AcDbEntity
  8
0
 62
     3
100
AcDbLine
 10
66.29813629819998
 20
186.1239929199
 30
0.0
 11
66.29813629819998
 21
190.1239929199
 31
0.0
  0
LINE
  5
176
330
1E
100
AcDbEntity
  8
0
 62
     3
100
AcDbLine
 10
64.29813629819998
 20
190.1239929199
 30
0.0
 11
66.29813629819998
 21
190.1239929199
 31
0.0
  0
LINE
  5
177
330
1E
100
AcDbEntity
  8
0
 62
     3
100
AcDbLine
 10
88.59813935
 20
169.6239929198999
 30
0.0
 11
88.59813935
 21
166.6239929198999
 31
0.0
  0
LINE
  5
178
330
1E
100
AcDbEntity
  8
0
 62
     3
100
AcDbLine
 10
88.59813935
 20
169.6239929198999
 30
0.0
 11
89.6981301947
 21
169.6239929198999
 31
0.0
  0
LINE
  5
179
330
1E
100
AcDbEntity
  8
0
 62
     3
100
AcDbLine
 10
88.59813935
 20
166.6239929198999
 30
0.0
 11
89.6981301947
 21
166.6239929198999
 31
0.0
  0
LINE
  5
17A
330
1E
100
AcDbEntity
  8
0
 62
     3
100
AcDbLine
 10
88.59813935
 20
186.6239929199
 30
0.0
 11
89.6981301947
 21
186.6239929199
 31
0.0
  0
LINE
  5
17B
330
1E
100
AcDbEntity
  8
0
 62
     3
100
AcDbLine
 10
88.59813935
 20
186.6239929199
 30
0.0
 11
88.59813935
 21
189.6239929199
 31
0.0
  0
LINE
  5
17C
330
1E
100
AcDbEntity
  8
0
 62
     3
100
AcDbLine
 10
88.59813935
 20
189.6239929199
 30
0.0
 11
89.6981301947
 21
189.6239929199
 31
0.0
  0
LINE
  5
17D
330
1E
100
AcDbEntity
  8
0
 62
     3
100
AcDbLine
 10
76.19813019469998
 20
194.4739990234
 30
0.0
 11
76.69813019469998
 21
194.4739990234
 31
0.0
  0
LINE
  5
17E
330
1E
100
AcDbEntity
  8
0
 62
     3
100
AcDbLine
 10
76.19813019469998
 20
191.7739868164
 30
0.0
 11
76.69813019469998
 21
191.7739868164
 31
0.0
  0
LINE
  5
17F
330
1E
100
AcDbEntity
  8
0
 62
     3
100
AcDbLine
 10
82.09812409119997
 20
194.4739990234
 30
0.0
 11
82.5981240912
 21
194.4739990234
 31
0.0
  0
LINE
  5
180
330
1E
100
AcDbEntity
  8
0
 62
     3
100
AcDbLine
 10
82.09812409119997
 20
191.7739868164
 30
0.0
 11
82.5981240912
 21
191.7739868164
 31
0.0
  0
LINE
  5
181
330
1E
100
AcDbEntity
  8
0
 62
     3
100
AcDbLine
 10
86.79812103939999
 20
194.4739990234
 30
0.0
 11
87.29812103939995
 21
194.4739990234
 31
0.0
  0
LINE
  5
182
330
1E
100
AcDbEntity
  8
0
 62
     3
100
AcDbLine
 10
86.79812103939999
 20
191.7739868164
 30
0.0
 11
87.29812103939995
 21
191.7739868164
 31
0.0
  0
LINE
  5
183
330
1E
100
AcDbEntity
  8
0
 62
     3
100
AcDbLine
 10
70.54812103939998
 20
163.3739929198999
 30
0.0
 11
70.54812103939998
 21
162.8739929198999
 31
0.0
  0
LINE
  5
184
330
1E
100
AcDbEntity
  8
0
  6
CENTER
 62
     3
100
AcDbLine
 10
150.7314859075999
 20
218.4974060058999
 30
0.0
 11
150.7314859075999
 21
214.4974060058999
 31
0.0
  0
LINE
  5
185
330
1E
100
AcDbEntity
  8
0
  6
CENTER
 62
     3
100
AcDbLine
 10
148.7314859075999
 20
216.4974060058999
 30
0.0
 11
152.7314859075999
 21
216.4974060058999
 31
0.0
  0
LINE
  5
186
330
1E
100
AcDbEntity
  8
0
  6
CENTER
 62
     3
100
AcDbLine
 10
118.7314859075998
 20
216.4974060058999
 30
0.0
 11
122.7314859075999
 21
216.4974060058999
 31
0.0
  0
LINE
  5
187
330
1E
100
AcDbEntity
  8
0
  6
CENTER
 62
     3
100
AcDbLine
 10
120.7314859075999
 20
218.4974060058999
 30
0.0
 11
120.7314859075999
 21
214.4974060058999
 31
0.0
  0
LINE
  5
188
330
1E
100
AcDbEntity
  8
0
 62
     3
100
AcDbLine
 10
119.2314859075999
 20
214.0973968506
 30
0.0
 11
122.2314859075999
 21
214.0973968506
 31
0.0
  0
LINE
  5
189
330
1E
100
AcDbEntity
  8
0
  6
CENTER
 62
     3
100
AcDbLine
 10
128.7314859075999
 20
216.4974060058999
 30
0.0
 11
132.7314859075999
 21
216.4974060058999
 31
0.0
  0
LINE
  5
18A
330
1E
100
AcDbEntity
  8
0
  6
CENTER
 62
     3
100
AcDbLine
 10
130.7314859075999
 20
218.4974060058999
 30
0.0
 11
130.7314859075999
 21
214.4974060058999
 31
0.0
  0
LINE
  5
18B
330
1E
100
AcDbEntity
  8
0
 62
     3
100
AcDbLine
 10
129.2314859075998
 20
214.0973968506
 30
0.0
 11
132.2314859075998
 21
214.0973968506
 31
0.0
  0
LINE
  5
18C
330
1E
100
AcDbEntity
  8
0
  6
CENTER
 62
     3
100
AcDbLine
 10
138.7314859075999
 20
216.4974060058999
 30
0.0
 11
142.7314859075998
 21
216.4974060058999
 31
0.0
  0
LINE
  5
18D
330
1E
100
AcDbEntity
  8
0
  6
CENTER
 62
     3
100
AcDbLine
 10
140.7314859075999
 20
218.4974060058999
 30
0.0
 11
140.7314859075999
 21
214.4974060058999
 31
0.0
  0
LINE
  5
18E
330
1E
100
AcDbEntity
  8
0
 62
     3
100
AcDbLine
 10
139.2314859075999
 20
214.0973968506
 30
0.0
 11
142.2314859075999
 21
214.0973968506
 31
0.0
  0
LINE
  5
18F
330
1E
100
AcDbEntity
  8
0
 62
     3
100
AcDbLine
 10
150.9814859075999
 20
217.7731475829999
 30
0.0
 11
150.9814859075999
 21
215.2216644286998
 31
0.0
  0
LINE
  5
190
330
1E
100
AcDbEntity
  8
0
 62
     3
100
AcDbLine
 10
150.4814859076
 20
217.7731475829999
 30
0.0
 11
150.4814859076
 21
215.2216644286998
 31
0.0
  0
ARC
  5
48A
330
1E
100
AcDbEntity
  8
0
 62
     3
100
AcDbCircle
 10
63.79590851499997
 20
254.8972167969
 30
0.0
 40
0.3000000119
100
AcDbArc
 50
89.99998201389999
 51
179.5737602236
  0
ARC
  5
48B
330
1E
100
AcDbEntity
  8
0
 62
     3
100
AcDbCircle
 10
90.20035797790001
 20
254.8972167969
 30
0.0
 40
0.3000000119
100
AcDbArc
 50
0.4262078596000002
 51
89.99998201389999
  0
CIRCLE
  5
48C
330
1E
100
AcDbEntity
  8
0
 62
     3
100
AcDbCircle
 10
69.19813019469997
 20
216.4974060058999
 30
0.0
 40
1.299999237099999
  0
ARC
  5
48D
330
1E
100
AcDbEntity
  8
0
 62
     3
100
AcDbCircle
 10
115.7792611760999
 20
254.8972167969
 30
0.0
 40
0.3000000119
100
AcDbArc
 50
89.99998201389999
 51
179.5738148651
  0
ARC
  5
48E
330
1E
100
AcDbEntity
  8
0
 62
     3
100
AcDbCircle
 10
155.6837106389999
 20
254.8972167969
 30
0.0
 40
0.3000000119
100
AcDbArc
 50
0.4262104210000002
 51
89.99998201389999
  0
CIRCLE
  5
48F
330
1E
100
AcDbEntity
  8
0
 62
     3
100
AcDbCircle
 10
120.7314859075999
 20
216.4974060058999
 30
0.0
 40
1.299999237099999
  0
CIRCLE
  5
490
330
1E
100
AcDbEntity
  8
0
 62
     3
100
AcDbCircle
 10
130.7314859075999
 20
216.4974060058999
 30
0.0
 40
1.299999237099999
  0
CIRCLE
  5
491
330
1E
100
AcDbEntity
  8
0
 62
     3
100
AcDbCircle
 10
140.7314859075999
 20
216.4974060058999
 30
0.0
 40
1.299999237099999
  0
CIRCLE
  5
492
330
1E
100
AcDbEntity
  8
0
 62
     3
100
AcDbCircle
 10
150.7314859075999
 20
216.4974060058999
 30
0.0
 40
1.299999237099999
  0
LINE
  5
534
330
1E
100
AcDbEntity
  8
0
  6
CENTER
 62
     3
100
AcDbLine
 10
76.99813324649999
 20
258.197265625
 30
0.0
 11
76.99813324649999
 21
210.3973999023
 31
0.0
  0
LINE
  5
535
330
1E
100
AcDbEntity
  8
0
  6
CENTER
 62
     3
100
AcDbLine
 10
135.7314859076
 20
258.197265625
 30
0.0
 11
135.7314859076
 21
210.3973999023
 31
0.0
  0
LINE
  5
536
330
1E
100
AcDbEntity
  8
0
  6
CENTER
 62
     3
100
AcDbLine
 10
60.24813324649997
 20
178.1239929199
 30
0.0
 11
93.74813324649997
 21
178.1239929199
 31
0.0
  0
LINE
  5
537
330
1E
100
AcDbEntity
  8
0
  6
CENTER
 62
     3
100
AcDbLine
 10
76.99813324649999
 20
201.6239929199
 30
0.0
 11
76.99813324649999
 21
154.6239929198998
 31
0.0
  0
LINE
  5
80B
330
1E
100
AcDbEntity
  8
0
100
AcDbLine
 10
0.0
 20
0.0
 30
0.0
 11
210.0
 21
0.0
 31
0.0
  0
LINE
  5
80C
330
1E
100
AcDbEntity
  8
0
100
AcDbLine
 10
210.0
 20
0.0
 30
0.0
 11
210.0
 21
297.0
 31
0.0
  0
LINE
  5
80D
330
1E
100
AcDbEntity
  8
0
100
AcDbLine
 10
210.0
 20
297.0
 30
0.0
 11
0.0
 21
297.0
 31
0.0
  0
LINE
  5
80E
330
1E
100
AcDbEntity
  8
0
100
AcDbLine
 10
0.0
 20
297.0
 30
0.0
 11
0.0
 21
0.0
 31
0.0
  0
TEXT
  5
813
330
1E
100
AcDbEntity
  8
0
 62
     5
100
AcDbText
 10
145.0
 20
10.0
 30
0.0
 40
5.0
  1
ＭＡ４－Ｒ０００３４Ｂ
 41
0.8443967743953109
 72
     5
 11
199.0413935612998
 21
10.0
 31
0.0
100
AcDbText
  0
TEXT
  5
825
330
1E
100
AcDbEntity
  8
0
 62
     7
100
AcDbText
 10
146.0
 20
100.00000295525
 30
0.0
 40
2.999994089499998
  1
RH4B-ULAC
 11
146.0
 21
101.5
 31
0.0
100
AcDbText
 73
     2
  0
TEXT
  5
826
330
1E
100
AcDbEntity
  8
0
 62
     7
100
AcDbText
 10
146.0
 20
90.00000295524989
 30
0.0
 40
2.999994089499998
  1
RH4B-ULDDC
 11
146.0
 21
91.49999999999989
 31
0.0
100
AcDbText
 73
     2
  0
TEXT
  5
827
330
1E
100
AcDbEntity
  8
0
 62
     7
100
AcDbText
 10
146.0
 20
95.00000295524989
 30
0.0
 40
2.999994089499998
  1
RH4B-ULDC
 11
146.0
 21
96.49999999999991
 31
0.0
100
AcDbText
 73
     2
  0
TEXT
  5
828
330
1E
100
AcDbEntity
  8
0
 62
     7
100
AcDbText
 10
146.0
 20
105.0000029552498
 30
0.0
 40
2.999994089499998
  1
RH4B-UDDC
 11
146.0
 21
106.4999999999999
 31
0.0
100
AcDbText
 73
     2
  0
TEXT
  5
829
330
1E
100
AcDbEntity
  8
0
 62
     7
100
AcDbText
 10
146.0
 20
110.0000029552498
 30
0.0
 40
2.999994089499998
  1
RH4B-UDC
 11
146.0
 21
111.4999999999999
 31
0.0
100
AcDbText
 73
     2
  0
TEXT
  5
82A
330
1E
100
AcDbEntity
  8
0
 62
     7
100
AcDbText
 10
146.0
 20
115.0000029552499
 30
0.0
 40
2.999994089499998
  1
RH4B-UAC
 11
146.0
 21
116.5
 31
0.0
100
AcDbText
 73
     2
  0
ENDSEC
  0
SECTION
  2
OBJECTS
  0
DICTIONARY
  5
C
330
0
100
AcDbDictionary
281
     1
  3
ACAD_GROUP
350
D
  3
ACAD_LAYOUT
350
19
  3
ACAD_MLINESTYLE
350
16
  3
ACAD_PLOTSETTINGS
350
18
  3
ACAD_PLOTSTYLENAME
350
E
  3
AcDbVariableDictionary
350
82B
  0
DICTIONARY
  5
D
102
{ACAD_REACTORS
330
C
102
}
330
C
100
AcDbDictionary
281
     1
  0
DICTIONARY
  5
19
102
{ACAD_REACTORS
330
C
102
}
330
C
100
AcDbDictionary
281
     1
  3
Model
350
21
  3
ﾚｲｱｳﾄ1
350
1D
  0
DICTIONARY
  5
16
102
{ACAD_REACTORS
330
C
102
}
330
C
100
AcDbDictionary
281
     1
  3
Standard
350
17
  0
DICTIONARY
  5
18
102
{ACAD_REACTORS
330
C
102
}
330
C
100
AcDbDictionary
281
     1
  0
ACDBDICTIONARYWDFLT
  5
E
102
{ACAD_REACTORS
330
C
102
}
330
C
100
AcDbDictionary
281
     1
  3
Normal
350
F
100
AcDbDictionaryWithDefault
340
F
  0
DICTIONARY
  5
82B
102
{ACAD_REACTORS
330
C
102
}
330
C
100
AcDbDictionary
281
     1
  3
DIMASSOC
350
82C
  0
LAYOUT
  5
21
102
{ACAD_REACTORS
330
19
102
}
330
19
100
AcDbPlotSettings
  1

  2
C:\Program Files\AutoCAD 2000i\plotters\DWF Classic.pc3
  4

  6

 40
0.0
 41
0.0
 42
0.0
 43
0.0
 44
0.0
 45
0.0
 46
0.0
 47
0.0
 48
0.0
 49
0.0
140
0.0
141
0.0
142
1.0
143
1.0
 70
  1712
 72
     0
 73
     0
 74
     0
  7

 75
     0
147
1.0
148
0.0
149
0.0
100
AcDbLayout
  1
Model
 70
     1
 71
     0
 10
0.0
 20
0.0
 11
12.0
 21
9.0
 12
0.0
 22
0.0
 32
0.0
 14
0.0
 24
0.0
 34
0.0
 15
0.0
 25
0.0
 35
0.0
146
0.0
 13
0.0
 23
0.0
 33
0.0
 16
1.0
 26
0.0
 36
0.0
 17
0.0
 27
1.0
 37
0.0
 76
     0
330
1E
  0
LAYOUT
  5
1D
102
{ACAD_REACTORS
330
19
102
}
330
19
100
AcDbPlotSettings
  1

  2
C:\Program Files\AutoCAD 2000i\plotters\DWF Classic.pc3
  4

  6

 40
0.0
 41
0.0
 42
0.0
 43
0.0
 44
0.0
 45
0.0
 46
0.0
 47
0.0
 48
0.0
 49
0.0
140
0.0
141
0.0
142
1.0
143
1.0
 70
   688
 72
     0
 73
     0
 74
     5
  7

 75
    16
147
1.0
148
0.0
149
0.0
100
AcDbLayout
  1
ﾚｲｱｳﾄ1
 70
     1
 71
     1
 10
0.0
 20
0.0
 11
12.0
 21
9.0
 12
0.0
 22
0.0
 32
0.0
 14
1.000000000000000E+20
 24
1.000000000000000E+20
 34
1.000000000000000E+20
 15
-1.000000000000000E+20
 25
-1.000000000000000E+20
 35
-1.000000000000000E+20
146
0.0
 13
0.0
 23
0.0
 33
0.0
 16
1.0
 26
0.0
 36
0.0
 17
0.0
 27
1.0
 37
0.0
 76
     0
330
1A
  0
MLINESTYLE
  5
17
102
{ACAD_REACTORS
330
16
102
}
330
16
100
AcDbMlineStyle
  2
STANDARD
 70
     0
  3

 62
   256
 51
90.0
 52
90.0
 71
     2
 49
0.5
 62
   256
  6
BYLAYER
 49
-0.5
 62
   256
  6
BYLAYER
  0
ACDBPLACEHOLDER
  5
F
102
{ACAD_REACTORS
330
E
102
}
330
E
  0
DICTIONARYVAR
  5
82C
102
{ACAD_REACTORS
330
82B
102
}
330
82B
100
DictionaryVariables
280
     0
  1
1
  0
ENDSEC
  0
EOF
