  0
SECTION
  2
HEADER
  9
$ACADVER
  1
AC1015
  9
$ACADMAINTVER
 70
    13
  9
$DWGCODEPAGE
  3
ANSI_932
  9
$INSBASE
 10
0.0
 20
0.0
 30
0.0
  9
$EXTMIN
 10
-0.0276110892524457
 20
-0.0006537740625845
 30
-0.0000000000112498
  9
$EXTMAX
 10
210.024482431661
 20
297.0044886908847
 30
0.0000000000002956
  9
$LIMMIN
 10
-189.175
 20
-3.174999999999998
  9
$LIMMAX
 10
3.174999999999998
 20
291.2585876465
  9
$ORTHOMODE
 70
     0
  9
$REGENMODE
 70
     1
  9
$FILLMODE
 70
     1
  9
$QTEXTMODE
 70
     0
  9
$MIRRTEXT
 70
     0
  9
$LTSCALE
 40
1.0
  9
$ATTMODE
 70
     1
  9
$TEXTSIZE
 40
2.999994039499998
  9
$TRACEWID
 40
0.05
  9
$TEXTSTYLE
  7
STANDARD
  9
$CLAYER
  8
0
  9
$CELTYPE
  6
ByLayer
  9
$CECOLOR
 62
   256
  9
$CELTSCALE
 40
1.0
  9
$DISPSILH
 70
     0
  9
$DIMSCALE
 40
1.0
  9
$DIMASZ
 40
1.9727878465
  9
$DIMEXO
 40
2.539999961899999
  9
$DIMDLI
 40
0.38
  9
$DIMRND
 40
0.0
  9
$DIMDLE
 40
0.0
  9
$DIMEXE
 40
3.809999942799998
  9
$DIMTP
 40
0.0
  9
$DIMTM
 40
0.0
  9
$DIMTXT
 40
2.999994039499998
  9
$DIMCEN
 40
0.09
  9
$DIMTSZ
 40
0.0
  9
$DIMTOL
 70
     0
  9
$DIMLIM
 70
     0
  9
$DIMTIH
 70
     0
  9
$DIMTOH
 70
     1
  9
$DIMSE1
 70
     0
  9
$DIMSE2
 70
     0
  9
$DIMTAD
 70
     0
  9
$DIMZIN
 70
     0
  9
$DIMBLK
  1

  9
$DIMASO
 70
     1
  9
$DIMSHO
 70
     0
  9
$DIMPOST
  1

  9
$DIMAPOST
  1

  9
$DIMALT
 70
     0
  9
$DIMALTD
 70
     2
  9
$DIMALTF
 40
25.4
  9
$DIMLFAC
 40
1.0
  9
$DIMTOFL
 70
     0
  9
$DIMTVP
 40
0.0
  9
$DIMTIX
 70
     0
  9
$DIMSOXD
 70
     0
  9
$DIMSAH
 70
     0
  9
$DIMBLK1
  1

  9
$DIMBLK2
  1

  9
$DIMSTYLE
  2
Standard
  9
$DIMCLRD
 70
     0
  9
$DIMCLRE
 70
     0
  9
$DIMCLRT
 70
     0
  9
$DIMTFAC
 40
1.0
  9
$DIMGAP
 40
0.09
  9
$DIMJUST
 70
     0
  9
$DIMSD1
 70
     0
  9
$DIMSD2
 70
     0
  9
$DIMTOLJ
 70
     1
  9
$DIMTZIN
 70
     0
  9
$DIMALTZ
 70
     0
  9
$DIMALTTZ
 70
     0
  9
$DIMUPT
 70
     0
  9
$DIMDEC
 70
     4
  9
$DIMTDEC
 70
     4
  9
$DIMALTU
 70
     2
  9
$DIMALTTD
 70
     2
  9
$DIMTXSTY
  7
STANDARD
  9
$DIMAUNIT
 70
     0
  9
$DIMADEC
 70
     0
  9
$DIMALTRND
 40
0.0
  9
$DIMAZIN
 70
     0
  9
$DIMDSEP
 70
    46
  9
$DIMATFIT
 70
     3
  9
$DIMFRAC
 70
     0
  9
$DIMLDRBLK
  1

  9
$DIMLUNIT
 70
     2
  9
$DIMLWD
 70
    -2
  9
$DIMLWE
 70
    -2
  9
$DIMTMOVE
 70
     0
  9
$LUNITS
 70
     2
  9
$LUPREC
 70
     3
  9
$SKETCHINC
 40
0.1
  9
$FILLETRAD
 40
0.0625
  9
$AUNITS
 70
     0
  9
$AUPREC
 70
     0
  9
$MENU
  1
ACAD
  9
$ELEVATION
 40
0.0
  9
$PELEVATION
 40
0.0
  9
$THICKNESS
 40
0.0
  9
$LIMCHECK
 70
     0
  9
$CHAMFERA
 40
0.0
  9
$CHAMFERB
 40
0.0
  9
$CHAMFERC
 40
0.0
  9
$CHAMFERD
 40
0.0
  9
$SKPOLY
 70
     0
  9
$TDCREATE
 40
2452522.692013889
  9
$TDUCREATE
 40
2452522.317013889
  9
$TDUPDATE
 40
2453353.723123183
  9
$TDUUPDATE
 40
2453353.348123183
  9
$TDINDWG
 40
0.0023243981
  9
$TDUSRTIMER
 40
0.0023242130
  9
$USRTIMER
 70
     1
  9
$ANGBASE
 50
0.0
  9
$ANGDIR
 70
     0
  9
$PDMODE
 70
     0
  9
$PDSIZE
 40
0.0
  9
$PLINEWID
 40
0.0
  9
$SPLFRAME
 70
     0
  9
$SPLINETYPE
 70
     6
  9
$SPLINESEGS
 70
     8
  9
$HANDSEED
  5
779
  9
$SURFTAB1
 70
     6
  9
$SURFTAB2
 70
     6
  9
$SURFTYPE
 70
     6
  9
$SURFU
 70
     6
  9
$SURFV
 70
     6
  9
$UCSBASE
  2

  9
$UCSNAME
  2

  9
$UCSORG
 10
0.0
 20
0.0
 30
0.0
  9
$UCSXDIR
 10
1.0
 20
0.0
 30
0.0
  9
$UCSYDIR
 10
0.0
 20
1.0
 30
0.0
  9
$UCSORTHOREF
  2

  9
$UCSORTHOVIEW
 70
     0
  9
$UCSORGTOP
 10
0.0
 20
0.0
 30
0.0
  9
$UCSORGBOTTOM
 10
0.0
 20
0.0
 30
0.0
  9
$UCSORGLEFT
 10
0.0
 20
0.0
 30
0.0
  9
$UCSORGRIGHT
 10
0.0
 20
0.0
 30
0.0
  9
$UCSORGFRONT
 10
0.0
 20
0.0
 30
0.0
  9
$UCSORGBACK
 10
0.0
 20
0.0
 30
0.0
  9
$PUCSBASE
  2

  9
$PUCSNAME
  2

  9
$PUCSORG
 10
0.0
 20
0.0
 30
0.0
  9
$PUCSXDIR
 10
1.0
 20
0.0
 30
0.0
  9
$PUCSYDIR
 10
0.0
 20
1.0
 30
0.0
  9
$PUCSORTHOREF
  2

  9
$PUCSORTHOVIEW
 70
     0
  9
$PUCSORGTOP
 10
0.0
 20
0.0
 30
0.0
  9
$PUCSORGBOTTOM
 10
0.0
 20
0.0
 30
0.0
  9
$PUCSORGLEFT
 10
0.0
 20
0.0
 30
0.0
  9
$PUCSORGRIGHT
 10
0.0
 20
0.0
 30
0.0
  9
$PUCSORGFRONT
 10
0.0
 20
0.0
 30
0.0
  9
$PUCSORGBACK
 10
0.0
 20
0.0
 30
0.0
  9
$USERI1
 70
     8
  9
$USERI2
 70
     0
  9
$USERI3
 70
     0
  9
$USERI4
 70
     0
  9
$USERI5
 70
     0
  9
$USERR1
 40
0.0
  9
$USERR2
 40
0.0
  9
$USERR3
 40
0.0
  9
$USERR4
 40
0.0
  9
$USERR5
 40
0.0
  9
$WORLDVIEW
 70
     1
  9
$SHADEDGE
 70
     3
  9
$SHADEDIF
 70
    70
  9
$TILEMODE
 70
     1
  9
$MAXACTVP
 70
    64
  9
$PINSBASE
 10
0.0
 20
0.0
 30
0.0
  9
$PLIMCHECK
 70
     0
  9
$PEXTMIN
 10
1.000000000000000E+20
 20
1.000000000000000E+20
 30
1.000000000000000E+20
  9
$PEXTMAX
 10
-1.000000000000000E+20
 20
-1.000000000000000E+20
 30
-1.000000000000000E+20
  9
$PLIMMIN
 10
0.0
 20
0.0
  9
$PLIMMAX
 10
12.0
 20
9.0
  9
$UNITMODE
 70
     0
  9
$VISRETAIN
 70
     1
  9
$PLINEGEN
 70
     0
  9
$PSLTSCALE
 70
     1
  9
$TREEDEPTH
 70
  3020
  9
$CMLSTYLE
  2
Standard
  9
$CMLJUST
 70
     0
  9
$CMLSCALE
 40
1.0
  9
$PROXYGRAPHICS
 70
     1
  9
$MEASUREMENT
 70
     0
  9
$CELWEIGHT
370
    -1
  9
$ENDCAPS
280
     0
  9
$JOINSTYLE
280
     0
  9
$LWDISPLAY
290
     0
  9
$INSUNITS
 70
     0
  9
$HYPERLINKBASE
  1

  9
$STYLESHEET
  1

  9
$XEDIT
290
     1
  9
$CEPSNTYPE
380
     0
  9
$PSTYLEMODE
290
     1
  9
$FINGERPRINTGUID
  2
{0F5FEF24-5FFA-45A0-B471-10C2ED43A60F}
  9
$VERSIONGUID
  2
{4F712E80-678D-4542-9AA6-A3A920A5CA59}
  9
$EXTNAMES
290
     1
  9
$PSVPSCALE
 40
0.0
  9
$OLESTARTUP
290
     0
  0
ENDSEC
  0
SECTION
  2
CLASSES
  0
CLASS
  1
ACDBDICTIONARYWDFLT
  2
AcDbDictionaryWithDefault
  3
AutoCAD 2000
 90
        0
280
     0
281
     0
  0
CLASS
  1
ACDBPLACEHOLDER
  2
AcDbPlaceHolder
  3
AutoCAD 2000
 90
        0
280
     0
281
     0
  0
CLASS
  1
LAYOUT
  2
AcDbLayout
  3
AutoCAD 2000
 90
        0
280
     0
281
     0
  0
CLASS
  1
DICTIONARYVAR
  2
AcDbDictionaryVar
  3
AutoCAD 2000
 90
        0
280
     0
281
     0
  0
ENDSEC
  0
SECTION
  2
TABLES
  0
TABLE
  2
VPORT
  5
8
330
0
100
AcDbSymbolTable
 70
     2
  0
VPORT
  5
778
330
8
100
AcDbSymbolTableRecord
100
AcDbViewportTableRecord
  2
*Active
 70
     0
 10
0.0
 20
0.0
 11
1.0
 21
1.0
 12
104.9984356712042
 22
148.501917458411
 13
0.0
 23
0.0
 14
1.0
 24
1.0
 15
0.0
 25
0.0
 16
0.0
 26
0.0
 36
1.0
 17
0.0
 27
0.0
 37
0.0
 40
301.0007273411573
 41
2.253932584269663
 42
50.0
 43
0.0
 44
0.0
 50
0.0
 51
0.0
 71
     0
 72
   100
 73
     1
 74
     1
 75
     0
 76
     0
 77
     0
 78
     0
281
     0
 65
     1
110
0.0
120
0.0
130
0.0
111
1.0
121
0.0
131
0.0
112
0.0
122
1.0
132
0.0
 79
     0
146
0.0
  0
ENDTAB
  0
TABLE
  2
LTYPE
  5
5
330
0
100
AcDbSymbolTable
 70
     2
  0
LTYPE
  5
13
330
5
100
AcDbSymbolTableRecord
100
AcDbLinetypeTableRecord
  2
ByBlock
 70
     0
  3

 72
    65
 73
     0
 40
0.0
  0
LTYPE
  5
14
330
5
100
AcDbSymbolTableRecord
100
AcDbLinetypeTableRecord
  2
ByLayer
 70
     0
  3

 72
    65
 73
     0
 40
0.0
  0
LTYPE
  5
15
330
5
100
AcDbSymbolTableRecord
100
AcDbLinetypeTableRecord
  2
Continuous
 70
     0
  3
Solid line
 72
    65
 73
     0
 40
0.0
  0
LTYPE
  5
24
330
5
100
AcDbSymbolTableRecord
100
AcDbLinetypeTableRecord
  2
CENTER
 70
     0
  3
Center
 72
    65
 73
     4
 40
9.100006759199999
 49
6.5000119209
 74
     0
 49
-0.7999984026000001
 74
     0
 49
0.9999980329999999
 74
     0
 49
-0.7999984026000001
 74
     0
  0
ENDTAB
  0
TABLE
  2
LAYER
  5
2
330
0
100
AcDbSymbolTable
 70
     1
  0
LAYER
  5
10
330
2
100
AcDbSymbolTableRecord
100
AcDbLayerTableRecord
  2
0
 70
     0
 62
     7
  6
Continuous
370
    -3
390
F
  0
ENDTAB
  0
TABLE
  2
STYLE
  5
3
330
0
100
AcDbSymbolTable
 70
     1
  0
STYLE
  5
11
330
3
100
AcDbSymbolTableRecord
100
AcDbTextStyleTableRecord
  2
STANDARD
 70
     0
 40
0.0
 41
1.0
 50
0.0
 71
     0
 42
2.999994039499998
  3
romans.shx
  4
bigfont.shx
  0
ENDTAB
  0
TABLE
  2
VIEW
  5
6
330
0
100
AcDbSymbolTable
 70
     0
  0
ENDTAB
  0
TABLE
  2
UCS
  5
7
330
0
100
AcDbSymbolTable
 70
     0
  0
ENDTAB
  0
TABLE
  2
APPID
  5
9
330
0
100
AcDbSymbolTable
 70
     1
  0
APPID
  5
12
330
9
100
AcDbSymbolTableRecord
100
AcDbRegAppTableRecord
  2
ACAD
 70
     0
  0
ENDTAB
  0
TABLE
  2
DIMSTYLE
  5
A
330
0
100
AcDbSymbolTable
 70
     1
100
AcDbDimStyleTable
 71
     0
  0
DIMSTYLE
105
74F
330
A
100
AcDbSymbolTableRecord
100
AcDbDimStyleTableRecord
  2
Standard
 70
     0
340
11
  0
ENDTAB
  0
TABLE
  2
BLOCK_RECORD
  5
1
330
0
100
AcDbSymbolTable
 70
     1
  0
BLOCK_RECORD
  5
1E
330
1
100
AcDbSymbolTableRecord
100
AcDbBlockTableRecord
  2
*Model_Space
340
21
  0
BLOCK_RECORD
  5
1A
330
1
100
AcDbSymbolTableRecord
100
AcDbBlockTableRecord
  2
*Paper_Space
340
1D
  0
ENDTAB
  0
ENDSEC
  0
SECTION
  2
BLOCKS
  0
BLOCK
  5
1F
330
1E
100
AcDbEntity
  8
0
100
AcDbBlockBegin
  2
*Model_Space
 70
     0
 10
0.0
 20
0.0
 30
0.0
  3
*Model_Space
  1

  0
ENDBLK
  5
20
330
1E
100
AcDbEntity
  8
0
100
AcDbBlockEnd
  0
BLOCK
  5
1B
330
1A
100
AcDbEntity
 67
     1
  8
0
100
AcDbBlockBegin
  2
*Paper_Space
 70
     0
 10
0.0
 20
0.0
 30
0.0
  3
*Paper_Space
  1

  0
ENDBLK
  5
1C
330
1A
100
AcDbEntity
 67
     1
  8
0
100
AcDbBlockEnd
  0
ENDSEC
  0
SECTION
  2
ENTITIES
  0
LINE
  5
FA
330
1E
100
AcDbEntity
  8
0
 62
     3
100
AcDbLine
 10
98.69524215530001
 20
230.0974396308
 30
0.0
 11
97.08774842899998
 21
231.0974452164999
 31
0.0
  0
LINE
  5
FB
330
1E
100
AcDbEntity
  8
0
 62
     3
100
AcDbLine
 10
73.02874237729999
 20
170.6474304199
 30
0.0
 11
98.72875458429998
 21
170.6474304199
 31
0.0
  0
LINE
  5
FC
330
1E
100
AcDbEntity
  8
0
 62
     3
100
AcDbLine
 10
99.6287484808
 20
200.7474365234
 30
0.0
 11
99.6287484808
 21
171.5474243163999
 31
0.0
  0
LINE
  5
FD
330
1E
100
AcDbEntity
  8
0
 62
     3
100
AcDbLine
 10
72.1287484808
 20
200.7474365234
 30
0.0
 11
72.1287484808
 21
171.5474243163999
 31
0.0
  0
LINE
  5
FE
330
1E
100
AcDbEntity
  8
0
 62
     3
100
AcDbLine
 10
73.02869616289997
 20
201.6474447056
 30
0.0
 11
72.12870429439997
 21
200.7474518508
 31
0.0
  0
LINE
  5
FF
330
1E
100
AcDbEntity
  8
0
 62
     3
100
AcDbLine
 10
72.12872703679996
 20
171.5474306811
 30
0.0
 11
73.02873068119997
 21
170.6474280229
 31
0.0
  0
LINE
  5
100
330
1E
100
AcDbEntity
  8
0
 62
     3
100
AcDbLine
 10
98.72867246070001
 20
170.647478519
 30
0.0
 11
99.62867511889999
 21
171.5474821633999
 31
0.0
  0
LINE
  5
101
330
1E
100
AcDbEntity
  8
0
 62
     3
100
AcDbLine
 10
73.02874237729999
 20
201.6474304199
 30
0.0
 11
98.72875458429998
 21
201.6474304199
 31
0.0
  0
LINE
  5
102
330
1E
100
AcDbEntity
  8
0
 62
     3
100
AcDbLine
 10
99.62872385750001
 20
200.7474669182998
 30
0.0
 11
98.7287202131
 21
201.6474695765
 31
0.0
  0
LINE
  5
103
330
1E
100
AcDbEntity
  8
0
 62
     3
100
AcDbLine
 10
85.07873017029998
 20
188.6474304199
 30
0.0
 11
85.07873017029998
 21
183.6474304199
 31
0.0
  0
LINE
  5
104
330
1E
100
AcDbEntity
  8
0
 62
     3
100
AcDbLine
 10
73.47873932559996
 20
200.5974273681999
 30
0.0
 11
98.2787423773
 21
200.5974273681999
 31
0.0
  0
LINE
  5
105
330
1E
100
AcDbEntity
  8
0
 62
     3
100
AcDbLine
 10
73.47873932559996
 20
171.6974334716999
 30
0.0
 11
98.2787423773
 21
171.6974334716999
 31
0.0
  0
LINE
  5
106
330
1E
100
AcDbEntity
  8
0
 62
     3
100
AcDbLine
 10
98.5787301703
 20
200.2974243164
 30
0.0
 11
98.5787301703
 21
171.9974365234
 31
0.0
  0
LINE
  5
107
330
1E
100
AcDbEntity
  8
0
 62
     3
100
AcDbLine
 10
73.17873627379999
 20
200.2974243164
 30
0.0
 11
73.17873627379999
 21
171.9974365234
 31
0.0
  0
LINE
  5
108
330
1E
100
AcDbEntity
  8
0
 62
     3
100
AcDbLine
 10
85.57873017029995
 20
188.6474304199
 30
0.0
 11
85.57873017029995
 21
183.6474304199
 31
0.0
  0
LINE
  5
109
330
1E
100
AcDbEntity
  8
0
 62
     3
100
AcDbLine
 10
73.47870688739999
 20
200.5974620522
 30
0.0
 11
73.17871493920002
 21
200.2974662856999
 31
0.0
  0
LINE
  5
10A
330
1E
100
AcDbEntity
  8
0
 62
     3
100
AcDbLine
 10
98.27873549979999
 20
171.6973995739
 30
0.0
 11
98.57873869259995
 21
171.9974056495999
 31
0.0
  0
LINE
  5
10B
330
1E
100
AcDbEntity
  8
0
 62
     3
100
AcDbLine
 10
98.5787463682
 20
200.2974520452
 30
0.0
 11
98.27875345910001
 21
200.5974468509
 31
0.0
  0
LINE
  5
10C
330
1E
100
AcDbEntity
  8
0
 62
     3
100
AcDbLine
 10
98.5787454291
 20
184.5474243164
 30
0.0
 11
97.47873932559999
 21
184.5474243164
 31
0.0
  0
LINE
  5
10D
330
1E
100
AcDbEntity
  8
0
 62
     3
100
AcDbLine
 10
98.5787454291
 20
187.7474365234
 30
0.0
 11
97.47873932559999
 21
187.7474365234
 31
0.0
  0
LINE
  5
10E
330
1E
100
AcDbEntity
  8
0
 62
     3
100
AcDbLine
 10
73.1787278523
 20
171.9974195697
 30
0.0
 11
73.47872169699996
 21
171.6974257249999
 31
0.0
  0
LINE
  5
10F
330
1E
100
AcDbEntity
  8
0
 62
     3
100
AcDbLine
 10
97.47873932559999
 20
187.7474365234
 30
0.0
 11
97.47873932559999
 21
184.5474243164
 31
0.0
  0
LINE
  5
110
330
1E
100
AcDbEntity
  8
0
 62
     3
100
AcDbLine
 10
73.17873627379999
 20
180.1474304199
 30
0.0
 11
75.17873627379998
 21
180.1474304199
 31
0.0
  0
LINE
  5
111
330
1E
100
AcDbEntity
  8
0
 62
     3
100
AcDbLine
 10
75.17873627379998
 20
192.1474304199
 30
0.0
 11
75.17873627379998
 21
180.1474304199
 31
0.0
  0
LINE
  5
112
330
1E
100
AcDbEntity
  8
0
 62
     3
100
AcDbLine
 10
75.67873627379999
 20
189.6474304199
 30
0.0
 11
75.67873627379999
 21
182.6474304199
 31
0.0
  0
LINE
  5
113
330
1E
100
AcDbEntity
  8
0
 62
     3
100
AcDbLine
 10
75.17872997539997
 20
190.1473924423
 30
0.0
 11
75.6787197166
 21
189.6474027011
 31
0.0
  0
LINE
  5
114
330
1E
100
AcDbEntity
  8
0
 62
     3
100
AcDbLine
 10
73.17873627379999
 20
192.1474304199
 30
0.0
 11
75.17873627379998
 21
192.1474304199
 31
0.0
  0
LINE
  5
115
330
1E
100
AcDbEntity
  8
0
 62
     3
100
AcDbLine
 10
75.67876287499998
 20
182.6473952699999
 30
0.0
 11
75.17876234419998
 21
182.1473947392
 31
0.0
  0
LINE
  5
116
330
1E
100
AcDbEntity
  8
0
 62
     3
100
AcDbLine
 10
73.17873627379999
 20
178.1474304199
 30
0.0
 11
74.67873627379998
 21
178.1474304199
 31
0.0
  0
LINE
  5
117
330
1E
100
AcDbEntity
  8
0
 62
     3
100
AcDbLine
 10
73.17873627379999
 20
174.1474304199
 30
0.0
 11
74.67873627379998
 21
174.1474304199
 31
0.0
  0
LINE
  5
118
330
1E
100
AcDbEntity
  8
0
 62
     3
100
AcDbLine
 10
73.17873627379999
 20
194.1474304199
 30
0.0
 11
74.67873627379998
 21
194.1474304199
 31
0.0
  0
LINE
  5
119
330
1E
100
AcDbEntity
  8
0
 62
     3
100
AcDbLine
 10
74.67873627379998
 20
194.1474304199
 30
0.0
 11
74.67873627379998
 21
198.1474304199
 31
0.0
  0
LINE
  5
11A
330
1E
100
AcDbEntity
  8
0
 62
     3
100
AcDbLine
 10
74.67873627379998
 20
178.1474304199
 30
0.0
 11
74.67873627379998
 21
174.1474304199
 31
0.0
  0
LINE
  5
11B
330
1E
100
AcDbEntity
  8
0
 62
     3
100
AcDbLine
 10
73.17873627379999
 20
198.1474304199
 30
0.0
 11
74.67873627379998
 21
198.1474304199
 31
0.0
  0
LINE
  5
11C
330
1E
100
AcDbEntity
  8
0
 62
     3
100
AcDbLine
 10
95.67874149549998
 20
220.1974296693999
 30
0.0
 11
95.77874203699998
 21
219.1974276697
 31
0.0
  0
LINE
  5
11D
330
1E
100
AcDbEntity
  8
0
 62
     3
100
AcDbLine
 10
95.77872711849995
 20
219.1974182128999
 30
0.0
 11
96.0787301703
 21
219.1974182128999
 31
0.0
  0
LINE
  5
11E
330
1E
100
AcDbEntity
  8
0
 62
     3
100
AcDbLine
 10
96.0787248455
 20
219.1974162376999
 30
0.0
 11
96.1787238686
 21
220.1974030543
 31
0.0
  0
LINE
  5
11F
330
1E
100
AcDbEntity
  8
0
 62
     3
100
AcDbLine
 10
95.6787362738
 20
223.2974243164
 30
0.0
 11
96.17873627379999
 21
223.2974243164
 31
0.0
  0
LINE
  5
120
330
1E
100
AcDbEntity
  8
0
 62
     3
100
AcDbLine
 10
77.57873017029999
 20
220.1975097656
 30
0.0
 11
78.57873017029999
 21
220.1975097656
 31
0.0
  0
LINE
  5
121
330
1E
100
AcDbEntity
  8
0
 62
     3
100
AcDbLine
 10
95.6787362738
 20
220.1974182129
 30
0.0
 11
96.17873627379999
 21
220.1974182129
 31
0.0
  0
LINE
  5
122
330
1E
100
AcDbEntity
  8
0
 62
     3
100
AcDbLine
 10
85.0787578983
 20
220.1974215309999
 30
0.0
 11
85.17875843969999
 21
219.1974195313999
 31
0.0
  0
LINE
  5
123
330
1E
100
AcDbEntity
  8
0
 62
     3
100
AcDbLine
 10
85.17873627379998
 20
219.1974182128999
 30
0.0
 11
85.47873932559999
 21
219.1974182128999
 31
0.0
  0
LINE
  5
124
330
1E
100
AcDbEntity
  8
0
 62
     3
100
AcDbLine
 10
85.47873972999999
 20
219.197409193
 30
0.0
 11
85.57873875309999
 21
220.1973960096
 31
0.0
  0
LINE
  5
125
330
1E
100
AcDbEntity
  8
0
 62
     3
100
AcDbLine
 10
85.0787454291
 20
223.7974243163999
 30
0.0
 11
85.0787454291
 21
220.1974182129
 31
0.0
  0
LINE
  5
126
330
1E
100
AcDbEntity
  8
0
 62
     3
100
AcDbLine
 10
85.0787454291
 20
223.2974243164
 30
0.0
 11
85.57874542909997
 21
223.2974243164
 31
0.0
  0
LINE
  5
127
330
1E
100
AcDbEntity
  8
0
 62
     3
100
AcDbLine
 10
85.57874542909997
 20
223.7974243163999
 30
0.0
 11
85.57874542909997
 21
220.1974029541
 31
0.0
  0
LINE
  5
128
330
1E
100
AcDbEntity
  8
0
 62
     3
100
AcDbLine
 10
90.9787501579
 20
220.1974280805
 30
0.0
 11
91.07875069929994
 21
219.1974260808
 31
0.0
  0
LINE
  5
129
330
1E
100
AcDbEntity
  8
0
 62
     3
100
AcDbLine
 10
85.0787454291
 20
220.1974182129
 30
0.0
 11
85.57874542909997
 21
220.1974182129
 31
0.0
  0
LINE
  5
12A
330
1E
100
AcDbEntity
  8
0
 62
     3
100
AcDbLine
 10
91.0787301703
 20
219.1974182128999
 30
0.0
 11
91.378733222
 21
219.1974182128999
 31
0.0
  0
LINE
  5
12B
330
1E
100
AcDbEntity
  8
0
 62
     3
100
AcDbLine
 10
90.97873932559997
 20
220.1974182129
 30
0.0
 11
91.47873932559999
 21
220.1974182129
 31
0.0
  0
LINE
  5
12C
330
1E
100
AcDbEntity
  8
0
 62
     3
100
AcDbLine
 10
90.97873932559997
 20
223.7974243163999
 30
0.0
 11
90.97873932559997
 21
220.1974182129
 31
0.0
  0
LINE
  5
12D
330
1E
100
AcDbEntity
  8
0
 62
     3
100
AcDbLine
 10
90.97873932559997
 20
223.2974243164
 30
0.0
 11
91.47873932559999
 21
223.2974243164
 31
0.0
  0
LINE
  5
12E
330
1E
100
AcDbEntity
  8
0
 62
     3
100
AcDbLine
 10
91.47873932559999
 20
223.7974243163999
 30
0.0
 11
91.47873932559999
 21
220.1974029541
 31
0.0
  0
LINE
  5
12F
330
1E
100
AcDbEntity
  8
0
 62
     3
100
AcDbLine
 10
91.37873198949998
 20
219.1974026435
 30
0.0
 11
91.47873101259998
 21
220.1973894602
 31
0.0
  0
LINE
  5
130
330
1E
100
AcDbEntity
  8
0
 62
     3
100
AcDbLine
 10
78.07879120539998
 20
175.8974304199
 30
0.0
 11
78.07879120539998
 21
176.3974304199
 31
0.0
  0
LINE
  5
131
330
1E
100
AcDbEntity
  8
0
 62
     3
100
AcDbLine
 10
85.07873017029998
 20
188.6474304199
 30
0.0
 11
85.57873017029995
 21
188.6474304199
 31
0.0
  0
LINE
  5
132
330
1E
100
AcDbEntity
  8
0
 62
     3
100
AcDbLine
 10
85.07873017029998
 20
188.1474304199
 30
0.0
 11
85.57873017029995
 21
188.1474304199
 31
0.0
  0
LINE
  5
133
330
1E
100
AcDbEntity
  8
0
 62
     3
100
AcDbLine
 10
85.07873017029998
 20
184.1474304199
 30
0.0
 11
85.57873017029995
 21
184.1474304199
 31
0.0
  0
LINE
  5
134
330
1E
100
AcDbEntity
  8
0
 62
     3
100
AcDbLine
 10
85.07873017029998
 20
185.1474304199
 30
0.0
 11
85.57873017029995
 21
185.1474304199
 31
0.0
  0
LINE
  5
135
330
1E
100
AcDbEntity
  8
0
 62
     3
100
AcDbLine
 10
85.07873017029998
 20
187.1474304199
 30
0.0
 11
85.57873017029995
 21
187.1474304199
 31
0.0
  0
LINE
  5
136
330
1E
100
AcDbEntity
  8
0
 62
     3
100
AcDbLine
 10
85.07873017029998
 20
183.6474304199
 30
0.0
 11
85.57873017029995
 21
183.6474304199
 31
0.0
  0
LINE
  5
137
330
1E
100
AcDbEntity
  8
0
 62
     3
100
AcDbLine
 10
95.6787362738
 20
188.6474304199
 30
0.0
 11
96.17873627379999
 21
188.6474304199
 31
0.0
  0
LINE
  5
138
330
1E
100
AcDbEntity
  8
0
 62
     3
100
AcDbLine
 10
95.6787362738
 20
187.1474304199
 30
0.0
 11
96.17873627379999
 21
187.1474304199
 31
0.0
  0
LINE
  5
139
330
1E
100
AcDbEntity
  8
0
 62
     3
100
AcDbLine
 10
95.6787362738
 20
176.1474304199
 30
0.0
 11
96.17873627379999
 21
176.1474304199
 31
0.0
  0
LINE
  5
13A
330
1E
100
AcDbEntity
  8
0
 62
     3
100
AcDbLine
 10
95.6787362738
 20
185.1474304199
 30
0.0
 11
96.17873627379999
 21
185.1474304199
 31
0.0
  0
LINE
  5
13B
330
1E
100
AcDbEntity
  8
0
 62
     3
100
AcDbLine
 10
95.6787362738
 20
184.1474304199
 30
0.0
 11
96.17873627379999
 21
184.1474304199
 31
0.0
  0
LINE
  5
13C
330
1E
100
AcDbEntity
  8
0
 62
     3
100
AcDbLine
 10
95.6787362738
 20
188.1474304199
 30
0.0
 11
96.17873627379999
 21
188.1474304199
 31
0.0
  0
LINE
  5
13D
330
1E
100
AcDbEntity
  8
0
 62
     3
100
AcDbLine
 10
95.6787362738
 20
183.6474304199
 30
0.0
 11
96.17873627379999
 21
183.6474304199
 31
0.0
  0
LINE
  5
13E
330
1E
100
AcDbEntity
  8
0
 62
     3
100
AcDbLine
 10
96.17873627379999
 20
188.6474304199
 30
0.0
 11
96.17873627379999
 21
183.6474304199
 31
0.0
  0
LINE
  5
13F
330
1E
100
AcDbEntity
  8
0
 62
     3
100
AcDbLine
 10
90.97872406679995
 20
188.6474304199
 30
0.0
 11
91.47872406679994
 21
188.6474304199
 31
0.0
  0
LINE
  5
140
330
1E
100
AcDbEntity
  8
0
 62
     3
100
AcDbLine
 10
90.97872406679995
 20
188.1474304199
 30
0.0
 11
91.47872406679994
 21
188.1474304199
 31
0.0
  0
LINE
  5
141
330
1E
100
AcDbEntity
  8
0
 62
     3
100
AcDbLine
 10
90.97872406679995
 20
187.1474304199
 30
0.0
 11
91.47872406679994
 21
187.1474304199
 31
0.0
  0
LINE
  5
142
330
1E
100
AcDbEntity
  8
0
 62
     3
100
AcDbLine
 10
90.97872406679995
 20
176.1474304199
 30
0.0
 11
91.47872406679994
 21
176.1474304199
 31
0.0
  0
LINE
  5
143
330
1E
100
AcDbEntity
  8
0
 62
     3
100
AcDbLine
 10
95.6787362738
 20
188.6474304199
 30
0.0
 11
95.6787362738
 21
183.6474304199
 31
0.0
  0
LINE
  5
144
330
1E
100
AcDbEntity
  8
0
 62
     3
100
AcDbLine
 10
90.97872406679995
 20
185.1474304199
 30
0.0
 11
91.47872406679994
 21
185.1474304199
 31
0.0
  0
LINE
  5
145
330
1E
100
AcDbEntity
  8
0
 62
     3
100
AcDbLine
 10
90.97872406679995
 20
183.6474304199
 30
0.0
 11
91.47872406679994
 21
183.6474304199
 31
0.0
  0
LINE
  5
146
330
1E
100
AcDbEntity
  8
0
 62
     3
100
AcDbLine
 10
90.97872406679995
 20
188.6474304199
 30
0.0
 11
90.97872406679995
 21
183.6474304199
 31
0.0
  0
LINE
  5
147
330
1E
100
AcDbEntity
  8
0
 62
     3
100
AcDbLine
 10
91.47872406679994
 20
188.6474304199
 30
0.0
 11
91.47872406679994
 21
183.6474304199
 31
0.0
  0
LINE
  5
148
330
1E
100
AcDbEntity
  8
0
 62
     3
100
AcDbLine
 10
91.47872406679994
 20
198.6474304199
 30
0.0
 11
91.47872406679994
 21
193.6474304199
 31
0.0
  0
LINE
  5
149
330
1E
100
AcDbEntity
  8
0
 62
     3
100
AcDbLine
 10
90.97872406679995
 20
184.1474304199
 30
0.0
 11
91.47872406679994
 21
184.1474304199
 31
0.0
  0
LINE
  5
14A
330
1E
100
AcDbEntity
  8
0
 62
     3
100
AcDbLine
 10
85.57873017029995
 20
198.6474304199
 30
0.0
 11
85.57873017029995
 21
193.6474304199
 31
0.0
  0
LINE
  5
14B
330
1E
100
AcDbEntity
  8
0
 62
     3
100
AcDbLine
 10
85.07873017029998
 20
196.1474304199
 30
0.0
 11
85.57873017029995
 21
196.1474304199
 31
0.0
  0
LINE
  5
14C
330
1E
100
AcDbEntity
  8
0
 62
     3
100
AcDbLine
 10
85.07873017029998
 20
193.6474304199
 30
0.0
 11
85.57873017029995
 21
193.6474304199
 31
0.0
  0
LINE
  5
14D
330
1E
100
AcDbEntity
  8
0
 62
     3
100
AcDbLine
 10
85.07873017029998
 20
198.6474304199
 30
0.0
 11
85.57873017029995
 21
198.6474304199
 31
0.0
  0
LINE
  5
14E
330
1E
100
AcDbEntity
  8
0
 62
     3
100
AcDbLine
 10
85.07873017029998
 20
198.1474304199
 30
0.0
 11
85.57873017029995
 21
198.1474304199
 31
0.0
  0
LINE
  5
14F
330
1E
100
AcDbEntity
  8
0
 62
     3
100
AcDbLine
 10
85.07873017029998
 20
194.1474304199
 30
0.0
 11
85.57873017029995
 21
194.1474304199
 31
0.0
  0
LINE
  5
150
330
1E
100
AcDbEntity
  8
0
 62
     3
100
AcDbLine
 10
85.07873017029998
 20
198.6474304199
 30
0.0
 11
85.07873017029998
 21
193.6474304199
 31
0.0
  0
LINE
  5
151
330
1E
100
AcDbEntity
  8
0
 62
     3
100
AcDbLine
 10
72.1287484808
 20
225.5974273681999
 30
0.0
 11
99.6287484808
 21
225.5974273681999
 31
0.0
  0
LINE
  5
152
330
1E
100
AcDbEntity
  8
0
 62
     3
100
AcDbLine
 10
78.3787484808
 20
237.2974243164
 30
0.0
 11
93.3787484808
 21
237.2974243164
 31
0.0
  0
LINE
  5
153
330
1E
100
AcDbEntity
  8
0
 62
     3
100
AcDbLine
 10
78.3787484808
 20
239.2974243164
 30
0.0
 11
93.3787484808
 21
239.2974243164
 31
0.0
  0
LINE
  5
154
330
1E
100
AcDbEntity
  8
0
 62
     3
100
AcDbLine
 10
78.3787484808
 20
239.2974243164
 30
0.0
 11
78.3787484808
 21
237.2974243164
 31
0.0
  0
LINE
  5
155
330
1E
100
AcDbEntity
  8
0
  6
CENTER
 62
     3
100
AcDbLine
 10
85.8787484808
 20
264.197265625
 30
0.0
 11
85.8787484808
 21
214.1974182129
 31
0.0
  0
LINE
  5
156
330
1E
100
AcDbEntity
  8
0
 62
     3
100
AcDbLine
 10
93.3787484808
 20
239.2974243164
 30
0.0
 11
93.3787484808
 21
237.2974243164
 31
0.0
  0
LINE
  5
157
330
1E
100
AcDbEntity
  8
0
 62
     3
100
AcDbLine
 10
72.67650849059998
 20
259.1972656249999
 30
0.0
 11
99.0809732123
 21
259.1972656249999
 31
0.0
  0
LINE
  5
158
330
1E
100
AcDbEntity
  8
0
 62
     3
100
AcDbLine
 10
72.37661952419998
 20
258.8996676892
 30
0.0
 11
72.12883504339998
 21
225.5974271188999
 31
0.0
  0
LINE
  5
159
330
1E
100
AcDbEntity
  8
0
 62
     3
100
AcDbLine
 10
99.38105843889999
 20
258.8996130975
 30
0.0
 11
99.6288426927
 21
225.5974030438999
 31
0.0
  0
LINE
  5
15A
330
1E
100
AcDbEntity
  8
0
 62
     3
100
AcDbLine
 10
73.06229034569999
 20
230.0974425566999
 30
0.0
 11
73.02880822699998
 21
225.5974449443
 31
0.0
  0
LINE
  5
15B
330
1E
100
AcDbEntity
  8
0
 62
     3
100
AcDbLine
 10
98.69529584009995
 20
230.0974178004999
 30
0.0
 11
98.7287779588
 21
225.5974201881
 31
0.0
  0
LINE
  5
15C
330
1E
100
AcDbEntity
  8
0
 62
     3
100
AcDbLine
 10
72.162226264
 20
230.0974273681999
 30
0.0
 11
73.06225067809998
 21
230.0974273681999
 31
0.0
  0
LINE
  5
15D
330
1E
100
AcDbEntity
  8
0
 62
     3
100
AcDbLine
 10
72.16967255309999
 20
231.0974273682
 30
0.0
 11
74.6697335883
 21
231.0974273682
 31
0.0
  0
LINE
  5
15E
330
1E
100
AcDbEntity
  8
0
 62
     3
100
AcDbLine
 10
97.08776337339998
 20
231.0974273682
 30
0.0
 11
99.58782440859998
 21
231.0974273682
 31
0.0
  0
LINE
  5
15F
330
1E
100
AcDbEntity
  8
0
 62
     3
100
AcDbLine
 10
98.69524628359998
 20
230.0974273681999
 30
0.0
 11
99.5952706976
 21
230.0974273681999
 31
0.0
  0
LINE
  5
160
330
1E
100
AcDbEntity
  8
0
 62
     3
100
AcDbLine
 10
74.87890430330002
 20
259.1974339993
 30
0.0
 11
74.6698269092
 21
231.0974268683999
 31
0.0
  0
LINE
  5
161
330
1E
100
AcDbEntity
  8
0
 62
     3
100
AcDbLine
 10
96.87874291599998
 20
259.1974096972999
 30
0.0
 11
97.08782019659999
 21
231.0974178248
 31
0.0
  0
LINE
  5
162
330
1E
100
AcDbEntity
  8
0
 62
     3
100
AcDbLine
 10
73.06227216579998
 20
230.0974217734
 30
0.0
 11
74.66976020389998
 21
231.097421975
 31
0.0
  0
LINE
  5
163
330
1E
100
AcDbEntity
  8
0
 62
     3
100
AcDbLine
 10
83.3787484808
 20
227.0974273681999
 30
0.0
 11
88.3787484808
 21
227.0974273681999
 31
0.0
  0
LINE
  5
164
330
1E
100
AcDbEntity
  8
0
 62
     3
100
AcDbLine
 10
83.3787484808
 20
229.0974273682
 30
0.0
 11
88.3787484808
 21
229.0974273682
 31
0.0
  0
LINE
  5
165
330
1E
100
AcDbEntity
  8
0
 62
     3
100
AcDbLine
 10
88.3787484808
 20
229.0974273682
 30
0.0
 11
88.3787484808
 21
227.0974273681999
 31
0.0
  0
LINE
  5
166
330
1E
100
AcDbEntity
  8
0
 62
     3
100
AcDbLine
 10
83.3787484808
 20
229.0974273682
 30
0.0
 11
83.3787484808
 21
227.0974273681999
 31
0.0
  0
LINE
  5
167
330
1E
100
AcDbEntity
  8
0
 62
     3
100
AcDbLine
 10
160.1121011419999
 20
225.5974273681999
 30
0.0
 11
129.1121011419999
 21
225.5974273681999
 31
0.0
  0
LINE
  5
168
330
1E
100
AcDbEntity
  8
0
  6
CENTER
 62
     3
100
AcDbLine
 10
144.6121011419999
 20
264.197265625
 30
0.0
 11
144.6121011419999
 21
214.1974182129
 31
0.0
  0
LINE
  5
169
330
1E
100
AcDbEntity
  8
0
 62
     3
100
AcDbLine
 10
159.5643258733999
 20
259.1972656249999
 30
0.0
 11
129.6598764104998
 21
259.1972656249999
 31
0.0
  0
LINE
  5
16A
330
1E
100
AcDbEntity
  8
0
 62
     3
100
AcDbLine
 10
129.1121182546999
 20
225.5974216368
 30
0.0
 11
129.3599027354
 21
258.8996622070999
 31
0.0
  0
LINE
  5
16B
330
1E
100
AcDbEntity
  8
0
 62
     3
100
AcDbLine
 10
159.8643313843999
 20
258.8996737273
 30
0.0
 11
160.1121158651999
 21
225.5974331568999
 31
0.0
  0
LINE
  5
16C
330
1E
100
AcDbEntity
  8
0
 62
     3
100
AcDbLine
 10
130.0121523581998
 20
225.5974237496999
 30
0.0
 11
130.0456344768999
 21
230.0974213621
 31
0.0
  0
LINE
  5
16D
330
1E
100
AcDbEntity
  8
0
 62
     3
100
AcDbLine
 10
159.1786147877999
 20
230.0974482541999
 30
0.0
 11
159.2120969065
 21
225.5974506417
 31
0.0
  0
LINE
  5
16E
330
1E
100
AcDbEntity
  8
0
 62
     3
100
AcDbLine
 10
131.6531253787999
 20
231.0974212727999
 30
0.0
 11
131.8622027729998
 21
259.1974284036999
 31
0.0
  0
LINE
  5
16F
330
1E
100
AcDbEntity
  8
0
 62
     3
100
AcDbLine
 10
157.3620176778999
 20
259.1972261931
 30
0.0
 11
157.5710934826999
 21
231.0974326793999
 31
0.0
  0
LINE
  5
170
330
1E
100
AcDbEntity
  8
0
 62
     3
100
AcDbLine
 10
159.1785989446998
 20
230.0974273681999
 30
0.0
 11
160.0786233587999
 21
230.0974273681999
 31
0.0
  0
LINE
  5
171
330
1E
100
AcDbEntity
  8
0
 62
     3
100
AcDbLine
 10
130.0456033392
 20
230.0974273681999
 30
0.0
 11
129.1455789251999
 21
230.0974273681999
 31
0.0
  0
LINE
  5
172
330
1E
100
AcDbEntity
  8
0
 62
     3
100
AcDbLine
 10
157.5711007757998
 20
231.0974273682
 30
0.0
 11
160.0711770696999
 21
231.0974273682
 31
0.0
  0
LINE
  5
173
330
1E
100
AcDbEntity
  8
0
 62
     3
100
AcDbLine
 10
131.6530862493999
 20
231.0974273682
 30
0.0
 11
129.1530252142
 21
231.0974273682
 31
0.0
  0
LINE
  5
174
330
1E
100
AcDbEntity
  8
0
 62
     3
100
AcDbLine
 10
131.6530890476
 20
231.0974531350999
 30
0.0
 11
130.0455950956999
 21
230.0974480008
 31
0.0
  0
LINE
  5
175
330
1E
100
AcDbEntity
  8
0
 62
     3
100
AcDbLine
 10
157.5710898606999
 20
231.0974061545
 30
0.0
 11
159.1785708562999
 21
230.0974090802
 31
0.0
  0
LINE
  5
176
330
1E
100
AcDbEntity
  8
0
 62
     3
100
AcDbLine
 10
73.17873627379999
 20
223.7974243163999
 30
0.0
 11
98.5787454291
 21
223.7974243163999
 31
0.0
  0
LINE
  5
177
330
1E
100
AcDbEntity
  8
0
 62
     3
100
AcDbLine
 10
98.5787454291
 20
225.5974273681999
 30
0.0
 11
98.5787454291
 21
223.7974243163999
 31
0.0
  0
LINE
  5
178
330
1E
100
AcDbEntity
  8
0
 62
     3
100
AcDbLine
 10
73.17873627379999
 20
225.5974273681999
 30
0.0
 11
73.17873627379999
 21
223.7974243163999
 31
0.0
  0
LINE
  5
179
330
1E
100
AcDbEntity
  8
0
 62
     3
100
AcDbLine
 10
129.7120919866999
 20
223.7974243163999
 30
0.0
 11
159.5120950384
 21
223.7974243163999
 31
0.0
  0
LINE
  5
17A
330
1E
100
AcDbEntity
  8
0
 62
     3
100
AcDbLine
 10
159.5120950384
 20
225.5974273681999
 30
0.0
 11
159.5120950384
 21
223.7974243163999
 31
0.0
  0
LINE
  5
17B
330
1E
100
AcDbEntity
  8
0
 62
     3
100
AcDbLine
 10
129.7120919866999
 20
225.5974273681999
 30
0.0
 11
129.7120919866999
 21
223.7974243163999
 31
0.0
  0
LINE
  5
17C
330
1E
100
AcDbEntity
  8
0
 62
     3
100
AcDbLine
 10
155.6121011419999
 20
223.2974243164
 30
0.0
 11
155.6121011419999
 21
220.1974182129
 31
0.0
  0
LINE
  5
17D
330
1E
100
AcDbEntity
  8
0
 62
     3
100
AcDbLine
 10
153.6121011419999
 20
223.2974243164
 30
0.0
 11
153.6121011419999
 21
220.1974182129
 31
0.0
  0
LINE
  5
17E
330
1E
100
AcDbEntity
  8
0
 62
     3
100
AcDbLine
 10
152.6121011419999
 20
223.2974243164
 30
0.0
 11
153.6121011419999
 21
223.2974243164
 31
0.0
  0
LINE
  5
17F
330
1E
100
AcDbEntity
  8
0
 62
     3
100
AcDbLine
 10
154.6120119255999
 20
219.1974961534
 30
0.0
 11
155.6120130714998
 21
220.1974972149999
 31
0.0
  0
LINE
  5
180
330
1E
100
AcDbEntity
  8
0
 62
     3
100
AcDbLine
 10
154.6120807388998
 20
219.1973875367998
 30
0.0
 11
153.6120796772999
 21
220.1973885984
 31
0.0
  0
LINE
  5
181
330
1E
100
AcDbEntity
  8
0
 62
     3
100
AcDbLine
 10
152.1120780848999
 20
223.7974118413998
 30
0.0
 11
152.6120894052999
 21
223.297400521
 31
0.0
  0
LINE
  5
182
330
1E
100
AcDbEntity
  8
0
 62
     3
100
AcDbLine
 10
157.1121073471998
 20
223.7973787093
 30
0.0
 11
156.6120883979998
 21
223.2973750176999
 31
0.0
  0
LINE
  5
183
330
1E
100
AcDbEntity
  8
0
 62
     3
100
AcDbLine
 10
155.6121011419999
 20
223.2974243164
 30
0.0
 11
156.6120858831999
 21
223.2974243164
 31
0.0
  0
LINE
  5
184
330
1E
100
AcDbEntity
  8
0
 62
     3
100
AcDbLine
 10
75.57875413719997
 20
223.7974118413998
 30
0.0
 11
76.07876545759999
 21
223.297400521
 31
0.0
  0
LINE
  5
185
330
1E
100
AcDbEntity
  8
0
 62
     3
100
AcDbLine
 10
76.07879120539998
 20
223.2974243164
 30
0.0
 11
77.07879120539998
 21
223.2974243164
 31
0.0
  0
LINE
  5
186
330
1E
100
AcDbEntity
  8
0
 62
     3
100
AcDbLine
 10
79.07879120539998
 20
223.2974243164
 30
0.0
 11
79.07879120539998
 21
220.1974182129
 31
0.0
  0
LINE
  5
187
330
1E
100
AcDbEntity
  8
0
 62
     3
100
AcDbLine
 10
79.07879120539998
 20
223.2974243164
 30
0.0
 11
80.0787759467
 21
223.2974243164
 31
0.0
  0
LINE
  5
188
330
1E
100
AcDbEntity
  8
0
 62
     3
100
AcDbLine
 10
80.5788373298
 20
223.7973919032
 30
0.0
 11
80.07881838059999
 21
223.2973882115
 31
0.0
  0
LINE
  5
189
330
1E
100
AcDbEntity
  8
0
 62
     3
100
AcDbLine
 10
77.07879120539998
 20
223.2974243164
 30
0.0
 11
77.07879120539998
 21
220.1974182129
 31
0.0
  0
LINE
  5
18A
330
1E
100
AcDbEntity
  8
0
 62
     3
100
AcDbLine
 10
78.07874600159999
 20
219.1973767472999
 30
0.0
 11
77.07874493999998
 21
220.1973778087999
 31
0.0
  0
LINE
  5
18B
330
1E
100
AcDbEntity
  8
0
 62
     3
100
AcDbLine
 10
78.07871712099998
 20
219.1975101686
 30
0.0
 11
79.07871826689998
 21
220.1975112302
 31
0.0
  0
LINE
  5
18C
330
1E
100
AcDbEntity
  8
0
 62
     3
100
AcDbLine
 10
132.1121000114999
 20
223.7974118413998
 30
0.0
 11
132.6120897527
 21
223.2974221002
 31
0.0
  0
LINE
  5
18D
330
1E
100
AcDbEntity
  8
0
 62
     3
100
AcDbLine
 10
132.6121011419999
 20
223.2974243164
 30
0.0
 11
133.6121011419999
 21
223.2974243164
 31
0.0
  0
LINE
  5
18E
330
1E
100
AcDbEntity
  8
0
 62
     3
100
AcDbLine
 10
135.6121011419999
 20
223.2974243164
 30
0.0
 11
135.6121011419999
 21
220.1974182129
 31
0.0
  0
LINE
  5
18F
330
1E
100
AcDbEntity
  8
0
 62
     3
100
AcDbLine
 10
135.6121011419999
 20
223.2974243164
 30
0.0
 11
136.6120858831999
 21
223.2974243164
 31
0.0
  0
LINE
  5
190
330
1E
100
AcDbEntity
  8
0
 62
     3
100
AcDbLine
 10
137.1121076895999
 20
223.7973601647
 30
0.0
 11
136.61211032
 21
223.2973780518999
 31
0.0
  0
LINE
  5
191
330
1E
100
AcDbEntity
  8
0
 62
     3
100
AcDbLine
 10
133.6121011419999
 20
223.2974243164
 30
0.0
 11
133.6121011419999
 21
220.1974182129
 31
0.0
  0
LINE
  5
192
330
1E
100
AcDbEntity
  8
0
 62
     3
100
AcDbLine
 10
134.6120810862999
 20
219.197409116
 30
0.0
 11
133.6120800246999
 21
220.1974101775999
 31
0.0
  0
LINE
  5
193
330
1E
100
AcDbEntity
  8
0
 62
     3
100
AcDbLine
 10
134.6120869572
 20
219.1974646275
 30
0.0
 11
135.6120881031
 21
220.1974656891
 31
0.0
  0
LINE
  5
194
330
1E
100
AcDbEntity
  8
0
 62
     3
100
AcDbLine
 10
142.1120782585999
 20
223.7974226309999
 30
0.0
 11
142.6120895789999
 21
223.2974113106
 31
0.0
  0
LINE
  5
195
330
1E
100
AcDbEntity
  8
0
 62
     3
100
AcDbLine
 10
142.6121011419999
 20
223.2974243164
 30
0.0
 11
143.6121011419999
 21
223.2974243164
 31
0.0
  0
LINE
  5
196
330
1E
100
AcDbEntity
  8
0
 62
     3
100
AcDbLine
 10
145.6121011419999
 20
223.2974243164
 30
0.0
 11
145.6121011419999
 21
220.1974182129
 31
0.0
  0
LINE
  5
197
330
1E
100
AcDbEntity
  8
0
 62
     3
100
AcDbLine
 10
145.6121011419999
 20
223.2974243164
 30
0.0
 11
146.6120858832
 21
223.2974243164
 31
0.0
  0
LINE
  5
198
330
1E
100
AcDbEntity
  8
0
 62
     3
100
AcDbLine
 10
147.1121290975998
 20
223.7973694367
 30
0.0
 11
146.6121101483999
 21
223.297365745
 31
0.0
  0
LINE
  5
199
330
1E
100
AcDbEntity
  8
0
 62
     3
100
AcDbLine
 10
143.6121011419999
 20
223.2974243164
 30
0.0
 11
143.6121011419999
 21
220.1974182129
 31
0.0
  0
LINE
  5
19A
330
1E
100
AcDbEntity
  8
0
 62
     3
100
AcDbLine
 10
144.6120917022
 20
219.197409116
 30
0.0
 11
143.6120906406
 21
220.1974101775999
 31
0.0
  0
LINE
  5
19B
330
1E
100
AcDbEntity
  8
0
 62
     3
100
AcDbLine
 10
144.6120440465998
 20
219.1974534165
 30
0.0
 11
145.6120451924998
 21
220.1974544781
 31
0.0
  0
LINE
  5
1A6
330
1E
100
AcDbEntity
  8
0
 62
     3
100
AcDbLine
 10
95.6787362738
 20
223.7974243163999
 30
0.0
 11
95.6787362738
 21
220.1974182129
 31
0.0
  0
LINE
  5
1A7
330
1E
100
AcDbEntity
  8
0
 62
     3
100
AcDbLine
 10
96.17873627379999
 20
223.7974243163999
 30
0.0
 11
96.17873627379999
 21
220.1974029541
 31
0.0
  0
LINE
  5
1A8
330
1E
100
AcDbEntity
  8
0
 62
     3
100
AcDbLine
 10
85.07873017029998
 20
195.1474304199
 30
0.0
 11
85.57873017029995
 21
195.1474304199
 31
0.0
  0
LINE
  5
1A9
330
1E
100
AcDbEntity
  8
0
 62
     3
100
AcDbLine
 10
85.07873017029998
 20
197.1474304199
 30
0.0
 11
85.57873017029995
 21
197.1474304199
 31
0.0
  0
LINE
  5
1AA
330
1E
100
AcDbEntity
  8
0
 62
     3
100
AcDbLine
 10
95.6787362738
 20
198.6474304199
 30
0.0
 11
96.17873627379999
 21
198.6474304199
 31
0.0
  0
LINE
  5
1AB
330
1E
100
AcDbEntity
  8
0
 62
     3
100
AcDbLine
 10
95.6787362738
 20
198.1474304199
 30
0.0
 11
96.17873627379999
 21
198.1474304199
 31
0.0
  0
LINE
  5
1AC
330
1E
100
AcDbEntity
  8
0
 62
     3
100
AcDbLine
 10
95.6787362738
 20
197.1474304199
 30
0.0
 11
96.17873627379999
 21
197.1474304199
 31
0.0
  0
LINE
  5
1AD
330
1E
100
AcDbEntity
  8
0
 62
     3
100
AcDbLine
 10
95.6787362738
 20
196.1474304199
 30
0.0
 11
96.17873627379999
 21
196.1474304199
 31
0.0
  0
LINE
  5
1AE
330
1E
100
AcDbEntity
  8
0
 62
     3
100
AcDbLine
 10
95.6787362738
 20
195.1474304199
 30
0.0
 11
96.17873627379999
 21
195.1474304199
 31
0.0
  0
LINE
  5
1AF
330
1E
100
AcDbEntity
  8
0
 62
     3
100
AcDbLine
 10
95.6787362738
 20
194.1474304199
 30
0.0
 11
96.17873627379999
 21
194.1474304199
 31
0.0
  0
LINE
  5
1B0
330
1E
100
AcDbEntity
  8
0
 62
     3
100
AcDbLine
 10
95.6787362738
 20
193.6474304199
 30
0.0
 11
96.17873627379999
 21
193.6474304199
 31
0.0
  0
LINE
  5
1B1
330
1E
100
AcDbEntity
  8
0
 62
     3
100
AcDbLine
 10
95.6787362738
 20
198.6474304199
 30
0.0
 11
95.6787362738
 21
193.6474304199
 31
0.0
  0
LINE
  5
1B2
330
1E
100
AcDbEntity
  8
0
 62
     3
100
AcDbLine
 10
96.17873627379999
 20
198.6474304199
 30
0.0
 11
96.17873627379999
 21
193.6474304199
 31
0.0
  0
LINE
  5
1B3
330
1E
100
AcDbEntity
  8
0
 62
     3
100
AcDbLine
 10
90.97872406679995
 20
198.6474304199
 30
0.0
 11
91.47872406679994
 21
198.6474304199
 31
0.0
  0
LINE
  5
1B4
330
1E
100
AcDbEntity
  8
0
 62
     3
100
AcDbLine
 10
90.97872406679995
 20
198.1474304199
 30
0.0
 11
91.47872406679994
 21
198.1474304199
 31
0.0
  0
LINE
  5
1B5
330
1E
100
AcDbEntity
  8
0
 62
     3
100
AcDbLine
 10
90.97872406679995
 20
197.1474304199
 30
0.0
 11
91.47872406679994
 21
197.1474304199
 31
0.0
  0
LINE
  5
1B6
330
1E
100
AcDbEntity
  8
0
 62
     3
100
AcDbLine
 10
90.97872406679995
 20
196.1474304199
 30
0.0
 11
91.47872406679994
 21
196.1474304199
 31
0.0
  0
LINE
  5
1B7
330
1E
100
AcDbEntity
  8
0
 62
     3
100
AcDbLine
 10
90.97872406679995
 20
195.1474304199
 30
0.0
 11
91.47872406679994
 21
195.1474304199
 31
0.0
  0
LINE
  5
1B8
330
1E
100
AcDbEntity
  8
0
 62
     3
100
AcDbLine
 10
90.97872406679995
 20
194.1474304199
 30
0.0
 11
91.47872406679994
 21
194.1474304199
 31
0.0
  0
LINE
  5
1B9
330
1E
100
AcDbEntity
  8
0
 62
     3
100
AcDbLine
 10
90.97872406679995
 20
193.6474304199
 30
0.0
 11
91.47872406679994
 21
193.6474304199
 31
0.0
  0
LINE
  5
1BA
330
1E
100
AcDbEntity
  8
0
 62
     3
100
AcDbLine
 10
90.97872406679995
 20
198.6474304199
 30
0.0
 11
90.97872406679995
 21
193.6474304199
 31
0.0
  0
LINE
  5
1BB
330
1E
100
AcDbEntity
  8
0
 62
     3
100
AcDbLine
 10
91.47872406679994
 20
178.6474304199
 30
0.0
 11
91.47872406679994
 21
173.6474304199
 31
0.0
  0
LINE
  5
1BC
330
1E
100
AcDbEntity
  8
0
 62
     3
100
AcDbLine
 10
75.5787759467
 20
176.3974151611
 30
0.0
 11
80.57877594670001
 21
176.3974151611
 31
0.0
  0
LINE
  5
1BD
330
1E
100
AcDbEntity
  8
0
 62
     3
100
AcDbLine
 10
75.5787759467
 20
175.8974151611
 30
0.0
 11
80.57877594670001
 21
175.8974151611
 31
0.0
  0
LINE
  5
1BE
330
1E
100
AcDbEntity
  8
0
 62
     3
100
AcDbLine
 10
90.97872406679995
 20
178.6474304199
 30
0.0
 11
90.97872406679995
 21
173.6474304199
 31
0.0
  0
LINE
  5
1BF
330
1E
100
AcDbEntity
  8
0
 62
     3
100
AcDbLine
 10
80.57879120539999
 20
175.8974304199
 30
0.0
 11
80.57879120539999
 21
176.3974304199
 31
0.0
  0
LINE
  5
1C0
330
1E
100
AcDbEntity
  8
0
 62
     3
100
AcDbLine
 10
75.57879120539998
 20
175.8974304199
 30
0.0
 11
75.57879120539998
 21
176.3974304199
 31
0.0
  0
LINE
  5
1C1
330
1E
100
AcDbEntity
  8
0
 62
     3
100
AcDbLine
 10
76.07879120539998
 20
175.8974304199
 30
0.0
 11
76.07879120539998
 21
176.3974304199
 31
0.0
  0
LINE
  5
1C2
330
1E
100
AcDbEntity
  8
0
 62
     3
100
AcDbLine
 10
80.0787912054
 20
175.8974304199
 30
0.0
 11
80.0787912054
 21
176.3974304199
 31
0.0
  0
LINE
  5
1C3
330
1E
100
AcDbEntity
  8
0
 62
     3
100
AcDbLine
 10
79.07879120539998
 20
175.8974304199
 30
0.0
 11
79.07879120539998
 21
176.3974304199
 31
0.0
  0
LINE
  5
1C4
330
1E
100
AcDbEntity
  8
0
 62
     3
100
AcDbLine
 10
77.07879120539998
 20
175.8974304199
 30
0.0
 11
77.07879120539998
 21
176.3974304199
 31
0.0
  0
LINE
  5
1C5
330
1E
100
AcDbEntity
  8
0
 62
     3
100
AcDbLine
 10
95.6787362738
 20
178.6474304199
 30
0.0
 11
96.17873627379999
 21
178.6474304199
 31
0.0
  0
LINE
  5
1C6
330
1E
100
AcDbEntity
  8
0
 62
     3
100
AcDbLine
 10
95.6787362738
 20
178.1474304199
 30
0.0
 11
96.17873627379999
 21
178.1474304199
 31
0.0
  0
LINE
  5
1C7
330
1E
100
AcDbEntity
  8
0
 62
     3
100
AcDbLine
 10
95.6787362738
 20
177.1474304199
 30
0.0
 11
96.17873627379999
 21
177.1474304199
 31
0.0
  0
LINE
  5
1C8
330
1E
100
AcDbEntity
  8
0
 62
     3
100
AcDbLine
 10
90.97872406679995
 20
174.1474304199
 30
0.0
 11
91.47872406679994
 21
174.1474304199
 31
0.0
  0
LINE
  5
1C9
330
1E
100
AcDbEntity
  8
0
 62
     3
100
AcDbLine
 10
95.6787362738
 20
175.1474304199
 30
0.0
 11
96.17873627379999
 21
175.1474304199
 31
0.0
  0
LINE
  5
1CA
330
1E
100
AcDbEntity
  8
0
 62
     3
100
AcDbLine
 10
95.6787362738
 20
174.1474304199
 30
0.0
 11
96.17873627379999
 21
174.1474304199
 31
0.0
  0
LINE
  5
1CB
330
1E
100
AcDbEntity
  8
0
 62
     3
100
AcDbLine
 10
95.6787362738
 20
173.6474304199
 30
0.0
 11
96.17873627379999
 21
173.6474304199
 31
0.0
  0
LINE
  5
1CC
330
1E
100
AcDbEntity
  8
0
 62
     3
100
AcDbLine
 10
95.6787362738
 20
178.6474304199
 30
0.0
 11
95.6787362738
 21
173.6474304199
 31
0.0
  0
LINE
  5
1CD
330
1E
100
AcDbEntity
  8
0
 62
     3
100
AcDbLine
 10
96.17873627379999
 20
178.6474304199
 30
0.0
 11
96.17873627379999
 21
173.6474304199
 31
0.0
  0
LINE
  5
1CE
330
1E
100
AcDbEntity
  8
0
 62
     3
100
AcDbLine
 10
90.97872406679995
 20
178.6474304199
 30
0.0
 11
91.47872406679994
 21
178.6474304199
 31
0.0
  0
LINE
  5
1CF
330
1E
100
AcDbEntity
  8
0
 62
     3
100
AcDbLine
 10
90.97872406679995
 20
178.1474304199
 30
0.0
 11
91.47872406679994
 21
178.1474304199
 31
0.0
  0
LINE
  5
1D0
330
1E
100
AcDbEntity
  8
0
 62
     3
100
AcDbLine
 10
90.97872406679995
 20
177.1474304199
 30
0.0
 11
91.47872406679994
 21
177.1474304199
 31
0.0
  0
LINE
  5
1D1
330
1E
100
AcDbEntity
  8
0
 62
     3
100
AcDbLine
 10
90.97872406679995
 20
173.6474304199
 30
0.0
 11
91.47872406679994
 21
173.6474304199
 31
0.0
  0
LINE
  5
1D2
330
1E
100
AcDbEntity
  8
0
 62
     3
100
AcDbLine
 10
90.97872406679995
 20
175.1474304199
 30
0.0
 11
91.47872406679994
 21
175.1474304199
 31
0.0
  0
LINE
  5
1D3
330
1E
100
AcDbEntity
  8
0
 62
     3
100
AcDbLine
 10
85.07873017029998
 20
178.6474304199
 30
0.0
 11
85.57873017029995
 21
178.6474304199
 31
0.0
  0
LINE
  5
1D4
330
1E
100
AcDbEntity
  8
0
 62
     3
100
AcDbLine
 10
85.07873017029998
 20
178.1474304199
 30
0.0
 11
85.57873017029995
 21
178.1474304199
 31
0.0
  0
LINE
  5
1D5
330
1E
100
AcDbEntity
  8
0
 62
     3
100
AcDbLine
 10
85.07873017029998
 20
177.1474304199
 30
0.0
 11
85.57873017029995
 21
177.1474304199
 31
0.0
  0
LINE
  5
1D6
330
1E
100
AcDbEntity
  8
0
 62
     3
100
AcDbLine
 10
85.07873017029998
 20
176.1474304199
 30
0.0
 11
85.57873017029995
 21
176.1474304199
 31
0.0
  0
LINE
  5
1D7
330
1E
100
AcDbEntity
  8
0
 62
     3
100
AcDbLine
 10
85.07873017029998
 20
175.1474304199
 30
0.0
 11
85.57873017029995
 21
175.1474304199
 31
0.0
  0
LINE
  5
1D8
330
1E
100
AcDbEntity
  8
0
 62
     3
100
AcDbLine
 10
85.07873017029998
 20
178.6474304199
 30
0.0
 11
85.07873017029998
 21
173.6474304199
 31
0.0
  0
LINE
  5
1D9
330
1E
100
AcDbEntity
  8
0
 62
     3
100
AcDbLine
 10
85.07873017029998
 20
173.6474304199
 30
0.0
 11
85.57873017029995
 21
173.6474304199
 31
0.0
  0
LINE
  5
1DA
330
1E
100
AcDbEntity
  8
0
 62
     3
100
AcDbLine
 10
85.07873017029998
 20
174.1474304199
 30
0.0
 11
85.57873017029995
 21
174.1474304199
 31
0.0
  0
LINE
  5
1DB
330
1E
100
AcDbEntity
  8
0
 62
     3
100
AcDbLine
 10
85.57873017029995
 20
178.6474304199
 30
0.0
 11
85.57873017029995
 21
173.6474304199
 31
0.0
  0
LINE
  5
1DC
330
1E
100
AcDbEntity
  8
0
 62
     3
100
AcDbLine
 10
78.07879120539998
 20
196.3974304199
 30
0.0
 11
78.07879120539998
 21
195.8974304199
 31
0.0
  0
LINE
  5
1DD
330
1E
100
AcDbEntity
  8
0
 62
     3
100
AcDbLine
 10
75.5787759467
 20
195.8974456786999
 30
0.0
 11
80.57877594670001
 21
195.8974456786999
 31
0.0
  0
LINE
  5
1DE
330
1E
100
AcDbEntity
  8
0
 62
     3
100
AcDbLine
 10
75.5787759467
 20
196.3974456786999
 30
0.0
 11
80.57877594670001
 21
196.3974456786999
 31
0.0
  0
LINE
  5
1DF
330
1E
100
AcDbEntity
  8
0
 62
     3
100
AcDbLine
 10
80.57879120539999
 20
196.3974304199
 30
0.0
 11
80.57879120539999
 21
195.8974304199
 31
0.0
  0
LINE
  5
1E0
330
1E
100
AcDbEntity
  8
0
 62
     3
100
AcDbLine
 10
75.57879120539998
 20
196.3974304199
 30
0.0
 11
75.57879120539998
 21
195.8974304199
 31
0.0
  0
LINE
  5
1E1
330
1E
100
AcDbEntity
  8
0
 62
     3
100
AcDbLine
 10
76.07879120539998
 20
196.3974304199
 30
0.0
 11
76.07879120539998
 21
195.8974304199
 31
0.0
  0
LINE
  5
1E2
330
1E
100
AcDbEntity
  8
0
 62
     3
100
AcDbLine
 10
80.0787912054
 20
196.3974304199
 30
0.0
 11
80.0787912054
 21
195.8974304199
 31
0.0
  0
LINE
  5
1E3
330
1E
100
AcDbEntity
  8
0
 62
     3
100
AcDbLine
 10
79.07879120539998
 20
196.3974304199
 30
0.0
 11
79.07879120539998
 21
195.8974304199
 31
0.0
  0
LINE
  5
1E4
330
1E
100
AcDbEntity
  8
0
 62
     3
100
AcDbLine
 10
77.07879120539998
 20
196.3974304199
 30
0.0
 11
77.07879120539998
 21
195.8974304199
 31
0.0
  0
LINE
  5
1E5
330
1E
100
AcDbEntity
  8
0
 62
     3
100
AcDbLine
 10
154.1121164007998
 20
220.1974639892998
 30
0.0
 11
155.1121164007998
 21
220.1974639892998
 31
0.0
  0
LINE
  5
1E6
330
1E
100
AcDbEntity
  8
0
 62
     3
100
AcDbLine
 10
134.1121011419999
 20
220.1974639892998
 30
0.0
 11
135.1121011419999
 21
220.1974639892998
 31
0.0
  0
LINE
  5
1E7
330
1E
100
AcDbEntity
  8
0
 62
     3
100
AcDbLine
 10
144.1121011419999
 20
220.1974639892998
 30
0.0
 11
145.1121011419999
 21
220.1974639892998
 31
0.0
  0
LINE
  5
1E8
330
1E
100
AcDbEntity
  8
0
 62
     3
100
AcDbLine
 10
134.4454680432999
 20
219.3640490391
 30
0.0
 11
134.4621269554998
 21
219.1974604849999
 31
0.0
  0
LINE
  5
1E9
330
1E
100
AcDbEntity
  8
0
 62
     3
100
AcDbLine
 10
134.4621072454999
 20
219.1974639893
 30
0.0
 11
134.7621102971999
 21
219.1974639893
 31
0.0
  0
LINE
  5
1EA
330
1E
100
AcDbEntity
  8
0
 62
     3
100
AcDbLine
 10
134.7621006542998
 20
219.197445673
 30
0.0
 11
134.7787671580998
 21
219.3641101424
 31
0.0
  0
LINE
  5
1EB
330
1E
100
AcDbEntity
  8
0
 62
     3
100
AcDbLine
 10
154.7620950383999
 20
219.1974639893
 30
0.0
 11
154.4620919867
 21
219.1974639893
 31
0.0
  0
LINE
  5
1EC
330
1E
100
AcDbEntity
  8
0
 62
     3
100
AcDbLine
 10
154.7787372808999
 20
219.3640436868
 30
0.0
 11
154.7620776700999
 21
219.1974552025
 31
0.0
  0
ARC
  5
1F1
330
1E
100
AcDbEntity
  8
0
 62
     3
100
AcDbCircle
 10
72.67650849059998
 20
258.8974304199
 30
0.0
 40
0.3000000119
100
AcDbArc
 50
89.99998201389999
 51
179.5737602236
  0
ARC
  5
1F2
330
1E
100
AcDbEntity
  8
0
 62
     3
100
AcDbCircle
 10
99.0809732123
 20
258.8974304199
 30
0.0
 40
0.3000000119
100
AcDbArc
 50
0.4262078596000002
 51
89.99998201389999
  0
ARC
  5
1F3
330
1E
100
AcDbEntity
  8
0
 62
     3
100
AcDbCircle
 10
129.6598764104998
 20
258.8974304199
 30
0.0
 40
0.3000000119
100
AcDbArc
 50
89.99998201389999
 51
179.5738148651
  0
ARC
  5
1F4
330
1E
100
AcDbEntity
  8
0
 62
     3
100
AcDbCircle
 10
159.5643258733999
 20
258.8974304199
 30
0.0
 40
0.3000000119
100
AcDbArc
 50
0.4262063655
 51
89.99998201389999
  0
LINE
  5
210
330
1E
100
AcDbEntity
  8
0
  6
CENTER
 62
     3
100
AcDbLine
 10
85.8787484808
 20
204.6474304199
 30
0.0
 11
85.8787484808
 21
167.6474304199
 31
0.0
  0
LINE
  5
211
330
1E
100
AcDbEntity
  8
0
  6
CENTER
 62
     3
100
AcDbLine
 10
69.1287484808
 20
186.1474304199
 30
0.0
 11
102.6287484807999
 21
186.1474304199
 31
0.0
  0
LINE
  5
757
330
1E
100
AcDbEntity
  8
0
100
AcDbLine
 10
0.0
 20
0.0
 30
0.0
 11
210.0
 21
0.0
 31
0.0
  0
LINE
  5
758
330
1E
100
AcDbEntity
  8
0
100
AcDbLine
 10
210.0
 20
0.0
 30
0.0
 11
210.0
 21
297.0
 31
0.0
  0
LINE
  5
759
330
1E
100
AcDbEntity
  8
0
100
AcDbLine
 10
210.0
 20
297.0
 30
0.0
 11
0.0
 21
297.0
 31
0.0
  0
LINE
  5
75A
330
1E
100
AcDbEntity
  8
0
100
AcDbLine
 10
0.0
 20
297.0
 30
0.0
 11
0.0
 21
0.0
 31
0.0
  0
TEXT
  5
75F
330
1E
100
AcDbEntity
  8
0
 62
     5
100
AcDbText
 10
145.0
 20
10.0
 30
0.0
 40
5.0
  1
ＭＡ４－Ｒ０００４２Ｂ
 41
0.8443967743953107
 72
     5
 11
199.0413935612998
 21
10.0
 31
0.0
100
AcDbText
  0
TEXT
  5
770
330
1E
100
AcDbEntity
  8
0
 62
     7
100
AcDbText
 10
146.0
 20
100.00000295525
 30
0.0
 40
2.999994089499998
  1
RH3V2-UDC
 11
146.0
 21
101.5
 31
0.0
100
AcDbText
 73
     2
  0
TEXT
  5
771
330
1E
100
AcDbEntity
  8
0
 62
     7
100
AcDbText
 10
146.0
 20
95.00000295524992
 30
0.0
 40
2.999994089499998
  1
RH3V2-ULAC
 11
146.0
 21
96.49999999999993
 31
0.0
100
AcDbText
 73
     2
  0
TEXT
  5
772
330
1E
100
AcDbEntity
  8
0
 62
     7
100
AcDbText
 10
146.0
 20
105.0000029552498
 30
0.0
 40
2.999994089499998
  1
RH3V2-UAC
 11
146.0
 21
106.4999999999999
 31
0.0
100
AcDbText
 73
     2
  0
TEXT
  5
773
330
1E
100
AcDbEntity
  8
0
 62
     7
100
AcDbText
 10
146.0
 20
110.0000029552498
 30
0.0
 40
2.999994089499998
  1
RH3V2-LDDC
 11
146.0
 21
111.4999999999999
 31
0.0
100
AcDbText
 73
     2
  0
TEXT
  5
774
330
1E
100
AcDbEntity
  8
0
 62
     7
100
AcDbText
 10
146.0
 20
115.0000029552499
 30
0.0
 40
2.999994089499998
  1
RH3V2-DDC
 11
146.0
 21
116.5
 31
0.0
100
AcDbText
 73
     2
  0
TEXT
  5
775
330
1E
100
AcDbEntity
  8
0
 62
     7
100
AcDbText
 10
146.0
 20
90.00000295524992
 30
0.0
 40
2.999994089499998
  1
RH3V2-ULDC
 11
146.0
 21
91.49999999999993
 31
0.0
100
AcDbText
 73
     2
  0
ENDSEC
  0
SECTION
  2
OBJECTS
  0
DICTIONARY
  5
C
330
0
100
AcDbDictionary
281
     1
  3
ACAD_GROUP
350
D
  3
ACAD_LAYOUT
350
19
  3
ACAD_MLINESTYLE
350
16
  3
ACAD_PLOTSETTINGS
350
18
  3
ACAD_PLOTSTYLENAME
350
E
  3
AcDbVariableDictionary
350
776
  0
DICTIONARY
  5
D
102
{ACAD_REACTORS
330
C
102
}
330
C
100
AcDbDictionary
281
     1
  0
DICTIONARY
  5
19
102
{ACAD_REACTORS
330
C
102
}
330
C
100
AcDbDictionary
281
     1
  3
Model
350
21
  3
ﾚｲｱｳﾄ1
350
1D
  0
DICTIONARY
  5
16
102
{ACAD_REACTORS
330
C
102
}
330
C
100
AcDbDictionary
281
     1
  3
Standard
350
17
  0
DICTIONARY
  5
18
102
{ACAD_REACTORS
330
C
102
}
330
C
100
AcDbDictionary
281
     1
  0
ACDBDICTIONARYWDFLT
  5
E
102
{ACAD_REACTORS
330
C
102
}
330
C
100
AcDbDictionary
281
     1
  3
Normal
350
F
100
AcDbDictionaryWithDefault
340
F
  0
DICTIONARY
  5
776
102
{ACAD_REACTORS
330
C
102
}
330
C
100
AcDbDictionary
281
     1
  3
DIMASSOC
350
777
  0
LAYOUT
  5
21
102
{ACAD_REACTORS
330
19
102
}
330
19
100
AcDbPlotSettings
  1

  2
C:\Program Files\AutoCAD 2000i\plotters\DWF Classic.pc3
  4

  6

 40
0.0
 41
0.0
 42
0.0
 43
0.0
 44
0.0
 45
0.0
 46
0.0
 47
0.0
 48
0.0
 49
0.0
140
0.0
141
0.0
142
1.0
143
1.0
 70
  1712
 72
     0
 73
     0
 74
     0
  7

 75
     0
147
1.0
148
0.0
149
0.0
100
AcDbLayout
  1
Model
 70
     1
 71
     0
 10
0.0
 20
0.0
 11
12.0
 21
9.0
 12
0.0
 22
0.0
 32
0.0
 14
0.0
 24
0.0
 34
0.0
 15
0.0
 25
0.0
 35
0.0
146
0.0
 13
0.0
 23
0.0
 33
0.0
 16
1.0
 26
0.0
 36
0.0
 17
0.0
 27
1.0
 37
0.0
 76
     0
330
1E
  0
LAYOUT
  5
1D
102
{ACAD_REACTORS
330
19
102
}
330
19
100
AcDbPlotSettings
  1

  2
C:\Program Files\AutoCAD 2000i\plotters\DWF Classic.pc3
  4

  6

 40
0.0
 41
0.0
 42
0.0
 43
0.0
 44
0.0
 45
0.0
 46
0.0
 47
0.0
 48
0.0
 49
0.0
140
0.0
141
0.0
142
1.0
143
1.0
 70
   688
 72
     0
 73
     0
 74
     5
  7

 75
    16
147
1.0
148
0.0
149
0.0
100
AcDbLayout
  1
ﾚｲｱｳﾄ1
 70
     1
 71
     1
 10
0.0
 20
0.0
 11
12.0
 21
9.0
 12
0.0
 22
0.0
 32
0.0
 14
1.000000000000000E+20
 24
1.000000000000000E+20
 34
1.000000000000000E+20
 15
-1.000000000000000E+20
 25
-1.000000000000000E+20
 35
-1.000000000000000E+20
146
0.0
 13
0.0
 23
0.0
 33
0.0
 16
1.0
 26
0.0
 36
0.0
 17
0.0
 27
1.0
 37
0.0
 76
     0
330
1A
  0
MLINESTYLE
  5
17
102
{ACAD_REACTORS
330
16
102
}
330
16
100
AcDbMlineStyle
  2
STANDARD
 70
     0
  3

 62
   256
 51
90.0
 52
90.0
 71
     2
 49
0.5
 62
   256
  6
BYLAYER
 49
-0.5
 62
   256
  6
BYLAYER
  0
ACDBPLACEHOLDER
  5
F
102
{ACAD_REACTORS
330
E
102
}
330
E
  0
DICTIONARYVAR
  5
777
102
{ACAD_REACTORS
330
776
102
}
330
776
100
DictionaryVariables
280
     0
  1
1
  0
ENDSEC
  0
EOF
