  0
SECTION
  2
HEADER
  9
$ACADVER
  1
AC1015
  9
$ACADMAINTVER
 70
    13
  9
$DWGCODEPAGE
  3
ANSI_932
  9
$INSBASE
 10
0.0
 20
0.0
 30
0.0
  9
$EXTMIN
 10
-0.0276110892524457
 20
-0.0006537740625845
 30
-0.0000000000112498
  9
$EXTMAX
 10
210.024482431661
 20
297.0044886908847
 30
0.0000000000002956
  9
$LIMMIN
 10
-189.175
 20
-3.174999999999998
  9
$LIMMAX
 10
3.174999999999998
 20
291.2585876465
  9
$ORTHOMODE
 70
     0
  9
$REGENMODE
 70
     1
  9
$FILLMODE
 70
     1
  9
$QTEXTMODE
 70
     0
  9
$MIRRTEXT
 70
     0
  9
$LTSCALE
 40
1.0
  9
$ATTMODE
 70
     1
  9
$TEXTSIZE
 40
2.999994039499998
  9
$TRACEWID
 40
0.05
  9
$TEXTSTYLE
  7
STANDARD
  9
$CLAYER
  8
0
  9
$CELTYPE
  6
ByLayer
  9
$CECOLOR
 62
   256
  9
$CELTSCALE
 40
1.0
  9
$DISPSILH
 70
     0
  9
$DIMSCALE
 40
1.0
  9
$DIMASZ
 40
1.9727878465
  9
$DIMEXO
 40
2.539999961899999
  9
$DIMDLI
 40
0.38
  9
$DIMRND
 40
0.0
  9
$DIMDLE
 40
0.0
  9
$DIMEXE
 40
3.809999942799998
  9
$DIMTP
 40
0.0
  9
$DIMTM
 40
0.0
  9
$DIMTXT
 40
2.999994039499998
  9
$DIMCEN
 40
0.09
  9
$DIMTSZ
 40
0.0
  9
$DIMTOL
 70
     0
  9
$DIMLIM
 70
     0
  9
$DIMTIH
 70
     0
  9
$DIMTOH
 70
     1
  9
$DIMSE1
 70
     0
  9
$DIMSE2
 70
     0
  9
$DIMTAD
 70
     0
  9
$DIMZIN
 70
     0
  9
$DIMBLK
  1

  9
$DIMASO
 70
     1
  9
$DIMSHO
 70
     0
  9
$DIMPOST
  1

  9
$DIMAPOST
  1

  9
$DIMALT
 70
     0
  9
$DIMALTD
 70
     2
  9
$DIMALTF
 40
25.4
  9
$DIMLFAC
 40
1.0
  9
$DIMTOFL
 70
     0
  9
$DIMTVP
 40
0.0
  9
$DIMTIX
 70
     0
  9
$DIMSOXD
 70
     0
  9
$DIMSAH
 70
     0
  9
$DIMBLK1
  1

  9
$DIMBLK2
  1

  9
$DIMSTYLE
  2
Standard
  9
$DIMCLRD
 70
     0
  9
$DIMCLRE
 70
     0
  9
$DIMCLRT
 70
     0
  9
$DIMTFAC
 40
1.0
  9
$DIMGAP
 40
0.09
  9
$DIMJUST
 70
     0
  9
$DIMSD1
 70
     0
  9
$DIMSD2
 70
     0
  9
$DIMTOLJ
 70
     1
  9
$DIMTZIN
 70
     0
  9
$DIMALTZ
 70
     0
  9
$DIMALTTZ
 70
     0
  9
$DIMUPT
 70
     0
  9
$DIMDEC
 70
     4
  9
$DIMTDEC
 70
     4
  9
$DIMALTU
 70
     2
  9
$DIMALTTD
 70
     2
  9
$DIMTXSTY
  7
STANDARD
  9
$DIMAUNIT
 70
     0
  9
$DIMADEC
 70
     0
  9
$DIMALTRND
 40
0.0
  9
$DIMAZIN
 70
     0
  9
$DIMDSEP
 70
    46
  9
$DIMATFIT
 70
     3
  9
$DIMFRAC
 70
     0
  9
$DIMLDRBLK
  1

  9
$DIMLUNIT
 70
     2
  9
$DIMLWD
 70
    -2
  9
$DIMLWE
 70
    -2
  9
$DIMTMOVE
 70
     0
  9
$LUNITS
 70
     2
  9
$LUPREC
 70
     3
  9
$SKETCHINC
 40
0.1
  9
$FILLETRAD
 40
0.0625
  9
$AUNITS
 70
     0
  9
$AUPREC
 70
     0
  9
$MENU
  1
ACAD
  9
$ELEVATION
 40
0.0
  9
$PELEVATION
 40
0.0
  9
$THICKNESS
 40
0.0
  9
$LIMCHECK
 70
     0
  9
$CHAMFERA
 40
0.0
  9
$CHAMFERB
 40
0.0
  9
$CHAMFERC
 40
0.0
  9
$CHAMFERD
 40
0.0
  9
$SKPOLY
 70
     0
  9
$TDCREATE
 40
2452522.687939814
  9
$TDUCREATE
 40
2452522.312939815
  9
$TDUPDATE
 40
2453353.493153750
  9
$TDUUPDATE
 40
2453353.118153750
  9
$TDINDWG
 40
0.0024784838
  9
$TDUSRTIMER
 40
0.0024781134
  9
$USRTIMER
 70
     1
  9
$ANGBASE
 50
0.0
  9
$ANGDIR
 70
     0
  9
$PDMODE
 70
     0
  9
$PDSIZE
 40
0.0
  9
$PLINEWID
 40
0.0
  9
$SPLFRAME
 70
     0
  9
$SPLINETYPE
 70
     6
  9
$SPLINESEGS
 70
     8
  9
$HANDSEED
  5
6E6
  9
$SURFTAB1
 70
     6
  9
$SURFTAB2
 70
     6
  9
$SURFTYPE
 70
     6
  9
$SURFU
 70
     6
  9
$SURFV
 70
     6
  9
$UCSBASE
  2

  9
$UCSNAME
  2

  9
$UCSORG
 10
0.0
 20
0.0
 30
0.0
  9
$UCSXDIR
 10
1.0
 20
0.0
 30
0.0
  9
$UCSYDIR
 10
0.0
 20
1.0
 30
0.0
  9
$UCSORTHOREF
  2

  9
$UCSORTHOVIEW
 70
     0
  9
$UCSORGTOP
 10
0.0
 20
0.0
 30
0.0
  9
$UCSORGBOTTOM
 10
0.0
 20
0.0
 30
0.0
  9
$UCSORGLEFT
 10
0.0
 20
0.0
 30
0.0
  9
$UCSORGRIGHT
 10
0.0
 20
0.0
 30
0.0
  9
$UCSORGFRONT
 10
0.0
 20
0.0
 30
0.0
  9
$UCSORGBACK
 10
0.0
 20
0.0
 30
0.0
  9
$PUCSBASE
  2

  9
$PUCSNAME
  2

  9
$PUCSORG
 10
0.0
 20
0.0
 30
0.0
  9
$PUCSXDIR
 10
1.0
 20
0.0
 30
0.0
  9
$PUCSYDIR
 10
0.0
 20
1.0
 30
0.0
  9
$PUCSORTHOREF
  2

  9
$PUCSORTHOVIEW
 70
     0
  9
$PUCSORGTOP
 10
0.0
 20
0.0
 30
0.0
  9
$PUCSORGBOTTOM
 10
0.0
 20
0.0
 30
0.0
  9
$PUCSORGLEFT
 10
0.0
 20
0.0
 30
0.0
  9
$PUCSORGRIGHT
 10
0.0
 20
0.0
 30
0.0
  9
$PUCSORGFRONT
 10
0.0
 20
0.0
 30
0.0
  9
$PUCSORGBACK
 10
0.0
 20
0.0
 30
0.0
  9
$USERI1
 70
     8
  9
$USERI2
 70
     0
  9
$USERI3
 70
     0
  9
$USERI4
 70
     0
  9
$USERI5
 70
     0
  9
$USERR1
 40
0.0
  9
$USERR2
 40
0.0
  9
$USERR3
 40
0.0
  9
$USERR4
 40
0.0
  9
$USERR5
 40
0.0
  9
$WORLDVIEW
 70
     1
  9
$SHADEDGE
 70
     3
  9
$SHADEDIF
 70
    70
  9
$TILEMODE
 70
     1
  9
$MAXACTVP
 70
    64
  9
$PINSBASE
 10
0.0
 20
0.0
 30
0.0
  9
$PLIMCHECK
 70
     0
  9
$PEXTMIN
 10
1.000000000000000E+20
 20
1.000000000000000E+20
 30
1.000000000000000E+20
  9
$PEXTMAX
 10
-1.000000000000000E+20
 20
-1.000000000000000E+20
 30
-1.000000000000000E+20
  9
$PLIMMIN
 10
0.0
 20
0.0
  9
$PLIMMAX
 10
12.0
 20
9.0
  9
$UNITMODE
 70
     0
  9
$VISRETAIN
 70
     1
  9
$PLINEGEN
 70
     0
  9
$PSLTSCALE
 70
     1
  9
$TREEDEPTH
 70
  3020
  9
$CMLSTYLE
  2
Standard
  9
$CMLJUST
 70
     0
  9
$CMLSCALE
 40
1.0
  9
$PROXYGRAPHICS
 70
     1
  9
$MEASUREMENT
 70
     0
  9
$CELWEIGHT
370
    -1
  9
$ENDCAPS
280
     0
  9
$JOINSTYLE
280
     0
  9
$LWDISPLAY
290
     0
  9
$INSUNITS
 70
     0
  9
$HYPERLINKBASE
  1

  9
$STYLESHEET
  1

  9
$XEDIT
290
     1
  9
$CEPSNTYPE
380
     0
  9
$PSTYLEMODE
290
     1
  9
$FINGERPRINTGUID
  2
{17DC873C-916F-4A41-927F-66F647869CAA}
  9
$VERSIONGUID
  2
{4163CF60-B2F2-4CA3-9FB0-F248771D0312}
  9
$EXTNAMES
290
     1
  9
$PSVPSCALE
 40
0.0
  9
$OLESTARTUP
290
     0
  0
ENDSEC
  0
SECTION
  2
CLASSES
  0
CLASS
  1
ACDBDICTIONARYWDFLT
  2
AcDbDictionaryWithDefault
  3
AutoCAD 2000
 90
        0
280
     0
281
     0
  0
CLASS
  1
ACDBPLACEHOLDER
  2
AcDbPlaceHolder
  3
AutoCAD 2000
 90
        0
280
     0
281
     0
  0
CLASS
  1
LAYOUT
  2
AcDbLayout
  3
AutoCAD 2000
 90
        0
280
     0
281
     0
  0
CLASS
  1
DICTIONARYVAR
  2
AcDbDictionaryVar
  3
AutoCAD 2000
 90
        0
280
     0
281
     0
  0
ENDSEC
  0
SECTION
  2
TABLES
  0
TABLE
  2
VPORT
  5
8
330
0
100
AcDbSymbolTable
 70
     2
  0
VPORT
  5
6E5
330
8
100
AcDbSymbolTableRecord
100
AcDbViewportTableRecord
  2
*Active
 70
     0
 10
0.0
 20
0.0
 11
1.0
 21
1.0
 12
104.9984356712042
 22
148.501917458411
 13
0.0
 23
0.0
 14
1.0
 24
1.0
 15
0.0
 25
0.0
 16
0.0
 26
0.0
 36
1.0
 17
0.0
 27
0.0
 37
0.0
 40
301.3409839607859
 41
2.407317073170731
 42
50.0
 43
0.0
 44
0.0
 50
0.0
 51
0.0
 71
     0
 72
   100
 73
     1
 74
     1
 75
     0
 76
     0
 77
     0
 78
     0
281
     0
 65
     1
110
0.0
120
0.0
130
0.0
111
1.0
121
0.0
131
0.0
112
0.0
122
1.0
132
0.0
 79
     0
146
0.0
  0
ENDTAB
  0
TABLE
  2
LTYPE
  5
5
330
0
100
AcDbSymbolTable
 70
     2
  0
LTYPE
  5
13
330
5
100
AcDbSymbolTableRecord
100
AcDbLinetypeTableRecord
  2
ByBlock
 70
     0
  3

 72
    65
 73
     0
 40
0.0
  0
LTYPE
  5
14
330
5
100
AcDbSymbolTableRecord
100
AcDbLinetypeTableRecord
  2
ByLayer
 70
     0
  3

 72
    65
 73
     0
 40
0.0
  0
LTYPE
  5
15
330
5
100
AcDbSymbolTableRecord
100
AcDbLinetypeTableRecord
  2
Continuous
 70
     0
  3
Solid line
 72
    65
 73
     0
 40
0.0
  0
LTYPE
  5
24
330
5
100
AcDbSymbolTableRecord
100
AcDbLinetypeTableRecord
  2
CENTER
 70
     0
  3
Center
 72
    65
 73
     4
 40
9.100006759199999
 49
6.5000119209
 74
     0
 49
-0.7999984026000001
 74
     0
 49
0.9999980329999999
 74
     0
 49
-0.7999984026000001
 74
     0
  0
ENDTAB
  0
TABLE
  2
LAYER
  5
2
330
0
100
AcDbSymbolTable
 70
     1
  0
LAYER
  5
10
330
2
100
AcDbSymbolTableRecord
100
AcDbLayerTableRecord
  2
0
 70
     0
 62
     7
  6
Continuous
370
    -3
390
F
  0
ENDTAB
  0
TABLE
  2
STYLE
  5
3
330
0
100
AcDbSymbolTable
 70
     1
  0
STYLE
  5
11
330
3
100
AcDbSymbolTableRecord
100
AcDbTextStyleTableRecord
  2
STANDARD
 70
     0
 40
0.0
 41
1.0
 50
0.0
 71
     0
 42
2.999994039499998
  3
romans.shx
  4
bigfont.shx
  0
ENDTAB
  0
TABLE
  2
VIEW
  5
6
330
0
100
AcDbSymbolTable
 70
     0
  0
ENDTAB
  0
TABLE
  2
UCS
  5
7
330
0
100
AcDbSymbolTable
 70
     0
  0
ENDTAB
  0
TABLE
  2
APPID
  5
9
330
0
100
AcDbSymbolTable
 70
     1
  0
APPID
  5
12
330
9
100
AcDbSymbolTableRecord
100
AcDbRegAppTableRecord
  2
ACAD
 70
     0
  0
ENDTAB
  0
TABLE
  2
DIMSTYLE
  5
A
330
0
100
AcDbSymbolTable
 70
     1
100
AcDbDimStyleTable
 71
     0
  0
DIMSTYLE
105
6BB
330
A
100
AcDbSymbolTableRecord
100
AcDbDimStyleTableRecord
  2
Standard
 70
     0
340
11
  0
ENDTAB
  0
TABLE
  2
BLOCK_RECORD
  5
1
330
0
100
AcDbSymbolTable
 70
     1
  0
BLOCK_RECORD
  5
1E
330
1
100
AcDbSymbolTableRecord
100
AcDbBlockTableRecord
  2
*Model_Space
340
21
  0
BLOCK_RECORD
  5
1A
330
1
100
AcDbSymbolTableRecord
100
AcDbBlockTableRecord
  2
*Paper_Space
340
1D
  0
ENDTAB
  0
ENDSEC
  0
SECTION
  2
BLOCKS
  0
BLOCK
  5
1F
330
1E
100
AcDbEntity
  8
0
100
AcDbBlockBegin
  2
*Model_Space
 70
     0
 10
0.0
 20
0.0
 30
0.0
  3
*Model_Space
  1

  0
ENDBLK
  5
20
330
1E
100
AcDbEntity
  8
0
100
AcDbBlockEnd
  0
BLOCK
  5
1B
330
1A
100
AcDbEntity
 67
     1
  8
0
100
AcDbBlockBegin
  2
*Paper_Space
 70
     0
 10
0.0
 20
0.0
 30
0.0
  3
*Paper_Space
  1

  0
ENDBLK
  5
1C
330
1A
100
AcDbEntity
 67
     1
  8
0
100
AcDbBlockEnd
  0
ENDSEC
  0
SECTION
  2
ENTITIES
  0
LINE
  5
B3
330
1E
100
AcDbEntity
  8
0
 62
     3
100
AcDbLine
 10
73.17873627379999
 20
221.5739898682
 30
0.0
 11
73.17873627379999
 21
219.7739868164
 31
0.0
  0
LINE
  5
B4
330
1E
100
AcDbEntity
  8
0
 62
     3
100
AcDbLine
 10
85.57874542909997
 20
175.4739990234
 30
0.0
 11
85.57874542909997
 21
170.7739868163999
 31
0.0
  0
LINE
  5
B5
330
1E
100
AcDbEntity
  8
0
 62
     3
100
AcDbLine
 10
91.47873932559999
 20
175.4739990234
 30
0.0
 11
91.47873932559999
 21
170.7739868163999
 31
0.0
  0
LINE
  5
B6
330
1E
100
AcDbEntity
  8
0
 62
     3
100
AcDbLine
 10
91.47873932559999
 20
185.4739990234
 30
0.0
 11
91.47873932559999
 21
180.7739868164
 31
0.0
  0
LINE
  5
B7
330
1E
100
AcDbEntity
  8
0
 62
     3
100
AcDbLine
 10
90.97873932559997
 20
195.4739990234
 30
0.0
 11
91.47873932559999
 21
195.4739990234
 31
0.0
  0
LINE
  5
B8
330
1E
100
AcDbEntity
  8
0
 62
     3
100
AcDbLine
 10
95.6787362738
 20
195.4739990234
 30
0.0
 11
96.17873627379999
 21
195.4739990234
 31
0.0
  0
LINE
  5
B9
330
1E
100
AcDbEntity
  8
0
 62
     3
100
AcDbLine
 10
90.97873932559997
 20
190.7739868164
 30
0.0
 11
91.47873932559999
 21
190.7739868164
 31
0.0
  0
LINE
  5
BA
330
1E
100
AcDbEntity
  8
0
 62
     3
100
AcDbLine
 10
90.97873932559997
 20
185.4739990234
 30
0.0
 11
91.47873932559999
 21
185.4739990234
 31
0.0
  0
LINE
  5
BB
330
1E
100
AcDbEntity
  8
0
 62
     3
100
AcDbLine
 10
95.6787362738
 20
185.4739990234
 30
0.0
 11
96.17873627379999
 21
185.4739990234
 31
0.0
  0
LINE
  5
BC
330
1E
100
AcDbEntity
  8
0
 62
     3
100
AcDbLine
 10
90.97873932559997
 20
175.4739990234
 30
0.0
 11
91.47873932559999
 21
175.4739990234
 31
0.0
  0
LINE
  5
BD
330
1E
100
AcDbEntity
  8
0
 62
     3
100
AcDbLine
 10
95.6787362738
 20
190.7739868164
 30
0.0
 11
96.17873627379999
 21
190.7739868164
 31
0.0
  0
LINE
  5
BE
330
1E
100
AcDbEntity
  8
0
 62
     3
100
AcDbLine
 10
95.6787362738
 20
175.4739990234
 30
0.0
 11
96.17873627379999
 21
175.4739990234
 31
0.0
  0
LINE
  5
BF
330
1E
100
AcDbEntity
  8
0
 62
     3
100
AcDbLine
 10
85.0787454291
 20
175.4739990234
 30
0.0
 11
85.0787454291
 21
170.7739868163999
 31
0.0
  0
LINE
  5
C0
330
1E
100
AcDbEntity
  8
0
 62
     3
100
AcDbLine
 10
90.97873932559997
 20
170.7739868163999
 30
0.0
 11
91.47873932559999
 21
170.7739868163999
 31
0.0
  0
LINE
  5
C1
330
1E
100
AcDbEntity
  8
0
 62
     3
100
AcDbLine
 10
95.6787362738
 20
170.7739868163999
 30
0.0
 11
96.17873627379999
 21
170.7739868163999
 31
0.0
  0
LINE
  5
C2
330
1E
100
AcDbEntity
  8
0
 62
     3
100
AcDbLine
 10
95.6787362738
 20
175.4739990234
 30
0.0
 11
95.6787362738
 21
170.7739868163999
 31
0.0
  0
LINE
  5
C3
330
1E
100
AcDbEntity
  8
0
 62
     3
100
AcDbLine
 10
85.0787454291
 20
185.4739990234
 30
0.0
 11
85.0787454291
 21
180.7739868164
 31
0.0
  0
LINE
  5
C4
330
1E
100
AcDbEntity
  8
0
 62
     3
100
AcDbLine
 10
95.6787362738
 20
185.4739990234
 30
0.0
 11
95.6787362738
 21
180.7739868164
 31
0.0
  0
LINE
  5
C5
330
1E
100
AcDbEntity
  8
0
 62
     3
100
AcDbLine
 10
96.17873627379999
 20
175.4739990234
 30
0.0
 11
96.17873627379999
 21
170.7739868163999
 31
0.0
  0
LINE
  5
C6
330
1E
100
AcDbEntity
  8
0
 62
     3
100
AcDbLine
 10
95.6787362738
 20
180.7739868164
 30
0.0
 11
96.17873627379999
 21
180.7739868164
 31
0.0
  0
LINE
  5
C7
330
1E
100
AcDbEntity
  8
0
 62
     3
100
AcDbLine
 10
90.97873932559997
 20
180.7739868164
 30
0.0
 11
91.47873932559999
 21
180.7739868164
 31
0.0
  0
LINE
  5
C8
330
1E
100
AcDbEntity
  8
0
 62
     3
100
AcDbLine
 10
90.97873932559997
 20
185.4739990234
 30
0.0
 11
90.97873932559997
 21
180.7739868164
 31
0.0
  0
LINE
  5
C9
330
1E
100
AcDbEntity
  8
0
 62
     3
100
AcDbLine
 10
90.97873932559997
 20
175.4739990234
 30
0.0
 11
90.97873932559997
 21
170.7739868163999
 31
0.0
  0
LINE
  5
CA
330
1E
100
AcDbEntity
  8
0
 62
     3
100
AcDbLine
 10
96.17873627379999
 20
185.4739990234
 30
0.0
 11
96.17873627379999
 21
180.7739868164
 31
0.0
  0
LINE
  5
CB
330
1E
100
AcDbEntity
  8
0
 62
     3
100
AcDbLine
 10
73.47873932559996
 20
197.5739898681999
 30
0.0
 11
98.2787423773
 21
197.5739898681999
 31
0.0
  0
LINE
  5
CC
330
1E
100
AcDbEntity
  8
0
 62
     3
100
AcDbLine
 10
98.5787454291
 20
197.2739868164
 30
0.0
 11
98.5787454291
 21
168.9739990234
 31
0.0
  0
LINE
  5
CD
330
1E
100
AcDbEntity
  8
0
 62
     3
100
AcDbLine
 10
73.17873627379999
 20
197.2739868164
 30
0.0
 11
73.17873627379999
 21
168.9739990234
 31
0.0
  0
LINE
  5
CE
330
1E
100
AcDbEntity
  8
0
 62
     3
100
AcDbLine
 10
73.47871394859999
 20
197.5740206807
 30
0.0
 11
73.17871121099996
 21
197.2740141244998
 31
0.0
  0
LINE
  5
CF
330
1E
100
AcDbEntity
  8
0
 62
     3
100
AcDbLine
 10
73.1787278523
 20
168.9739888199999
 30
0.0
 11
73.47872169699996
 21
168.6739949753
 31
0.0
  0
LINE
  5
D0
330
1E
100
AcDbEntity
  8
0
 62
     3
100
AcDbLine
 10
73.47873932559996
 20
168.6739959716998
 30
0.0
 11
98.2787423773
 21
168.6739959716998
 31
0.0
  0
LINE
  5
D1
330
1E
100
AcDbEntity
  8
0
 62
     3
100
AcDbLine
 10
98.27873797259995
 20
168.6739688243
 30
0.0
 11
98.57874116540001
 21
168.9739749
 31
0.0
  0
LINE
  5
D2
330
1E
100
AcDbEntity
  8
0
 62
     3
100
AcDbLine
 10
98.5787454291
 20
181.5239868164
 30
0.0
 11
97.47873932559999
 21
181.5239868164
 31
0.0
  0
LINE
  5
D3
330
1E
100
AcDbEntity
  8
0
 62
     3
100
AcDbLine
 10
98.5787454291
 20
184.7239990234
 30
0.0
 11
97.47873932559999
 21
184.7239990234
 31
0.0
  0
LINE
  5
D4
330
1E
100
AcDbEntity
  8
0
 62
     3
100
AcDbLine
 10
97.47873932559999
 20
184.7239990234
 30
0.0
 11
97.47873932559999
 21
181.5239868164
 31
0.0
  0
LINE
  5
D5
330
1E
100
AcDbEntity
  8
0
 62
     3
100
AcDbLine
 10
73.17873627379999
 20
189.1239929199
 30
0.0
 11
75.17873627379998
 21
189.1239929199
 31
0.0
  0
LINE
  5
D6
330
1E
100
AcDbEntity
  8
0
 62
     3
100
AcDbLine
 10
73.17873627379999
 20
177.1239929199
 30
0.0
 11
75.17873627379998
 21
177.1239929199
 31
0.0
  0
LINE
  5
D7
330
1E
100
AcDbEntity
  8
0
 62
     3
100
AcDbLine
 10
98.578737359
 20
197.2740214632
 30
0.0
 11
98.27874444990001
 21
197.5740162688999
 31
0.0
  0
LINE
  5
D8
330
1E
100
AcDbEntity
  8
0
 62
     3
100
AcDbLine
 10
75.17873627379998
 20
189.1239929199
 30
0.0
 11
75.17873627379998
 21
177.1239929199
 31
0.0
  0
LINE
  5
D9
330
1E
100
AcDbEntity
  8
0
 62
     3
100
AcDbLine
 10
75.17871918579998
 20
187.1239940614
 30
0.0
 11
75.67873050619997
 21
186.623982741
 31
0.0
  0
LINE
  5
DA
330
1E
100
AcDbEntity
  8
0
 62
     3
100
AcDbLine
 10
75.67875208539998
 20
179.6239537307
 30
0.0
 11
75.17875155459998
 21
179.1239531999
 31
0.0
  0
LINE
  5
DB
330
1E
100
AcDbEntity
  8
0
 62
     3
100
AcDbLine
 10
74.67873627379998
 20
175.1239929199
 30
0.0
 11
74.67873627379998
 21
171.1239929198999
 31
0.0
  0
LINE
  5
DC
330
1E
100
AcDbEntity
  8
0
 62
     3
100
AcDbLine
 10
73.17873627379999
 20
175.1239929199
 30
0.0
 11
74.67873627379998
 21
175.1239929199
 31
0.0
  0
LINE
  5
DD
330
1E
100
AcDbEntity
  8
0
 62
     3
100
AcDbLine
 10
73.17873627379999
 20
171.1239929198999
 30
0.0
 11
74.67873627379998
 21
171.1239929198999
 31
0.0
  0
LINE
  5
DE
330
1E
100
AcDbEntity
  8
0
 62
     3
100
AcDbLine
 10
75.67873627379999
 20
186.6239929199
 30
0.0
 11
75.67873627379999
 21
179.6239929199
 31
0.0
  0
LINE
  5
DF
330
1E
100
AcDbEntity
  8
0
 62
     3
100
AcDbLine
 10
72.1287484808
 20
221.5739898682
 30
0.0
 11
99.6287484808
 21
221.5739898682
 31
0.0
  0
LINE
  5
E0
330
1E
100
AcDbEntity
  8
0
 62
     3
100
AcDbLine
 10
78.3787484808
 20
233.2739868163999
 30
0.0
 11
93.3787484808
 21
233.2739868163999
 31
0.0
  0
LINE
  5
E1
330
1E
100
AcDbEntity
  8
0
 62
     3
100
AcDbLine
 10
78.3787484808
 20
235.2739868163999
 30
0.0
 11
93.3787484808
 21
235.2739868163999
 31
0.0
  0
LINE
  5
E2
330
1E
100
AcDbEntity
  8
0
 62
     3
100
AcDbLine
 10
78.3787484808
 20
235.2739868163999
 30
0.0
 11
78.3787484808
 21
233.2739868163999
 31
0.0
  0
LINE
  5
E3
330
1E
100
AcDbEntity
  8
0
 62
     3
100
AcDbLine
 10
93.3787484808
 20
235.2739868163999
 30
0.0
 11
93.3787484808
 21
233.2739868163999
 31
0.0
  0
LINE
  5
E4
330
1E
100
AcDbEntity
  8
0
 62
     3
100
AcDbLine
 10
72.67650849059998
 20
255.173828125
 30
0.0
 11
99.0809732123
 21
255.173828125
 31
0.0
  0
LINE
  5
E5
330
1E
100
AcDbEntity
  8
0
 62
     3
100
AcDbLine
 10
72.37658243839995
 20
254.8761699589999
 30
0.0
 11
72.12879818459999
 21
221.5739599054
 31
0.0
  0
LINE
  5
E6
330
1E
100
AcDbEntity
  8
0
 62
     3
100
AcDbLine
 10
73.06229948909998
 20
226.0740055193999
 30
0.0
 11
73.02881737039998
 21
221.5740079069
 31
0.0
  0
LINE
  5
E7
330
1E
100
AcDbEntity
  8
0
 62
     3
100
AcDbLine
 10
99.38100431509994
 20
254.8760689109999
 30
0.0
 11
99.62878766060001
 21
221.5739809243
 31
0.0
  0
LINE
  5
E8
330
1E
100
AcDbEntity
  8
0
 62
     3
100
AcDbLine
 10
72.162226264
 20
226.0739898681999
 30
0.0
 11
73.06225067809998
 21
226.0739898681999
 31
0.0
  0
LINE
  5
E9
330
1E
100
AcDbEntity
  8
0
 62
     3
100
AcDbLine
 10
98.69524080809998
 20
226.0739956809998
 30
0.0
 11
98.7287229268
 21
221.5739980686
 31
0.0
  0
LINE
  5
EA
330
1E
100
AcDbEntity
  8
0
 62
     3
100
AcDbLine
 10
97.08776337339998
 20
227.0739898681999
 30
0.0
 11
99.58782440859998
 21
227.0739898681999
 31
0.0
  0
LINE
  5
EB
330
1E
100
AcDbEntity
  8
0
 62
     3
100
AcDbLine
 10
72.16967255309999
 20
227.0739898681999
 30
0.0
 11
74.6697335883
 21
227.0739898681999
 31
0.0
  0
LINE
  5
EC
330
1E
100
AcDbEntity
  8
0
 62
     3
100
AcDbLine
 10
74.87886744459998
 20
255.1739667858
 30
0.0
 11
74.66979016399999
 21
227.0739749133
 31
0.0
  0
LINE
  5
ED
330
1E
100
AcDbEntity
  8
0
 62
     3
100
AcDbLine
 10
98.69524628359998
 20
226.0739898681999
 30
0.0
 11
99.5952706976
 21
226.0739898681999
 31
0.0
  0
LINE
  5
EE
330
1E
100
AcDbEntity
  8
0
 62
     3
100
AcDbLine
 10
73.06230080629998
 20
226.0739428533
 30
0.0
 11
74.66978884429996
 21
227.0739430549
 31
0.0
  0
LINE
  5
EF
330
1E
100
AcDbEntity
  8
0
 62
     3
100
AcDbLine
 10
96.87871930889999
 20
255.1738657377998
 30
0.0
 11
97.08779579480001
 21
227.0739806738999
 31
0.0
  0
LINE
  5
F0
330
1E
100
AcDbEntity
  8
0
 62
     3
100
AcDbLine
 10
98.6952740541
 20
226.0740515223
 30
0.0
 11
97.08778032779996
 21
227.074057108
 31
0.0
  0
LINE
  5
F1
330
1E
100
AcDbEntity
  8
0
 62
     3
100
AcDbLine
 10
83.3787484808
 20
223.0739898681999
 30
0.0
 11
88.3787484808
 21
223.0739898681999
 31
0.0
  0
LINE
  5
F2
330
1E
100
AcDbEntity
  8
0
 62
     3
100
AcDbLine
 10
83.3787484808
 20
225.0739898681999
 30
0.0
 11
88.3787484808
 21
225.0739898681999
 31
0.0
  0
LINE
  5
F3
330
1E
100
AcDbEntity
  8
0
 62
     3
100
AcDbLine
 10
88.3787484808
 20
225.0739898681999
 30
0.0
 11
88.3787484808
 21
223.0739898681999
 31
0.0
  0
LINE
  5
F4
330
1E
100
AcDbEntity
  8
0
 62
     3
100
AcDbLine
 10
83.3787484808
 20
225.0739898681999
 30
0.0
 11
83.3787484808
 21
223.0739898681999
 31
0.0
  0
LINE
  5
F5
330
1E
100
AcDbEntity
  8
0
 62
     3
100
AcDbLine
 10
129.1121011419999
 20
221.5739898682
 30
0.0
 11
160.1121011419999
 21
221.5739898682
 31
0.0
  0
LINE
  5
F6
330
1E
100
AcDbEntity
  8
0
 62
     3
100
AcDbLine
 10
159.5643258733999
 20
255.173828125
 30
0.0
 11
129.6598764104998
 21
255.173828125
 31
0.0
  0
LINE
  5
F7
330
1E
100
AcDbEntity
  8
0
 62
     3
100
AcDbLine
 10
159.8643077772998
 20
254.8761297677998
 30
0.0
 11
160.1120913498999
 21
221.5740112643998
 31
0.0
  0
LINE
  5
F8
330
1E
100
AcDbEntity
  8
0
 62
     3
100
AcDbLine
 10
129.1120969948998
 20
221.5740000849
 30
0.0
 11
129.3598798861999
 21
254.8760270380999
 31
0.0
  0
LINE
  5
F9
330
1E
100
AcDbEntity
  8
0
 62
     3
100
AcDbLine
 10
130.0121310983999
 20
221.5740021977999
 30
0.0
 11
130.0456132170999
 21
226.0739998102
 31
0.0
  0
LINE
  5
FA
330
1E
100
AcDbEntity
  8
0
 62
     3
100
AcDbLine
 10
159.1785751275999
 20
226.0740109898
 30
0.0
 11
159.2120572462999
 21
221.5740133773
 31
0.0
  0
LINE
  5
FB
330
1E
100
AcDbEntity
  8
0
 62
     3
100
AcDbLine
 10
131.6531041190999
 20
227.0739997209
 30
0.0
 11
131.8621801507999
 21
255.1738237513998
 31
0.0
  0
LINE
  5
FC
330
1E
100
AcDbEntity
  8
0
 62
     3
100
AcDbLine
 10
157.3620075127999
 20
255.1739264811
 30
0.0
 11
157.5710842256999
 21
227.0740109005
 31
0.0
  0
LINE
  5
FD
330
1E
100
AcDbEntity
  8
0
 62
     3
100
AcDbLine
 10
159.1785989446998
 20
226.0739898681999
 30
0.0
 11
160.0786233587999
 21
226.0739898681999
 31
0.0
  0
LINE
  5
FE
330
1E
100
AcDbEntity
  8
0
 62
     3
100
AcDbLine
 10
130.0456033392
 20
226.0739898681999
 30
0.0
 11
129.1455789251999
 21
226.0739898681999
 31
0.0
  0
LINE
  5
FF
330
1E
100
AcDbEntity
  8
0
 62
     3
100
AcDbLine
 10
157.5711007757998
 20
227.0739898681999
 30
0.0
 11
160.0711770696999
 21
227.0739898681999
 31
0.0
  0
LINE
  5
100
330
1E
100
AcDbEntity
  8
0
 62
     3
100
AcDbLine
 10
131.6530862493999
 20
227.0739898681999
 30
0.0
 11
129.1530252142
 21
227.0739898681999
 31
0.0
  0
LINE
  5
101
330
1E
100
AcDbEntity
  8
0
 62
     3
100
AcDbLine
 10
131.6530696933999
 20
227.0740179745
 30
0.0
 11
130.0455886976999
 21
226.0740209001999
 31
0.0
  0
LINE
  5
102
330
1E
100
AcDbEntity
  8
0
 62
     3
100
AcDbLine
 10
157.5711011549999
 20
227.0739580375999
 30
0.0
 11
159.1785821505999
 21
226.0739609633
 31
0.0
  0
LINE
  5
103
330
1E
100
AcDbEntity
  8
0
 62
     3
100
AcDbLine
 10
73.17873627379999
 20
219.7739868164
 30
0.0
 11
98.5787454291
 21
219.7739868164
 31
0.0
  0
LINE
  5
104
330
1E
100
AcDbEntity
  8
0
 62
     3
100
AcDbLine
 10
98.5787454291
 20
221.5739898682
 30
0.0
 11
98.5787454291
 21
219.7739868164
 31
0.0
  0
LINE
  5
105
330
1E
100
AcDbEntity
  8
0
 62
     3
100
AcDbLine
 10
80.42873627379998
 20
219.7739868164
 30
0.0
 11
80.42873627379998
 21
214.3739929199
 31
0.0
  0
LINE
  5
106
330
1E
100
AcDbEntity
  8
0
 62
     3
100
AcDbLine
 10
76.72872406679997
 20
213.3739929199
 30
0.0
 11
79.42873627379999
 21
213.3739929199
 31
0.0
  0
LINE
  5
107
330
1E
100
AcDbEntity
  8
0
 62
     3
100
AcDbLine
 10
75.72872406679997
 20
219.7739868164
 30
0.0
 11
75.72872406679997
 21
214.3739929199
 31
0.0
  0
LINE
  5
108
330
1E
100
AcDbEntity
  8
0
 62
     3
100
AcDbLine
 10
75.72868632199998
 20
214.3739634731999
 30
0.0
 11
76.72868738359999
 21
213.3739624116
 31
0.0
  0
LINE
  5
109
330
1E
100
AcDbEntity
  8
0
 62
     3
100
AcDbLine
 10
80.42880568109998
 20
214.3738987356
 30
0.0
 11
79.42880461949997
 21
213.3738976740999
 31
0.0
  0
LINE
  5
10A
330
1E
100
AcDbEntity
  8
0
 62
     3
100
AcDbLine
 10
130.1620889348999
 20
219.7739868164
 30
0.0
 11
159.0620980901999
 21
219.7739868164
 31
0.0
  0
LINE
  5
10B
330
1E
100
AcDbEntity
  8
0
 62
     3
100
AcDbLine
 10
133.2620950383999
 20
213.3739929199
 30
0.0
 11
135.9621072454999
 21
213.3739929199
 31
0.0
  0
LINE
  5
10C
330
1E
100
AcDbEntity
  8
0
 62
     3
100
AcDbLine
 10
156.9620919866999
 20
219.7739868164
 30
0.0
 11
156.9620919866999
 21
214.3739929199
 31
0.0
  0
LINE
  5
10D
330
1E
100
AcDbEntity
  8
0
 62
     3
100
AcDbLine
 10
152.2620950383999
 20
219.7739868164
 30
0.0
 11
152.2620950383999
 21
214.3739929199
 31
0.0
  0
LINE
  5
10E
330
1E
100
AcDbEntity
  8
0
 62
     3
100
AcDbLine
 10
146.9620919866999
 20
219.7739868164
 30
0.0
 11
146.9620919866999
 21
214.3739929199
 31
0.0
  0
LINE
  5
10F
330
1E
100
AcDbEntity
  8
0
 62
     3
100
AcDbLine
 10
142.2620950383999
 20
219.7739868164
 30
0.0
 11
142.2620950383999
 21
214.3739929199
 31
0.0
  0
LINE
  5
110
330
1E
100
AcDbEntity
  8
0
 62
     3
100
AcDbLine
 10
132.2620950383999
 20
219.7739868164
 30
0.0
 11
132.2620950383999
 21
214.3739929199
 31
0.0
  0
LINE
  5
111
330
1E
100
AcDbEntity
  8
0
 62
     3
100
AcDbLine
 10
136.9620919866999
 20
219.7739868164
 30
0.0
 11
136.9620919866999
 21
214.3739929199
 31
0.0
  0
LINE
  5
112
330
1E
100
AcDbEntity
  8
0
 62
     3
100
AcDbLine
 10
132.2620645650999
 20
214.3739742627999
 30
0.0
 11
133.2620656266998
 21
213.3739732011999
 31
0.0
  0
LINE
  5
113
330
1E
100
AcDbEntity
  8
0
 62
     3
100
AcDbLine
 10
156.9621029212999
 20
214.3739831392
 30
0.0
 11
155.9621164424999
 21
213.3739890740999
 31
0.0
  0
LINE
  5
114
330
1E
100
AcDbEntity
  8
0
 62
     3
100
AcDbLine
 10
143.2620950383999
 20
213.3739929199
 30
0.0
 11
145.9620919866999
 21
213.3739929199
 31
0.0
  0
LINE
  5
115
330
1E
100
AcDbEntity
  8
0
 62
     3
100
AcDbLine
 10
153.2620950384
 20
213.3739929199
 30
0.0
 11
155.9621072454999
 21
213.3739929199
 31
0.0
  0
LINE
  5
116
330
1E
100
AcDbEntity
  8
0
 62
     3
100
AcDbLine
 10
136.9621032684999
 20
214.3739720125
 30
0.0
 11
135.9621060000999
 21
213.3739671577
 31
0.0
  0
LINE
  5
117
330
1E
100
AcDbEntity
  8
0
 62
     3
100
AcDbLine
 10
142.262075181
 20
214.3739742627999
 30
0.0
 11
143.2620762425998
 21
213.3739732011999
 31
0.0
  0
LINE
  5
118
330
1E
100
AcDbEntity
  8
0
 62
     3
100
AcDbLine
 10
146.9621190129998
 20
214.3739850524
 30
0.0
 11
145.9621179513999
 21
213.3739839908
 31
0.0
  0
LINE
  5
119
330
1E
100
AcDbEntity
  8
0
 62
     3
100
AcDbLine
 10
152.2620534280999
 20
214.3739634731999
 30
0.0
 11
153.2620544896998
 21
213.3739624116
 31
0.0
  0
LINE
  5
11A
330
1E
100
AcDbEntity
  8
0
 62
     3
100
AcDbLine
 10
96.17873627379999
 20
219.7739868164
 30
0.0
 11
96.17873627379999
 21
214.0739898681999
 31
0.0
  0
LINE
  5
11B
330
1E
100
AcDbEntity
  8
0
 62
     3
100
AcDbLine
 10
95.6787362738
 20
219.7739868164
 30
0.0
 11
95.6787362738
 21
214.0739898681999
 31
0.0
  0
LINE
  5
11C
330
1E
100
AcDbEntity
  8
0
 62
     3
100
AcDbLine
 10
134.3621011419999
 20
217.7497406006
 30
0.0
 11
134.3621011419999
 21
215.1982574463
 31
0.0
  0
LINE
  5
11D
330
1E
100
AcDbEntity
  8
0
 62
     3
100
AcDbLine
 10
134.8621011419999
 20
217.7497253418
 30
0.0
 11
134.8621011419999
 21
215.1982727050998
 31
0.0
  0
LINE
  5
11E
330
1E
100
AcDbEntity
  8
0
  6
CENTER
 62
     3
100
AcDbLine
 10
132.6121011419999
 20
216.4739990234
 30
0.0
 11
136.6121011419999
 21
216.4739990234
 31
0.0
  0
LINE
  5
11F
330
1E
100
AcDbEntity
  8
0
  6
CENTER
 62
     3
100
AcDbLine
 10
142.6121011419999
 20
216.4739990234
 30
0.0
 11
146.6121011419999
 21
216.4739990234
 31
0.0
  0
LINE
  5
120
330
1E
100
AcDbEntity
  8
0
  6
CENTER
 62
     3
100
AcDbLine
 10
156.6121011419999
 20
216.4739990234
 30
0.0
 11
152.6121011419999
 21
216.4739990234
 31
0.0
  0
LINE
  5
121
330
1E
100
AcDbEntity
  8
0
 62
     3
100
AcDbLine
 10
154.3620858831999
 20
217.7497253418
 30
0.0
 11
154.3620858831999
 21
215.1982727050998
 31
0.0
  0
LINE
  5
122
330
1E
100
AcDbEntity
  8
0
 62
     3
100
AcDbLine
 10
154.8620858832
 20
217.7497406006
 30
0.0
 11
154.8620858832
 21
215.1982574463
 31
0.0
  0
LINE
  5
123
330
1E
100
AcDbEntity
  8
0
  6
CENTER
 62
     3
100
AcDbLine
 10
134.6121011419999
 20
218.4739990234
 30
0.0
 11
134.6121011419999
 21
214.4739990234
 31
0.0
  0
LINE
  5
124
330
1E
100
AcDbEntity
  8
0
  6
CENTER
 62
     3
100
AcDbLine
 10
154.6121011419999
 20
218.4739990234
 30
0.0
 11
154.6121011419999
 21
214.4739990234
 31
0.0
  0
LINE
  5
125
330
1E
100
AcDbEntity
  8
0
 62
     3
100
AcDbLine
 10
130.1620889348999
 20
221.5739898682
 30
0.0
 11
130.1620889348999
 21
219.7739868164
 31
0.0
  0
LINE
  5
126
330
1E
100
AcDbEntity
  8
0
 62
     3
100
AcDbLine
 10
159.0620980901999
 20
221.5739898682
 30
0.0
 11
159.0620980901999
 21
219.7739868164
 31
0.0
  0
LINE
  5
127
330
1E
100
AcDbEntity
  8
0
  6
CENTER
 62
     3
100
AcDbLine
 10
78.07873017029999
 20
218.4739990234
 30
0.0
 11
78.07873017029999
 21
214.4739990234
 31
0.0
  0
LINE
  5
128
330
1E
100
AcDbEntity
  8
0
  6
CENTER
 62
     3
100
AcDbLine
 10
76.07873017029999
 20
216.4739990234
 30
0.0
 11
80.07873017029998
 21
216.4739990234
 31
0.0
  0
LINE
  5
129
330
1E
100
AcDbEntity
  8
0
 62
     3
100
AcDbLine
 10
95.6787362738
 20
214.3739929199
 30
0.0
 11
96.17873627379999
 21
214.3739929199
 31
0.0
  0
LINE
  5
12A
330
1E
100
AcDbEntity
  8
0
 62
     3
100
AcDbLine
 10
95.67874316359995
 20
214.0740199191998
 30
0.0
 11
95.77874620320001
 21
213.3740041634
 31
0.0
  0
LINE
  5
12B
330
1E
100
AcDbEntity
  8
0
 62
     3
100
AcDbLine
 10
95.77872711849995
 20
213.3739929199
 30
0.0
 11
96.0787301703
 21
213.3739929199
 31
0.0
  0
LINE
  5
12C
330
1E
100
AcDbEntity
  8
0
 62
     3
100
AcDbLine
 10
96.07869800959999
 20
213.3739788984998
 30
0.0
 11
96.17869889129998
 21
214.0739795488999
 31
0.0
  0
LINE
  5
12D
330
1E
100
AcDbEntity
  8
0
 62
     3
100
AcDbLine
 10
85.0787454291
 20
214.3739929199
 30
0.0
 11
85.57874542909997
 21
214.3739929199
 31
0.0
  0
LINE
  5
12E
330
1E
100
AcDbEntity
  8
0
 62
     3
100
AcDbLine
 10
85.57874542909997
 20
219.7739868164
 30
0.0
 11
85.57874542909997
 21
214.0739898681999
 31
0.0
  0
LINE
  5
12F
330
1E
100
AcDbEntity
  8
0
 62
     3
100
AcDbLine
 10
85.0787454291
 20
219.7739868164
 30
0.0
 11
85.0787454291
 21
214.0739898681999
 31
0.0
  0
LINE
  5
130
330
1E
100
AcDbEntity
  8
0
 62
     3
100
AcDbLine
 10
85.07875322179996
 20
214.07401253
 30
0.0
 11
85.17875410349999
 21
213.3740118796
 31
0.0
  0
LINE
  5
131
330
1E
100
AcDbEntity
  8
0
 62
     3
100
AcDbLine
 10
85.4787231733
 20
213.3739841296999
 30
0.0
 11
85.57872405499997
 21
214.0739847801
 31
0.0
  0
LINE
  5
132
330
1E
100
AcDbEntity
  8
0
 62
     3
100
AcDbLine
 10
85.17873627379998
 20
213.3739929199
 30
0.0
 11
85.47873932559999
 21
213.3739929199
 31
0.0
  0
LINE
  5
133
330
1E
100
AcDbEntity
  8
0
 62
     3
100
AcDbLine
 10
90.97873932559997
 20
214.3739929199
 30
0.0
 11
91.47873932559999
 21
214.3739929199
 31
0.0
  0
LINE
  5
134
330
1E
100
AcDbEntity
  8
0
 62
     3
100
AcDbLine
 10
91.47873932559999
 20
219.7739868164
 30
0.0
 11
91.47873932559999
 21
214.0739898681999
 31
0.0
  0
LINE
  5
135
330
1E
100
AcDbEntity
  8
0
 62
     3
100
AcDbLine
 10
90.97873932559997
 20
219.7739868164
 30
0.0
 11
90.97873932559997
 21
214.0739898681999
 31
0.0
  0
LINE
  5
136
330
1E
100
AcDbEntity
  8
0
 62
     3
100
AcDbLine
 10
90.97875100279996
 20
214.0740082554998
 30
0.0
 11
91.0787497265
 21
213.3740227105
 31
0.0
  0
LINE
  5
137
330
1E
100
AcDbEntity
  8
0
 62
     3
100
AcDbLine
 10
91.37871879629996
 20
213.3739732988
 30
0.0
 11
91.47871967799998
 21
214.0739739492
 31
0.0
  0
LINE
  5
138
330
1E
100
AcDbEntity
  8
0
 62
     3
100
AcDbLine
 10
91.0787301703
 20
213.3739929199
 30
0.0
 11
91.378733222
 21
213.3739929199
 31
0.0
  0
LINE
  5
139
330
1E
100
AcDbEntity
  8
0
 62
     3
100
AcDbLine
 10
153.1120553655999
 20
214.0740509033
 30
0.0
 11
156.1120553655999
 21
214.0740509033
 31
0.0
  0
LINE
  5
13A
330
1E
100
AcDbEntity
  8
0
 62
     3
100
AcDbLine
 10
73.02874237729999
 20
167.6239929199
 30
0.0
 11
98.72875458429998
 21
167.6239929199
 31
0.0
  0
LINE
  5
13B
330
1E
100
AcDbEntity
  8
0
 62
     3
100
AcDbLine
 10
73.02874237729999
 20
198.6239929199
 30
0.0
 11
98.72875458429998
 21
198.6239929199
 31
0.0
  0
LINE
  5
13C
330
1E
100
AcDbEntity
  8
0
 62
     3
100
AcDbLine
 10
99.6287484808
 20
197.7239990234
 30
0.0
 11
99.6287484808
 21
168.5239868163999
 31
0.0
  0
LINE
  5
13D
330
1E
100
AcDbEntity
  8
0
 62
     3
100
AcDbLine
 10
72.1287484808
 20
197.7239990234
 30
0.0
 11
72.1287484808
 21
168.5239868163999
 31
0.0
  0
LINE
  5
13E
330
1E
100
AcDbEntity
  8
0
 62
     3
100
AcDbLine
 10
73.02869398409999
 20
198.6240357027
 30
0.0
 11
72.12870211549997
 21
197.7240428479
 31
0.0
  0
LINE
  5
13F
330
1E
100
AcDbEntity
  8
0
 62
     3
100
AcDbLine
 10
72.12873969369997
 20
168.5239933554998
 30
0.0
 11
73.02874333809999
 21
167.6239906973
 31
0.0
  0
LINE
  5
140
330
1E
100
AcDbEntity
  8
0
 62
     3
100
AcDbLine
 10
98.72871344030002
 20
167.6240263577
 30
0.0
 11
99.62871609849996
 21
168.5240300020999
 31
0.0
  0
LINE
  5
141
330
1E
100
AcDbEntity
  8
0
 62
     3
100
AcDbLine
 10
99.62874325789998
 20
197.7240579154
 30
0.0
 11
98.72873961349998
 21
198.6240605736
 31
0.0
  0
LINE
  5
142
330
1E
100
AcDbEntity
  8
0
 62
     3
100
AcDbLine
 10
80.42878205019997
 20
193.3739929199
 30
0.0
 11
80.42878205019997
 21
192.8739929199
 31
0.0
  0
LINE
  5
143
330
1E
100
AcDbEntity
  8
0
 62
     3
100
AcDbLine
 10
75.72878510189998
 20
193.3739929199
 30
0.0
 11
75.72878510189998
 21
192.8739929199
 31
0.0
  0
LINE
  5
144
330
1E
100
AcDbEntity
  8
0
 62
     3
100
AcDbLine
 10
75.72878510189998
 20
173.3739929199
 30
0.0
 11
80.42878205019997
 21
173.3739929199
 31
0.0
  0
LINE
  5
145
330
1E
100
AcDbEntity
  8
0
 62
     3
100
AcDbLine
 10
75.72878510189998
 20
172.8739929199
 30
0.0
 11
80.42878205019997
 21
172.8739929199
 31
0.0
  0
LINE
  5
146
330
1E
100
AcDbEntity
  8
0
 62
     3
100
AcDbLine
 10
75.72878510189998
 20
193.3739929199
 30
0.0
 11
80.42878205019997
 21
193.3739929199
 31
0.0
  0
LINE
  5
147
330
1E
100
AcDbEntity
  8
0
 62
     3
100
AcDbLine
 10
75.72878510189998
 20
192.8739929199
 30
0.0
 11
80.42878205019997
 21
192.8739929199
 31
0.0
  0
LINE
  5
148
330
1E
100
AcDbEntity
  8
0
 62
     3
100
AcDbLine
 10
75.72878510189998
 20
173.3739929199
 30
0.0
 11
75.72878510189998
 21
172.8739929199
 31
0.0
  0
LINE
  5
149
330
1E
100
AcDbEntity
  8
0
 62
     3
100
AcDbLine
 10
80.42878205019997
 20
173.3739929199
 30
0.0
 11
80.42878205019997
 21
172.8739929199
 31
0.0
  0
LINE
  5
14A
330
1E
100
AcDbEntity
  8
0
 62
     3
100
AcDbLine
 10
85.57874542909997
 20
195.4739990234
 30
0.0
 11
85.57874542909997
 21
190.7739868164
 31
0.0
  0
LINE
  5
14B
330
1E
100
AcDbEntity
  8
0
 62
     3
100
AcDbLine
 10
91.47873932559999
 20
195.4739990234
 30
0.0
 11
91.47873932559999
 21
190.7739868164
 31
0.0
  0
LINE
  5
14C
330
1E
100
AcDbEntity
  8
0
 62
     3
100
AcDbLine
 10
96.17873627379999
 20
195.4739990234
 30
0.0
 11
96.17873627379999
 21
190.7739868164
 31
0.0
  0
LINE
  5
14D
330
1E
100
AcDbEntity
  8
0
 62
     3
100
AcDbLine
 10
95.6787362738
 20
195.4739990234
 30
0.0
 11
95.6787362738
 21
190.7739868164
 31
0.0
  0
LINE
  5
14E
330
1E
100
AcDbEntity
  8
0
 62
     3
100
AcDbLine
 10
90.97873932559997
 20
195.4739990234
 30
0.0
 11
90.97873932559997
 21
190.7739868164
 31
0.0
  0
LINE
  5
14F
330
1E
100
AcDbEntity
  8
0
 62
     3
100
AcDbLine
 10
85.0787454291
 20
195.4739990234
 30
0.0
 11
85.0787454291
 21
190.7739868164
 31
0.0
  0
LINE
  5
150
330
1E
100
AcDbEntity
  8
0
 62
     3
100
AcDbLine
 10
85.0787454291
 20
180.7739868164
 30
0.0
 11
85.57874542909997
 21
180.7739868164
 31
0.0
  0
LINE
  5
151
330
1E
100
AcDbEntity
  8
0
 62
     3
100
AcDbLine
 10
85.0787454291
 20
185.4739990234
 30
0.0
 11
85.57874542909997
 21
185.4739990234
 31
0.0
  0
LINE
  5
152
330
1E
100
AcDbEntity
  8
0
 62
     3
100
AcDbLine
 10
85.0787454291
 20
195.4739990234
 30
0.0
 11
85.57874542909997
 21
195.4739990234
 31
0.0
  0
LINE
  5
153
330
1E
100
AcDbEntity
  8
0
 62
     3
100
AcDbLine
 10
85.0787454291
 20
190.7739868164
 30
0.0
 11
85.57874542909997
 21
190.7739868164
 31
0.0
  0
LINE
  5
154
330
1E
100
AcDbEntity
  8
0
 62
     3
100
AcDbLine
 10
85.0787454291
 20
170.7739868163999
 30
0.0
 11
85.57874542909997
 21
170.7739868163999
 31
0.0
  0
LINE
  5
155
330
1E
100
AcDbEntity
  8
0
 62
     3
100
AcDbLine
 10
85.0787454291
 20
175.4739990234
 30
0.0
 11
85.57874542909997
 21
175.4739990234
 31
0.0
  0
LINE
  5
156
330
1E
100
AcDbEntity
  8
0
 62
     3
100
AcDbLine
 10
85.57874542909997
 20
185.4739990234
 30
0.0
 11
85.57874542909997
 21
180.7739868164
 31
0.0
  0
LINE
  5
157
330
1E
100
AcDbEntity
  8
0
 62
     3
100
AcDbLine
 10
73.17873627379999
 20
191.1239929199
 30
0.0
 11
74.67873627379998
 21
191.1239929199
 31
0.0
  0
LINE
  5
158
330
1E
100
AcDbEntity
  8
0
 62
     3
100
AcDbLine
 10
74.67873627379998
 20
191.1239929199
 30
0.0
 11
74.67873627379998
 21
195.1239929199
 31
0.0
  0
LINE
  5
159
330
1E
100
AcDbEntity
  8
0
 62
     3
100
AcDbLine
 10
73.17873627379999
 20
195.1239929199
 30
0.0
 11
74.67873627379998
 21
195.1239929199
 31
0.0
  0
LINE
  5
15A
330
1E
100
AcDbEntity
  8
0
 62
     3
100
AcDbLine
 10
76.57873017029999
 20
214.0739898681999
 30
0.0
 11
79.57873017029999
 21
214.0739898681999
 31
0.0
  0
LINE
  5
15B
330
1E
100
AcDbEntity
  8
0
 62
     3
100
AcDbLine
 10
133.1120553655999
 20
214.0740509033
 30
0.0
 11
136.1120553655998
 21
214.0740509033
 31
0.0
  0
LINE
  5
15C
330
1E
100
AcDbEntity
  8
0
 62
     3
100
AcDbLine
 10
143.1120401067999
 20
214.0740509033
 30
0.0
 11
146.1120401067999
 21
214.0740509033
 31
0.0
  0
LINE
  5
15D
330
1E
100
AcDbEntity
  8
0
 62
     3
100
AcDbLine
 10
76.72878510189997
 20
193.3739929199
 30
0.0
 11
76.72878510189997
 21
192.8739929199
 31
0.0
  0
LINE
  5
15E
330
1E
100
AcDbEntity
  8
0
 62
     3
100
AcDbLine
 10
79.42878205019997
 20
193.3739929199
 30
0.0
 11
79.42878205019997
 21
192.8739929199
 31
0.0
  0
LINE
  5
15F
330
1E
100
AcDbEntity
  8
0
 62
     3
100
AcDbLine
 10
85.0787454291
 20
194.4739990234
 30
0.0
 11
85.57874542909997
 21
194.4739990234
 31
0.0
  0
LINE
  5
160
330
1E
100
AcDbEntity
  8
0
 62
     3
100
AcDbLine
 10
85.0787454291
 20
191.7739868164
 30
0.0
 11
85.57874542909997
 21
191.7739868164
 31
0.0
  0
LINE
  5
161
330
1E
100
AcDbEntity
  8
0
 62
     3
100
AcDbLine
 10
90.97873932559997
 20
194.4739990234
 30
0.0
 11
91.47873932559999
 21
194.4739990234
 31
0.0
  0
LINE
  5
162
330
1E
100
AcDbEntity
  8
0
 62
     3
100
AcDbLine
 10
90.97873932559997
 20
191.7739868164
 30
0.0
 11
91.47873932559999
 21
191.7739868164
 31
0.0
  0
LINE
  5
163
330
1E
100
AcDbEntity
  8
0
 62
     3
100
AcDbLine
 10
95.6787362738
 20
194.4739990234
 30
0.0
 11
96.17873627379999
 21
194.4739990234
 31
0.0
  0
LINE
  5
164
330
1E
100
AcDbEntity
  8
0
 62
     3
100
AcDbLine
 10
95.6787362738
 20
191.7739868164
 30
0.0
 11
96.17873627379999
 21
191.7739868164
 31
0.0
  0
LINE
  5
165
330
1E
100
AcDbEntity
  8
0
 62
     3
100
AcDbLine
 10
76.72878510189997
 20
173.3739929199
 30
0.0
 11
76.72878510189997
 21
172.8739929199
 31
0.0
  0
LINE
  5
166
330
1E
100
AcDbEntity
  8
0
 62
     3
100
AcDbLine
 10
79.42878205019997
 20
173.3739929199
 30
0.0
 11
79.42878205019997
 21
172.8739929199
 31
0.0
  0
LINE
  5
167
330
1E
100
AcDbEntity
  8
0
 62
     3
100
AcDbLine
 10
85.0787454291
 20
174.4739990234
 30
0.0
 11
85.57874542909997
 21
174.4739990234
 31
0.0
  0
LINE
  5
168
330
1E
100
AcDbEntity
  8
0
 62
     3
100
AcDbLine
 10
85.0787454291
 20
171.7739868163999
 30
0.0
 11
85.57874542909997
 21
171.7739868163999
 31
0.0
  0
LINE
  5
169
330
1E
100
AcDbEntity
  8
0
 62
     3
100
AcDbLine
 10
90.97873932559997
 20
174.4739990234
 30
0.0
 11
91.47873932559999
 21
174.4739990234
 31
0.0
  0
LINE
  5
16A
330
1E
100
AcDbEntity
  8
0
 62
     3
100
AcDbLine
 10
90.97873932559997
 20
171.7739868163999
 30
0.0
 11
91.47873932559999
 21
171.7739868163999
 31
0.0
  0
LINE
  5
16B
330
1E
100
AcDbEntity
  8
0
 62
     3
100
AcDbLine
 10
95.6787362738
 20
174.4739990234
 30
0.0
 11
96.17873627379999
 21
174.4739990234
 31
0.0
  0
LINE
  5
16C
330
1E
100
AcDbEntity
  8
0
 62
     3
100
AcDbLine
 10
95.6787362738
 20
171.7739868163999
 30
0.0
 11
96.17873627379999
 21
171.7739868163999
 31
0.0
  0
LINE
  5
16D
330
1E
100
AcDbEntity
  8
0
 62
     3
100
AcDbLine
 10
85.0787454291
 20
184.4739990234
 30
0.0
 11
85.57874542909997
 21
184.4739990234
 31
0.0
  0
LINE
  5
16E
330
1E
100
AcDbEntity
  8
0
 62
     3
100
AcDbLine
 10
85.0787454291
 20
181.7739868163999
 30
0.0
 11
85.57874542909997
 21
181.7739868163999
 31
0.0
  0
LINE
  5
16F
330
1E
100
AcDbEntity
  8
0
 62
     3
100
AcDbLine
 10
90.97873932559997
 20
184.4739990234
 30
0.0
 11
91.47873932559999
 21
184.4739990234
 31
0.0
  0
LINE
  5
170
330
1E
100
AcDbEntity
  8
0
 62
     3
100
AcDbLine
 10
90.97873932559997
 20
181.7739868163999
 30
0.0
 11
91.47873932559999
 21
181.7739868163999
 31
0.0
  0
LINE
  5
171
330
1E
100
AcDbEntity
  8
0
 62
     3
100
AcDbLine
 10
95.6787362738
 20
184.4739990234
 30
0.0
 11
96.17873627379999
 21
184.4739990234
 31
0.0
  0
LINE
  5
172
330
1E
100
AcDbEntity
  8
0
 62
     3
100
AcDbLine
 10
95.6787362738
 20
181.7739868163999
 30
0.0
 11
96.17873627379999
 21
181.7739868163999
 31
0.0
  0
ARC
  5
3E0
330
1E
100
AcDbEntity
  8
0
 62
     3
100
AcDbCircle
 10
72.67650849059998
 20
254.8737792968999
 30
0.0
 40
0.3000000119
100
AcDbArc
 50
89.99998201389999
 51
179.5737602236
  0
ARC
  5
3E1
330
1E
100
AcDbEntity
  8
0
 62
     3
100
AcDbCircle
 10
99.0809732123
 20
254.8737792968999
 30
0.0
 40
0.3000000119
100
AcDbArc
 50
0.4262078596000002
 51
89.99998201389999
  0
ARC
  5
3E2
330
1E
100
AcDbEntity
  8
0
 62
     3
100
AcDbCircle
 10
129.6598764104998
 20
254.8737792968999
 30
0.0
 40
0.3000000119
100
AcDbArc
 50
89.99998201389999
 51
179.5738148651
  0
ARC
  5
3E3
330
1E
100
AcDbEntity
  8
0
 62
     3
100
AcDbCircle
 10
159.5643258733999
 20
254.8737792968999
 30
0.0
 40
0.3000000119
100
AcDbArc
 50
0.4262063655
 51
89.99998201389999
  0
CIRCLE
  5
3E4
330
1E
100
AcDbEntity
  8
0
 62
     3
100
AcDbCircle
 10
78.07873017029999
 20
216.4739990234
 30
0.0
 40
1.299999237099999
  0
CIRCLE
  5
3E5
330
1E
100
AcDbEntity
  8
0
 62
     3
100
AcDbCircle
 10
134.6121011419999
 20
216.4739990234
 30
0.0
 40
1.299999237099999
  0
CIRCLE
  5
3E6
330
1E
100
AcDbEntity
  8
0
 62
     3
100
AcDbCircle
 10
144.6121011419999
 20
216.4739990234
 30
0.0
 40
1.299999237099999
  0
CIRCLE
  5
3E7
330
1E
100
AcDbEntity
  8
0
 62
     3
100
AcDbCircle
 10
154.6121011419999
 20
216.4739990234
 30
0.0
 40
1.299999237099999
  0
LINE
  5
468
330
1E
100
AcDbEntity
  8
0
  6
CENTER
 62
     3
100
AcDbLine
 10
85.8787484808
 20
258.173828125
 30
0.0
 11
85.8787484808
 21
210.3739929199
 31
0.0
  0
LINE
  5
469
330
1E
100
AcDbEntity
  8
0
  6
CENTER
 62
     3
100
AcDbLine
 10
144.6121011419999
 20
258.173828125
 30
0.0
 11
144.6121011419999
 21
210.3739929199
 31
0.0
  0
LINE
  5
46A
330
1E
100
AcDbEntity
  8
0
  6
CENTER
 62
     3
100
AcDbLine
 10
85.8787484808
 20
201.6239929199
 30
0.0
 11
85.8787484808
 21
164.6239929198999
 31
0.0
  0
LINE
  5
46B
330
1E
100
AcDbEntity
  8
0
  6
CENTER
 62
     3
100
AcDbLine
 10
69.1287484808
 20
183.1239929199
 30
0.0
 11
102.6287484807999
 21
183.1239929199
 31
0.0
  0
LINE
  5
6C3
330
1E
100
AcDbEntity
  8
0
100
AcDbLine
 10
0.0
 20
0.0
 30
0.0
 11
210.0
 21
0.0
 31
0.0
  0
LINE
  5
6C4
330
1E
100
AcDbEntity
  8
0
100
AcDbLine
 10
210.0
 20
0.0
 30
0.0
 11
210.0
 21
297.0
 31
0.0
  0
LINE
  5
6C5
330
1E
100
AcDbEntity
  8
0
100
AcDbLine
 10
210.0
 20
297.0
 30
0.0
 11
0.0
 21
297.0
 31
0.0
  0
LINE
  5
6C6
330
1E
100
AcDbEntity
  8
0
100
AcDbLine
 10
0.0
 20
297.0
 30
0.0
 11
0.0
 21
0.0
 31
0.0
  0
TEXT
  5
6CB
330
1E
100
AcDbEntity
  8
0
 62
     5
100
AcDbText
 10
145.0
 20
10.0
 30
0.0
 40
5.0
  1
ＭＡ４－Ｒ０００３２Ｂ
 41
0.8443967743953107
 72
     5
 11
199.0413935612998
 21
10.0
 31
0.0
100
AcDbText
  0
TEXT
  5
6DD
330
1E
100
AcDbEntity
  8
0
 62
     7
100
AcDbText
 10
146.0
 20
100.00000295525
 30
0.0
 40
2.999994089499998
  1
RH3B-UDC
 11
146.0
 21
101.5
 31
0.0
100
AcDbText
 73
     2
  0
TEXT
  5
6DE
330
1E
100
AcDbEntity
  8
0
 62
     7
100
AcDbText
 10
146.0
 20
90.00000295524989
 30
0.0
 40
2.999994089499998
  1
RH3B-ULDC
 11
146.0
 21
91.49999999999989
 31
0.0
100
AcDbText
 73
     2
  0
TEXT
  5
6DF
330
1E
100
AcDbEntity
  8
0
 62
     7
100
AcDbText
 10
146.0
 20
95.00000295524989
 30
0.0
 40
2.999994089499998
  1
RH3B-ULAC
 11
146.0
 21
96.49999999999991
 31
0.0
100
AcDbText
 73
     2
  0
TEXT
  5
6E0
330
1E
100
AcDbEntity
  8
0
 62
     7
100
AcDbText
 10
146.0
 20
105.0000029552498
 30
0.0
 40
2.999994089499998
  1
RH3B-UAC
 11
146.0
 21
106.4999999999999
 31
0.0
100
AcDbText
 73
     2
  0
TEXT
  5
6E1
330
1E
100
AcDbEntity
  8
0
 62
     7
100
AcDbText
 10
146.0
 20
110.0000029552498
 30
0.0
 40
2.999994089499998
  1
RH3B-LDDC
 11
146.0
 21
111.4999999999999
 31
0.0
100
AcDbText
 73
     2
  0
TEXT
  5
6E2
330
1E
100
AcDbEntity
  8
0
 62
     7
100
AcDbText
 10
146.0
 20
115.0000029552499
 30
0.0
 40
2.999994089499998
  1
RH3B-DDC
 11
146.0
 21
116.5
 31
0.0
100
AcDbText
 73
     2
  0
ENDSEC
  0
SECTION
  2
OBJECTS
  0
DICTIONARY
  5
C
330
0
100
AcDbDictionary
281
     1
  3
ACAD_GROUP
350
D
  3
ACAD_LAYOUT
350
19
  3
ACAD_MLINESTYLE
350
16
  3
ACAD_PLOTSETTINGS
350
18
  3
ACAD_PLOTSTYLENAME
350
E
  3
AcDbVariableDictionary
350
6E3
  0
DICTIONARY
  5
D
102
{ACAD_REACTORS
330
C
102
}
330
C
100
AcDbDictionary
281
     1
  0
DICTIONARY
  5
19
102
{ACAD_REACTORS
330
C
102
}
330
C
100
AcDbDictionary
281
     1
  3
Model
350
21
  3
ﾚｲｱｳﾄ1
350
1D
  0
DICTIONARY
  5
16
102
{ACAD_REACTORS
330
C
102
}
330
C
100
AcDbDictionary
281
     1
  3
Standard
350
17
  0
DICTIONARY
  5
18
102
{ACAD_REACTORS
330
C
102
}
330
C
100
AcDbDictionary
281
     1
  0
ACDBDICTIONARYWDFLT
  5
E
102
{ACAD_REACTORS
330
C
102
}
330
C
100
AcDbDictionary
281
     1
  3
Normal
350
F
100
AcDbDictionaryWithDefault
340
F
  0
DICTIONARY
  5
6E3
102
{ACAD_REACTORS
330
C
102
}
330
C
100
AcDbDictionary
281
     1
  3
DIMASSOC
350
6E4
  0
LAYOUT
  5
21
102
{ACAD_REACTORS
330
19
102
}
330
19
100
AcDbPlotSettings
  1

  2
C:\Program Files\AutoCAD 2000i\plotters\DWF Classic.pc3
  4

  6

 40
0.0
 41
0.0
 42
0.0
 43
0.0
 44
0.0
 45
0.0
 46
0.0
 47
0.0
 48
0.0
 49
0.0
140
0.0
141
0.0
142
1.0
143
1.0
 70
  1712
 72
     0
 73
     0
 74
     0
  7

 75
     0
147
1.0
148
0.0
149
0.0
100
AcDbLayout
  1
Model
 70
     1
 71
     0
 10
0.0
 20
0.0
 11
12.0
 21
9.0
 12
0.0
 22
0.0
 32
0.0
 14
0.0
 24
0.0
 34
0.0
 15
0.0
 25
0.0
 35
0.0
146
0.0
 13
0.0
 23
0.0
 33
0.0
 16
1.0
 26
0.0
 36
0.0
 17
0.0
 27
1.0
 37
0.0
 76
     0
330
1E
  0
LAYOUT
  5
1D
102
{ACAD_REACTORS
330
19
102
}
330
19
100
AcDbPlotSettings
  1

  2
C:\Program Files\AutoCAD 2000i\plotters\DWF Classic.pc3
  4

  6

 40
0.0
 41
0.0
 42
0.0
 43
0.0
 44
0.0
 45
0.0
 46
0.0
 47
0.0
 48
0.0
 49
0.0
140
0.0
141
0.0
142
1.0
143
1.0
 70
   688
 72
     0
 73
     0
 74
     5
  7

 75
    16
147
1.0
148
0.0
149
0.0
100
AcDbLayout
  1
ﾚｲｱｳﾄ1
 70
     1
 71
     1
 10
0.0
 20
0.0
 11
12.0
 21
9.0
 12
0.0
 22
0.0
 32
0.0
 14
1.000000000000000E+20
 24
1.000000000000000E+20
 34
1.000000000000000E+20
 15
-1.000000000000000E+20
 25
-1.000000000000000E+20
 35
-1.000000000000000E+20
146
0.0
 13
0.0
 23
0.0
 33
0.0
 16
1.0
 26
0.0
 36
0.0
 17
0.0
 27
1.0
 37
0.0
 76
     0
330
1A
  0
MLINESTYLE
  5
17
102
{ACAD_REACTORS
330
16
102
}
330
16
100
AcDbMlineStyle
  2
STANDARD
 70
     0
  3

 62
   256
 51
90.0
 52
90.0
 71
     2
 49
0.5
 62
   256
  6
BYLAYER
 49
-0.5
 62
   256
  6
BYLAYER
  0
ACDBPLACEHOLDER
  5
F
102
{ACAD_REACTORS
330
E
102
}
330
E
  0
DICTIONARYVAR
  5
6E4
102
{ACAD_REACTORS
330
6E3
102
}
330
6E3
100
DictionaryVariables
280
     0
  1
1
  0
ENDSEC
  0
EOF
