  0
SECTION
  2
HEADER
  9
$ACADVER
  1
AC1015
  9
$ACADMAINTVER
 70
    13
  9
$DWGCODEPAGE
  3
ANSI_932
  9
$INSBASE
 10
0.0
 20
0.0
 30
0.0
  9
$EXTMIN
 10
-0.0281590556260198
 20
-0.0166901821928605
 30
-0.0000000349181948
  9
$EXTMAX
 10
210.0174575557691
 20
297.0192301046608
 30
0.0000000814935747
  9
$LIMMIN
 10
-259.9712646483999
 20
-3.174999999999998
  9
$LIMMAX
 10
3.174999999999998
 20
304.3776672363
  9
$ORTHOMODE
 70
     0
  9
$REGENMODE
 70
     1
  9
$FILLMODE
 70
     1
  9
$QTEXTMODE
 70
     0
  9
$MIRRTEXT
 70
     0
  9
$LTSCALE
 40
1.0
  9
$ATTMODE
 70
     1
  9
$TEXTSIZE
 40
2.999994039499997
  9
$TRACEWID
 40
0.05
  9
$TEXTSTYLE
  7
STANDARD
  9
$CLAYER
  8
0
  9
$CELTYPE
  6
ByLayer
  9
$CECOLOR
 62
   256
  9
$CELTSCALE
 40
1.0
  9
$DISPSILH
 70
     0
  9
$DIMSCALE
 40
1.0
  9
$DIMASZ
 40
1.9727878465
  9
$DIMEXO
 40
2.539999961899999
  9
$DIMDLI
 40
0.38
  9
$DIMRND
 40
0.0
  9
$DIMDLE
 40
0.0
  9
$DIMEXE
 40
3.809999942799997
  9
$DIMTP
 40
0.0
  9
$DIMTM
 40
0.0
  9
$DIMTXT
 40
2.999994039499997
  9
$DIMCEN
 40
0.09
  9
$DIMTSZ
 40
0.0
  9
$DIMTOL
 70
     0
  9
$DIMLIM
 70
     0
  9
$DIMTIH
 70
     0
  9
$DIMTOH
 70
     1
  9
$DIMSE1
 70
     0
  9
$DIMSE2
 70
     0
  9
$DIMTAD
 70
     0
  9
$DIMZIN
 70
     0
  9
$DIMBLK
  1

  9
$DIMASO
 70
     1
  9
$DIMSHO
 70
     0
  9
$DIMPOST
  1

  9
$DIMAPOST
  1

  9
$DIMALT
 70
     0
  9
$DIMALTD
 70
     2
  9
$DIMALTF
 40
25.4
  9
$DIMLFAC
 40
1.0
  9
$DIMTOFL
 70
     0
  9
$DIMTVP
 40
0.0
  9
$DIMTIX
 70
     0
  9
$DIMSOXD
 70
     0
  9
$DIMSAH
 70
     0
  9
$DIMBLK1
  1

  9
$DIMBLK2
  1

  9
$DIMSTYLE
  2
Standard
  9
$DIMCLRD
 70
     0
  9
$DIMCLRE
 70
     0
  9
$DIMCLRT
 70
     0
  9
$DIMTFAC
 40
1.0
  9
$DIMGAP
 40
0.09
  9
$DIMJUST
 70
     0
  9
$DIMSD1
 70
     0
  9
$DIMSD2
 70
     0
  9
$DIMTOLJ
 70
     1
  9
$DIMTZIN
 70
     0
  9
$DIMALTZ
 70
     0
  9
$DIMALTTZ
 70
     0
  9
$DIMUPT
 70
     0
  9
$DIMDEC
 70
     4
  9
$DIMTDEC
 70
     4
  9
$DIMALTU
 70
     2
  9
$DIMALTTD
 70
     2
  9
$DIMTXSTY
  7
STANDARD
  9
$DIMAUNIT
 70
     0
  9
$DIMADEC
 70
     0
  9
$DIMALTRND
 40
0.0
  9
$DIMAZIN
 70
     0
  9
$DIMDSEP
 70
    46
  9
$DIMATFIT
 70
     3
  9
$DIMFRAC
 70
     0
  9
$DIMLDRBLK
  1

  9
$DIMLUNIT
 70
     2
  9
$DIMLWD
 70
    -2
  9
$DIMLWE
 70
    -2
  9
$DIMTMOVE
 70
     0
  9
$LUNITS
 70
     2
  9
$LUPREC
 70
     3
  9
$SKETCHINC
 40
0.1
  9
$FILLETRAD
 40
0.0625
  9
$AUNITS
 70
     0
  9
$AUPREC
 70
     0
  9
$MENU
  1
ACAD
  9
$ELEVATION
 40
0.0
  9
$PELEVATION
 40
0.0
  9
$THICKNESS
 40
0.0
  9
$LIMCHECK
 70
     0
  9
$CHAMFERA
 40
0.0
  9
$CHAMFERB
 40
0.0
  9
$CHAMFERC
 40
0.0
  9
$CHAMFERD
 40
0.0
  9
$SKPOLY
 70
     0
  9
$TDCREATE
 40
2452767.449687500
  9
$TDUCREATE
 40
2452767.074687499
  9
$TDUPDATE
 40
2453376.732722801
  9
$TDUUPDATE
 40
2453376.357722801
  9
$TDINDWG
 40
0.0038455093
  9
$TDUSRTIMER
 40
0.0038424306
  9
$USRTIMER
 70
     1
  9
$ANGBASE
 50
0.0
  9
$ANGDIR
 70
     0
  9
$PDMODE
 70
     0
  9
$PDSIZE
 40
0.0
  9
$PLINEWID
 40
0.0
  9
$SPLFRAME
 70
     0
  9
$SPLINETYPE
 70
     6
  9
$SPLINESEGS
 70
     8
  9
$HANDSEED
  5
2F6
  9
$SURFTAB1
 70
     6
  9
$SURFTAB2
 70
     6
  9
$SURFTYPE
 70
     6
  9
$SURFU
 70
     6
  9
$SURFV
 70
     6
  9
$UCSBASE
  2

  9
$UCSNAME
  2

  9
$UCSORG
 10
0.0
 20
0.0
 30
0.0
  9
$UCSXDIR
 10
1.0
 20
0.0
 30
0.0
  9
$UCSYDIR
 10
0.0
 20
1.0
 30
0.0
  9
$UCSORTHOREF
  2

  9
$UCSORTHOVIEW
 70
     0
  9
$UCSORGTOP
 10
0.0
 20
0.0
 30
0.0
  9
$UCSORGBOTTOM
 10
0.0
 20
0.0
 30
0.0
  9
$UCSORGLEFT
 10
0.0
 20
0.0
 30
0.0
  9
$UCSORGRIGHT
 10
0.0
 20
0.0
 30
0.0
  9
$UCSORGFRONT
 10
0.0
 20
0.0
 30
0.0
  9
$UCSORGBACK
 10
0.0
 20
0.0
 30
0.0
  9
$PUCSBASE
  2

  9
$PUCSNAME
  2

  9
$PUCSORG
 10
0.0
 20
0.0
 30
0.0
  9
$PUCSXDIR
 10
1.0
 20
0.0
 30
0.0
  9
$PUCSYDIR
 10
0.0
 20
1.0
 30
0.0
  9
$PUCSORTHOREF
  2

  9
$PUCSORTHOVIEW
 70
     0
  9
$PUCSORGTOP
 10
0.0
 20
0.0
 30
0.0
  9
$PUCSORGBOTTOM
 10
0.0
 20
0.0
 30
0.0
  9
$PUCSORGLEFT
 10
0.0
 20
0.0
 30
0.0
  9
$PUCSORGRIGHT
 10
0.0
 20
0.0
 30
0.0
  9
$PUCSORGFRONT
 10
0.0
 20
0.0
 30
0.0
  9
$PUCSORGBACK
 10
0.0
 20
0.0
 30
0.0
  9
$USERI1
 70
     8
  9
$USERI2
 70
     0
  9
$USERI3
 70
     0
  9
$USERI4
 70
     0
  9
$USERI5
 70
     0
  9
$USERR1
 40
0.0
  9
$USERR2
 40
0.0
  9
$USERR3
 40
0.0
  9
$USERR4
 40
0.0
  9
$USERR5
 40
0.0
  9
$WORLDVIEW
 70
     1
  9
$SHADEDGE
 70
     3
  9
$SHADEDIF
 70
    70
  9
$TILEMODE
 70
     1
  9
$MAXACTVP
 70
    64
  9
$PINSBASE
 10
0.0
 20
0.0
 30
0.0
  9
$PLIMCHECK
 70
     0
  9
$PEXTMIN
 10
1.000000000000000E+20
 20
1.000000000000000E+20
 30
1.000000000000000E+20
  9
$PEXTMAX
 10
-1.000000000000000E+20
 20
-1.000000000000000E+20
 30
-1.000000000000000E+20
  9
$PLIMMIN
 10
0.0
 20
0.0
  9
$PLIMMAX
 10
12.0
 20
9.0
  9
$UNITMODE
 70
     0
  9
$VISRETAIN
 70
     1
  9
$PLINEGEN
 70
     0
  9
$PSLTSCALE
 70
     1
  9
$TREEDEPTH
 70
  3020
  9
$CMLSTYLE
  2
Standard
  9
$CMLJUST
 70
     0
  9
$CMLSCALE
 40
1.0
  9
$PROXYGRAPHICS
 70
     1
  9
$MEASUREMENT
 70
     0
  9
$CELWEIGHT
370
    -1
  9
$ENDCAPS
280
     0
  9
$JOINSTYLE
280
     0
  9
$LWDISPLAY
290
     0
  9
$INSUNITS
 70
     0
  9
$HYPERLINKBASE
  1

  9
$STYLESHEET
  1

  9
$XEDIT
290
     1
  9
$CEPSNTYPE
380
     0
  9
$PSTYLEMODE
290
     1
  9
$FINGERPRINTGUID
  2
{07F83D20-BF7A-4E6B-B522-AFDB64F78CF3}
  9
$VERSIONGUID
  2
{B1C3684C-726C-4D1D-B052-77054BE8DE78}
  9
$EXTNAMES
290
     1
  9
$PSVPSCALE
 40
0.0
  9
$OLESTARTUP
290
     0
  0
ENDSEC
  0
SECTION
  2
CLASSES
  0
CLASS
  1
ACDBDICTIONARYWDFLT
  2
AcDbDictionaryWithDefault
  3
AutoCAD 2000
 90
        0
280
     0
281
     0
  0
CLASS
  1
ACDBPLACEHOLDER
  2
AcDbPlaceHolder
  3
AutoCAD 2000
 90
        0
280
     0
281
     0
  0
CLASS
  1
LAYOUT
  2
AcDbLayout
  3
AutoCAD 2000
 90
        0
280
     0
281
     0
  0
CLASS
  1
DICTIONARYVAR
  2
AcDbDictionaryVar
  3
AutoCAD 2000
 90
        0
280
     0
281
     0
  0
ENDSEC
  0
SECTION
  2
TABLES
  0
TABLE
  2
VPORT
  5
19
330
0
100
AcDbSymbolTable
 70
     2
  0
VPORT
  5
2F5
330
19
100
AcDbSymbolTableRecord
100
AcDbViewportTableRecord
  2
*Active
 70
     0
 10
0.0
 20
0.0
 11
1.0
 21
1.0
 12
104.9946492500715
 22
148.501269961234
 13
0.0
 23
0.0
 14
1.0
 24
1.0
 15
0.0
 25
0.0
 16
0.0
 26
0.0
 36
1.0
 17
0.0
 27
0.0
 37
0.0
 40
301.3722110939611
 41
2.407317073170731
 42
50.0
 43
0.0
 44
0.0
 50
0.0
 51
0.0
 71
     0
 72
   100
 73
     1
 74
     1
 75
     0
 76
     0
 77
     0
 78
     0
281
     0
 65
     1
110
0.0
120
0.0
130
0.0
111
1.0
121
0.0
131
0.0
112
0.0
122
1.0
132
0.0
 79
     0
146
0.0
  0
ENDTAB
  0
TABLE
  2
LTYPE
  5
14
330
0
100
AcDbSymbolTable
 70
     3
  0
LTYPE
  5
15
330
14
100
AcDbSymbolTableRecord
100
AcDbLinetypeTableRecord
  2
ByBlock
 70
     0
  3

 72
    65
 73
     0
 40
0.0
  0
LTYPE
  5
16
330
14
100
AcDbSymbolTableRecord
100
AcDbLinetypeTableRecord
  2
ByLayer
 70
     0
  3

 72
    65
 73
     0
 40
0.0
  0
LTYPE
  5
8
330
14
100
AcDbSymbolTableRecord
100
AcDbLinetypeTableRecord
  2
Continuous
 70
     0
  3
Solid line
 72
    65
 73
     0
 40
0.0
  0
LTYPE
  5
3F
330
14
100
AcDbSymbolTableRecord
100
AcDbLinetypeTableRecord
  2
CENTER
 70
     0
  3
Center
 72
    65
 73
     4
 40
9.100006759199999
 49
6.5000119209
 74
     0
 49
-0.7999984026000001
 74
     0
 49
0.9999980329999999
 74
     0
 49
-0.7999984026000001
 74
     0
  0
LTYPE
  5
27
330
14
100
AcDbSymbolTableRecord
100
AcDbLinetypeTableRecord
  2
PHANTOM
 70
     0
  3
Phantom
 72
    65
 73
     6
 40
9.499981462999999
 49
4.799990654
 74
     0
 49
-0.8999982475999999
 74
     0
 49
0.9999980329999999
 74
     0
 49
-0.8999982475999999
 74
     0
 49
0.9999980329999999
 74
     0
 49
-0.8999982475999999
 74
     0
  0
ENDTAB
  0
TABLE
  2
LAYER
  5
10
330
0
100
AcDbSymbolTable
 70
     1
  0
LAYER
  5
4
330
10
100
AcDbSymbolTableRecord
100
AcDbLayerTableRecord
  2
0
 70
     0
 62
     7
  6
Continuous
370
    -3
390
5
  0
ENDTAB
  0
TABLE
  2
STYLE
  5
11
330
0
100
AcDbSymbolTable
 70
     1
  0
STYLE
  5
12
330
11
100
AcDbSymbolTableRecord
100
AcDbTextStyleTableRecord
  2
STANDARD
 70
     0
 40
0.0
 41
1.0
 50
0.0
 71
     0
 42
2.999994039499997
  3
romans.shx
  4
bigfont.shx
  0
ENDTAB
  0
TABLE
  2
VIEW
  5
17
330
0
100
AcDbSymbolTable
 70
     0
  0
ENDTAB
  0
TABLE
  2
UCS
  5
18
330
0
100
AcDbSymbolTable
 70
     0
  0
ENDTAB
  0
TABLE
  2
APPID
  5
1B
330
0
100
AcDbSymbolTable
 70
     1
  0
APPID
  5
1C
330
1B
100
AcDbSymbolTableRecord
100
AcDbRegAppTableRecord
  2
ACAD
 70
     0
  0
ENDTAB
  0
TABLE
  2
DIMSTYLE
  5
1D
330
0
100
AcDbSymbolTable
 70
     1
100
AcDbDimStyleTable
 71
     0
  0
DIMSTYLE
105
23
330
1D
100
AcDbSymbolTableRecord
100
AcDbDimStyleTableRecord
  2
Standard
 70
     0
340
12
  0
ENDTAB
  0
TABLE
  2
BLOCK_RECORD
  5
1
330
0
100
AcDbSymbolTable
 70
     1
  0
BLOCK_RECORD
  5
2
330
1
100
AcDbSymbolTableRecord
100
AcDbBlockTableRecord
  2
*Model_Space
340
A
  0
BLOCK_RECORD
  5
C
330
1
100
AcDbSymbolTableRecord
100
AcDbBlockTableRecord
  2
*Paper_Space
340
F
  0
ENDTAB
  0
ENDSEC
  0
SECTION
  2
BLOCKS
  0
BLOCK
  5
3
330
2
100
AcDbEntity
  8
0
100
AcDbBlockBegin
  2
*Model_Space
 70
     0
 10
0.0
 20
0.0
 30
0.0
  3
*Model_Space
  1

  0
ENDBLK
  5
9
330
2
100
AcDbEntity
  8
0
100
AcDbBlockEnd
  0
BLOCK
  5
D
330
C
100
AcDbEntity
 67
     1
  8
0
100
AcDbBlockBegin
  2
*Paper_Space
 70
     0
 10
0.0
 20
0.0
 30
0.0
  3
*Paper_Space
  1

  0
ENDBLK
  5
E
330
C
100
AcDbEntity
 67
     1
  8
0
100
AcDbBlockEnd
  0
ENDSEC
  0
SECTION
  2
ENTITIES
  0
LINE
  5
24
330
2
100
AcDbEntity
  8
0
100
AcDbLine
 10
210.0
 20
0.0
 30
0.0
 11
210.0
 21
297.0
 31
0.0
  0
LINE
  5
25
330
2
100
AcDbEntity
  8
0
 62
     3
100
AcDbLine
 10
193.9635028855214
 20
239.9760878284883
 30
0.0
 11
193.9635028855214
 21
183.8959580986884
 31
0.0
  0
LINE
  5
26
330
2
100
AcDbEntity
  8
0
  6
PHANTOM
 62
     3
100
AcDbLine
 10
90.3154342160214
 20
258.5025465687883
 30
0.0
 11
90.3154342160214
 21
175.3838131503884
 31
0.0
  0
LINE
  5
28
330
2
100
AcDbEntity
  8
0
 62
     3
100
AcDbLine
 10
197.4685023983211
 20
173.8816672276884
 30
0.0
 11
197.4685023983211
 21
258.2021219683884
 31
0.0
  0
LINE
  5
29
330
2
100
AcDbEntity
  8
0
 62
     3
100
AcDbLine
 10
197.9692329865214
 20
175.3838131503884
 30
0.0
 11
197.9692329865214
 21
259.0032542359883
 31
0.0
  0
LINE
  5
2A
330
2
100
AcDbEntity
  8
0
 62
     3
100
AcDbLine
 10
195.9663564755214
 20
175.3838131503884
 30
0.0
 11
195.9663564755214
 21
258.2021219683884
 31
0.0
  0
LINE
  5
2B
330
2
100
AcDbEntity
  8
0
 62
     3
100
AcDbLine
 10
35.72669294195998
 20
190.1993797921883
 30
0.0
 11
34.30237116545999
 21
191.6236958057884
 31
0.0
  0
LINE
  5
2C
330
2
100
AcDbEntity
  8
0
 62
     3
100
AcDbLine
 10
29.25243991835998
 20
191.5158152323884
 30
0.0
 11
27.91442656876
 21
190.5014922901883
 31
0.0
  0
LINE
  5
2D
330
2
100
AcDbEntity
  8
0
100
AcDbLine
 10
0.0
 20
297.0
 30
0.0
 11
0.0
 21
0.0
 31
0.0
  0
LINE
  5
2E
330
2
100
AcDbEntity
  8
0
 62
     3
100
AcDbLine
 10
81.10225269162141
 20
191.9074183005884
 30
0.0
 11
81.10225269162141
 21
183.8959580986884
 31
0.0
  0
LINE
  5
2F
330
2
100
AcDbEntity
  8
0
 62
     3
100
AcDbLine
 10
75.09366900072141
 20
183.8959580986884
 30
0.0
 11
75.09366900072141
 21
191.9074183005884
 31
0.0
  0
LINE
  5
30
330
2
100
AcDbEntity
  8
0
 62
     3
100
AcDbLine
 10
73.09081541062139
 20
183.8959580986884
 30
0.0
 11
73.09081541062139
 21
191.9074183005884
 31
0.0
  0
LINE
  5
31
330
2
100
AcDbEntity
  8
0
 62
     3
100
AcDbLine
 10
72.08937715522143
 20
184.3966886868884
 30
0.0
 11
72.08937715522143
 21
191.4066877123883
 31
0.0
  0
ARC
  5
32
330
2
100
AcDbEntity
  8
0
 62
     3
100
AcDbCircle
 10
74.15482779892141
 20
187.9016881996884
 30
0.0
 40
4.0683113966
100
AcDbArc
 50
120.5102184703
 51
239.4897642269
  0
LINE
  5
33
330
2
100
AcDbEntity
  8
0
 62
     3
100
AcDbLine
 10
77.09654551162145
 20
183.8959580986884
 30
0.0
 11
77.09654551162145
 21
191.9074183005884
 31
0.0
  0
LINE
  5
34
330
2
100
AcDbEntity
  8
0
 62
     3
100
AcDbLine
 10
76.09510725612143
 20
183.8959580986884
 30
0.0
 11
76.09510725612143
 21
191.9074183005884
 31
0.0
  0
LINE
  5
35
330
2
100
AcDbEntity
  8
0
 62
     3
100
AcDbLine
 10
83.10512920262141
 20
181.8931045086884
 30
0.0
 11
83.10512920262141
 21
231.9646276265883
 31
0.0
  0
LINE
  5
36
330
2
100
AcDbEntity
  8
0
  6
PHANTOM
 62
     3
100
AcDbLine
 10
68.08366997512141
 20
183.8959580986884
 30
0.0
 11
68.08366997512141
 21
229.9617740365884
 31
0.0
  0
LINE
  5
37
330
2
100
AcDbEntity
  8
0
  6
PHANTOM
 62
     3
100
AcDbLine
 10
67.0822317196214
 20
183.8959580986884
 30
0.0
 11
67.0822317196214
 21
229.9617740365884
 31
0.0
  0
CIRCLE
  5
38
330
2
100
AcDbEntity
  8
0
 62
     3
100
AcDbCircle
 10
31.76066900796001
 20
187.9016881996884
 30
0.0
 40
3.5050066756
  0
LINE
  5
39
330
2
100
AcDbEntity
  8
0
 62
     3
100
AcDbLine
 10
37.26852211075998
 20
191.9074183005884
 30
0.0
 11
37.26852211075998
 21
183.8959580986884
 31
0.0
  0
LINE
  5
3A
330
2
100
AcDbEntity
  8
0
 62
     3
100
AcDbLine
 10
36.26710677616
 20
183.8959580986884
 30
0.0
 11
36.26710677616
 21
191.9074183005884
 31
0.0
  0
LINE
  5
3B
330
2
100
AcDbEntity
  8
0
 62
     3
100
AcDbLine
 10
27.25423123975997
 20
191.9074183005884
 30
0.0
 11
27.25423123975997
 21
183.8959580986884
 31
0.0
  0
LINE
  5
3C
330
2
100
AcDbEntity
  8
0
 62
     3
100
AcDbLine
 10
26.25279298425994
 20
191.9074183005884
 30
0.0
 11
26.25279298425994
 21
183.8959580986884
 31
0.0
  0
LINE
  5
3D
330
2
100
AcDbEntity
  8
0
 62
     3
100
AcDbLine
 10
45.68054844645996
 20
180.3909585858882
 30
0.0
 11
45.68054844645996
 21
259.0032542359883
 31
0.0
  0
LINE
  5
3E
330
2
100
AcDbEntity
  8
0
  6
CENTER
 62
     3
100
AcDbLine
 10
31.76066900796001
 20
231.9646276265883
 30
0.0
 11
31.76066900796001
 21
181.8931045086884
 31
0.0
  0
LINE
  5
40
330
2
100
AcDbEntity
  8
0
 62
     3
100
AcDbLine
 10
39.27139862165995
 20
181.8931045086884
 30
0.0
 11
39.27139862165995
 21
231.9646276265883
 31
0.0
  0
LINE
  5
41
330
2
100
AcDbEntity
  8
0
 62
     3
100
AcDbLine
 10
24.24993939425997
 20
175.8845208176884
 30
0.0
 11
24.24993939425997
 21
258.5025465687883
 31
0.0
  0
LINE
  5
42
330
2
100
AcDbEntity
  8
0
 62
     3
100
AcDbLine
 10
22.64765193805999
 20
258.0018389014884
 30
0.0
 11
22.64765193805999
 21
175.3838131503884
 31
0.0
  0
LINE
  5
43
330
2
100
AcDbEntity
  8
0
 62
     3
100
AcDbLine
 10
17.64048358155997
 20
259.0032542359883
 30
0.0
 11
17.64048358155997
 21
176.3852284849883
 31
0.0
  0
LINE
  5
44
330
2
100
AcDbEntity
  8
0
 62
     3
100
AcDbLine
 10
19.14262950436
 20
255.9989623904884
 30
0.0
 11
19.14262950436
 21
176.3852284849883
 31
0.0
  0
LINE
  5
45
330
2
100
AcDbEntity
  8
0
  6
PHANTOM
 62
     3
100
AcDbLine
 10
54.69342398295998
 20
175.8845208176884
 30
0.0
 11
54.69342398295998
 21
259.0032542359883
 31
0.0
  0
LINE
  5
46
330
2
100
AcDbEntity
  8
0
100
AcDbLine
 10
0.0
 20
0.0
 30
0.0
 11
210.0
 21
0.0
 31
0.0
  0
LINE
  5
47
330
2
100
AcDbEntity
  8
0
 62
     3
100
AcDbLine
 10
36.26710677616
 20
188.9031264550883
 30
0.0
 11
35.11957052705998
 21
188.9031264550883
 31
0.0
  0
LINE
  5
48
330
2
100
AcDbEntity
  8
0
 62
     3
100
AcDbLine
 10
36.26710677616
 20
186.9002499441883
 30
0.0
 11
35.11957052705998
 21
186.9002499441883
 31
0.0
  0
LINE
  5
49
330
2
100
AcDbEntity
  8
0
 62
     3
100
AcDbLine
 10
33.66338106455998
 20
176.8859590731883
 30
0.0
 11
36.66767291005999
 21
176.8859590731883
 31
0.0
  0
LINE
  5
4A
330
2
100
AcDbEntity
  8
0
 62
     3
100
AcDbLine
 10
24.24993939425997
 20
181.8931045086884
 30
0.0
 11
39.27139862165995
 21
181.8931045086884
 31
0.0
  0
LINE
  5
4B
330
2
100
AcDbEntity
  8
0
 62
     3
100
AcDbLine
 10
39.27139862165995
 20
183.8959580986884
 30
0.0
 11
24.24993939425997
 21
183.8959580986884
 31
0.0
  0
LINE
  5
4C
330
2
100
AcDbEntity
  8
0
 62
     3
100
AcDbLine
 10
20.14406775975999
 20
175.3838131503884
 30
0.0
 11
54.19271631565999
 21
175.3838131503884
 31
0.0
  0
LINE
  5
4D
330
2
100
AcDbEntity
  8
0
 62
     3
100
AcDbLine
 10
50.68769388205999
 20
173.8816672276884
 30
0.0
 11
20.14406775975999
 21
173.8816672276884
 31
0.0
  0
LINE
  5
4E
330
2
100
AcDbEntity
  8
0
 62
     3
100
AcDbLine
 10
24.45022246115996
 20
177.3866667403884
 30
0.0
 11
26.45307605115999
 21
177.3866667403884
 31
0.0
  0
LINE
  5
4F
330
2
100
AcDbEntity
  8
0
 62
     3
100
AcDbLine
 10
20.64477542706004
 20
177.3866667403884
 30
0.0
 11
22.64765193805999
 21
177.3866667403884
 31
0.0
  0
ARC
  5
50
330
2
100
AcDbEntity
  8
0
 62
     3
100
AcDbCircle
 10
20.14406775975999
 20
176.3852284849883
 30
0.0
 40
2.503575582899999
100
AcDbArc
 50
179.9999640277999
 51
270.0000006831999
  0
ARC
  5
51
330
2
100
AcDbEntity
  8
0
 62
     3
100
AcDbCircle
 10
20.14406775975999
 20
176.3852284849883
 30
0.0
 40
1.001430644999999
100
AcDbArc
 50
179.9999640277999
 51
270.0000006831999
  0
LINE
  5
52
330
2
100
AcDbEntity
  8
0
 62
     3
100
AcDbLine
 10
20.64477542706004
 20
175.3838131503884
 30
0.0
 11
20.64477542706004
 21
177.3866667403884
 31
0.0
  0
LINE
  5
53
330
2
100
AcDbEntity
  8
0
 62
     3
100
AcDbLine
 10
22.64765193805999
 20
175.8845208176884
 30
0.0
 11
24.24993939425997
 21
175.8845208176884
 31
0.0
  0
LINE
  5
54
330
2
100
AcDbEntity
  8
0
 62
     3
100
AcDbLine
 10
24.45022246115996
 20
175.3838131503884
 30
0.0
 11
24.45022246115996
 21
177.3866667403884
 31
0.0
  0
LINE
  5
55
330
2
100
AcDbEntity
  8
0
 62
     3
100
AcDbLine
 10
26.45307605115999
 20
177.3866667403884
 30
0.0
 11
26.45307605115999
 21
175.3838131503884
 31
0.0
  0
ARC
  5
56
330
2
100
AcDbEntity
  8
0
 62
     3
100
AcDbCircle
 10
32.62022672045998
 20
176.3852284849883
 30
0.0
 40
1.043156850999999
100
AcDbArc
 50
286.2602395317998
 51
0.0
  0
LINE
  5
57
330
2
100
AcDbEntity
  8
0
 62
     3
100
AcDbLine
 10
33.66338106455998
 20
176.3852284849883
 30
0.0
 11
33.66338106455998
 21
176.8859590731883
 31
0.0
  0
ARC
  5
58
330
2
100
AcDbEntity
  8
0
 62
     3
100
AcDbCircle
 10
30.55894768555998
 20
186.6999668772884
 30
0.0
 40
0.6008583332999999
100
AcDbArc
 50
0.0
 51
89.99998201389999
  0
ARC
  5
59
330
2
100
AcDbEntity
  8
0
 62
     3
100
AcDbCircle
 10
30.55894768555998
 20
189.1034095220884
 30
0.0
 40
0.6008583332999999
100
AcDbArc
 50
270.0000179861
 51
0.0
  0
LINE
  5
5A
330
2
100
AcDbEntity
  8
0
  6
CENTER
 62
     3
100
AcDbLine
 10
35.61617534825995
 20
187.9016652786883
 30
0.0
 11
27.90516266765996
 21
187.9016652786883
 31
0.0
  0
LINE
  5
5B
330
2
100
AcDbEntity
  8
0
 62
     3
100
AcDbLine
 10
27.87126669456
 20
186.0342762150883
 30
0.0
 11
29.10138340316001
 21
184.4588686233884
 31
0.0
  0
LINE
  5
5C
330
2
100
AcDbEntity
  8
0
 62
     3
100
AcDbLine
 10
30.75923075245998
 20
184.5427866805883
 30
0.0
 11
30.75923075245998
 21
183.8959580986884
 31
0.0
  0
LINE
  5
5D
330
2
100
AcDbEntity
  8
0
 62
     3
100
AcDbLine
 10
28.40176748886
 20
188.9031264550883
 30
0.0
 11
27.25423123975997
 21
188.9031264550883
 31
0.0
  0
LINE
  5
5E
330
2
100
AcDbEntity
  8
0
 62
     3
100
AcDbLine
 10
28.40176748886
 20
186.9002499441883
 30
0.0
 11
27.25423123975997
 21
186.9002499441883
 31
0.0
  0
LINE
  5
5F
330
2
100
AcDbEntity
  8
0
 62
     3
100
AcDbLine
 10
30.55894768555998
 20
187.3008389988883
 30
0.0
 11
29.25708482976
 21
187.3008389988883
 31
0.0
  0
LINE
  5
60
330
2
100
AcDbEntity
  8
0
 62
     3
100
AcDbLine
 10
29.25708482976
 20
188.5025374003884
 30
0.0
 11
30.55894768555998
 21
188.5025374003884
 31
0.0
  0
LINE
  5
61
330
2
100
AcDbEntity
  8
0
 62
     3
100
AcDbLine
 10
29.25708482976
 20
187.3008389988883
 30
0.0
 11
29.25708482976
 21
188.5025374003884
 31
0.0
  0
LINE
  5
62
330
2
100
AcDbEntity
  8
0
 62
     3
100
AcDbLine
 10
35.85617772206001
 20
185.6673994864883
 30
0.0
 11
34.43183676535994
 21
184.4588705524884
 31
0.0
  0
LINE
  5
63
330
2
100
AcDbEntity
  8
0
 62
     3
100
AcDbLine
 10
32.76208434246001
 20
184.5427866805883
 30
0.0
 11
32.76208434246001
 21
183.8959580986884
 31
0.0
  0
LINE
  5
64
330
2
100
AcDbEntity
  8
0
 62
     3
100
AcDbLine
 10
32.96236740945994
 20
188.5025374003884
 30
0.0
 11
34.26423026526004
 21
188.5025374003884
 31
0.0
  0
LINE
  5
65
330
2
100
AcDbEntity
  8
0
 62
     3
100
AcDbLine
 10
34.26423026526004
 20
187.3008389988883
 30
0.0
 11
32.96236740945994
 21
187.3008389988883
 31
0.0
  0
ARC
  5
66
330
2
100
AcDbEntity
  8
0
 62
     3
100
AcDbCircle
 10
32.96236740945994
 20
189.1034095220884
 30
0.0
 40
0.6008583332999999
100
AcDbArc
 50
179.9999640277999
 51
270.0000006831999
  0
ARC
  5
67
330
2
100
AcDbEntity
  8
0
 62
     3
100
AcDbCircle
 10
32.96236740945994
 20
186.6999668772884
 30
0.0
 40
0.6008583332999999
100
AcDbArc
 50
89.99998201389999
 51
179.9999640277999
  0
LINE
  5
68
330
2
100
AcDbEntity
  8
0
 62
     3
100
AcDbLine
 10
32.36151820865996
 20
186.6999668772884
 30
0.0
 11
32.36151820865996
 21
185.3981040214883
 31
0.0
  0
LINE
  5
69
330
2
100
AcDbEntity
  8
0
 62
     3
100
AcDbLine
 10
32.36151820865996
 20
190.4052723778884
 30
0.0
 11
32.36151820865996
 21
189.1034095220884
 31
0.0
  0
LINE
  5
6A
330
2
100
AcDbEntity
  8
0
 62
     3
100
AcDbLine
 10
31.15979688625998
 20
185.3981040214883
 30
0.0
 11
31.15979688625998
 21
186.6999668772884
 31
0.0
  0
LINE
  5
6B
330
2
100
AcDbEntity
  8
0
 62
     3
100
AcDbLine
 10
31.15979688625998
 20
189.1034095220884
 30
0.0
 11
31.15979688625998
 21
190.4052723778884
 31
0.0
  0
LINE
  5
6C
330
2
100
AcDbEntity
  8
0
 62
     3
100
AcDbLine
 10
31.15979688625998
 20
190.4052723778884
 30
0.0
 11
32.36151820865996
 21
190.4052723778884
 31
0.0
  0
LINE
  5
6D
330
2
100
AcDbEntity
  8
0
 62
     3
100
AcDbLine
 10
32.36151820865996
 20
185.3981040214883
 30
0.0
 11
31.15979688625998
 21
185.3981040214883
 31
0.0
  0
LINE
  5
6E
330
2
100
AcDbEntity
  8
0
 62
     3
100
AcDbLine
 10
34.26423026526004
 20
188.5025374003884
 30
0.0
 11
34.26423026526004
 21
187.3008389988883
 31
0.0
  0
LINE
  5
6F
330
2
100
AcDbEntity
  8
0
 62
     3
100
AcDbLine
 10
99.82901741972142
 20
175.8845208176884
 30
0.0
 11
120.8590603382214
 21
175.8845208176884
 31
0.0
  0
LINE
  5
70
330
2
100
AcDbEntity
  8
0
 62
     3
100
AcDbLine
 10
90.3154342160214
 20
175.3838131503884
 30
0.0
 11
197.9692329865214
 21
175.3838131503884
 31
0.0
  0
LINE
  5
71
330
2
100
AcDbEntity
  8
0
  6
PHANTOM
 62
     3
100
AcDbLine
 10
90.3154342160214
 20
146.9291476363
 30
0.0
 11
197.9692329865214
 21
146.9291476363
 31
0.0
  0
LINE
  5
72
330
2
100
AcDbEntity
  8
0
 62
     3
100
AcDbLine
 10
78.7989745013214
 20
173.8816672276884
 30
0.0
 11
197.4685023983211
 21
173.8816672276884
 31
0.0
  0
LINE
  5
73
330
2
100
AcDbEntity
  8
0
 62
     3
100
AcDbLine
 10
128.3697899519214
 20
142.9234175353
 30
0.0
 11
79.80041275672139
 21
142.9234175353
 31
0.0
  0
LINE
  5
74
330
2
100
AcDbEntity
  8
0
 62
     3
100
AcDbLine
 10
194.9649411410214
 20
109.8762072348999
 30
0.0
 11
78.7989745013214
 21
109.8762072348999
 31
0.0
  0
LINE
  5
75
330
2
100
AcDbEntity
  8
0
 62
     3
100
AcDbLine
 10
88.31255770502139
 20
114.8833526703999
 30
0.0
 11
88.31255770502139
 21
112.8804990804
 31
0.0
  0
LINE
  5
76
330
2
100
AcDbEntity
  8
0
 62
     3
100
AcDbLine
 10
89.56436125462142
 20
114.8833526703999
 30
0.0
 11
89.56436125462142
 21
112.8804990804
 31
0.0
  0
LINE
  5
77
330
2
100
AcDbEntity
  8
0
 62
     3
100
AcDbLine
 10
84.05648523092144
 20
112.8804990804
 30
0.0
 11
84.05648523092144
 21
114.8833526703999
 31
0.0
  0
LINE
  5
78
330
2
100
AcDbEntity
  8
0
 62
     3
100
AcDbLine
 10
85.30826585952141
 20
114.8833526703999
 30
0.0
 11
85.30826585952141
 21
112.8804990804
 31
0.0
  0
ARC
  5
79
330
2
100
AcDbEntity
  8
0
 62
     3
100
AcDbCircle
 10
67.48279785352139
 20
116.8862062604
 30
0.0
 40
2.0028607528
100
AcDbArc
 50
179.9999640277999
 51
270.0000006831999
  0
LINE
  5
7A
330
2
100
AcDbEntity
  8
0
 62
     3
100
AcDbLine
 10
78.7989745013214
 20
141.9219792798999
 30
0.0
 11
78.7989745013214
 21
109.8762072348999
 31
0.0
  0
LINE
  5
7B
330
2
100
AcDbEntity
  8
0
 62
     3
100
AcDbLine
 10
91.0665071773214
 20
112.8804990804
 30
0.0
 11
82.5543393081214
 21
112.8804990804
 31
0.0
  0
LINE
  5
7C
330
2
100
AcDbEntity
  8
0
 62
     3
100
AcDbLine
 10
82.5543393081214
 20
111.3783531576
 30
0.0
 11
91.0665071773214
 21
111.3783531576
 31
0.0
  0
LINE
  5
7D
330
2
100
AcDbEntity
  8
0
 62
     3
100
AcDbLine
 10
82.5543393081214
 20
109.8762072348999
 30
0.0
 11
82.5543393081214
 21
112.8804990804
 31
0.0
  0
LINE
  5
7E
330
2
100
AcDbEntity
  8
0
 62
     3
100
AcDbLine
 10
91.0665071773214
 20
109.8762072348999
 30
0.0
 11
91.0665071773214
 21
112.8804990804
 31
0.0
  0
LINE
  5
7F
330
2
100
AcDbEntity
  8
0
 62
     3
100
AcDbLine
 10
65.47994426342143
 20
183.8959580986884
 30
0.0
 11
81.10225269162141
 21
183.8959580986884
 31
0.0
  0
LINE
  5
80
330
2
100
AcDbEntity
  8
0
 62
     3
100
AcDbLine
 10
65.47994426342143
 20
181.8931045086884
 30
0.0
 11
83.10512920262141
 21
181.8931045086884
 31
0.0
  0
LINE
  5
81
330
2
100
AcDbEntity
  8
0
 62
     3
100
AcDbLine
 10
67.48279785352139
 20
114.8833526703999
 30
0.0
 11
78.7989745013214
 21
114.8833526703999
 31
0.0
  0
LINE
  5
82
330
2
100
AcDbEntity
  8
0
 62
     3
100
AcDbLine
 10
78.7989745013214
 20
129.9048118978999
 30
0.0
 11
67.48279785352139
 21
129.9048118978999
 31
0.0
  0
ARC
  5
83
330
2
100
AcDbEntity
  8
0
 62
     3
100
AcDbCircle
 10
67.48279785352139
 20
127.9019583079
 30
0.0
 40
2.0028607528
100
AcDbArc
 50
89.99998201389999
 51
179.9999640277999
  0
LINE
  5
84
330
2
100
AcDbEntity
  8
0
 62
     3
100
AcDbLine
 10
65.47994426342143
 20
127.9019583079
 30
0.0
 11
65.47994426342143
 21
116.8862062604
 31
0.0
  0
LINE
  5
85
330
2
100
AcDbEntity
  8
0
 62
     3
100
AcDbLine
 10
68.08366997512141
 20
118.3883521832
 30
0.0
 11
68.08366997512141
 21
126.3998123851
 31
0.0
  0
LINE
  5
86
330
2
100
AcDbEntity
  8
0
 62
     3
100
AcDbLine
 10
67.0822317196214
 20
126.3998123851
 30
0.0
 11
67.0822317196214
 21
118.3883521832
 31
0.0
  0
LINE
  5
87
330
2
100
AcDbEntity
  8
0
 62
     3
100
AcDbLine
 10
67.0822317196214
 20
118.3883521832
 30
0.0
 11
68.08366997512141
 21
118.3883521832
 31
0.0
  0
LINE
  5
88
330
2
100
AcDbEntity
  8
0
 62
     3
100
AcDbLine
 10
68.08366997512141
 20
126.3998123851
 30
0.0
 11
67.0822317196214
 21
126.3998123851
 31
0.0
  0
LINE
  5
89
330
2
100
AcDbEntity
  8
0
 62
     3
100
AcDbLine
 10
50.18698621476
 20
180.3909585858882
 30
0.0
 11
45.68054844645996
 21
180.3909585858882
 31
0.0
  0
LINE
  5
8A
330
2
100
AcDbEntity
  8
0
 62
     3
100
AcDbLine
 10
42.07540740026002
 20
175.8845208176884
 30
0.0
 11
54.69342398295998
 21
175.8845208176884
 31
0.0
  0
LINE
  5
8B
330
2
100
AcDbEntity
  8
0
 62
     3
100
AcDbLine
 10
36.66767291005999
 20
176.3852284849883
 30
0.0
 11
36.66767291005999
 21
176.8859590731883
 31
0.0
  0
ARC
  5
8C
330
2
100
AcDbEntity
  8
0
 62
     3
100
AcDbCircle
 10
37.66860690505996
 20
176.3535746836884
 30
0.0
 40
1.001430644999999
100
AcDbArc
 50
178.1876689541999
 51
255.5520742112
  0
LINE
  5
8D
330
2
100
AcDbEntity
  8
0
 62
     3
100
AcDbLine
 10
42.07540740026002
 20
175.3838131503884
 30
0.0
 11
42.07540740026002
 21
175.8845208176884
 31
0.0
  0
LINE
  5
8E
330
2
100
AcDbEntity
  8
0
 62
     3
100
AcDbLine
 10
50.18698621476
 20
175.8845208176884
 30
0.0
 11
50.18698621476
 21
180.3909585858882
 31
0.0
  0
LINE
  5
8F
330
2
100
AcDbEntity
  8
0
 62
     3
100
AcDbLine
 10
50.68769388205999
 20
175.3838131503884
 30
0.0
 11
50.68769388205999
 21
173.8816672276884
 31
0.0
  0
ARC
  5
90
330
2
100
AcDbEntity
  8
0
 62
     3
100
AcDbCircle
 10
54.19271631565999
 20
175.8845208176884
 30
0.0
 40
0.5007152777
100
AcDbArc
 50
270.0000179861
 51
0.0
  0
LINE
  5
91
330
2
100
AcDbEntity
  8
0
 62
     3
100
AcDbLine
 10
65.47994426342143
 20
181.8931045086884
 30
0.0
 11
65.47994426342143
 21
183.8959580986884
 31
0.0
  0
LINE
  5
92
330
2
100
AcDbEntity
  8
0
 62
     3
100
AcDbLine
 10
71.08796182062139
 20
188.5025374003884
 30
0.0
 11
71.08796182062139
 21
187.3008389988883
 31
0.0
  0
LINE
  5
93
330
2
100
AcDbEntity
  8
0
 62
     3
100
AcDbLine
 10
71.08796182062139
 20
187.3008389988883
 30
0.0
 11
70.13115061152141
 21
187.3008389988883
 31
0.0
  0
LINE
  5
94
330
2
100
AcDbEntity
  8
0
 62
     3
100
AcDbLine
 10
70.13115061152141
 20
188.5025374003884
 30
0.0
 11
71.08796182062139
 21
188.5025374003884
 31
0.0
  0
LINE
  5
95
330
2
100
AcDbEntity
  8
0
 62
     3
100
AcDbLine
 10
73.09082762102139
 20
184.3966905447883
 30
0.0
 11
73.59153202202145
 21
183.8959632252883
 31
0.0
  0
LINE
  5
96
330
2
100
AcDbEntity
  8
0
 62
     3
100
AcDbLine
 10
72.08937715522143
 20
184.3966886868884
 30
0.0
 11
73.09081541062139
 21
184.3966886868884
 31
0.0
  0
LINE
  5
97
330
2
100
AcDbEntity
  8
0
 62
     3
100
AcDbLine
 10
74.59298412852141
 20
186.9002383270883
 30
0.0
 11
75.09368376012139
 21
186.3995386954884
 31
0.0
  0
LINE
  5
98
330
2
100
AcDbEntity
  8
0
 62
     3
100
AcDbLine
 10
74.5929679210214
 20
188.9031178911884
 30
0.0
 11
75.09368376012139
 21
189.4038337303884
 31
0.0
  0
LINE
  5
99
330
2
100
AcDbEntity
  8
0
 62
     3
100
AcDbLine
 10
74.59296133342139
 20
186.9002499441883
 30
0.0
 11
75.09366900072141
 21
186.9002499441883
 31
0.0
  0
LINE
  5
9A
330
2
100
AcDbEntity
  8
0
 62
     3
100
AcDbLine
 10
74.59296133342139
 20
188.9031264550883
 30
0.0
 11
75.09366900072141
 21
188.9031264550883
 31
0.0
  0
LINE
  5
9B
330
2
100
AcDbEntity
  8
0
 62
     3
100
AcDbLine
 10
72.08938872532141
 20
187.9016862129884
 30
0.0
 11
73.09083661112143
 21
186.9002383270883
 31
0.0
  0
LINE
  5
9C
330
2
100
AcDbEntity
  8
0
 62
     3
100
AcDbLine
 10
72.08938872532141
 20
188.9031178911884
 30
0.0
 11
73.09082040362142
 21
187.9016862129884
 31
0.0
  0
LINE
  5
9D
330
2
100
AcDbEntity
  8
0
 62
     3
100
AcDbLine
 10
75.09366900072141
 20
190.4052723778884
 30
0.0
 11
76.09510725612143
 21
190.4052723778884
 31
0.0
  0
LINE
  5
9E
330
2
100
AcDbEntity
  8
0
 62
     3
100
AcDbLine
 10
75.09366900072141
 20
185.3981040214883
 30
0.0
 11
76.09510725612143
 21
185.3981040214883
 31
0.0
  0
LINE
  5
9F
330
2
100
AcDbEntity
  8
0
 62
     3
100
AcDbLine
 10
91.6048280871214
 20
139.9191256898
 30
0.0
 11
101.0307387421214
 21
139.9191256898
 31
0.0
  0
LINE
  5
A0
330
2
100
AcDbEntity
  8
0
 62
     3
100
AcDbLine
 10
101.0307387421214
 20
136.9148338443
 30
0.0
 11
91.6048280871214
 21
136.9148338443
 31
0.0
  0
LINE
  5
A1
330
2
100
AcDbEntity
  8
0
 62
     3
100
AcDbLine
 10
95.82328731872141
 20
139.9191256898
 30
0.0
 11
95.82328731872141
 21
136.9148338443
 31
0.0
  0
LINE
  5
A2
330
2
100
AcDbEntity
  8
0
 62
     3
100
AcDbLine
 10
91.6048280871214
 20
136.9148338443
 30
0.0
 11
91.6048280871214
 21
139.9191256898
 31
0.0
  0
LINE
  5
A3
330
2
100
AcDbEntity
  8
0
  6
CENTER
 62
     3
100
AcDbLine
 10
83.80611993682141
 20
141.8468903204999
 30
0.0
 11
83.80611993682141
 21
137.9913610592
 31
0.0
  0
CIRCLE
  5
A4
330
2
100
AcDbEntity
  8
0
 62
     3
100
AcDbCircle
 10
83.80611993682141
 20
139.9191256898
 30
0.0
 40
1.7525026215
  0
LINE
  5
A5
330
2
100
AcDbEntity
  8
0
 62
     3
100
AcDbLine
 10
84.05648523092144
 20
118.6887997044999
 30
0.0
 11
89.56436125462142
 21
118.6887997044999
 31
0.0
  0
LINE
  5
A6
330
2
100
AcDbEntity
  8
0
 62
     3
100
AcDbLine
 10
89.56436125462142
 20
116.6859231934999
 30
0.0
 11
84.05648523092144
 21
116.6859231934999
 31
0.0
  0
LINE
  5
A7
330
2
100
AcDbEntity
  8
0
 62
     3
100
AcDbLine
 10
84.05648523092144
 20
114.8833526703999
 30
0.0
 11
89.56436125462142
 21
114.8833526703999
 31
0.0
  0
LINE
  5
A8
330
2
100
AcDbEntity
  8
0
  6
CENTER
 62
     3
100
AcDbLine
 10
83.80611993682141
 20
129.8797822446999
 30
0.0
 11
83.80611993682141
 21
124.9226961154999
 31
0.0
  0
CIRCLE
  5
A9
330
2
100
AcDbEntity
  8
0
 62
     3
100
AcDbCircle
 10
83.80611993682141
 20
127.4012277196999
 30
0.0
 40
1.201716756099999
  0
CIRCLE
  5
AA
330
2
100
AcDbEntity
  8
0
 62
     3
100
AcDbCircle
 10
83.80611993682141
 20
127.4012277196999
 30
0.0
 40
2.253218884099998
  0
CIRCLE
  5
AB
330
2
100
AcDbEntity
  8
0
 62
     3
100
AcDbCircle
 10
83.80611993682141
 20
127.4012277196999
 30
0.0
 40
1.5021459227
  0
LINE
  5
AC
330
2
100
AcDbEntity
  8
0
 62
     3
100
AcDbLine
 10
84.05648523092144
 20
116.6859231934999
 30
0.0
 11
84.05648523092144
 21
118.6887997044999
 31
0.0
  0
LINE
  5
AD
330
2
100
AcDbEntity
  8
0
 62
     3
100
AcDbLine
 10
85.30826585952141
 20
118.6887997044999
 30
0.0
 11
85.30826585952141
 21
116.6859231934999
 31
0.0
  0
LINE
  5
AE
330
2
100
AcDbEntity
  8
0
  6
CENTER
 62
     3
100
AcDbLine
 10
86.28467446192141
 20
127.4012277196999
 30
0.0
 11
81.32758833262139
 21
127.4012277196999
 31
0.0
  0
LINE
  5
AF
330
2
100
AcDbEntity
  8
0
 62
     3
100
AcDbLine
 10
88.31255770502139
 20
118.6887997044999
 30
0.0
 11
88.31255770502139
 21
116.6859231934999
 31
0.0
  0
LINE
  5
B0
330
2
100
AcDbEntity
  8
0
 62
     3
100
AcDbLine
 10
89.56436125462142
 20
118.6887997044999
 30
0.0
 11
89.56436125462142
 21
116.6859231934999
 31
0.0
  0
LINE
  5
B1
330
2
100
AcDbEntity
  8
0
  6
CENTER
 62
     3
100
AcDbLine
 10
85.7338845674214
 20
139.9191256898
 30
0.0
 11
81.8783782271214
 21
139.9191256898
 31
0.0
  0
ARC
  5
B2
330
2
100
AcDbEntity
  8
0
 62
     3
100
AcDbCircle
 10
79.80041275672139
 20
141.9219792798999
 30
0.0
 40
1.001430644999999
100
AcDbArc
 50
89.99998201389999
 51
179.9999640277999
  0
LINE
  5
B3
330
2
100
AcDbEntity
  8
0
  6
PHANTOM
 62
     3
100
AcDbLine
 10
88.60928670392141
 20
142.9234275851999
 30
0.0
 11
90.31542158822139
 21
146.9291409226
 31
0.0
  0
LINE
  5
B4
330
2
100
AcDbEntity
  8
0
  6
PHANTOM
 62
     3
100
AcDbLine
 10
90.3154342160214
 20
146.9291476363
 30
0.0
 11
90.3154342160214
 21
142.9234175353
 31
0.0
  0
LINE
  5
B5
330
2
100
AcDbEntity
  8
0
 62
     3
100
AcDbLine
 10
100.3297250870214
 20
139.9191256898
 30
0.0
 11
100.3297250870214
 21
136.9148338443
 31
0.0
  0
LINE
  5
B6
330
2
100
AcDbEntity
  8
0
 62
     3
100
AcDbLine
 10
101.0307387421214
 20
139.9191256898
 30
0.0
 11
101.0307387421214
 21
136.9148338443
 31
0.0
  0
LINE
  5
B7
330
2
100
AcDbEntity
  8
0
 62
     3
100
AcDbLine
 10
95.42079582702141
 20
177.5869498073884
 30
0.0
 11
100.3297250870214
 21
177.5869498073884
 31
0.0
  0
LINE
  5
B8
330
2
100
AcDbEntity
  8
0
 62
     3
100
AcDbLine
 10
100.3297250870214
 20
176.0848038845884
 30
0.0
 11
95.82328731872141
 21
176.0848038845884
 31
0.0
  0
LINE
  5
B9
330
2
100
AcDbEntity
  8
0
 62
     3
100
AcDbLine
 10
86.14082271912142
 20
175.8845208176884
 30
0.0
 11
87.48000084542141
 21
175.8845208176884
 31
0.0
  0
LINE
  5
BA
330
2
100
AcDbEntity
  8
0
 62
     3
100
AcDbLine
 10
85.30826585952141
 20
177.3866667403884
 30
0.0
 11
88.31255770502139
 21
177.3866667403884
 31
0.0
  0
LINE
  5
BB
330
2
100
AcDbEntity
  8
0
 62
     3
100
AcDbLine
 10
90.3154342160214
 20
175.3838131503884
 30
0.0
 11
78.7989745013214
 21
175.3838131503884
 31
0.0
  0
LINE
  5
BC
330
2
100
AcDbEntity
  8
0
 62
     3
100
AcDbLine
 10
87.61156697082141
 20
189.5039756558884
 30
0.0
 11
83.10512920262141
 21
189.5039756558884
 31
0.0
  0
LINE
  5
BD
330
2
100
AcDbEntity
  8
0
 62
     3
100
AcDbLine
 10
87.61156697082141
 20
186.2994007434884
 30
0.0
 11
83.10512920262141
 21
186.2994007434884
 31
0.0
  0
LINE
  5
BE
330
2
100
AcDbEntity
  8
0
 62
     3
100
AcDbLine
 10
78.7989745013214
 20
173.8816672276884
 30
0.0
 11
78.7989745013214
 21
181.8931045086884
 31
0.0
  0
LINE
  5
BF
330
2
100
AcDbEntity
  8
0
 62
     3
100
AcDbLine
 10
79.2996821685214
 20
181.8931045086884
 30
0.0
 11
79.2996821685214
 21
176.8859590731883
 31
0.0
  0
ARC
  5
C0
330
2
100
AcDbEntity
  8
0
 62
     3
100
AcDbCircle
 10
81.26081967002141
 20
176.3852284849883
 30
0.0
 40
1.043156850999999
100
AcDbArc
 50
286.2602395317998
 51
0.0
  0
LINE
  5
C1
330
2
100
AcDbEntity
  8
0
 62
     3
100
AcDbLine
 10
82.30397401402141
 20
176.8859590731883
 30
0.0
 11
85.30826585952141
 21
176.8859590731883
 31
0.0
  0
LINE
  5
C2
330
2
100
AcDbEntity
  8
0
 62
     3
100
AcDbLine
 10
79.29970015982139
 20
176.8859544631883
 30
0.0
 11
80.30112609792139
 21
175.8845170446884
 31
0.0
  0
LINE
  5
C3
330
2
100
AcDbEntity
  8
0
 62
     3
100
AcDbLine
 10
82.30397401402141
 20
176.3852284849883
 30
0.0
 11
82.30397401402141
 21
176.8859590731883
 31
0.0
  0
LINE
  5
C4
330
2
100
AcDbEntity
  8
0
 62
     3
100
AcDbLine
 10
80.30112042402141
 20
175.8845208176884
 30
0.0
 11
82.1759606324214
 21
175.8845208176884
 31
0.0
  0
LINE
  5
C5
330
2
100
AcDbEntity
  8
0
 62
     3
100
AcDbLine
 10
85.87117898222141
 20
175.4530225640882
 30
0.0
 11
86.14085187792142
 21
175.8845037645883
 31
0.0
  0
LINE
  5
C6
330
2
100
AcDbEntity
  8
0
 62
     3
100
AcDbLine
 10
84.99532236802142
 20
176.8859535318884
 30
0.0
 11
85.30827490272145
 21
177.3866638544884
 31
0.0
  0
LINE
  5
C7
330
2
100
AcDbEntity
  8
0
 62
     3
100
AcDbLine
 10
85.30826585952141
 20
176.3852284849883
 30
0.0
 11
85.30826585952141
 21
176.8859590731883
 31
0.0
  0
ARC
  5
C8
330
2
100
AcDbEntity
  8
0
 62
     3
100
AcDbCircle
 10
86.3091998546214
 20
176.3535746836884
 30
0.0
 40
1.001430644999999
100
AcDbArc
 50
178.1876689541999
 51
255.5520742112
  0
LINE
  5
C9
330
2
100
AcDbEntity
  8
0
 62
     3
100
AcDbLine
 10
91.60484069562143
 20
175.3838188103884
 30
0.0
 11
95.42078814192141
 21
177.5869504771884
 31
0.0
  0
LINE
  5
CA
330
2
100
AcDbEntity
  8
0
 62
     3
100
AcDbLine
 10
89.81470362782141
 20
176.8859590731883
 30
0.0
 11
94.20662844082142
 21
176.8859590731883
 31
0.0
  0
LINE
  5
CB
330
2
100
AcDbEntity
  8
0
 62
     3
100
AcDbLine
 10
88.31256588352141
 20
177.3866635600884
 30
0.0
 11
89.56435758032142
 21
175.3838107259884
 31
0.0
  0
LINE
  5
CC
330
2
100
AcDbEntity
  8
0
 62
     3
100
AcDbLine
 10
89.81470362782141
 20
175.8845208176884
 30
0.0
 11
89.81470362782141
 21
176.8859590731883
 31
0.0
  0
LINE
  5
CD
330
2
100
AcDbEntity
  8
0
 62
     3
100
AcDbLine
 10
89.25139890672141
 20
175.8845208176884
 30
0.0
 11
89.81470362782141
 21
175.8845208176884
 31
0.0
  0
LINE
  5
CE
330
2
100
AcDbEntity
  8
0
 62
     3
100
AcDbLine
 10
87.48001121122143
 20
175.8845153089883
 30
0.0
 11
87.79295551042142
 21
175.3837998479884
 31
0.0
  0
LINE
  5
CF
330
2
100
AcDbEntity
  8
0
 62
     3
100
AcDbLine
 10
91.0665071773214
 20
176.8859590731883
 30
0.0
 11
91.0665071773214
 21
175.3838131503884
 31
0.0
  0
LINE
  5
D0
330
2
100
AcDbEntity
  8
0
 62
     3
100
AcDbLine
 10
95.82331412642139
 20
176.0848119853882
 30
0.0
 11
94.60913871972142
 21
175.3838166430884
 31
0.0
  0
LINE
  5
D1
330
2
100
AcDbEntity
  8
0
 62
     3
100
AcDbLine
 10
87.61156697082141
 20
189.5039756558884
 30
0.0
 11
87.61156697082141
 21
186.2994007434884
 31
0.0
  0
LINE
  5
D2
330
2
100
AcDbEntity
  8
0
 62
     3
100
AcDbLine
 10
99.82901741972142
 20
176.0848038845884
 30
0.0
 11
99.82901741972142
 21
175.8845208176884
 31
0.0
  0
LINE
  5
D3
330
2
100
AcDbEntity
  8
0
 62
     3
100
AcDbLine
 10
100.3297250870214
 20
177.5869498073884
 30
0.0
 11
100.3297250870214
 21
176.0848038845884
 31
0.0
  0
LINE
  5
D4
330
2
100
AcDbEntity
  8
0
 62
     3
100
AcDbLine
 10
186.4527732718213
 20
114.8833526703999
 30
0.0
 11
186.4527732718213
 21
112.8804990804
 31
0.0
  0
LINE
  5
D5
330
2
100
AcDbEntity
  8
0
 62
     3
100
AcDbLine
 10
190.7088457459213
 20
114.8833526703999
 30
0.0
 11
190.7088457459213
 21
112.8804990804
 31
0.0
  0
LINE
  5
D6
330
2
100
AcDbEntity
  8
0
 62
     3
100
AcDbLine
 10
189.4570651172214
 20
114.8833526703999
 30
0.0
 11
189.4570651172214
 21
112.8804990804
 31
0.0
  0
LINE
  5
D7
330
2
100
AcDbEntity
  8
0
 62
     3
100
AcDbLine
 10
197.4685023983211
 20
141.9219792798999
 30
0.0
 11
197.4685023983211
 21
112.3797684922
 31
0.0
  0
LINE
  5
D8
330
2
100
AcDbEntity
  8
0
 62
     3
100
AcDbLine
 10
185.2009926431214
 20
112.8804990804
 30
0.0
 11
185.2009926431214
 21
114.8833526703999
 31
0.0
  0
TEXT
  5
D9
330
2
100
AcDbEntity
  8
0
 62
     5
100
AcDbText
 10
145.0
 20
10.0
 30
0.0
 40
5.0
  1
ＭＡ４－Ｐ０００７３
 41
0.8460446051551709
 72
     5
 11
194.0705870989999
 21
10.0
 31
0.0
100
AcDbText
  0
LINE
  5
DA
330
2
100
AcDbEntity
  8
0
 62
     3
100
AcDbLine
 10
192.2109916686214
 20
112.8804990804
 30
0.0
 11
183.6988467204211
 21
112.8804990804
 31
0.0
  0
LINE
  5
DB
330
2
100
AcDbEntity
  8
0
 62
     3
100
AcDbLine
 10
192.2109916686214
 20
111.3783531576
 30
0.0
 11
183.6988467204211
 21
111.3783531576
 31
0.0
  0
LINE
  5
DC
330
2
100
AcDbEntity
  8
0
 62
     3
100
AcDbLine
 10
183.6988467204211
 20
109.8762072348999
 30
0.0
 11
183.6988467204211
 21
112.8804990804
 31
0.0
  0
ARC
  5
DD
330
2
100
AcDbEntity
  8
0
 62
     3
100
AcDbCircle
 10
194.9649411410214
 20
112.3797684922
 30
0.0
 40
2.503575582899999
100
AcDbArc
 50
270.0000179861
 51
0.0
  0
LINE
  5
DE
330
2
100
AcDbEntity
  8
0
 62
     3
100
AcDbLine
 10
192.2109916686214
 20
109.8762072348999
 30
0.0
 11
192.2109916686214
 21
112.8804990804
 31
0.0
  0
LINE
  5
DF
330
2
100
AcDbEntity
  8
0
 62
     3
100
AcDbLine
 10
195.9663564755214
 20
112.8804990804
 30
0.0
 11
195.9663564755214
 21
110.0852002543999
 31
0.0
  0
LINE
  5
E0
330
2
100
AcDbEntity
  8
0
 62
     3
100
AcDbLine
 10
195.9663564755214
 20
112.8804990804
 30
0.0
 11
197.4685023983211
 21
112.8804990804
 31
0.0
  0
LINE
  5
E1
330
2
100
AcDbEntity
  8
0
 62
     3
100
AcDbLine
 10
147.3969792803214
 20
142.9234175353
 30
0.0
 11
196.4670870637213
 21
142.9234175353
 31
0.0
  0
LINE
  5
E2
330
2
100
AcDbEntity
  8
0
 62
     3
100
AcDbLine
 10
132.3755200529213
 20
175.8845208176884
 30
0.0
 11
170.4298757888214
 21
175.8845208176884
 31
0.0
  0
LINE
  5
E3
330
2
100
AcDbEntity
  8
0
 62
     3
100
AcDbLine
 10
128.8704976192214
 20
142.4227098681
 30
0.0
 11
146.8962486921213
 21
142.4227098681
 31
0.0
  0
LINE
  5
E4
330
2
100
AcDbEntity
  8
0
 62
     3
100
AcDbLine
 10
128.3697821354214
 20
142.9234163785
 30
0.0
 11
128.8705006757212
 21
142.4227093184
 31
0.0
  0
LINE
  5
E5
330
2
100
AcDbEntity
  8
0
 62
     3
100
AcDbLine
 10
147.3969794156214
 20
142.9234170036
 30
0.0
 11
147.4001885092213
 21
142.9266260971999
 31
0.0
  0
LINE
  5
E6
330
2
100
AcDbEntity
  8
0
 62
     3
100
AcDbLine
 10
146.8962644201211
 20
142.4227052203
 30
0.0
 11
147.3969859995214
 21
142.9234153193
 31
0.0
  0
LINE
  5
E7
330
2
100
AcDbEntity
  8
0
 62
     3
100
AcDbLine
 10
120.8590603382214
 20
176.8859590731883
 30
0.0
 11
132.3755200529213
 21
176.8859590731883
 31
0.0
  0
LINE
  5
E8
330
2
100
AcDbEntity
  8
0
 62
     3
100
AcDbLine
 10
120.8590603382214
 20
175.8845208176884
 30
0.0
 11
120.8590603382214
 21
176.8859590731883
 31
0.0
  0
LINE
  5
E9
330
2
100
AcDbEntity
  8
0
 62
     3
100
AcDbLine
 10
128.3697899519214
 20
175.3838131503884
 30
0.0
 11
128.3697899519214
 21
173.8816672276884
 31
0.0
  0
LINE
  5
EA
330
2
100
AcDbEntity
  8
0
 62
     3
100
AcDbLine
 10
128.8704976192214
 20
175.3838131503884
 30
0.0
 11
128.8704976192214
 21
173.8816672276884
 31
0.0
  0
LINE
  5
EB
330
2
100
AcDbEntity
  8
0
 62
     3
100
AcDbLine
 10
132.3755200529213
 20
176.8859590731883
 30
0.0
 11
132.3755200529213
 21
175.8845208176884
 31
0.0
  0
LINE
  5
EC
330
2
100
AcDbEntity
  8
0
 62
     3
100
AcDbLine
 10
147.3969792803214
 20
175.3838131503884
 30
0.0
 11
147.3969792803214
 21
173.8816672276884
 31
0.0
  0
LINE
  5
ED
330
2
100
AcDbEntity
  8
0
 62
     3
100
AcDbLine
 10
146.8962486921213
 20
175.3838131503884
 30
0.0
 11
146.8962486921213
 21
173.8816672276884
 31
0.0
  0
ARC
  5
EE
330
2
100
AcDbEntity
  8
0
 62
     3
100
AcDbCircle
 10
194.4028741500213
 20
137.9162720997999
 30
0.0
 40
5.469062297599997
100
AcDbArc
 50
327.7144197934
 51
32.28558020660012
  0
LINE
  5
EF
330
2
100
AcDbEntity
  8
0
  6
PHANTOM
 62
     3
100
AcDbLine
 10
197.9692329865214
 20
146.9291476363
 30
0.0
 11
197.9692329865214
 21
133.9105419987999
 31
0.0
  0
LINE
  5
F0
330
2
100
AcDbEntity
  8
0
 62
     3
100
AcDbLine
 10
185.2009926431214
 20
118.6887997044999
 30
0.0
 11
190.7088457459213
 21
118.6887997044999
 31
0.0
  0
LINE
  5
F1
330
2
100
AcDbEntity
  8
0
 62
     3
100
AcDbLine
 10
190.7088457459213
 20
116.6859231934999
 30
0.0
 11
185.2009926431214
 21
116.6859231934999
 31
0.0
  0
LINE
  5
F2
330
2
100
AcDbEntity
  8
0
 62
     3
100
AcDbLine
 10
185.2009926431214
 20
114.8833526703999
 30
0.0
 11
190.7088457459213
 21
114.8833526703999
 31
0.0
  0
LINE
  5
F3
330
2
100
AcDbEntity
  8
0
  6
CENTER
 62
     3
100
AcDbLine
 10
183.9491890935214
 20
129.8797822446999
 30
0.0
 11
183.9491890935214
 21
124.9226961154999
 31
0.0
  0
CIRCLE
  5
F4
330
2
100
AcDbEntity
  8
0
 62
     3
100
AcDbCircle
 10
183.9491890935214
 20
127.4012277196999
 30
0.0
 40
1.201716756099999
  0
CIRCLE
  5
F5
330
2
100
AcDbEntity
  8
0
 62
     3
100
AcDbCircle
 10
183.9491890935214
 20
127.4012277196999
 30
0.0
 40
1.5021459227
  0
CIRCLE
  5
F6
330
2
100
AcDbEntity
  8
0
 62
     3
100
AcDbCircle
 10
183.9491890935214
 20
127.4012277196999
 30
0.0
 40
2.253218884099998
  0
LINE
  5
F7
330
2
100
AcDbEntity
  8
0
 62
     3
100
AcDbLine
 10
186.4527732718213
 20
118.6887997044999
 30
0.0
 11
186.4527732718213
 21
116.6859231934999
 31
0.0
  0
LINE
  5
F8
330
2
100
AcDbEntity
  8
0
 62
     3
100
AcDbLine
 10
185.2009926431214
 20
116.6859231934999
 30
0.0
 11
185.2009926431214
 21
118.6887997044999
 31
0.0
  0
LINE
  5
F9
330
2
100
AcDbEntity
  8
0
 62
     3
100
AcDbLine
 10
189.4570651172214
 20
118.6887997044999
 30
0.0
 11
189.4570651172214
 21
116.6859231934999
 31
0.0
  0
LINE
  5
FA
330
2
100
AcDbEntity
  8
0
  6
CENTER
 62
     3
100
AcDbLine
 10
185.8769537242214
 20
134.9119802543
 30
0.0
 11
182.0214473838211
 21
134.9119802543
 31
0.0
  0
CIRCLE
  5
FB
330
2
100
AcDbEntity
  8
0
 62
     3
100
AcDbCircle
 10
183.9491890935214
 20
134.9119802543
 30
0.0
 40
1.7525026215
  0
LINE
  5
FC
330
2
100
AcDbEntity
  8
0
  6
CENTER
 62
     3
100
AcDbLine
 10
186.4277436186213
 20
127.4012277196999
 30
0.0
 11
181.4706574894213
 21
127.4012277196999
 31
0.0
  0
LINE
  5
FD
330
2
100
AcDbEntity
  8
0
  6
CENTER
 62
     3
100
AcDbLine
 10
183.9491890935214
 20
136.8397448849
 30
0.0
 11
183.9491890935214
 21
132.9842156236999
 31
0.0
  0
LINE
  5
FE
330
2
100
AcDbEntity
  8
0
 62
     3
100
AcDbLine
 10
195.9663564755214
 20
129.1537389364999
 30
0.0
 11
195.9663564755214
 21
125.6487394237
 31
0.0
  0
LINE
  5
FF
330
2
100
AcDbEntity
  8
0
  6
CENTER
 62
     3
100
AcDbLine
 10
194.9649411410214
 20
130.3614117127
 30
0.0
 11
194.9649411410214
 21
123.9998228013
 31
0.0
  0
ARC
  5
100
330
2
100
AcDbEntity
  8
0
 62
     3
100
AcDbCircle
 10
194.9649411410214
 20
127.4012277196999
 30
0.0
 40
1.7525026215
100
AcDbArc
 50
89.99998201389999
 51
270.0000006831999
  0
LINE
  5
101
330
2
100
AcDbEntity
  8
0
 62
     3
100
AcDbLine
 10
194.9649411410214
 20
125.6487394237
 30
0.0
 11
196.4670870637213
 21
125.6487394237
 31
0.0
  0
LINE
  5
102
330
2
100
AcDbEntity
  8
0
 62
     3
100
AcDbLine
 10
190.7088457459213
 20
118.6887997044999
 30
0.0
 11
190.7088457459213
 21
116.6859231934999
 31
0.0
  0
ARC
  5
103
330
2
100
AcDbEntity
  8
0
 62
     3
100
AcDbCircle
 10
196.4670870637213
 20
124.6473011683
 30
0.0
 40
1.001430644999999
100
AcDbArc
 50
0.0
 51
89.99998201389999
  0
LINE
  5
104
330
2
100
AcDbEntity
  8
0
  6
CENTER
 62
     3
100
AcDbLine
 10
191.6261673724214
 20
127.4012277196999
 30
0.0
 11
198.9097256912213
 21
127.4012277196999
 31
0.0
  0
LINE
  5
105
330
2
100
AcDbEntity
  8
0
 62
     3
100
AcDbLine
 10
194.9649411410214
 20
129.1537389364999
 30
0.0
 11
196.4670870637213
 21
129.1537389364999
 31
0.0
  0
ARC
  5
106
330
2
100
AcDbEntity
  8
0
 62
     3
100
AcDbCircle
 10
196.4670870637213
 20
130.155177192
 30
0.0
 40
1.001430644999999
100
AcDbArc
 50
270.0000179861
 51
0.0
  0
LINE
  5
107
330
2
100
AcDbEntity
  8
0
 62
     3
100
AcDbLine
 10
197.9692329865214
 20
133.9105419987999
 30
0.0
 11
197.4685023983211
 21
133.9105419987999
 31
0.0
  0
LINE
  5
108
330
2
100
AcDbEntity
  8
0
 62
     3
100
AcDbLine
 10
197.9692329865214
 20
134.7617564937
 30
0.0
 11
198.6031112441214
 21
134.7617564937
 31
0.0
  0
ARC
  5
109
330
2
100
AcDbEntity
  8
0
 62
     3
100
AcDbCircle
 10
198.6031112441214
 20
135.2624641608999
 30
0.0
 40
0.5007152777
100
AcDbArc
 50
270.0000179861
 51
327.7144197934
  0
LINE
  5
10A
330
2
100
AcDbEntity
  8
0
 62
     3
100
AcDbLine
 10
196.4931800268213
 20
142.9230740784
 30
0.0
 11
197.4685112874213
 21
142.9234178921999
 31
0.0
  0
ARC
  5
10B
330
2
100
AcDbEntity
  8
0
 62
     3
100
AcDbCircle
 10
196.4670870637213
 20
141.9219792798999
 30
0.0
 40
1.001430644999999
100
AcDbArc
 50
0.0
 51
89.99998201389999
  0
LINE
  5
10C
330
2
100
AcDbEntity
  8
0
 62
     3
100
AcDbLine
 10
197.4685023983211
 20
142.9234175353
 30
0.0
 11
197.4685023983211
 21
141.9502637046999
 31
0.0
  0
LINE
  5
10D
330
2
100
AcDbEntity
  8
0
 62
     3
100
AcDbLine
 10
197.9692329865214
 20
141.0707647849999
 30
0.0
 11
198.6031112441214
 21
141.0707647849999
 31
0.0
  0
ARC
  5
10E
330
2
100
AcDbEntity
  8
0
 62
     3
100
AcDbCircle
 10
198.6031112441214
 20
140.5700571177999
 30
0.0
 40
0.5007152777
100
AcDbArc
 50
32.28558020659999
 51
89.99998201389999
  0
LINE
  5
10F
330
2
100
AcDbEntity
  8
0
 62
     3
100
AcDbLine
 10
170.4298757888214
 20
176.8859590731883
 30
0.0
 11
185.4513350163214
 21
176.8859590731883
 31
0.0
  0
LINE
  5
110
330
2
100
AcDbEntity
  8
0
 62
     3
100
AcDbLine
 10
170.4298757888214
 20
175.8845208176884
 30
0.0
 11
170.4298757888214
 21
176.8859590731883
 31
0.0
  0
LINE
  5
111
330
2
100
AcDbEntity
  8
0
 62
     3
100
AcDbLine
 10
189.4570701393214
 20
177.3866605286884
 30
0.0
 11
190.7088535302214
 21
175.3838024857884
 31
0.0
  0
ARC
  5
112
330
2
100
AcDbEntity
  8
0
 62
     3
100
AcDbCircle
 10
181.4461091757214
 20
176.3535746836884
 30
0.0
 40
1.001430644999999
100
AcDbArc
 50
284.4479444581997
 51
1.81228973750003
  0
LINE
  5
113
330
2
100
AcDbEntity
  8
0
 62
     3
100
AcDbLine
 10
182.4470431708214
 20
176.3852284849883
 30
0.0
 11
182.4470431708214
 21
176.8859590731883
 31
0.0
  0
LINE
  5
114
330
2
100
AcDbEntity
  8
0
 62
     3
100
AcDbLine
 10
186.4527732718213
 20
177.3866667403884
 30
0.0
 11
189.4570651172214
 21
177.3866667403884
 31
0.0
  0
LINE
  5
115
330
2
100
AcDbEntity
  8
0
 62
     3
100
AcDbLine
 10
187.2853301314214
 20
175.8845208176884
 30
0.0
 11
188.6245082576214
 21
175.8845208176884
 31
0.0
  0
LINE
  5
116
330
2
100
AcDbEntity
  8
0
 62
     3
100
AcDbLine
 10
186.9723816185214
 20
175.3838061629884
 30
0.0
 11
187.2853259177214
 21
175.8845216239883
 31
0.0
  0
LINE
  5
117
330
2
100
AcDbEntity
  8
0
 62
     3
100
AcDbLine
 10
185.4513350163214
 20
176.3852284849883
 30
0.0
 11
185.4513350163214
 21
176.8859590731883
 31
0.0
  0
ARC
  5
118
330
2
100
AcDbEntity
  8
0
 62
     3
100
AcDbCircle
 10
186.4522690113211
 20
176.3535746836884
 30
0.0
 40
1.001430644999999
100
AcDbArc
 50
178.1876689541999
 51
255.5520742112
  0
LINE
  5
119
330
2
100
AcDbEntity
  8
0
 62
     3
100
AcDbLine
 10
185.5437809388214
 20
175.9322613715883
 30
0.0
 11
186.4527823665214
 21
177.3866681334884
 31
0.0
  0
LINE
  5
11A
330
2
100
AcDbEntity
  8
0
 62
     3
100
AcDbLine
 10
188.6245027062214
 20
175.8844977511884
 30
0.0
 11
188.9374348574214
 21
175.3838017271884
 31
0.0
  0
LINE
  5
11B
330
2
100
AcDbEntity
  8
0
 62
     3
100
AcDbLine
 10
194.9649411410214
 20
183.8959580986884
 30
0.0
 11
194.9649411410214
 21
176.8859590731883
 31
0.0
  0
LINE
  5
11C
330
2
100
AcDbEntity
  8
0
 62
     3
100
AcDbLine
 10
190.3959063190214
 20
175.8845208176884
 30
0.0
 11
193.9635028855214
 21
175.8845208176884
 31
0.0
  0
LINE
  5
11D
330
2
100
AcDbEntity
  8
0
 62
     3
100
AcDbLine
 10
192.2109916686214
 20
175.8845208176884
 30
0.0
 11
192.2109916686214
 21
175.3838131503884
 31
0.0
  0
LINE
  5
11E
330
2
100
AcDbEntity
  8
0
 62
     3
100
AcDbLine
 10
194.9649426018213
 20
176.8859600372882
 30
0.0
 11
193.9634947159214
 21
175.8845121514883
 31
0.0
  0
LINE
  5
11F
330
2
100
AcDbEntity
  8
0
 62
     3
100
AcDbLine
 10
195.9663564755214
 20
176.1849454180883
 30
0.0
 11
197.4685023983211
 21
176.1849454180883
 31
0.0
  0
LINE
  5
120
330
2
100
AcDbEntity
  8
0
 62
     3
100
AcDbLine
 10
193.9635028855214
 20
183.8959580986884
 30
0.0
 11
194.9649411410214
 21
183.8959580986884
 31
0.0
  0
LINE
  5
121
330
2
100
AcDbEntity
  8
0
100
AcDbLine
 10
210.0
 20
297.0
 30
0.0
 11
0.0
 21
297.0
 31
0.0
  0
LINE
  5
126
330
2
100
AcDbEntity
  8
0
 62
     3
100
AcDbLine
 10
36.26710677616
 20
226.9574821910884
 30
0.0
 11
35.11957052705998
 21
226.9574821910884
 31
0.0
  0
LINE
  5
127
330
2
100
AcDbEntity
  8
0
 62
     3
100
AcDbLine
 10
36.26710677616
 20
224.9546286010884
 30
0.0
 11
35.11957052705998
 21
224.9546286010884
 31
0.0
  0
LINE
  5
128
330
2
100
AcDbEntity
  8
0
 62
     3
100
AcDbLine
 10
36.26710677616
 20
217.4438989872883
 30
0.0
 11
35.11957052705998
 21
217.4438989872883
 31
0.0
  0
LINE
  5
129
330
2
100
AcDbEntity
  8
0
 62
     3
100
AcDbLine
 10
36.26710677616
 20
215.4410224763883
 30
0.0
 11
35.11957052705998
 21
215.4410224763883
 31
0.0
  0
LINE
  5
12A
330
2
100
AcDbEntity
  8
0
 62
     3
100
AcDbLine
 10
39.27139862165995
 20
231.9646276265883
 30
0.0
 11
24.24993939425997
 21
231.9646276265883
 31
0.0
  0
LINE
  5
12B
330
2
100
AcDbEntity
  8
0
 62
     3
100
AcDbLine
 10
39.27139862165995
 20
229.9617740365884
 30
0.0
 11
24.24993939425997
 21
229.9617740365884
 31
0.0
  0
LINE
  5
12C
330
2
100
AcDbEntity
  8
0
 62
     3
100
AcDbLine
 10
39.27139862165995
 20
210.9345847080883
 30
0.0
 11
24.24993939425997
 21
210.9345847080883
 31
0.0
  0
LINE
  5
12D
330
2
100
AcDbEntity
  8
0
 62
     3
100
AcDbLine
 10
39.27139862165995
 20
212.4367306308883
 30
0.0
 11
24.24993939425997
 21
212.4367306308883
 31
0.0
  0
LINE
  5
12E
330
2
100
AcDbEntity
  8
0
 62
     3
100
AcDbLine
 10
39.27139862165995
 20
220.4481908327883
 30
0.0
 11
24.24993939425997
 21
220.4481908327883
 31
0.0
  0
LINE
  5
12F
330
2
100
AcDbEntity
  8
0
 62
     3
100
AcDbLine
 10
39.27139862165995
 20
221.9503367555883
 30
0.0
 11
24.24993939425997
 21
221.9503367555883
 31
0.0
  0
LINE
  5
130
330
2
100
AcDbEntity
  8
0
 62
     3
100
AcDbLine
 10
36.26710677616
 20
207.9302928626884
 30
0.0
 11
35.11957052705998
 21
207.9302928626884
 31
0.0
  0
LINE
  5
131
330
2
100
AcDbEntity
  8
0
 62
     3
100
AcDbLine
 10
36.26710677616
 20
205.9274392725883
 30
0.0
 11
35.11957052705998
 21
205.9274392725883
 31
0.0
  0
LINE
  5
132
330
2
100
AcDbEntity
  8
0
 62
     3
100
AcDbLine
 10
36.26710677616
 20
198.4167096588883
 30
0.0
 11
35.11957052705998
 21
198.4167096588883
 31
0.0
  0
LINE
  5
133
330
2
100
AcDbEntity
  8
0
 62
     3
100
AcDbLine
 10
36.26710677616
 20
196.4138560688884
 30
0.0
 11
35.11957052705998
 21
196.4138560688884
 31
0.0
  0
LINE
  5
134
330
2
100
AcDbEntity
  8
0
 62
     3
100
AcDbLine
 10
39.27139862165995
 20
191.9074183005884
 30
0.0
 11
24.24993939425997
 21
191.9074183005884
 31
0.0
  0
LINE
  5
135
330
2
100
AcDbEntity
  8
0
 62
     3
100
AcDbLine
 10
39.27139862165995
 20
193.4095642233883
 30
0.0
 11
24.24993939425997
 21
193.4095642233883
 31
0.0
  0
LINE
  5
136
330
2
100
AcDbEntity
  8
0
 62
     3
100
AcDbLine
 10
39.27139862165995
 20
201.4210015043884
 30
0.0
 11
24.24993939425997
 21
201.4210015043884
 31
0.0
  0
LINE
  5
137
330
2
100
AcDbEntity
  8
0
 62
     3
100
AcDbLine
 10
39.27139862165995
 20
202.9231474270884
 30
0.0
 11
24.24993939425997
 21
202.9231474270884
 31
0.0
  0
LINE
  5
138
330
2
100
AcDbEntity
  8
0
  6
PHANTOM
 62
     3
100
AcDbLine
 10
19.14262950436
 20
259.0032542359883
 30
0.0
 11
54.69342398295998
 21
259.0032542359883
 31
0.0
  0
LINE
  5
139
330
2
100
AcDbEntity
  8
0
 62
     3
100
AcDbLine
 10
32.66194280906001
 20
240.3766539623884
 30
0.0
 11
32.66194280906001
 21
236.7715129160884
 31
0.0
  0
CIRCLE
  5
13A
330
2
100
AcDbEntity
  8
0
 62
     3
100
AcDbCircle
 10
29.25708482976
 20
238.5740834391884
 30
0.0
 40
1.852645587499999
  0
LINE
  5
13B
330
2
100
AcDbEntity
  8
0
 62
     3
100
AcDbLine
 10
27.69480814835998
 20
239.5698523219884
 30
0.0
 11
28.69060388255997
 21
238.5740651495883
 31
0.0
  0
LINE
  5
13C
330
2
100
AcDbEntity
  8
0
 62
     3
100
AcDbLine
 10
30.81936670535998
 20
239.5698599032884
 30
0.0
 11
29.82358860575999
 21
238.5740875113884
 31
0.0
  0
CIRCLE
  5
13D
330
2
100
AcDbEntity
  8
0
 62
     3
100
AcDbCircle
 10
29.25708482976
 20
238.5740834391884
 30
0.0
 40
3.404863709499998
  0
LINE
  5
13E
330
2
100
AcDbEntity
  8
0
 62
     3
100
AcDbLine
 10
28.72632837616004
 20
235.2108284215883
 30
0.0
 11
32.62033353996002
 21
239.1048394936884
 31
0.0
  0
LINE
  5
13F
330
2
100
AcDbEntity
  8
0
 62
     3
100
AcDbLine
 10
32.36151820865996
 20
215.2407394094884
 30
0.0
 11
32.36151820865996
 21
213.9388765535884
 31
0.0
  0
LINE
  5
140
330
2
100
AcDbEntity
  8
0
 62
     3
100
AcDbLine
 10
27.25423123975997
 20
220.4481908327883
 30
0.0
 11
27.25423123975997
 21
212.4367306308883
 31
0.0
  0
LINE
  5
141
330
2
100
AcDbEntity
  8
0
 62
     3
100
AcDbLine
 10
31.15979688625998
 20
213.9388765535884
 30
0.0
 11
31.15979688625998
 21
215.2407394094884
 31
0.0
  0
LINE
  5
142
330
2
100
AcDbEntity
  8
0
 62
     3
100
AcDbLine
 10
26.25279298425994
 20
220.4481908327883
 30
0.0
 11
26.25279298425994
 21
212.4367306308883
 31
0.0
  0
CIRCLE
  5
143
330
2
100
AcDbEntity
  8
0
 62
     3
100
AcDbCircle
 10
31.76066900796001
 20
216.4424607318883
 30
0.0
 40
3.5050066756
  0
ARC
  5
144
330
2
100
AcDbEntity
  8
0
 62
     3
100
AcDbCircle
 10
30.55894768555998
 20
198.6169927257884
 30
0.0
 40
0.6008583332999999
100
AcDbArc
 50
270.0000179861
 51
0.0
  0
ARC
  5
145
330
2
100
AcDbEntity
  8
0
 62
     3
100
AcDbCircle
 10
30.55894768555998
 20
196.2135730019884
 30
0.0
 40
0.6008583332999999
100
AcDbArc
 50
0.0
 51
89.99998201389999
  0
CIRCLE
  5
146
330
2
100
AcDbEntity
  8
0
 62
     3
100
AcDbCircle
 10
31.76066900796001
 20
197.4152714033884
 30
0.0
 40
3.5050066756
  0
LINE
  5
147
330
2
100
AcDbEntity
  8
0
  6
CENTER
 62
     3
100
AcDbLine
 10
35.61617534825995
 20
197.4152714033884
 30
0.0
 11
27.90516266765996
 21
197.4152714033884
 31
0.0
  0
LINE
  5
148
330
2
100
AcDbEntity
  8
0
 62
     3
100
AcDbLine
 10
26.25279298425994
 20
201.4210015043884
 30
0.0
 11
26.25279298425994
 21
193.4095642233883
 31
0.0
  0
LINE
  5
149
330
2
100
AcDbEntity
  8
0
 62
     3
100
AcDbLine
 10
27.25423123975997
 20
201.4210015043884
 30
0.0
 11
27.25423123975997
 21
193.4095642233883
 31
0.0
  0
LINE
  5
14A
330
2
100
AcDbEntity
  8
0
 62
     3
100
AcDbLine
 10
28.40176748886
 20
196.4138560688884
 30
0.0
 11
27.25423123975997
 21
196.4138560688884
 31
0.0
  0
LINE
  5
14B
330
2
100
AcDbEntity
  8
0
 62
     3
100
AcDbLine
 10
27.76873747335997
 20
195.4405435790883
 30
0.0
 11
28.99885239485996
 21
193.8651346769884
 31
0.0
  0
LINE
  5
14C
330
2
100
AcDbEntity
  8
0
 62
     3
100
AcDbLine
 10
30.75923075245998
 20
194.0563698842884
 30
0.0
 11
30.75923075245998
 21
193.4095642233883
 31
0.0
  0
LINE
  5
14D
330
2
100
AcDbEntity
  8
0
 62
     3
100
AcDbLine
 10
30.75923075245998
 20
191.9074183005884
 30
0.0
 11
30.75923075245998
 21
191.2605897187884
 31
0.0
  0
LINE
  5
14E
330
2
100
AcDbEntity
  8
0
 62
     3
100
AcDbLine
 10
28.40176748886
 20
198.4167096588883
 30
0.0
 11
27.25423123975997
 21
198.4167096588883
 31
0.0
  0
LINE
  5
14F
330
2
100
AcDbEntity
  8
0
 62
     3
100
AcDbLine
 10
29.14991911075998
 20
200.9220772926884
 30
0.0
 11
27.81189375175995
 21
199.9077702628884
 31
0.0
  0
LINE
  5
150
330
2
100
AcDbEntity
  8
0
 62
     3
100
AcDbLine
 10
30.55894768555998
 20
196.8144222026884
 30
0.0
 11
29.25708482976
 21
196.8144222026884
 31
0.0
  0
LINE
  5
151
330
2
100
AcDbEntity
  8
0
 62
     3
100
AcDbLine
 10
29.25708482976
 20
198.0161435250884
 30
0.0
 11
30.55894768555998
 21
198.0161435250884
 31
0.0
  0
LINE
  5
152
330
2
100
AcDbEntity
  8
0
 62
     3
100
AcDbLine
 10
29.25708482976
 20
196.8144222026884
 30
0.0
 11
29.25708482976
 21
198.0161435250884
 31
0.0
  0
LINE
  5
153
330
2
100
AcDbEntity
  8
0
 62
     3
100
AcDbLine
 10
30.75923075245998
 20
201.4210015043884
 30
0.0
 11
30.75923075245998
 21
200.7741729224882
 31
0.0
  0
ARC
  5
154
330
2
100
AcDbEntity
  8
0
 62
     3
100
AcDbCircle
 10
32.96236740945994
 20
196.2135730019884
 30
0.0
 40
0.6008583332999999
100
AcDbArc
 50
89.99998201389999
 51
179.9999640277999
  0
LINE
  5
155
330
2
100
AcDbEntity
  8
0
 62
     3
100
AcDbLine
 10
32.36151820865996
 20
196.2135730019884
 30
0.0
 11
32.36151820865996
 21
194.9117101460884
 31
0.0
  0
LINE
  5
156
330
2
100
AcDbEntity
  8
0
 62
     3
100
AcDbLine
 10
32.76208434246001
 20
194.0563698842884
 30
0.0
 11
32.76208434246001
 21
193.4095642233883
 31
0.0
  0
LINE
  5
157
330
2
100
AcDbEntity
  8
0
 62
     3
100
AcDbLine
 10
32.76208434246001
 20
191.9074183005884
 30
0.0
 11
32.76208434246001
 21
191.2605897187884
 31
0.0
  0
LINE
  5
158
330
2
100
AcDbEntity
  8
0
 62
     3
100
AcDbLine
 10
31.15979688625998
 20
194.9117101460884
 30
0.0
 11
31.15979688625998
 21
196.2135730019884
 31
0.0
  0
LINE
  5
159
330
2
100
AcDbEntity
  8
0
 62
     3
100
AcDbLine
 10
32.36151820865996
 20
194.9117101460884
 30
0.0
 11
31.15979688625998
 21
194.9117101460884
 31
0.0
  0
LINE
  5
15A
330
2
100
AcDbEntity
  8
0
 62
     3
100
AcDbLine
 10
35.75365983635999
 20
195.0736568545884
 30
0.0
 11
34.32932132906
 21
193.8651251370884
 31
0.0
  0
LINE
  5
15B
330
2
100
AcDbEntity
  8
0
 62
     3
100
AcDbLine
 10
32.96236740945994
 20
198.0161435250884
 30
0.0
 11
34.26423026526004
 21
198.0161435250884
 31
0.0
  0
LINE
  5
15C
330
2
100
AcDbEntity
  8
0
 62
     3
100
AcDbLine
 10
34.26423026526004
 20
196.8144222026884
 30
0.0
 11
32.96236740945994
 21
196.8144222026884
 31
0.0
  0
ARC
  5
15D
330
2
100
AcDbEntity
  8
0
 62
     3
100
AcDbCircle
 10
32.96236740945994
 20
198.6169927257884
 30
0.0
 40
0.6008583332999999
100
AcDbArc
 50
179.9999640277999
 51
270.0000006831999
  0
LINE
  5
15E
330
2
100
AcDbEntity
  8
0
 62
     3
100
AcDbLine
 10
32.36151820865996
 20
199.9188555815883
 30
0.0
 11
32.36151820865996
 21
198.6169927257884
 31
0.0
  0
LINE
  5
15F
330
2
100
AcDbEntity
  8
0
 62
     3
100
AcDbLine
 10
32.76208434246001
 20
201.4210015043884
 30
0.0
 11
32.76208434246001
 21
200.7741729224882
 31
0.0
  0
LINE
  5
160
330
2
100
AcDbEntity
  8
0
 62
     3
100
AcDbLine
 10
31.15979688625998
 20
198.6169927257884
 30
0.0
 11
31.15979688625998
 21
199.9188555815883
 31
0.0
  0
LINE
  5
161
330
2
100
AcDbEntity
  8
0
 62
     3
100
AcDbLine
 10
31.15979688625998
 20
199.9188555815883
 30
0.0
 11
32.36151820865996
 21
199.9188555815883
 31
0.0
  0
LINE
  5
162
330
2
100
AcDbEntity
  8
0
 62
     3
100
AcDbLine
 10
34.26423026526004
 20
198.0161435250884
 30
0.0
 11
34.26423026526004
 21
196.8144222026884
 31
0.0
  0
LINE
  5
163
330
2
100
AcDbEntity
  8
0
 62
     3
100
AcDbLine
 10
35.62415433035994
 20
199.6056419776884
 30
0.0
 11
34.19982775225998
 21
201.0299857247883
 31
0.0
  0
ARC
  5
164
330
2
100
AcDbEntity
  8
0
 62
     3
100
AcDbCircle
 10
30.55894768555998
 20
205.7271562056884
 30
0.0
 40
0.6008583332999999
100
AcDbArc
 50
0.0
 51
89.99998201389999
  0
ARC
  5
165
330
2
100
AcDbEntity
  8
0
 62
     3
100
AcDbCircle
 10
30.55894768555998
 20
208.1305759295884
 30
0.0
 40
0.6008583332999999
100
AcDbArc
 50
270.0000179861
 51
0.0
  0
LINE
  5
166
330
2
100
AcDbEntity
  8
0
  6
CENTER
 62
     3
100
AcDbLine
 10
35.61617534825995
 20
206.9288775280883
 30
0.0
 11
27.90516266765996
 21
206.9288775280883
 31
0.0
  0
CIRCLE
  5
167
330
2
100
AcDbEntity
  8
0
 62
     3
100
AcDbCircle
 10
31.76066900796001
 20
206.9288775280883
 30
0.0
 40
3.5050066756
  0
LINE
  5
168
330
2
100
AcDbEntity
  8
0
 62
     3
100
AcDbLine
 10
26.25279298425994
 20
210.9345847080883
 30
0.0
 11
26.25279298425994
 21
202.9231474270884
 31
0.0
  0
LINE
  5
169
330
2
100
AcDbEntity
  8
0
 62
     3
100
AcDbLine
 10
27.25423123975997
 20
210.9345847080883
 30
0.0
 11
27.25423123975997
 21
202.9231474270884
 31
0.0
  0
LINE
  5
16A
330
2
100
AcDbEntity
  8
0
 62
     3
100
AcDbLine
 10
28.40176748886
 20
205.9274392725883
 30
0.0
 11
27.25423123975997
 21
205.9274392725883
 31
0.0
  0
LINE
  5
16B
330
2
100
AcDbEntity
  8
0
 62
     3
100
AcDbLine
 10
28.40176748886
 20
207.9302928626884
 30
0.0
 11
27.25423123975997
 21
207.9302928626884
 31
0.0
  0
LINE
  5
16C
330
2
100
AcDbEntity
  8
0
 62
     3
100
AcDbLine
 10
27.75299655025998
 20
204.9383459095884
 30
0.0
 11
28.98309736545996
 21
203.3629550734882
 31
0.0
  0
LINE
  5
16D
330
2
100
AcDbEntity
  8
0
 62
     3
100
AcDbLine
 10
29.25708482976
 20
207.5297267287884
 30
0.0
 11
30.55894768555998
 21
207.5297267287884
 31
0.0
  0
LINE
  5
16E
330
2
100
AcDbEntity
  8
0
 62
     3
100
AcDbLine
 10
30.55894768555998
 20
206.3280054064883
 30
0.0
 11
29.25708482976
 21
206.3280054064883
 31
0.0
  0
LINE
  5
16F
330
2
100
AcDbEntity
  8
0
 62
     3
100
AcDbLine
 10
29.25708482976
 20
206.3280054064883
 30
0.0
 11
29.25708482976
 21
207.5297267287884
 31
0.0
  0
LINE
  5
170
330
2
100
AcDbEntity
  8
0
 62
     3
100
AcDbLine
 10
30.75923075245998
 20
203.5699760089883
 30
0.0
 11
30.75923075245998
 21
202.9231474270884
 31
0.0
  0
LINE
  5
171
330
2
100
AcDbEntity
  8
0
 62
     3
100
AcDbLine
 10
29.13416923206
 20
210.4198551321884
 30
0.0
 11
27.79616103805995
 21
209.4055633499884
 31
0.0
  0
LINE
  5
172
330
2
100
AcDbEntity
  8
0
 62
     3
100
AcDbLine
 10
27.83692994235997
 20
214.4746011476884
 30
0.0
 11
29.06703075755996
 21
212.8992103115884
 31
0.0
  0
LINE
  5
173
330
2
100
AcDbEntity
  8
0
 62
     3
100
AcDbLine
 10
30.75923075245998
 20
213.0835592126884
 30
0.0
 11
30.75923075245998
 21
212.4367306308883
 31
0.0
  0
LINE
  5
174
330
2
100
AcDbEntity
  8
0
 62
     3
100
AcDbLine
 10
30.75923075245998
 20
210.9345847080883
 30
0.0
 11
30.75923075245998
 21
210.2877790471884
 31
0.0
  0
LINE
  5
175
330
2
100
AcDbEntity
  8
0
 62
     3
100
AcDbLine
 10
31.15979688625998
 20
208.1305759295884
 30
0.0
 11
31.15979688625998
 21
209.4324387853883
 31
0.0
  0
LINE
  5
176
330
2
100
AcDbEntity
  8
0
 62
     3
100
AcDbLine
 10
32.36151820865996
 20
209.4324387853883
 30
0.0
 11
32.36151820865996
 21
208.1305759295884
 31
0.0
  0
LINE
  5
177
330
2
100
AcDbEntity
  8
0
 62
     3
100
AcDbLine
 10
32.96236740945994
 20
207.5297267287884
 30
0.0
 11
34.26423026526004
 21
207.5297267287884
 31
0.0
  0
LINE
  5
178
330
2
100
AcDbEntity
  8
0
 62
     3
100
AcDbLine
 10
34.26423026526004
 20
206.3280054064883
 30
0.0
 11
32.96236740945994
 21
206.3280054064883
 31
0.0
  0
ARC
  5
179
330
2
100
AcDbEntity
  8
0
 62
     3
100
AcDbCircle
 10
32.96236740945994
 20
208.1305759295884
 30
0.0
 40
0.6008583332999999
100
AcDbArc
 50
179.9999640277999
 51
270.0000006831999
  0
ARC
  5
17A
330
2
100
AcDbEntity
  8
0
 62
     3
100
AcDbCircle
 10
32.96236740945994
 20
205.7271562056884
 30
0.0
 40
0.6008583332999999
100
AcDbArc
 50
89.99998201389999
 51
179.9999640277999
  0
LINE
  5
17B
330
2
100
AcDbEntity
  8
0
 62
     3
100
AcDbLine
 10
32.36151820865996
 20
205.7271562056884
 30
0.0
 11
32.36151820865996
 21
204.4252933498884
 31
0.0
  0
LINE
  5
17C
330
2
100
AcDbEntity
  8
0
 62
     3
100
AcDbLine
 10
31.76066900796001
 20
206.9288775280883
 30
0.0
 11
31.76825583505996
 21
206.9288775280883
 31
0.0
  0
LINE
  5
17D
330
2
100
AcDbEntity
  8
0
 62
     3
100
AcDbLine
 10
32.76208434246001
 20
203.5699760089883
 30
0.0
 11
32.76208434246001
 21
202.9231474270884
 31
0.0
  0
LINE
  5
17E
330
2
100
AcDbEntity
  8
0
 62
     3
100
AcDbLine
 10
31.15979688625998
 20
204.4252933498884
 30
0.0
 11
31.15979688625998
 21
205.7271562056884
 31
0.0
  0
LINE
  5
17F
330
2
100
AcDbEntity
  8
0
 62
     3
100
AcDbLine
 10
32.36151820865996
 20
204.4252933498884
 30
0.0
 11
31.15979688625998
 21
204.4252933498884
 31
0.0
  0
LINE
  5
180
330
2
100
AcDbEntity
  8
0
 62
     3
100
AcDbLine
 10
35.73789775436
 20
204.5714738753884
 30
0.0
 11
34.31355924715996
 21
203.3629421578884
 31
0.0
  0
LINE
  5
181
330
2
100
AcDbEntity
  8
0
 62
     3
100
AcDbLine
 10
34.26423026526004
 20
207.5297267287884
 30
0.0
 11
34.26423026526004
 21
206.3280054064883
 31
0.0
  0
LINE
  5
182
330
2
100
AcDbEntity
  8
0
 62
     3
100
AcDbLine
 10
32.76208434246001
 20
213.0835592126884
 30
0.0
 11
32.76208434246001
 21
212.4367306308883
 31
0.0
  0
LINE
  5
183
330
2
100
AcDbEntity
  8
0
 62
     3
100
AcDbLine
 10
32.76208434246001
 20
210.9345847080883
 30
0.0
 11
32.76208434246001
 21
210.2877790471884
 31
0.0
  0
LINE
  5
184
330
2
100
AcDbEntity
  8
0
 62
     3
100
AcDbLine
 10
32.36151820865996
 20
213.9388765535884
 30
0.0
 11
31.15979688625998
 21
213.9388765535884
 31
0.0
  0
LINE
  5
185
330
2
100
AcDbEntity
  8
0
 62
     3
100
AcDbLine
 10
31.15979688625998
 20
209.4324387853883
 30
0.0
 11
32.36151820865996
 21
209.4324387853883
 31
0.0
  0
LINE
  5
186
330
2
100
AcDbEntity
  8
0
 62
     3
100
AcDbLine
 10
35.82184906726002
 20
214.1077243490884
 30
0.0
 11
34.39751056006002
 21
212.8991926315883
 31
0.0
  0
LINE
  5
187
330
2
100
AcDbEntity
  8
0
 62
     3
100
AcDbLine
 10
35.60842067056
 20
209.1034527346883
 30
0.0
 11
34.18408268645999
 21
210.5277849556883
 31
0.0
  0
LINE
  5
188
330
2
100
AcDbEntity
  8
0
 62
     3
100
AcDbLine
 10
24.24993939425997
 20
235.1692025389884
 30
0.0
 11
31.05965535285998
 21
235.1692025389884
 31
0.0
  0
ARC
  5
189
330
2
100
AcDbEntity
  8
0
 62
     3
100
AcDbCircle
 10
32.96236740945994
 20
227.1577652579883
 30
0.0
 40
0.6008583332999999
100
AcDbArc
 50
179.9999640277999
 51
270.0000006831999
  0
LINE
  5
18A
330
2
100
AcDbEntity
  8
0
 62
     3
100
AcDbLine
 10
27.25423123975997
 20
229.9617740365884
 30
0.0
 11
27.25423123975997
 21
221.9503367555883
 31
0.0
  0
ARC
  5
18B
330
2
100
AcDbEntity
  8
0
 62
     3
100
AcDbCircle
 10
30.55894768555998
 20
227.1577652579883
 30
0.0
 40
0.6008583332999999
100
AcDbArc
 50
270.0000179861
 51
0.0
  0
LINE
  5
18C
330
2
100
AcDbEntity
  8
0
 62
     3
100
AcDbLine
 10
26.25279298425994
 20
229.9617740365884
 30
0.0
 11
26.25279298425994
 21
221.9503367555883
 31
0.0
  0
CIRCLE
  5
18D
330
2
100
AcDbEntity
  8
0
 62
     3
100
AcDbCircle
 10
31.76066900796001
 20
225.9560439355884
 30
0.0
 40
3.5050066756
  0
ARC
  5
18E
330
2
100
AcDbEntity
  8
0
 62
     3
100
AcDbCircle
 10
30.55894768555998
 20
224.7543455341884
 30
0.0
 40
0.6008583332999999
100
AcDbArc
 50
0.0
 51
89.99998201389999
  0
ARC
  5
18F
330
2
100
AcDbEntity
  8
0
 62
     3
100
AcDbCircle
 10
30.55894768555998
 20
215.2407394094884
 30
0.0
 40
0.6008583332999999
100
AcDbArc
 50
0.0
 51
89.99998201389999
  0
ARC
  5
190
330
2
100
AcDbEntity
  8
0
 62
     3
100
AcDbCircle
 10
30.55894768555998
 20
217.6441820541884
 30
0.0
 40
0.6008583332999999
100
AcDbArc
 50
270.0000179861
 51
0.0
  0
LINE
  5
191
330
2
100
AcDbEntity
  8
0
  6
CENTER
 62
     3
100
AcDbLine
 10
35.61617534825995
 20
216.4424607318883
 30
0.0
 11
27.90516266765996
 21
216.4424607318883
 31
0.0
  0
LINE
  5
192
330
2
100
AcDbEntity
  8
0
  6
CENTER
 62
     3
100
AcDbLine
 10
35.61617534825995
 20
225.9560668564883
 30
0.0
 11
27.90516266765996
 21
225.9560668564883
 31
0.0
  0
LINE
  5
193
330
2
100
AcDbEntity
  8
0
 62
     3
100
AcDbLine
 10
28.40176748886
 20
217.4438989872883
 30
0.0
 11
27.25423123975997
 21
217.4438989872883
 31
0.0
  0
LINE
  5
194
330
2
100
AcDbEntity
  8
0
 62
     3
100
AcDbLine
 10
28.40176748886
 20
215.4410224763883
 30
0.0
 11
27.25423123975997
 21
215.4410224763883
 31
0.0
  0
LINE
  5
195
330
2
100
AcDbEntity
  8
0
 62
     3
100
AcDbLine
 10
29.21808503756
 20
219.9561437898884
 30
0.0
 11
27.88007794436003
 21
218.9418506065883
 31
0.0
  0
LINE
  5
196
330
2
100
AcDbEntity
  8
0
 62
     3
100
AcDbLine
 10
30.55894768555998
 20
215.8416115310884
 30
0.0
 11
29.25708482976
 21
215.8416115310884
 31
0.0
  0
LINE
  5
197
330
2
100
AcDbEntity
  8
0
 62
     3
100
AcDbLine
 10
29.25708482976
 20
217.0433099325884
 30
0.0
 11
30.55894768555998
 21
217.0433099325884
 31
0.0
  0
LINE
  5
198
330
2
100
AcDbEntity
  8
0
 62
     3
100
AcDbLine
 10
29.25708482976
 20
215.8416115310884
 30
0.0
 11
29.25708482976
 21
217.0433099325884
 31
0.0
  0
LINE
  5
199
330
2
100
AcDbEntity
  8
0
 62
     3
100
AcDbLine
 10
30.75923075245998
 20
220.4481908327883
 30
0.0
 11
30.75923075245998
 21
219.8013622509883
 31
0.0
  0
LINE
  5
19A
330
2
100
AcDbEntity
  8
0
 62
     3
100
AcDbLine
 10
28.40176748886
 20
224.9546286010884
 30
0.0
 11
27.25423123975997
 21
224.9546286010884
 31
0.0
  0
LINE
  5
19B
330
2
100
AcDbEntity
  8
0
 62
     3
100
AcDbLine
 10
27.65502652276001
 20
224.0013401514884
 30
0.0
 11
28.88513965715998
 21
222.4259298196884
 31
0.0
  0
LINE
  5
19C
330
2
100
AcDbEntity
  8
0
 62
     3
100
AcDbLine
 10
29.25708482976
 20
226.5569160572883
 30
0.0
 11
30.55894768555998
 21
226.5569160572883
 31
0.0
  0
LINE
  5
19D
330
2
100
AcDbEntity
  8
0
 62
     3
100
AcDbLine
 10
30.55894768555998
 20
225.3551947348884
 30
0.0
 11
29.25708482976
 21
225.3551947348884
 31
0.0
  0
LINE
  5
19E
330
2
100
AcDbEntity
  8
0
 62
     3
100
AcDbLine
 10
29.25708482976
 20
225.3551947348884
 30
0.0
 11
29.25708482976
 21
226.5569160572883
 31
0.0
  0
LINE
  5
19F
330
2
100
AcDbEntity
  8
0
 62
     3
100
AcDbLine
 10
30.75923075245998
 20
222.5971424164884
 30
0.0
 11
30.75923075245998
 21
221.9503367555883
 31
0.0
  0
LINE
  5
1A0
330
2
100
AcDbEntity
  8
0
 62
     3
100
AcDbLine
 10
32.96236740945994
 20
217.0433099325884
 30
0.0
 11
34.26423026526004
 21
217.0433099325884
 31
0.0
  0
LINE
  5
1A1
330
2
100
AcDbEntity
  8
0
 62
     3
100
AcDbLine
 10
34.26423026526004
 20
215.8416115310884
 30
0.0
 11
32.96236740945994
 21
215.8416115310884
 31
0.0
  0
ARC
  5
1A2
330
2
100
AcDbEntity
  8
0
 62
     3
100
AcDbCircle
 10
32.96236740945994
 20
217.6441820541884
 30
0.0
 40
0.6008583332999999
100
AcDbArc
 50
179.9999640277999
 51
270.0000006831999
  0
ARC
  5
1A3
330
2
100
AcDbEntity
  8
0
 62
     3
100
AcDbCircle
 10
32.96236740945994
 20
215.2407394094884
 30
0.0
 40
0.6008583332999999
100
AcDbArc
 50
89.99998201389999
 51
179.9999640277999
  0
LINE
  5
1A4
330
2
100
AcDbEntity
  8
0
 62
     3
100
AcDbLine
 10
32.36151820865996
 20
218.9460449100884
 30
0.0
 11
32.36151820865996
 21
217.6441820541884
 31
0.0
  0
LINE
  5
1A5
330
2
100
AcDbEntity
  8
0
 62
     3
100
AcDbLine
 10
31.76066900796001
 20
216.4424607318883
 30
0.0
 11
31.77588850395995
 21
216.4424607318883
 31
0.0
  0
LINE
  5
1A6
330
2
100
AcDbEntity
  8
0
 62
     3
100
AcDbLine
 10
32.76208434246001
 20
220.4481908327883
 30
0.0
 11
32.76208434246001
 21
219.8013622509883
 31
0.0
  0
LINE
  5
1A7
330
2
100
AcDbEntity
  8
0
 62
     3
100
AcDbLine
 10
31.15979688625998
 20
217.6441820541884
 30
0.0
 11
31.15979688625998
 21
218.9460449100884
 31
0.0
  0
LINE
  5
1A8
330
2
100
AcDbEntity
  8
0
 62
     3
100
AcDbLine
 10
31.15979688625998
 20
218.9460449100884
 30
0.0
 11
32.36151820865996
 21
218.9460449100884
 31
0.0
  0
LINE
  5
1A9
330
2
100
AcDbEntity
  8
0
 62
     3
100
AcDbLine
 10
34.26423026526004
 20
217.0433099325884
 30
0.0
 11
34.26423026526004
 21
215.8416115310884
 31
0.0
  0
LINE
  5
1AA
330
2
100
AcDbEntity
  8
0
 62
     3
100
AcDbLine
 10
35.69235694046
 20
218.6397000474883
 30
0.0
 11
34.26801415486
 21
220.0640600021884
 31
0.0
  0
LINE
  5
1AB
330
2
100
AcDbEntity
  8
0
 62
     3
100
AcDbLine
 10
32.96236740945994
 20
226.5569160572883
 30
0.0
 11
34.26423026526004
 21
226.5569160572883
 31
0.0
  0
LINE
  5
1AC
330
2
100
AcDbEntity
  8
0
 62
     3
100
AcDbLine
 10
34.26423026526004
 20
225.3551947348884
 30
0.0
 11
32.96236740945994
 21
225.3551947348884
 31
0.0
  0
ARC
  5
1AD
330
2
100
AcDbEntity
  8
0
 62
     3
100
AcDbCircle
 10
32.96236740945994
 20
224.7543455341884
 30
0.0
 40
0.6008583332999999
100
AcDbArc
 50
89.99998201389999
 51
179.9999640277999
  0
LINE
  5
1AE
330
2
100
AcDbEntity
  8
0
 62
     3
100
AcDbLine
 10
32.36151820865996
 20
224.7543455341884
 30
0.0
 11
32.36151820865996
 21
223.4524826782884
 31
0.0
  0
LINE
  5
1AF
330
2
100
AcDbEntity
  8
0
 62
     3
100
AcDbLine
 10
32.76208434246001
 20
222.5971424164884
 30
0.0
 11
32.76208434246001
 21
221.9503367555883
 31
0.0
  0
LINE
  5
1B0
330
2
100
AcDbEntity
  8
0
 62
     3
100
AcDbLine
 10
31.15979688625998
 20
223.4524826782884
 30
0.0
 11
31.15979688625998
 21
224.7543455341884
 31
0.0
  0
LINE
  5
1B1
330
2
100
AcDbEntity
  8
0
 62
     3
100
AcDbLine
 10
32.36151820865996
 20
223.4524826782884
 30
0.0
 11
31.15979688625998
 21
223.4524826782884
 31
0.0
  0
LINE
  5
1B2
330
2
100
AcDbEntity
  8
0
 62
     3
100
AcDbLine
 10
34.26423026526004
 20
226.5569160572883
 30
0.0
 11
34.26423026526004
 21
225.3551947348884
 31
0.0
  0
LINE
  5
1B3
330
2
100
AcDbEntity
  8
0
 62
     3
100
AcDbLine
 10
35.63992808675993
 20
223.6344619322883
 30
0.0
 11
34.21559570035998
 21
222.4259582932884
 31
0.0
  0
LINE
  5
1B4
330
2
100
AcDbEntity
  8
0
 62
     3
100
AcDbLine
 10
28.40176748886
 20
226.9574821910884
 30
0.0
 11
27.25423123975997
 21
226.9574821910884
 31
0.0
  0
LINE
  5
1B5
330
2
100
AcDbEntity
  8
0
 62
     3
100
AcDbLine
 10
29.03618649795999
 20
229.4828581667884
 30
0.0
 11
27.69817940475997
 21
228.4685649834883
 31
0.0
  0
LINE
  5
1B6
330
2
100
AcDbEntity
  8
0
 62
     3
100
AcDbLine
 10
30.75923075245998
 20
229.3149454546884
 30
0.0
 11
30.75923075245998
 21
229.9617740365884
 31
0.0
  0
LINE
  5
1B7
330
2
100
AcDbEntity
  8
0
 62
     3
100
AcDbLine
 10
28.69060823385996
 20
238.5740972977884
 30
0.0
 11
27.69922949425995
 21
237.5827099507884
 31
0.0
  0
LINE
  5
1B8
330
2
100
AcDbEntity
  8
0
 62
     3
100
AcDbLine
 10
29.25709676626002
 20
238.0076136836883
 30
0.0
 11
28.26571802675994
 21
237.0162263366884
 31
0.0
  0
LINE
  5
1B9
330
2
100
AcDbEntity
  8
0
 62
     3
100
AcDbLine
 10
29.82359848955997
 20
238.5740906467884
 30
0.0
 11
30.81938138105994
 21
237.5782905478883
 31
0.0
  0
LINE
  5
1BA
330
2
100
AcDbEntity
  8
0
 62
     3
100
AcDbLine
 10
30.25289041325999
 20
237.0118093690884
 30
0.0
 11
29.25710752175996
 21
238.0076094680884
 31
0.0
  0
LINE
  5
1BB
330
2
100
AcDbEntity
  8
0
 62
     3
100
AcDbLine
 10
32.36151820865996
 20
228.4596281137884
 30
0.0
 11
32.36151820865996
 21
227.1577652579883
 31
0.0
  0
LINE
  5
1BC
330
2
100
AcDbEntity
  8
0
 62
     3
100
AcDbLine
 10
32.76208434246001
 20
229.9617740365884
 30
0.0
 11
32.76208434246001
 21
229.3149454546884
 31
0.0
  0
LINE
  5
1BD
330
2
100
AcDbEntity
  8
0
 62
     3
100
AcDbLine
 10
31.15979688625998
 20
227.1577652579883
 30
0.0
 11
31.15979688625998
 21
228.4596281137884
 31
0.0
  0
LINE
  5
1BE
330
2
100
AcDbEntity
  8
0
 62
     3
100
AcDbLine
 10
31.15979688625998
 20
228.4596281137884
 30
0.0
 11
32.36151820865996
 21
228.4596281137884
 31
0.0
  0
LINE
  5
1BF
330
2
100
AcDbEntity
  8
0
 62
     3
100
AcDbLine
 10
35.51044215865999
 20
228.1664390489884
 30
0.0
 11
34.08610129316002
 21
229.5907683885884
 31
0.0
  0
LINE
  5
1C0
330
2
100
AcDbEntity
  8
0
 62
     3
100
AcDbLine
 10
31.05967373726002
 20
235.1692133467884
 30
0.0
 11
32.66195915496001
 21
236.7715159175884
 31
0.0
  0
LINE
  5
1C1
330
2
100
AcDbEntity
  8
0
 62
     3
100
AcDbLine
 10
24.24993939425997
 20
257.5011083132884
 30
0.0
 11
26.95378371845999
 21
257.5011083132884
 31
0.0
  0
LINE
  5
1C2
330
2
100
AcDbEntity
  8
0
 62
     3
100
AcDbLine
 10
26.95378371845999
 20
255.9989623904884
 30
0.0
 11
24.24993939425997
 21
255.9989623904884
 31
0.0
  0
LINE
  5
1C3
330
2
100
AcDbEntity
  8
0
 62
     3
100
AcDbLine
 10
24.24993939425997
 20
241.9789414185884
 30
0.0
 11
31.05965535285998
 21
241.9789414185884
 31
0.0
  0
LINE
  5
1C4
330
2
100
AcDbEntity
  8
0
 62
     3
100
AcDbLine
 10
22.64765193805999
 20
255.9989623904884
 30
0.0
 11
19.14262950436
 21
255.9989623904884
 31
0.0
  0
LINE
  5
1C5
330
2
100
AcDbEntity
  8
0
 62
     3
100
AcDbLine
 10
19.14262950436
 20
257.5011083132884
 30
0.0
 11
22.64765193805999
 21
257.5011083132884
 31
0.0
  0
ARC
  5
1C6
330
2
100
AcDbEntity
  8
0
 62
     3
100
AcDbCircle
 10
19.14262950436
 20
255.9989623904884
 30
0.0
 40
1.5021459227
100
AcDbArc
 50
89.99998201389999
 51
179.9999640277999
  0
LINE
  5
1C7
330
2
100
AcDbEntity
  8
0
 62
     3
100
AcDbLine
 10
17.64048358155997
 20
259.0032542359883
 30
0.0
 11
19.14262950436
 21
259.0032542359883
 31
0.0
  0
LINE
  5
1C8
330
2
100
AcDbEntity
  8
0
 62
     3
100
AcDbLine
 10
19.14262950436
 20
259.0032542359883
 30
0.0
 11
19.14262950436
 21
257.5011083132884
 31
0.0
  0
LINE
  5
1C9
330
2
100
AcDbEntity
  8
0
 62
     3
100
AcDbLine
 10
24.45022246115996
 20
257.5011083132884
 30
0.0
 11
24.45022246115996
 21
255.9989623904884
 31
0.0
  0
LINE
  5
1CA
330
2
100
AcDbEntity
  8
0
 62
     3
100
AcDbLine
 10
24.24993939425997
 20
258.0018389014884
 30
0.0
 11
22.64765193805999
 21
258.0018389014884
 31
0.0
  0
LINE
  5
1CB
330
2
100
AcDbEntity
  8
0
 62
     3
100
AcDbLine
 10
24.24993939425997
 20
258.5025465687883
 30
0.0
 11
22.74779347146
 21
258.5025465687883
 31
0.0
  0
LINE
  5
1CC
330
2
100
AcDbEntity
  8
0
 62
     3
100
AcDbLine
 10
22.74779347146
 20
258.5025465687883
 30
0.0
 11
22.74779347146
 21
258.0018389014884
 31
0.0
  0
LINE
  5
1CD
330
2
100
AcDbEntity
  8
0
 62
     3
100
AcDbLine
 10
28.26132417755997
 20
240.1363408067883
 30
0.0
 11
29.25710370406
 21
239.1405698418883
 31
0.0
  0
LINE
  5
1CE
330
2
100
AcDbEntity
  8
0
 62
     3
100
AcDbLine
 10
29.25708797235995
 20
239.1405589768883
 30
0.0
 11
30.25288227945998
 21
240.1363475761884
 31
0.0
  0
LINE
  5
1CF
330
2
100
AcDbEntity
  8
0
 62
     3
100
AcDbLine
 10
31.05967796535998
 20
241.9789247281884
 30
0.0
 11
32.66195852085997
 21
240.3766498452883
 31
0.0
  0
LINE
  5
1D0
330
2
100
AcDbEntity
  8
0
 62
     3
100
AcDbLine
 10
26.95378371845999
 20
257.5011083132884
 30
0.0
 11
26.95378371845999
 21
255.9989623904884
 31
0.0
  0
LINE
  5
1D4
330
2
100
AcDbEntity
  8
0
 62
     3
100
AcDbLine
 10
134.1780905760214
 20
241.9789414185884
 30
0.0
 11
117.3540608254214
 21
241.9789414185884
 31
0.0
  0
LINE
  5
1D5
330
2
100
AcDbEntity
  8
0
 62
     3
100
AcDbLine
 10
117.3540608254214
 20
251.9932552104882
 30
0.0
 11
134.1780905760214
 21
251.9932552104882
 31
0.0
  0
LINE
  5
1D6
330
2
100
AcDbEntity
  8
0
 62
     3
100
AcDbLine
 10
114.8504766472214
 20
237.4725036502883
 30
0.0
 11
134.3783736429214
 21
237.4725036502883
 31
0.0
  0
LINE
  5
1D7
330
2
100
AcDbEntity
  8
0
 62
     3
100
AcDbLine
 10
114.8504766472214
 20
258.5025465687883
 30
0.0
 11
134.3783736429214
 21
258.5025465687883
 31
0.0
  0
LINE
  5
1D8
330
2
100
AcDbEntity
  8
0
 62
     3
100
AcDbLine
 10
113.3483307244214
 20
235.9703577275884
 30
0.0
 11
138.3841037439214
 21
235.9703577275884
 31
0.0
  0
LINE
  5
1D9
330
2
100
AcDbEntity
  8
0
 62
     3
100
AcDbLine
 10
197.9692329865214
 20
259.0032542359883
 30
0.0
 11
78.7989745013214
 21
259.0032542359883
 31
0.0
  0
LINE
  5
1DA
330
2
100
AcDbEntity
  8
0
 62
     3
100
AcDbLine
 10
65.47994426342143
 20
229.9617740365884
 30
0.0
 11
81.10225269162141
 21
229.9617740365884
 31
0.0
  0
LINE
  5
1DB
330
2
100
AcDbEntity
  8
0
 62
     3
100
AcDbLine
 10
65.47994426342143
 20
231.9646276265883
 30
0.0
 11
83.10512920262141
 21
231.9646276265883
 31
0.0
  0
LINE
  5
1DC
330
2
100
AcDbEntity
  8
0
 62
     3
100
AcDbLine
 10
68.08366997512141
 20
210.9345847080883
 30
0.0
 11
81.10225269162141
 21
210.9345847080883
 31
0.0
  0
LINE
  5
1DD
330
2
100
AcDbEntity
  8
0
 62
     3
100
AcDbLine
 10
68.08366997512141
 20
212.4367306308883
 30
0.0
 11
81.10225269162141
 21
212.4367306308883
 31
0.0
  0
LINE
  5
1DE
330
2
100
AcDbEntity
  8
0
 62
     3
100
AcDbLine
 10
68.08366997512141
 20
220.4481908327883
 30
0.0
 11
81.10225269162141
 21
220.4481908327883
 31
0.0
  0
LINE
  5
1DF
330
2
100
AcDbEntity
  8
0
 62
     3
100
AcDbLine
 10
68.08366997512141
 20
221.9503367555883
 30
0.0
 11
81.10225269162141
 21
221.9503367555883
 31
0.0
  0
LINE
  5
1E0
330
2
100
AcDbEntity
  8
0
 62
     3
100
AcDbLine
 10
68.08366997512141
 20
191.9074183005884
 30
0.0
 11
81.10225269162141
 21
191.9074183005884
 31
0.0
  0
LINE
  5
1E1
330
2
100
AcDbEntity
  8
0
 62
     3
100
AcDbLine
 10
68.08366997512141
 20
193.4095642233883
 30
0.0
 11
81.10225269162141
 21
193.4095642233883
 31
0.0
  0
LINE
  5
1E2
330
2
100
AcDbEntity
  8
0
 62
     3
100
AcDbLine
 10
68.08366997512141
 20
201.4210015043884
 30
0.0
 11
81.10225269162141
 21
201.4210015043884
 31
0.0
  0
LINE
  5
1E3
330
2
100
AcDbEntity
  8
0
 62
     3
100
AcDbLine
 10
68.08366997512141
 20
202.9231474270884
 30
0.0
 11
81.10225269162141
 21
202.9231474270884
 31
0.0
  0
LINE
  5
1E4
330
2
100
AcDbEntity
  8
0
 62
     3
100
AcDbLine
 10
37.26852211075998
 20
220.4481908327883
 30
0.0
 11
37.26852211075998
 21
212.4367306308883
 31
0.0
  0
LINE
  5
1E5
330
2
100
AcDbEntity
  8
0
 62
     3
100
AcDbLine
 10
36.26710677616
 20
212.4367306308883
 30
0.0
 11
36.26710677616
 21
220.4481908327883
 31
0.0
  0
LINE
  5
1E6
330
2
100
AcDbEntity
  8
0
 62
     3
100
AcDbLine
 10
36.26710677616
 20
193.4095642233883
 30
0.0
 11
36.26710677616
 21
201.4210015043884
 31
0.0
  0
LINE
  5
1E7
330
2
100
AcDbEntity
  8
0
 62
     3
100
AcDbLine
 10
37.26852211075998
 20
201.4210015043884
 30
0.0
 11
37.26852211075998
 21
193.4095642233883
 31
0.0
  0
LINE
  5
1E8
330
2
100
AcDbEntity
  8
0
 62
     3
100
AcDbLine
 10
36.26710677616
 20
202.9231474270884
 30
0.0
 11
36.26710677616
 21
210.9345847080883
 31
0.0
  0
LINE
  5
1E9
330
2
100
AcDbEntity
  8
0
 62
     3
100
AcDbLine
 10
37.26852211075998
 20
210.9345847080883
 30
0.0
 11
37.26852211075998
 21
202.9231474270884
 31
0.0
  0
LINE
  5
1EA
330
2
100
AcDbEntity
  8
0
 62
     3
100
AcDbLine
 10
37.26852211075998
 20
229.9617740365884
 30
0.0
 11
37.26852211075998
 21
221.9503367555883
 31
0.0
  0
LINE
  5
1EB
330
2
100
AcDbEntity
  8
0
 62
     3
100
AcDbLine
 10
36.26710677616
 20
221.9503367555883
 30
0.0
 11
36.26710677616
 21
229.9617740365884
 31
0.0
  0
LINE
  5
1EC
330
2
100
AcDbEntity
  8
0
 62
     3
100
AcDbLine
 10
73.09081541062139
 20
212.4367306308883
 30
0.0
 11
73.09081541062139
 21
220.4481908327883
 31
0.0
  0
LINE
  5
1ED
330
2
100
AcDbEntity
  8
0
 62
     3
100
AcDbLine
 10
77.09654551162145
 20
212.4367306308883
 30
0.0
 11
77.09654551162145
 21
220.4481908327883
 31
0.0
  0
LINE
  5
1EE
330
2
100
AcDbEntity
  8
0
 62
     3
100
AcDbLine
 10
76.09510725612143
 20
220.4481908327883
 30
0.0
 11
76.09510725612143
 21
212.4367306308883
 31
0.0
  0
LINE
  5
1EF
330
2
100
AcDbEntity
  8
0
 62
     3
100
AcDbLine
 10
75.09366900072141
 20
212.4367306308883
 30
0.0
 11
75.09366900072141
 21
220.4481908327883
 31
0.0
  0
LINE
  5
1F0
330
2
100
AcDbEntity
  8
0
 62
     3
100
AcDbLine
 10
72.08937715522143
 20
219.9474602445884
 30
0.0
 11
72.08937715522143
 21
212.9374612190883
 31
0.0
  0
ARC
  5
1F1
330
2
100
AcDbEntity
  8
0
 62
     3
100
AcDbCircle
 10
74.15482779892141
 20
216.4424607318883
 30
0.0
 40
4.0683113966
100
AcDbArc
 50
120.5102184703
 51
239.4897642269
  0
LINE
  5
1F2
330
2
100
AcDbEntity
  8
0
 62
     3
100
AcDbLine
 10
68.08366997512141
 20
201.4210015043884
 30
0.0
 11
68.08366997512141
 21
202.9231474270884
 31
0.0
  0
ARC
  5
1F3
330
2
100
AcDbEntity
  8
0
 62
     3
100
AcDbCircle
 10
74.15482779892141
 20
197.4152714033884
 30
0.0
 40
4.0683113966
100
AcDbArc
 50
120.5102184703
 51
239.4897642269
  0
LINE
  5
1F4
330
2
100
AcDbEntity
  8
0
 62
     3
100
AcDbLine
 10
68.08366997512141
 20
191.9074183005884
 30
0.0
 11
68.08366997512141
 21
193.4095642233883
 31
0.0
  0
LINE
  5
1F5
330
2
100
AcDbEntity
  8
0
 62
     3
100
AcDbLine
 10
71.08796182062139
 20
198.0161435250884
 30
0.0
 11
71.08796182062139
 21
196.8144222026884
 31
0.0
  0
LINE
  5
1F6
330
2
100
AcDbEntity
  8
0
 62
     3
100
AcDbLine
 10
70.13115061152141
 20
198.0161435250884
 30
0.0
 11
71.08796182062139
 21
198.0161435250884
 31
0.0
  0
LINE
  5
1F7
330
2
100
AcDbEntity
  8
0
 62
     3
100
AcDbLine
 10
71.08796182062139
 20
196.8144222026884
 30
0.0
 11
70.13115061152141
 21
196.8144222026884
 31
0.0
  0
LINE
  5
1F8
330
2
100
AcDbEntity
  8
0
 62
     3
100
AcDbLine
 10
75.09366900072141
 20
193.4095642233883
 30
0.0
 11
75.09366900072141
 21
201.4210015043884
 31
0.0
  0
LINE
  5
1F9
330
2
100
AcDbEntity
  8
0
 62
     3
100
AcDbLine
 10
77.09654551162145
 20
193.4095642233883
 30
0.0
 11
77.09654551162145
 21
201.4210015043884
 31
0.0
  0
LINE
  5
1FA
330
2
100
AcDbEntity
  8
0
 62
     3
100
AcDbLine
 10
76.09510725612143
 20
193.4095642233883
 30
0.0
 11
76.09510725612143
 21
201.4210015043884
 31
0.0
  0
LINE
  5
1FB
330
2
100
AcDbEntity
  8
0
 62
     3
100
AcDbLine
 10
73.09081541062139
 20
193.4095642233883
 30
0.0
 11
73.09081541062139
 21
201.4210015043884
 31
0.0
  0
LINE
  5
1FC
330
2
100
AcDbEntity
  8
0
 62
     3
100
AcDbLine
 10
72.08937715522143
 20
193.9102718906882
 30
0.0
 11
72.08937715522143
 21
200.9202938370884
 31
0.0
  0
LINE
  5
1FD
330
2
100
AcDbEntity
  8
0
 62
     3
100
AcDbLine
 10
72.08938657182142
 20
197.4152683761884
 30
0.0
 11
73.09082973042137
 21
196.4138481782883
 31
0.0
  0
LINE
  5
1FE
330
2
100
AcDbEntity
  8
0
 62
     3
100
AcDbLine
 10
74.59298170422139
 20
196.4138589009884
 30
0.0
 11
75.0936920417214
 21
196.0694471906884
 31
0.0
  0
LINE
  5
1FF
330
2
100
AcDbEntity
  8
0
 62
     3
100
AcDbLine
 10
74.59296133342139
 20
196.4138560688884
 30
0.0
 11
75.09366900072141
 21
196.4138560688884
 31
0.0
  0
LINE
  5
200
330
2
100
AcDbEntity
  8
0
 62
     3
100
AcDbLine
 10
73.09084112052142
 20
191.4066894914883
 30
0.0
 11
73.59154552152142
 21
191.9074168109883
 31
0.0
  0
LINE
  5
201
330
2
100
AcDbEntity
  8
0
 62
     3
100
AcDbLine
 10
73.09083661112143
 20
193.9102600749883
 30
0.0
 11
73.59153624272142
 21
193.4095604434883
 31
0.0
  0
LINE
  5
202
330
2
100
AcDbEntity
  8
0
 62
     3
100
AcDbLine
 10
72.08937715522143
 20
191.4066877123883
 30
0.0
 11
73.09081541062139
 21
191.4066877123883
 31
0.0
  0
LINE
  5
203
330
2
100
AcDbEntity
  8
0
 62
     3
100
AcDbLine
 10
72.08937715522143
 20
193.9102718906882
 30
0.0
 11
73.09081541062139
 21
193.9102718906882
 31
0.0
  0
LINE
  5
204
330
2
100
AcDbEntity
  8
0
 62
     3
100
AcDbLine
 10
75.09366900072141
 20
194.9117101460884
 30
0.0
 11
76.09510725612143
 21
194.9117101460884
 31
0.0
  0
LINE
  5
205
330
2
100
AcDbEntity
  8
0
 62
     3
100
AcDbLine
 10
74.59296133342139
 20
198.4167096588883
 30
0.0
 11
75.09366900072141
 21
198.4167096588883
 31
0.0
  0
LINE
  5
206
330
2
100
AcDbEntity
  8
0
 62
     3
100
AcDbLine
 10
74.59298412852141
 20
198.4167026272884
 30
0.0
 11
75.09368376012139
 21
198.9174022588883
 31
0.0
  0
LINE
  5
207
330
2
100
AcDbEntity
  8
0
 62
     3
100
AcDbLine
 10
73.09083661112143
 20
200.9202818229884
 30
0.0
 11
73.59153624272142
 21
201.4209814544884
 31
0.0
  0
LINE
  5
208
330
2
100
AcDbEntity
  8
0
 62
     3
100
AcDbLine
 10
72.08938872532141
 20
198.4166864196884
 30
0.0
 11
73.09082040362142
 21
197.4152547414884
 31
0.0
  0
LINE
  5
209
330
2
100
AcDbEntity
  8
0
 62
     3
100
AcDbLine
 10
72.08937715522143
 20
200.9202938370884
 30
0.0
 11
73.09081541062139
 21
200.9202938370884
 31
0.0
  0
LINE
  5
20A
330
2
100
AcDbEntity
  8
0
 62
     3
100
AcDbLine
 10
75.09366900072141
 20
199.9188555815883
 30
0.0
 11
76.09510725612143
 21
199.9188555815883
 31
0.0
  0
ARC
  5
20B
330
2
100
AcDbEntity
  8
0
 62
     3
100
AcDbCircle
 10
74.15482779892141
 20
206.9288775280883
 30
0.0
 40
4.0683113966
100
AcDbArc
 50
120.5102184703
 51
239.4897642269
  0
LINE
  5
20C
330
2
100
AcDbEntity
  8
0
 62
     3
100
AcDbLine
 10
71.08796182062139
 20
207.5297267287884
 30
0.0
 11
71.08796182062139
 21
206.3280054064883
 31
0.0
  0
LINE
  5
20D
330
2
100
AcDbEntity
  8
0
 62
     3
100
AcDbLine
 10
70.13115061152141
 20
207.5297267287884
 30
0.0
 11
71.08796182062139
 21
207.5297267287884
 31
0.0
  0
LINE
  5
20E
330
2
100
AcDbEntity
  8
0
 62
     3
100
AcDbLine
 10
71.08796182062139
 20
206.3280054064883
 30
0.0
 11
70.13115061152141
 21
206.3280054064883
 31
0.0
  0
LINE
  5
20F
330
2
100
AcDbEntity
  8
0
 62
     3
100
AcDbLine
 10
68.08366997512141
 20
210.9345847080883
 30
0.0
 11
68.08366997512141
 21
212.4367306308883
 31
0.0
  0
LINE
  5
210
330
2
100
AcDbEntity
  8
0
 62
     3
100
AcDbLine
 10
77.09654551162145
 20
202.9231474270884
 30
0.0
 11
77.09654551162145
 21
210.9345847080883
 31
0.0
  0
LINE
  5
211
330
2
100
AcDbEntity
  8
0
 62
     3
100
AcDbLine
 10
76.09510725612143
 20
210.9345847080883
 30
0.0
 11
76.09510725612143
 21
202.9231474270884
 31
0.0
  0
LINE
  5
212
330
2
100
AcDbEntity
  8
0
 62
     3
100
AcDbLine
 10
75.09366900072141
 20
202.9231474270884
 30
0.0
 11
75.09366900072141
 21
210.9345847080883
 31
0.0
  0
LINE
  5
213
330
2
100
AcDbEntity
  8
0
 62
     3
100
AcDbLine
 10
72.08937715522143
 20
210.4338770408884
 30
0.0
 11
72.08937715522143
 21
203.4238550943884
 31
0.0
  0
LINE
  5
214
330
2
100
AcDbEntity
  8
0
 62
     3
100
AcDbLine
 10
73.09081541062139
 20
202.9231474270884
 30
0.0
 11
73.09081541062139
 21
210.9345847080883
 31
0.0
  0
LINE
  5
215
330
2
100
AcDbEntity
  8
0
 62
     3
100
AcDbLine
 10
74.59296133342139
 20
207.9302928626884
 30
0.0
 11
75.09366900072141
 21
207.9302928626884
 31
0.0
  0
LINE
  5
216
330
2
100
AcDbEntity
  8
0
 62
     3
100
AcDbLine
 10
74.59298332052139
 20
207.9302986430884
 30
0.0
 11
75.0936877215214
 21
208.4310259625882
 31
0.0
  0
LINE
  5
217
330
2
100
AcDbEntity
  8
0
 62
     3
100
AcDbLine
 10
74.59296133342139
 20
205.9274392725883
 30
0.0
 11
75.09366900072141
 21
205.9274392725883
 31
0.0
  0
LINE
  5
218
330
2
100
AcDbEntity
  8
0
 62
     3
100
AcDbLine
 10
74.5929679210214
 20
205.9274240067884
 30
0.0
 11
75.09368376012139
 21
205.4267081675883
 31
0.0
  0
LINE
  5
219
330
2
100
AcDbEntity
  8
0
 62
     3
100
AcDbLine
 10
73.09082040362142
 20
203.4238448110884
 30
0.0
 11
73.59153624272142
 21
202.9231289719883
 31
0.0
  0
LINE
  5
21A
330
2
100
AcDbEntity
  8
0
 62
     3
100
AcDbLine
 10
72.08938872532141
 20
206.9288556849884
 30
0.0
 11
73.09082040362142
 21
205.9274240067884
 31
0.0
  0
LINE
  5
21B
330
2
100
AcDbEntity
  8
0
 62
     3
100
AcDbLine
 10
72.08937715522143
 20
203.4238550943884
 30
0.0
 11
73.09081541062139
 21
203.4238550943884
 31
0.0
  0
LINE
  5
21C
330
2
100
AcDbEntity
  8
0
 62
     3
100
AcDbLine
 10
72.08937948102141
 20
207.9302847917884
 30
0.0
 11
73.09082263962142
 21
206.9288645938883
 31
0.0
  0
LINE
  5
21D
330
2
100
AcDbEntity
  8
0
 62
     3
100
AcDbLine
 10
75.09366900072141
 20
204.4252933498884
 30
0.0
 11
76.09510725612143
 21
204.4252933498884
 31
0.0
  0
LINE
  5
21E
330
2
100
AcDbEntity
  8
0
 62
     3
100
AcDbLine
 10
73.09082040362142
 20
210.4338665589883
 30
0.0
 11
73.59153624272142
 21
210.9345823980883
 31
0.0
  0
LINE
  5
21F
330
2
100
AcDbEntity
  8
0
 62
     3
100
AcDbLine
 10
73.09083249592146
 20
212.9374621781884
 30
0.0
 11
73.59153689682142
 21
212.4367348587884
 31
0.0
  0
LINE
  5
220
330
2
100
AcDbEntity
  8
0
 62
     3
100
AcDbLine
 10
72.08937715522143
 20
210.4338770408884
 30
0.0
 11
73.09081541062139
 21
210.4338770408884
 31
0.0
  0
LINE
  5
221
330
2
100
AcDbEntity
  8
0
 62
     3
100
AcDbLine
 10
72.08937715522143
 20
212.9374612190883
 30
0.0
 11
73.09081541062139
 21
212.9374612190883
 31
0.0
  0
LINE
  5
222
330
2
100
AcDbEntity
  8
0
 62
     3
100
AcDbLine
 10
75.09366900072141
 20
213.9388765535884
 30
0.0
 11
76.09510725612143
 21
213.9388765535884
 31
0.0
  0
LINE
  5
223
330
2
100
AcDbEntity
  8
0
 62
     3
100
AcDbLine
 10
75.09366900072141
 20
209.4324387853883
 30
0.0
 11
76.09510725612143
 21
209.4324387853883
 31
0.0
  0
LINE
  5
224
330
2
100
AcDbEntity
  8
0
 62
     3
100
AcDbLine
 10
65.47994426342143
 20
229.9617740365884
 30
0.0
 11
65.47994426342143
 21
231.9646276265883
 31
0.0
  0
LINE
  5
225
330
2
100
AcDbEntity
  8
0
 62
     3
100
AcDbLine
 10
73.09081541062139
 20
221.9503367555883
 30
0.0
 11
73.09081541062139
 21
229.9617740365884
 31
0.0
  0
LINE
  5
226
330
2
100
AcDbEntity
  8
0
 62
     3
100
AcDbLine
 10
77.09654551162145
 20
221.9503367555883
 30
0.0
 11
77.09654551162145
 21
229.9617740365884
 31
0.0
  0
LINE
  5
227
330
2
100
AcDbEntity
  8
0
 62
     3
100
AcDbLine
 10
76.09510725612143
 20
229.9617740365884
 30
0.0
 11
76.09510725612143
 21
221.9503367555883
 31
0.0
  0
LINE
  5
228
330
2
100
AcDbEntity
  8
0
 62
     3
100
AcDbLine
 10
75.09366900072141
 20
221.9503367555883
 30
0.0
 11
75.09366900072141
 21
229.9617740365884
 31
0.0
  0
LINE
  5
229
330
2
100
AcDbEntity
  8
0
 62
     3
100
AcDbLine
 10
72.08937715522143
 20
229.4610663692884
 30
0.0
 11
72.08937715522143
 21
222.4510444227883
 31
0.0
  0
ARC
  5
22A
330
2
100
AcDbEntity
  8
0
 62
     3
100
AcDbCircle
 10
74.15482779892141
 20
225.9560439355884
 30
0.0
 40
4.0683113966
100
AcDbArc
 50
120.5102184703
 51
239.4897642269
  0
LINE
  5
22B
330
2
100
AcDbEntity
  8
0
 62
     3
100
AcDbLine
 10
72.08940493282139
 20
226.9574730429883
 30
0.0
 11
73.09083661112143
 21
225.9560413646884
 31
0.0
  0
LINE
  5
22C
330
2
100
AcDbEntity
  8
0
 62
     3
100
AcDbLine
 10
68.08366997512141
 20
220.4481908327883
 30
0.0
 11
68.08366997512141
 21
221.9503367555883
 31
0.0
  0
LINE
  5
22D
330
2
100
AcDbEntity
  8
0
 62
     3
100
AcDbLine
 10
71.08796182062139
 20
217.0433099325884
 30
0.0
 11
71.08796182062139
 21
215.8416115310884
 31
0.0
  0
LINE
  5
22E
330
2
100
AcDbEntity
  8
0
 62
     3
100
AcDbLine
 10
70.13115061152141
 20
217.0433099325884
 30
0.0
 11
71.08796182062139
 21
217.0433099325884
 31
0.0
  0
LINE
  5
22F
330
2
100
AcDbEntity
  8
0
 62
     3
100
AcDbLine
 10
71.08796182062139
 20
215.8416115310884
 30
0.0
 11
70.13115061152141
 21
215.8416115310884
 31
0.0
  0
LINE
  5
230
330
2
100
AcDbEntity
  8
0
 62
     3
100
AcDbLine
 10
71.08796182062139
 20
226.5569160572883
 30
0.0
 11
71.08796182062139
 21
225.3551947348884
 31
0.0
  0
LINE
  5
231
330
2
100
AcDbEntity
  8
0
 62
     3
100
AcDbLine
 10
70.13115061152141
 20
226.5569160572883
 30
0.0
 11
71.08796182062139
 21
226.5569160572883
 31
0.0
  0
LINE
  5
232
330
2
100
AcDbEntity
  8
0
 62
     3
100
AcDbLine
 10
71.08796182062139
 20
225.3551947348884
 30
0.0
 11
70.13115061152141
 21
225.3551947348884
 31
0.0
  0
LINE
  5
233
330
2
100
AcDbEntity
  8
0
 62
     3
100
AcDbLine
 10
74.59296133342139
 20
217.4438989872883
 30
0.0
 11
75.09366900072141
 21
217.4438989872883
 31
0.0
  0
LINE
  5
234
330
2
100
AcDbEntity
  8
0
 62
     3
100
AcDbLine
 10
74.59296133342139
 20
215.4410224763883
 30
0.0
 11
75.09366900072141
 21
215.4410224763883
 31
0.0
  0
LINE
  5
235
330
2
100
AcDbEntity
  8
0
 62
     3
100
AcDbLine
 10
74.59298412852141
 20
215.4410087427883
 30
0.0
 11
75.09368376012139
 21
214.9403091111883
 31
0.0
  0
LINE
  5
236
330
2
100
AcDbEntity
  8
0
 62
     3
100
AcDbLine
 10
74.5929679210214
 20
217.4438883068883
 30
0.0
 11
75.09368376012139
 21
217.9446041459883
 31
0.0
  0
LINE
  5
237
330
2
100
AcDbEntity
  8
0
 62
     3
100
AcDbLine
 10
73.0908362456214
 20
219.9474611249883
 30
0.0
 11
73.59154064662141
 21
220.4481884443882
 31
0.0
  0
LINE
  5
238
330
2
100
AcDbEntity
  8
0
 62
     3
100
AcDbLine
 10
72.08937715522143
 20
219.9474602445884
 30
0.0
 11
73.09081541062139
 21
219.9474602445884
 31
0.0
  0
LINE
  5
239
330
2
100
AcDbEntity
  8
0
 62
     3
100
AcDbLine
 10
72.08938872532141
 20
216.4424566285884
 30
0.0
 11
73.09083661112143
 21
215.4410087427883
 31
0.0
  0
LINE
  5
23A
330
2
100
AcDbEntity
  8
0
 62
     3
100
AcDbLine
 10
72.08938872532141
 20
217.4438883068883
 30
0.0
 11
73.09082040362142
 21
216.4424566285884
 31
0.0
  0
LINE
  5
23B
330
2
100
AcDbEntity
  8
0
 62
     3
100
AcDbLine
 10
75.09366900072141
 20
218.9460449100884
 30
0.0
 11
76.09510725612143
 21
218.9460449100884
 31
0.0
  0
LINE
  5
23C
330
2
100
AcDbEntity
  8
0
 62
     3
100
AcDbLine
 10
74.59296133342139
 20
224.9546286010884
 30
0.0
 11
75.09366900072141
 21
224.9546286010884
 31
0.0
  0
LINE
  5
23D
330
2
100
AcDbEntity
  8
0
 62
     3
100
AcDbLine
 10
74.5929795708214
 20
224.9546246600884
 30
0.0
 11
75.09368397172136
 21
224.4538973405884
 31
0.0
  0
LINE
  5
23E
330
2
100
AcDbEntity
  8
0
 62
     3
100
AcDbLine
 10
73.09083661112143
 20
222.4510304906883
 30
0.0
 11
73.59153624272142
 21
221.9503308590883
 31
0.0
  0
LINE
  5
23F
330
2
100
AcDbEntity
  8
0
 62
     3
100
AcDbLine
 10
72.08937715522143
 20
222.4510444227883
 30
0.0
 11
73.09081541062139
 21
222.4510444227883
 31
0.0
  0
LINE
  5
240
330
2
100
AcDbEntity
  8
0
 62
     3
100
AcDbLine
 10
72.08938353292137
 20
225.9560387955884
 30
0.0
 11
73.09082669152139
 21
224.9546185976882
 31
0.0
  0
LINE
  5
241
330
2
100
AcDbEntity
  8
0
 62
     3
100
AcDbLine
 10
75.09366900072141
 20
223.4524826782884
 30
0.0
 11
76.09510725612143
 21
223.4524826782884
 31
0.0
  0
LINE
  5
242
330
2
100
AcDbEntity
  8
0
 62
     3
100
AcDbLine
 10
74.59296133342139
 20
226.9574821910884
 30
0.0
 11
75.09366900072141
 21
226.9574821910884
 31
0.0
  0
LINE
  5
243
330
2
100
AcDbEntity
  8
0
 62
     3
100
AcDbLine
 10
74.59298412852141
 20
226.9574730429883
 30
0.0
 11
75.09368376012139
 21
227.4581726745883
 31
0.0
  0
LINE
  5
244
330
2
100
AcDbEntity
  8
0
 62
     3
100
AcDbLine
 10
73.09083661112143
 20
229.4610522385884
 30
0.0
 11
73.59153624272142
 21
229.9617518701884
 31
0.0
  0
LINE
  5
245
330
2
100
AcDbEntity
  8
0
 62
     3
100
AcDbLine
 10
72.08937715522143
 20
229.4610663692884
 30
0.0
 11
73.09081541062139
 21
229.4610663692884
 31
0.0
  0
LINE
  5
246
330
2
100
AcDbEntity
  8
0
 62
     3
100
AcDbLine
 10
75.09366900072141
 20
228.4596281137884
 30
0.0
 11
76.09510725612143
 21
228.4596281137884
 31
0.0
  0
LINE
  5
247
330
2
100
AcDbEntity
  8
0
 62
     3
100
AcDbLine
 10
113.8490383917214
 20
235.9703577275884
 30
0.0
 11
113.8490383917214
 21
257.5011083132884
 31
0.0
  0
LINE
  5
248
330
2
100
AcDbEntity
  8
0
 62
     3
100
AcDbLine
 10
113.3483307244214
 20
258.0018389014884
 30
0.0
 11
113.3483307244214
 21
235.9703577275884
 31
0.0
  0
LINE
  5
249
330
2
100
AcDbEntity
  8
0
 62
     3
100
AcDbLine
 10
83.44059990152137
 20
235.1692025389884
 30
0.0
 11
83.44059990152137
 21
241.9789414185884
 31
0.0
  0
LINE
  5
24A
330
2
100
AcDbEntity
  8
0
 62
     3
100
AcDbLine
 10
85.20812432612144
 20
239.3752157068883
 30
0.0
 11
85.20812432612144
 21
237.7729282506884
 31
0.0
  0
LINE
  5
24B
330
2
100
AcDbEntity
  8
0
 62
     3
100
AcDbLine
 10
80.5014034909214
 20
239.1048404427884
 30
0.0
 11
80.5014034909214
 21
235.1692025389884
 31
0.0
  0
LINE
  5
24C
330
2
100
AcDbEntity
  8
0
 62
     3
100
AcDbLine
 10
82.80470460222137
 20
241.9789414185884
 30
0.0
 11
82.80470460222137
 21
235.1692025389884
 31
0.0
  0
LINE
  5
24D
330
2
100
AcDbEntity
  8
0
 62
     3
100
AcDbLine
 10
81.70312481332141
 20
241.9789414185884
 30
0.0
 11
81.70312481332141
 21
235.1692025389884
 31
0.0
  0
LINE
  5
24E
330
2
100
AcDbEntity
  8
0
 62
     3
100
AcDbLine
 10
78.7989745013214
 20
231.9646276265883
 30
0.0
 11
78.7989745013214
 21
257.5011083132884
 31
0.0
  0
LINE
  5
24F
330
2
100
AcDbEntity
  8
0
 62
     3
100
AcDbLine
 10
79.2996821685214
 20
231.9646276265883
 30
0.0
 11
79.2996821685214
 21
255.9989623904884
 31
0.0
  0
LINE
  5
250
330
2
100
AcDbEntity
  8
0
 62
     3
100
AcDbLine
 10
81.10225269162141
 20
220.4481908327883
 30
0.0
 11
81.10225269162141
 21
212.4367306308883
 31
0.0
  0
LINE
  5
251
330
2
100
AcDbEntity
  8
0
 62
     3
100
AcDbLine
 10
87.61156697082141
 20
195.8129839471884
 30
0.0
 11
83.10512920262141
 21
195.8129839471884
 31
0.0
  0
LINE
  5
252
330
2
100
AcDbEntity
  8
0
 62
     3
100
AcDbLine
 10
87.61156697082141
 20
205.3265900718884
 30
0.0
 11
83.10512920262141
 21
205.3265900718884
 31
0.0
  0
LINE
  5
253
330
2
100
AcDbEntity
  8
0
 62
     3
100
AcDbLine
 10
87.61156697082141
 20
208.5311649842884
 30
0.0
 11
83.10512920262141
 21
208.5311649842884
 31
0.0
  0
LINE
  5
254
330
2
100
AcDbEntity
  8
0
 62
     3
100
AcDbLine
 10
87.61156697082141
 20
199.0175588595884
 30
0.0
 11
83.10512920262141
 21
199.0175588595884
 31
0.0
  0
LINE
  5
255
330
2
100
AcDbEntity
  8
0
 62
     3
100
AcDbLine
 10
81.10225269162141
 20
201.4210015043884
 30
0.0
 11
81.10225269162141
 21
193.4095642233883
 31
0.0
  0
LINE
  5
256
330
2
100
AcDbEntity
  8
0
 62
     3
100
AcDbLine
 10
81.10225269162141
 20
210.9345847080883
 30
0.0
 11
81.10225269162141
 21
202.9231474270884
 31
0.0
  0
LINE
  5
257
330
2
100
AcDbEntity
  8
0
 62
     3
100
AcDbLine
 10
87.61156697082141
 20
195.8129839471884
 30
0.0
 11
87.61156697082141
 21
199.0175588595884
 31
0.0
  0
LINE
  5
258
330
2
100
AcDbEntity
  8
0
 62
     3
100
AcDbLine
 10
87.61156697082141
 20
205.3265900718884
 30
0.0
 11
87.61156697082141
 21
208.5311649842884
 31
0.0
  0
LINE
  5
259
330
2
100
AcDbEntity
  8
0
 62
     3
100
AcDbLine
 10
87.61156697082141
 20
218.0447481880884
 30
0.0
 11
83.10512920262141
 21
218.0447481880884
 31
0.0
  0
LINE
  5
25A
330
2
100
AcDbEntity
  8
0
 62
     3
100
AcDbLine
 10
87.61156697082141
 20
214.8401732756884
 30
0.0
 11
83.10512920262141
 21
214.8401732756884
 31
0.0
  0
LINE
  5
25B
330
2
100
AcDbEntity
  8
0
 62
     3
100
AcDbLine
 10
87.61156697082141
 20
227.5583313917884
 30
0.0
 11
83.10512920262141
 21
227.5583313917884
 31
0.0
  0
LINE
  5
25C
330
2
100
AcDbEntity
  8
0
 62
     3
100
AcDbLine
 10
87.61156697082141
 20
224.3537564793883
 30
0.0
 11
83.10512920262141
 21
224.3537564793883
 31
0.0
  0
LINE
  5
25D
330
2
100
AcDbEntity
  8
0
 62
     3
100
AcDbLine
 10
81.10225269162141
 20
229.9617740365884
 30
0.0
 11
81.10225269162141
 21
221.9503367555883
 31
0.0
  0
LINE
  5
25E
330
2
100
AcDbEntity
  8
0
 62
     3
100
AcDbLine
 10
81.70312481332141
 20
235.8201339668883
 30
0.0
 11
82.80470460222137
 21
235.8201339668883
 31
0.0
  0
LINE
  5
25F
330
2
100
AcDbEntity
  8
0
 62
     3
100
AcDbLine
 10
81.70312481332141
 20
235.1692025389884
 30
0.0
 11
79.2996821685214
 21
235.1692025389884
 31
0.0
  0
LINE
  5
260
330
2
100
AcDbEntity
  8
0
 62
     3
100
AcDbLine
 10
85.20812432612144
 20
237.7729282506884
 30
0.0
 11
83.44059990152137
 21
237.7729282506884
 31
0.0
  0
LINE
  5
261
330
2
100
AcDbEntity
  8
0
 62
     3
100
AcDbLine
 10
82.80470460222137
 20
235.1692025389884
 30
0.0
 11
83.44059990152137
 21
235.1692025389884
 31
0.0
  0
LINE
  5
262
330
2
100
AcDbEntity
  8
0
 62
     3
100
AcDbLine
 10
87.61156697082141
 20
224.3537564793883
 30
0.0
 11
87.61156697082141
 21
227.5583313917884
 31
0.0
  0
LINE
  5
263
330
2
100
AcDbEntity
  8
0
 62
     3
100
AcDbLine
 10
87.61156697082141
 20
214.8401732756884
 30
0.0
 11
87.61156697082141
 21
218.0447481880884
 31
0.0
  0
LINE
  5
264
330
2
100
AcDbEntity
  8
0
  6
CENTER
 62
     3
100
AcDbLine
 10
104.8361628552214
 20
210.5841008014884
 30
0.0
 11
104.8361628552214
 21
207.2793614346884
 31
0.0
  0
CIRCLE
  5
265
330
2
100
AcDbEntity
  8
0
 62
     3
100
AcDbCircle
 10
104.8361628552214
 20
208.9317311180884
 30
0.0
 40
1.5021459227
  0
CIRCLE
  5
266
330
2
100
AcDbEntity
  8
0
 62
     3
100
AcDbCircle
 10
104.8361628552214
 20
208.9317311180884
 30
0.0
 40
1.201716756099999
  0
LINE
  5
267
330
2
100
AcDbEntity
  8
0
  6
CENTER
 62
     3
100
AcDbLine
 10
106.4885325386214
 20
208.9317311180884
 30
0.0
 11
103.1838160928214
 21
208.9317311180884
 31
0.0
  0
ARC
  5
268
330
2
100
AcDbEntity
  8
0
 62
     3
100
AcDbCircle
 10
112.8476230572214
 20
209.4324387853883
 30
0.0
 40
0.5007152777
100
AcDbArc
 50
0.0
 51
89.99998201389999
  0
ARC
  5
269
330
2
100
AcDbEntity
  8
0
 62
     3
100
AcDbCircle
 10
112.8476230572214
 20
211.4353152962884
 30
0.0
 40
0.5007152777
100
AcDbArc
 50
270.0000179861
 51
0.0
  0
CIRCLE
  5
26A
330
2
100
AcDbEntity
  8
0
 62
     3
100
AcDbCircle
 10
113.8490383917214
 20
210.4338770408884
 30
0.0
 40
3.154505578199997
  0
LINE
  5
26B
330
2
100
AcDbEntity
  8
0
 62
     3
100
AcDbLine
 10
111.8461848017213
 20
209.9331693735884
 30
0.0
 11
112.8476230572214
 21
209.9331693735884
 31
0.0
  0
LINE
  5
26C
330
2
100
AcDbEntity
  8
0
 62
     3
100
AcDbLine
 10
112.8476230572214
 20
210.9345847080883
 30
0.0
 11
111.8461848017213
 21
210.9345847080883
 31
0.0
  0
LINE
  5
26D
330
2
100
AcDbEntity
  8
0
 62
     3
100
AcDbLine
 10
111.8461848017213
 20
210.9345847080883
 30
0.0
 11
111.8461848017213
 21
209.9331693735884
 31
0.0
  0
LINE
  5
26E
330
2
100
AcDbEntity
  8
0
 62
     3
100
AcDbLine
 10
113.3483307244214
 20
209.4324387853883
 30
0.0
 11
113.3483307244214
 21
208.4310234508884
 31
0.0
  0
LINE
  5
26F
330
2
100
AcDbEntity
  8
0
 62
     3
100
AcDbLine
 10
114.3497689799213
 20
208.4310234508884
 30
0.0
 11
114.3497689799213
 21
209.4324387853883
 31
0.0
  0
LINE
  5
270
330
2
100
AcDbEntity
  8
0
 62
     3
100
AcDbLine
 10
113.3483307244214
 20
208.4310234508884
 30
0.0
 11
114.3497689799213
 21
208.4310234508884
 31
0.0
  0
LINE
  5
271
330
2
100
AcDbEntity
  8
0
 62
     3
100
AcDbLine
 10
115.8519149027211
 20
210.9345847080883
 30
0.0
 11
114.8504766472214
 21
210.9345847080883
 31
0.0
  0
LINE
  5
272
330
2
100
AcDbEntity
  8
0
 62
     3
100
AcDbLine
 10
114.8504766472214
 20
209.9331693735884
 30
0.0
 11
115.8519149027211
 21
209.9331693735884
 31
0.0
  0
ARC
  5
273
330
2
100
AcDbEntity
  8
0
 62
     3
100
AcDbCircle
 10
114.8504766472214
 20
209.4324387853883
 30
0.0
 40
0.5007152777
100
AcDbArc
 50
89.99998201389999
 51
179.9999640277999
  0
ARC
  5
274
330
2
100
AcDbEntity
  8
0
 62
     3
100
AcDbCircle
 10
114.8504766472214
 20
211.4353152962884
 30
0.0
 40
0.5007152777
100
AcDbArc
 50
179.9999640277999
 51
270.0000006831999
  0
LINE
  5
275
330
2
100
AcDbEntity
  8
0
 62
     3
100
AcDbLine
 10
114.3497689799213
 20
211.4353152962884
 30
0.0
 11
114.3497689799213
 21
212.4367306308883
 31
0.0
  0
LINE
  5
276
330
2
100
AcDbEntity
  8
0
 62
     3
100
AcDbLine
 10
113.3483307244214
 20
212.4367306308883
 30
0.0
 11
113.4193856005214
 21
212.4367306308883
 31
0.0
  0
LINE
  5
277
330
2
100
AcDbEntity
  8
0
 62
     3
100
AcDbLine
 10
113.3483307244214
 20
212.4367306308883
 30
0.0
 11
113.3483307244214
 21
211.4353152962884
 31
0.0
  0
LINE
  5
278
330
2
100
AcDbEntity
  8
0
 62
     3
100
AcDbLine
 10
114.3497689799213
 20
212.4367306308883
 30
0.0
 11
113.4199815447213
 21
212.4367306308883
 31
0.0
  0
LINE
  5
279
330
2
100
AcDbEntity
  8
0
 62
     3
100
AcDbLine
 10
115.8519149027211
 20
209.9331693735884
 30
0.0
 11
115.8519149027211
 21
210.9345847080883
 31
0.0
  0
LINE
  5
27A
330
2
100
AcDbEntity
  8
0
 62
     3
100
AcDbLine
 10
97.32543324152141
 20
257.0004006459882
 30
0.0
 11
109.8433312117213
 21
257.0004006459882
 31
0.0
  0
LINE
  5
27B
330
2
100
AcDbEntity
  8
0
 62
     3
100
AcDbLine
 10
84.30685052502139
 20
255.4982547232884
 30
0.0
 11
93.3197260615214
 21
255.4982547232884
 31
0.0
  0
LINE
  5
27C
330
2
100
AcDbEntity
  8
0
 62
     3
100
AcDbLine
 10
90.3154342160214
 20
258.5025465687883
 30
0.0
 11
78.7989745013214
 21
258.5025465687883
 31
0.0
  0
LINE
  5
27D
330
2
100
AcDbEntity
  8
0
 62
     3
100
AcDbLine
 10
78.7989745013214
 20
257.5011083132884
 30
0.0
 11
89.31399596052139
 21
257.5011083132884
 31
0.0
  0
LINE
  5
27E
330
2
100
AcDbEntity
  8
0
 62
     3
100
AcDbLine
 10
78.7989745013214
 20
255.9989623904884
 30
0.0
 11
91.31684955052142
 21
255.9989623904884
 31
0.0
  0
LINE
  5
27F
330
2
100
AcDbEntity
  8
0
 62
     3
100
AcDbLine
 10
82.80470460222137
 20
241.3280099905882
 30
0.0
 11
81.70312481332141
 21
241.3280099905882
 31
0.0
  0
LINE
  5
280
330
2
100
AcDbEntity
  8
0
 62
     3
100
AcDbLine
 10
79.2996821685214
 20
239.1048404427884
 30
0.0
 11
80.5014034909214
 21
239.1048404427884
 31
0.0
  0
LINE
  5
281
330
2
100
AcDbEntity
  8
0
 62
     3
100
AcDbLine
 10
79.2996821685214
 20
241.9789414185884
 30
0.0
 11
81.70312481332141
 21
241.9789414185884
 31
0.0
  0
LINE
  5
282
330
2
100
AcDbEntity
  8
0
 62
     3
100
AcDbLine
 10
83.44059990152137
 20
239.3752157068883
 30
0.0
 11
85.20812432612144
 21
239.3752157068883
 31
0.0
  0
LINE
  5
283
330
2
100
AcDbEntity
  8
0
 62
     3
100
AcDbLine
 10
83.44059990152137
 20
241.9789414185884
 30
0.0
 11
82.80470460222137
 21
241.9789414185884
 31
0.0
  0
LINE
  5
284
330
2
100
AcDbEntity
  8
0
 62
     3
100
AcDbLine
 10
84.30685052502139
 20
258.0018389014884
 30
0.0
 11
80.30112042402141
 21
258.0018389014884
 31
0.0
  0
LINE
  5
285
330
2
100
AcDbEntity
  8
0
 62
     3
100
AcDbLine
 10
81.30255867952142
 20
257.5011083132884
 30
0.0
 11
81.30255867952142
 21
255.9989623904884
 31
0.0
  0
LINE
  5
286
330
2
100
AcDbEntity
  8
0
 62
     3
100
AcDbLine
 10
78.7989745013214
 20
258.5025465687883
 30
0.0
 11
78.7989745013214
 21
259.0032542359883
 31
0.0
  0
LINE
  5
287
330
2
100
AcDbEntity
  8
0
 62
     3
100
AcDbLine
 10
79.80041860872143
 20
257.5011097257883
 30
0.0
 11
80.30112300962144
 21
258.0018370452882
 31
0.0
  0
LINE
  5
288
330
2
100
AcDbEntity
  8
0
 62
     3
100
AcDbLine
 10
84.30685052502139
 20
255.9989623904884
 30
0.0
 11
84.30685052502139
 21
255.4982547232884
 31
0.0
  0
LINE
  5
289
330
2
100
AcDbEntity
  8
0
 62
     3
100
AcDbLine
 10
84.30685052502139
 20
258.0018389014884
 30
0.0
 11
84.30685052502139
 21
257.5011083132884
 31
0.0
  0
LINE
  5
28A
330
2
100
AcDbEntity
  8
0
 62
     3
100
AcDbLine
 10
89.31399596052139
 20
257.5011083132884
 30
0.0
 11
89.31399596052139
 21
255.9989623904884
 31
0.0
  0
LINE
  5
28B
330
2
100
AcDbEntity
  8
0
 62
     3
100
AcDbLine
 10
91.31684955052142
 20
255.9989623904884
 30
0.0
 11
91.31684955052142
 21
258.0018389014884
 31
0.0
  0
ARC
  5
28C
330
2
100
AcDbEntity
  8
0
 62
     3
100
AcDbCircle
 10
92.31828780602141
 20
258.0018389014884
 30
0.0
 40
1.001430644999999
100
AcDbArc
 50
89.99998201389999
 51
179.9999640277999
  0
LINE
  5
28D
330
2
100
AcDbEntity
  8
0
 62
     3
100
AcDbLine
 10
90.3154342160214
 20
259.0032542359883
 30
0.0
 11
90.3154342160214
 21
258.5025465687883
 31
0.0
  0
LINE
  5
28E
330
2
100
AcDbEntity
  8
0
 62
     3
100
AcDbLine
 10
93.3197260615214
 20
255.4982547232884
 30
0.0
 11
93.3197260615214
 21
258.0018389014884
 31
0.0
  0
LINE
  5
28F
330
2
100
AcDbEntity
  8
0
 62
     3
100
AcDbLine
 10
97.32543324152141
 20
258.0018389014884
 30
0.0
 11
93.3197260615214
 21
258.0018389014884
 31
0.0
  0
LINE
  5
290
330
2
100
AcDbEntity
  8
0
 62
     3
100
AcDbLine
 10
97.32543324152141
 20
258.0018389014884
 30
0.0
 11
97.32543324152141
 21
257.0004006459882
 31
0.0
  0
LINE
  5
291
330
2
100
AcDbEntity
  8
0
 62
     3
100
AcDbLine
 10
117.3540608254214
 20
241.9789414185884
 30
0.0
 11
117.3540608254214
 21
251.9932552104882
 31
0.0
  0
LINE
  5
292
330
2
100
AcDbEntity
  8
0
 62
     3
100
AcDbLine
 10
113.3483307244214
 20
258.0018389014884
 30
0.0
 11
109.8433312117213
 21
258.0018389014884
 31
0.0
  0
LINE
  5
293
330
2
100
AcDbEntity
  8
0
 62
     3
100
AcDbLine
 10
109.8433312117213
 20
257.0004006459882
 30
0.0
 11
109.8433312117213
 21
258.0018389014884
 31
0.0
  0
ARC
  5
294
330
2
100
AcDbEntity
  8
0
 62
     3
100
AcDbCircle
 10
110.8447465462214
 20
258.0018389014884
 30
0.0
 40
1.001430644999999
100
AcDbArc
 50
0.0
 51
89.99998201389999
  0
ARC
  5
295
330
2
100
AcDbEntity
  8
0
 62
     3
100
AcDbCircle
 10
114.8504766472214
 20
257.5011083132884
 30
0.0
 40
1.001430644999999
100
AcDbArc
 50
89.99998201389999
 51
179.9999640277999
  0
LINE
  5
296
330
2
100
AcDbEntity
  8
0
 62
     3
100
AcDbLine
 10
192.9620646300213
 20
258.0018389014884
 30
0.0
 11
138.3841037439214
 21
258.0018389014884
 31
0.0
  0
LINE
  5
297
330
2
100
AcDbEntity
  8
0
 62
     3
100
AcDbLine
 10
137.3826654884212
 20
235.9703577275884
 30
0.0
 11
137.3826654884212
 21
258.0018389014884
 31
0.0
  0
LINE
  5
298
330
2
100
AcDbEntity
  8
0
 62
     3
100
AcDbLine
 10
135.3798118984212
 20
257.5011083132884
 30
0.0
 11
135.3798118984212
 21
235.9703577275884
 31
0.0
  0
LINE
  5
299
330
2
100
AcDbEntity
  8
0
 62
     3
100
AcDbLine
 10
138.3841037439214
 20
235.9703577275884
 30
0.0
 11
138.3841037439214
 21
258.0018389014884
 31
0.0
  0
CIRCLE
  5
29A
330
2
100
AcDbEntity
  8
0
 62
     3
100
AcDbCircle
 10
121.3597680054214
 20
246.9860868540883
 30
0.0
 40
2.753933714199999
  0
ARC
  5
29B
330
2
100
AcDbEntity
  8
0
 62
     3
100
AcDbCircle
 10
120.3583526709211
 20
245.9846715194884
 30
0.0
 40
0.5007152777
100
AcDbArc
 50
0.0
 51
89.99998201389999
  0
ARC
  5
29C
330
2
100
AcDbEntity
  8
0
 62
     3
100
AcDbCircle
 10
120.3583526709211
 20
247.9875251094884
 30
0.0
 40
0.5007152777
100
AcDbArc
 50
270.0000179861
 51
0.0
  0
LINE
  5
29D
330
2
100
AcDbEntity
  8
0
 62
     3
100
AcDbLine
 10
120.8590603382214
 20
248.9889633649883
 30
0.0
 11
120.9301152143211
 21
248.9889633649883
 31
0.0
  0
LINE
  5
29E
330
2
100
AcDbEntity
  8
0
 62
     3
100
AcDbLine
 10
120.8590603382214
 20
244.9832332639882
 30
0.0
 11
121.8604985936214
 21
244.9832332639882
 31
0.0
  0
LINE
  5
29F
330
2
100
AcDbEntity
  8
0
 62
     3
100
AcDbLine
 10
119.3569144154214
 20
246.4853791867883
 30
0.0
 11
120.3583526709211
 21
246.4853791867883
 31
0.0
  0
LINE
  5
2A0
330
2
100
AcDbEntity
  8
0
 62
     3
100
AcDbLine
 10
120.3583526709211
 20
247.4868174422883
 30
0.0
 11
119.3569144154214
 21
247.4868174422883
 31
0.0
  0
LINE
  5
2A1
330
2
100
AcDbEntity
  8
0
 62
     3
100
AcDbLine
 10
119.3569144154214
 20
247.4868174422883
 30
0.0
 11
119.3569144154214
 21
246.4853791867883
 31
0.0
  0
LINE
  5
2A2
330
2
100
AcDbEntity
  8
0
 62
     3
100
AcDbLine
 10
120.8590603382214
 20
245.9846715194884
 30
0.0
 11
120.8590603382214
 21
244.9832332639882
 31
0.0
  0
LINE
  5
2A3
330
2
100
AcDbEntity
  8
0
 62
     3
100
AcDbLine
 10
120.8590603382214
 20
248.9889633649883
 30
0.0
 11
120.8590603382214
 21
247.9875251094884
 31
0.0
  0
LINE
  5
2A4
330
2
100
AcDbEntity
  8
0
 62
     3
100
AcDbLine
 10
123.3626445164214
 20
247.4868174422883
 30
0.0
 11
122.3612062609212
 21
247.4868174422883
 31
0.0
  0
LINE
  5
2A5
330
2
100
AcDbEntity
  8
0
 62
     3
100
AcDbLine
 10
122.3612062609212
 20
246.4853791867883
 30
0.0
 11
123.3626445164214
 21
246.4853791867883
 31
0.0
  0
ARC
  5
2A6
330
2
100
AcDbEntity
  8
0
 62
     3
100
AcDbCircle
 10
122.3612062609212
 20
245.9846715194884
 30
0.0
 40
0.5007152777
100
AcDbArc
 50
89.99998201389999
 51
179.9999640277999
  0
ARC
  5
2A7
330
2
100
AcDbEntity
  8
0
 62
     3
100
AcDbCircle
 10
122.3612062609212
 20
247.9875251094884
 30
0.0
 40
0.5007152777
100
AcDbArc
 50
179.9999640277999
 51
270.0000006831999
  0
LINE
  5
2A8
330
2
100
AcDbEntity
  8
0
 62
     3
100
AcDbLine
 10
121.8604985936214
 20
247.9875251094884
 30
0.0
 11
121.8604985936214
 21
248.9889633649883
 31
0.0
  0
LINE
  5
2A9
330
2
100
AcDbEntity
  8
0
 62
     3
100
AcDbLine
 10
121.8604985936214
 20
244.9832332639882
 30
0.0
 11
121.8604985936214
 21
245.9846715194884
 31
0.0
  0
LINE
  5
2AA
330
2
100
AcDbEntity
  8
0
 62
     3
100
AcDbLine
 10
123.3626445164214
 20
246.4853791867883
 30
0.0
 11
123.3626445164214
 21
247.4868174422883
 31
0.0
  0
LINE
  5
2AB
330
2
100
AcDbEntity
  8
0
 62
     3
100
AcDbLine
 10
121.8604985936214
 20
248.9889633649883
 30
0.0
 11
120.9307111584214
 21
248.9889633649883
 31
0.0
  0
LINE
  5
2AC
330
2
100
AcDbEntity
  8
0
 62
     3
100
AcDbLine
 10
134.1780905760214
 20
251.9932552104882
 30
0.0
 11
134.1780905760214
 21
241.9789414185884
 31
0.0
  0
ARC
  5
2AD
330
2
100
AcDbEntity
  8
0
 62
     3
100
AcDbCircle
 10
134.3783736429214
 20
257.5011083132884
 30
0.0
 40
1.001430644999999
100
AcDbArc
 50
0.0
 51
89.99998201389999
  0
ARC
  5
2AE
330
2
100
AcDbEntity
  8
0
 62
     3
100
AcDbCircle
 10
138.3841037439214
 20
258.0018389014884
 30
0.0
 40
1.001430644999999
100
AcDbArc
 50
89.99998201389999
 51
179.9999640277999
  0
LINE
  5
2AF
330
2
100
AcDbEntity
  8
0
  6
CENTER
 62
     3
100
AcDbLine
 10
176.5886832404214
 20
208.9317311180884
 30
0.0
 11
173.2839667946213
 21
208.9317311180884
 31
0.0
  0
CIRCLE
  5
2B0
330
2
100
AcDbEntity
  8
0
 62
     3
100
AcDbCircle
 10
174.9363135571214
 20
208.9317311180884
 30
0.0
 40
1.201716756099999
  0
CIRCLE
  5
2B1
330
2
100
AcDbEntity
  8
0
 62
     3
100
AcDbCircle
 10
174.9363135571214
 20
208.9317311180884
 30
0.0
 40
1.5021459227
  0
LINE
  5
2B2
330
2
100
AcDbEntity
  8
0
  6
CENTER
 62
     3
100
AcDbLine
 10
174.9363135571214
 20
210.5841008014884
 30
0.0
 11
174.9363135571214
 21
207.2793614346884
 31
0.0
  0
ARC
  5
2B3
330
2
100
AcDbEntity
  8
0
 62
     3
100
AcDbCircle
 10
194.4028741500213
 20
216.4418647876884
 30
0.0
 40
5.469062297599997
100
AcDbArc
 50
327.7144197934
 51
32.28558020660012
  0
ARC
  5
2B4
330
2
100
AcDbEntity
  8
0
 62
     3
100
AcDbCircle
 10
194.9965949422214
 20
213.9387848698884
 30
0.0
 40
1.001430644999999
100
AcDbArc
 50
14.4479128117
 51
91.81227708749998
  0
LINE
  5
2B5
330
2
100
AcDbEntity
  8
0
 62
     3
100
AcDbLine
 10
197.9692329865214
 20
213.2873491815884
 30
0.0
 11
198.6031112441214
 21
213.2873491815884
 31
0.0
  0
ARC
  5
2B6
330
2
100
AcDbEntity
  8
0
 62
     3
100
AcDbCircle
 10
198.6031112441214
 20
213.7880568488883
 30
0.0
 40
0.5007152777
100
AcDbArc
 50
270.0000179861
 51
327.7144197934
  0
ARC
  5
2B7
330
2
100
AcDbEntity
  8
0
 62
     3
100
AcDbCircle
 10
194.9965949422214
 20
218.9449447054883
 30
0.0
 40
1.001430644999999
100
AcDbArc
 50
268.1877229125
 51
345.5520871882999
  0
LINE
  5
2B8
330
2
100
AcDbEntity
  8
0
 62
     3
100
AcDbLine
 10
194.4642105528212
 20
214.9397188649884
 30
0.0
 11
194.9649411410214
 21
214.9397188649884
 31
0.0
  0
LINE
  5
2B9
330
2
100
AcDbEntity
  8
0
 62
     3
100
AcDbLine
 10
194.4642105528212
 20
217.9440107104884
 30
0.0
 11
194.9649411410214
 21
217.9440107104884
 31
0.0
  0
LINE
  5
2BA
330
2
100
AcDbEntity
  8
0
 62
     3
100
AcDbLine
 10
194.4642105528212
 20
214.9397188649884
 30
0.0
 11
194.4642105528212
 21
217.9440107104884
 31
0.0
  0
LINE
  5
2BB
330
2
100
AcDbEntity
  8
0
 62
     3
100
AcDbLine
 10
197.9692329865214
 20
219.5963574728883
 30
0.0
 11
198.6031112441214
 21
219.5963574728883
 31
0.0
  0
ARC
  5
2BC
330
2
100
AcDbEntity
  8
0
 62
     3
100
AcDbCircle
 10
198.6031112441214
 20
219.0956498056883
 30
0.0
 40
0.5007152777
100
AcDbArc
 50
32.28558020659999
 51
89.99998201389999
  0
LINE
  5
2BD
330
2
100
AcDbEntity
  8
0
 62
     3
100
AcDbLine
 10
195.9663564755214
 20
234.9689194720884
 30
0.0
 11
197.4685023983211
 21
234.9689194720884
 31
0.0
  0
LINE
  5
2BE
330
2
100
AcDbEntity
  8
0
 62
     3
100
AcDbLine
 10
189.9577727845214
 20
257.5011083132884
 30
0.0
 11
195.9663564755214
 21
257.5011083132884
 31
0.0
  0
LINE
  5
2BF
330
2
100
AcDbEntity
  8
0
 62
     3
100
AcDbLine
 10
195.9663564755214
 20
255.9989623904884
 30
0.0
 11
189.9577727845214
 21
255.9989623904884
 31
0.0
  0
LINE
  5
2C0
330
2
100
AcDbEntity
  8
0
 62
     3
100
AcDbLine
 10
189.9577727845214
 20
257.5011083132884
 30
0.0
 11
189.9577727845214
 21
255.9989623904884
 31
0.0
  0
LINE
  5
2C1
330
2
100
AcDbEntity
  8
0
 62
     3
100
AcDbLine
 10
194.9649411410214
 20
255.4982547232884
 30
0.0
 11
194.9649411410214
 21
239.9760878284883
 31
0.0
  0
LINE
  5
2C2
330
2
100
AcDbEntity
  8
0
 62
     3
100
AcDbLine
 10
194.9649411410214
 20
239.9760878284883
 30
0.0
 11
193.9635028855214
 21
239.9760878284883
 31
0.0
  0
LINE
  5
2C3
330
2
100
AcDbEntity
  8
0
 62
     3
100
AcDbLine
 10
192.9620646300213
 20
255.9989623904884
 30
0.0
 11
192.9620646300213
 21
255.4982547232884
 31
0.0
  0
LINE
  5
2C4
330
2
100
AcDbEntity
  8
0
 62
     3
100
AcDbLine
 10
192.9620646300213
 20
255.4982547232884
 30
0.0
 11
194.9649411410214
 21
255.4982547232884
 31
0.0
  0
LINE
  5
2C5
330
2
100
AcDbEntity
  8
0
 62
     3
100
AcDbLine
 10
194.4642105528212
 20
258.0018389014884
 30
0.0
 11
194.4642105528212
 21
257.5011083132884
 31
0.0
  0
LINE
  5
2C6
330
2
100
AcDbEntity
  8
0
 62
     3
100
AcDbLine
 10
192.9620646300213
 20
258.0018389014884
 30
0.0
 11
192.9620646300213
 21
257.5011083132884
 31
0.0
  0
ARC
  5
2C7
330
2
100
AcDbEntity
  8
0
 62
     3
100
AcDbCircle
 10
193.4627952182214
 20
258.0018389014884
 30
0.0
 40
1.001430644999999
100
AcDbArc
 50
0.0
 51
89.99998201389999
  0
LINE
  5
2C8
330
2
100
AcDbEntity
  8
0
 62
     3
100
AcDbLine
 10
195.9663564755214
 20
250.9918169549883
 30
0.0
 11
197.4685023983211
 21
250.9918169549883
 31
0.0
  0
LINE
  5
2C9
330
2
100
AcDbEntity
  8
0
 62
     3
100
AcDbLine
 10
195.9663564755214
 20
258.2021219683884
 30
0.0
 11
197.4685023983211
 21
258.2021219683884
 31
0.0
  0
TEXT
  5
2E7
330
2
100
AcDbEntity
  8
0
 62
     7
100
AcDbText
 10
146.0
 20
40.00000295525
 30
0.0
 40
2.999994089499998
  1
PS3N-D24A2N
 11
146.0
 21
41.5
 31
0.0
100
AcDbText
 73
     2
  0
TEXT
  5
2E8
330
2
100
AcDbEntity
  8
0
 62
     7
100
AcDbText
 10
146.0
 20
45.00000295525
 30
0.0
 40
2.999994089499998
  1
PS3N-D24A2CN
 11
146.0
 21
46.5
 31
0.0
100
AcDbText
 73
     2
  0
TEXT
  5
2E9
330
2
100
AcDbEntity
  8
0
 62
     7
100
AcDbText
 10
146.0
 20
50.00000295525
 30
0.0
 40
2.999994089499998
  1
PS3N-D24A1N
 11
146.0
 21
51.5
 31
0.0
100
AcDbText
 73
     2
  0
TEXT
  5
2EA
330
2
100
AcDbEntity
  8
0
 62
     7
100
AcDbText
 10
146.0
 20
55.00000295525
 30
0.0
 40
2.999994089499998
  1
PS3N-D24A1CN
 11
146.0
 21
56.5
 31
0.0
100
AcDbText
 73
     2
  0
TEXT
  5
2EB
330
2
100
AcDbEntity
  8
0
 62
     7
100
AcDbText
 10
146.0
 20
60.00000295525
 30
0.0
 40
2.999994089499998
  1
PS3N-D12A2N
 11
146.0
 21
61.5
 31
0.0
100
AcDbText
 73
     2
  0
TEXT
  5
2EC
330
2
100
AcDbEntity
  8
0
 62
     7
100
AcDbText
 10
146.0
 20
80.00000295525
 30
0.0
 40
2.999994089499998
  1
PS3N-D05A2N
 11
146.0
 21
81.5
 31
0.0
100
AcDbText
 73
     2
  0
TEXT
  5
2ED
330
2
100
AcDbEntity
  8
0
 62
     7
100
AcDbText
 10
146.0
 20
65.00000295525
 30
0.0
 40
2.999994089499998
  1
PS3N-D12A2CN
 11
146.0
 21
66.5
 31
0.0
100
AcDbText
 73
     2
  0
TEXT
  5
2EE
330
2
100
AcDbEntity
  8
0
 62
     7
100
AcDbText
 10
146.0
 20
85.00000295525
 30
0.0
 40
2.999994089499998
  1
PS3N-D05A2CN
 11
146.0
 21
86.5
 31
0.0
100
AcDbText
 73
     2
  0
TEXT
  5
2EF
330
2
100
AcDbEntity
  8
0
 62
     7
100
AcDbText
 10
146.0
 20
70.00000295525
 30
0.0
 40
2.999994089499998
  1
PS3N-D12A1N
 11
146.0
 21
71.5
 31
0.0
100
AcDbText
 73
     2
  0
TEXT
  5
2F0
330
2
100
AcDbEntity
  8
0
 62
     7
100
AcDbText
 10
146.0
 20
75.00000295525
 30
0.0
 40
2.999994089499998
  1
PS3N-D12A1CN
 11
146.0
 21
76.5
 31
0.0
100
AcDbText
 73
     2
  0
TEXT
  5
2F1
330
2
100
AcDbEntity
  8
0
 62
     7
100
AcDbText
 10
146.0
 20
90.00000295525
 30
0.0
 40
2.999994089499998
  1
PS3N-D05A1N
 11
146.0
 21
91.5
 31
0.0
100
AcDbText
 73
     2
  0
TEXT
  5
2F2
330
2
100
AcDbEntity
  8
0
 62
     7
100
AcDbText
 10
146.0
 20
95.00000295525
 30
0.0
 40
2.999994089499998
  1
PS3N-D05A1CN
 11
146.0
 21
96.5
 31
0.0
100
AcDbText
 73
     2
  0
ENDSEC
  0
SECTION
  2
OBJECTS
  0
DICTIONARY
  5
7
330
0
100
AcDbDictionary
281
     1
  3
ACAD_GROUP
350
1F
  3
ACAD_LAYOUT
350
B
  3
ACAD_MLINESTYLE
350
20
  3
ACAD_PLOTSETTINGS
350
21
  3
ACAD_PLOTSTYLENAME
350
6
  3
AcDbVariableDictionary
350
2F3
  0
DICTIONARY
  5
1F
102
{ACAD_REACTORS
330
7
102
}
330
7
100
AcDbDictionary
281
     1
  0
DICTIONARY
  5
B
102
{ACAD_REACTORS
330
7
102
}
330
7
100
AcDbDictionary
281
     1
  3
Model
350
A
  3
ﾚｲｱｳﾄ1
350
F
  0
DICTIONARY
  5
20
102
{ACAD_REACTORS
330
7
102
}
330
7
100
AcDbDictionary
281
     1
  3
Standard
350
22
  0
DICTIONARY
  5
21
102
{ACAD_REACTORS
330
7
102
}
330
7
100
AcDbDictionary
281
     1
  0
ACDBDICTIONARYWDFLT
  5
6
102
{ACAD_REACTORS
330
7
102
}
330
7
100
AcDbDictionary
281
     1
  3
Normal
350
5
100
AcDbDictionaryWithDefault
340
5
  0
DICTIONARY
  5
2F3
102
{ACAD_REACTORS
330
7
102
}
330
7
100
AcDbDictionary
281
     1
  3
DIMASSOC
350
2F4
  0
LAYOUT
  5
A
102
{ACAD_REACTORS
330
B
102
}
330
B
100
AcDbPlotSettings
  1

  2
C:\Program Files\AutoCAD 2000i\plotters\DWF Classic.pc3
  4

  6

 40
0.0
 41
0.0
 42
0.0
 43
0.0
 44
0.0
 45
0.0
 46
0.0
 47
0.0
 48
0.0
 49
0.0
140
0.0
141
0.0
142
1.0
143
1.0
 70
  1712
 72
     0
 73
     0
 74
     0
  7

 75
     0
147
1.0
148
0.0
149
0.0
100
AcDbLayout
  1
Model
 70
     1
 71
     0
 10
0.0
 20
0.0
 11
12.0
 21
9.0
 12
0.0
 22
0.0
 32
0.0
 14
0.0
 24
0.0
 34
0.0
 15
0.0
 25
0.0
 35
0.0
146
0.0
 13
0.0
 23
0.0
 33
0.0
 16
1.0
 26
0.0
 36
0.0
 17
0.0
 27
1.0
 37
0.0
 76
     0
330
2
  0
LAYOUT
  5
F
102
{ACAD_REACTORS
330
B
102
}
330
B
100
AcDbPlotSettings
  1

  2
C:\Program Files\AutoCAD 2000i\plotters\DWF Classic.pc3
  4

  6

 40
0.0
 41
0.0
 42
0.0
 43
0.0
 44
0.0
 45
0.0
 46
0.0
 47
0.0
 48
0.0
 49
0.0
140
0.0
141
0.0
142
1.0
143
1.0
 70
   688
 72
     0
 73
     0
 74
     5
  7

 75
    16
147
1.0
148
0.0
149
0.0
100
AcDbLayout
  1
ﾚｲｱｳﾄ1
 70
     1
 71
     1
 10
0.0
 20
0.0
 11
12.0
 21
9.0
 12
0.0
 22
0.0
 32
0.0
 14
1.000000000000000E+20
 24
1.000000000000000E+20
 34
1.000000000000000E+20
 15
-1.000000000000000E+20
 25
-1.000000000000000E+20
 35
-1.000000000000000E+20
146
0.0
 13
0.0
 23
0.0
 33
0.0
 16
1.0
 26
0.0
 36
0.0
 17
0.0
 27
1.0
 37
0.0
 76
     0
330
C
  0
MLINESTYLE
  5
22
102
{ACAD_REACTORS
330
20
102
}
330
20
100
AcDbMlineStyle
  2
STANDARD
 70
     0
  3

 62
   256
 51
90.0
 52
90.0
 71
     2
 49
0.5
 62
   256
  6
BYLAYER
 49
-0.5
 62
   256
  6
BYLAYER
  0
ACDBPLACEHOLDER
  5
5
102
{ACAD_REACTORS
330
6
102
}
330
6
  0
DICTIONARYVAR
  5
2F4
102
{ACAD_REACTORS
330
2F3
102
}
330
2F3
100
DictionaryVariables
280
     0
  1
1
  0
ENDSEC
  0
EOF
