  0
SECTION
  2
HEADER
  9
$ACADVER
  1
AC1015
  9
$ACADMAINTVER
 70
    13
  9
$DWGCODEPAGE
  3
ANSI_932
  9
$INSBASE
 10
0.0
 20
0.0
 30
0.0
  9
$EXTMIN
 10
-0.0226614951766351
 20
-0.000650002219345
 30
-0.0000000349181948
  9
$EXTMAX
 10
210.0189223067811
 20
297.0048453721921
 30
0.0000000814935747
  9
$LIMMIN
 10
-189.2184722899999
 20
-3.174999999999998
  9
$LIMMAX
 10
3.174999999999998
 20
291.2585876465
  9
$ORTHOMODE
 70
     0
  9
$REGENMODE
 70
     1
  9
$FILLMODE
 70
     1
  9
$QTEXTMODE
 70
     0
  9
$MIRRTEXT
 70
     0
  9
$LTSCALE
 40
1.0
  9
$ATTMODE
 70
     1
  9
$TEXTSIZE
 40
2.999994039499997
  9
$TRACEWID
 40
0.05
  9
$TEXTSTYLE
  7
STANDARD
  9
$CLAYER
  8
0
  9
$CELTYPE
  6
ByLayer
  9
$CECOLOR
 62
   256
  9
$CELTSCALE
 40
1.0
  9
$DISPSILH
 70
     0
  9
$DIMSCALE
 40
1.0
  9
$DIMASZ
 40
1.9727878465
  9
$DIMEXO
 40
2.539999961899999
  9
$DIMDLI
 40
0.38
  9
$DIMRND
 40
0.0
  9
$DIMDLE
 40
0.0
  9
$DIMEXE
 40
3.809999942799997
  9
$DIMTP
 40
0.0
  9
$DIMTM
 40
0.0
  9
$DIMTXT
 40
2.999994039499997
  9
$DIMCEN
 40
0.09
  9
$DIMTSZ
 40
0.0
  9
$DIMTOL
 70
     0
  9
$DIMLIM
 70
     0
  9
$DIMTIH
 70
     0
  9
$DIMTOH
 70
     1
  9
$DIMSE1
 70
     0
  9
$DIMSE2
 70
     0
  9
$DIMTAD
 70
     0
  9
$DIMZIN
 70
     0
  9
$DIMBLK
  1

  9
$DIMASO
 70
     1
  9
$DIMSHO
 70
     0
  9
$DIMPOST
  1

  9
$DIMAPOST
  1

  9
$DIMALT
 70
     0
  9
$DIMALTD
 70
     2
  9
$DIMALTF
 40
25.4
  9
$DIMLFAC
 40
1.0
  9
$DIMTOFL
 70
     0
  9
$DIMTVP
 40
0.0
  9
$DIMTIX
 70
     0
  9
$DIMSOXD
 70
     0
  9
$DIMSAH
 70
     0
  9
$DIMBLK1
  1

  9
$DIMBLK2
  1

  9
$DIMSTYLE
  2
Standard
  9
$DIMCLRD
 70
     0
  9
$DIMCLRE
 70
     0
  9
$DIMCLRT
 70
     0
  9
$DIMTFAC
 40
1.0
  9
$DIMGAP
 40
0.09
  9
$DIMJUST
 70
     0
  9
$DIMSD1
 70
     0
  9
$DIMSD2
 70
     0
  9
$DIMTOLJ
 70
     1
  9
$DIMTZIN
 70
     0
  9
$DIMALTZ
 70
     0
  9
$DIMALTTZ
 70
     0
  9
$DIMUPT
 70
     0
  9
$DIMDEC
 70
     4
  9
$DIMTDEC
 70
     4
  9
$DIMALTU
 70
     2
  9
$DIMALTTD
 70
     2
  9
$DIMTXSTY
  7
STANDARD
  9
$DIMAUNIT
 70
     0
  9
$DIMADEC
 70
     0
  9
$DIMALTRND
 40
0.0
  9
$DIMAZIN
 70
     0
  9
$DIMDSEP
 70
    46
  9
$DIMATFIT
 70
     3
  9
$DIMFRAC
 70
     0
  9
$DIMLDRBLK
  1

  9
$DIMLUNIT
 70
     2
  9
$DIMLWD
 70
    -2
  9
$DIMLWE
 70
    -2
  9
$DIMTMOVE
 70
     0
  9
$LUNITS
 70
     2
  9
$LUPREC
 70
     3
  9
$SKETCHINC
 40
0.1
  9
$FILLETRAD
 40
0.0625
  9
$AUNITS
 70
     0
  9
$AUPREC
 70
     0
  9
$MENU
  1
ACAD
  9
$ELEVATION
 40
0.0
  9
$PELEVATION
 40
0.0
  9
$THICKNESS
 40
0.0
  9
$LIMCHECK
 70
     0
  9
$CHAMFERA
 40
0.0
  9
$CHAMFERB
 40
0.0
  9
$CHAMFERC
 40
0.0
  9
$CHAMFERD
 40
0.0
  9
$SKPOLY
 70
     0
  9
$TDCREATE
 40
2452383.612349537
  9
$TDUCREATE
 40
2452383.237349537
  9
$TDUPDATE
 40
2453376.731693970
  9
$TDUUPDATE
 40
2453376.356693969
  9
$TDINDWG
 40
0.0033940972
  9
$TDUSRTIMER
 40
0.0033935532
  9
$USRTIMER
 70
     1
  9
$ANGBASE
 50
0.0
  9
$ANGDIR
 70
     0
  9
$PDMODE
 70
     0
  9
$PDSIZE
 40
0.0
  9
$PLINEWID
 40
0.0
  9
$SPLFRAME
 70
     0
  9
$SPLINETYPE
 70
     6
  9
$SPLINESEGS
 70
     8
  9
$HANDSEED
  5
2FB
  9
$SURFTAB1
 70
     6
  9
$SURFTAB2
 70
     6
  9
$SURFTYPE
 70
     6
  9
$SURFU
 70
     6
  9
$SURFV
 70
     6
  9
$UCSBASE
  2

  9
$UCSNAME
  2

  9
$UCSORG
 10
0.0
 20
0.0
 30
0.0
  9
$UCSXDIR
 10
1.0
 20
0.0
 30
0.0
  9
$UCSYDIR
 10
0.0
 20
1.0
 30
0.0
  9
$UCSORTHOREF
  2

  9
$UCSORTHOVIEW
 70
     0
  9
$UCSORGTOP
 10
0.0
 20
0.0
 30
0.0
  9
$UCSORGBOTTOM
 10
0.0
 20
0.0
 30
0.0
  9
$UCSORGLEFT
 10
0.0
 20
0.0
 30
0.0
  9
$UCSORGRIGHT
 10
0.0
 20
0.0
 30
0.0
  9
$UCSORGFRONT
 10
0.0
 20
0.0
 30
0.0
  9
$UCSORGBACK
 10
0.0
 20
0.0
 30
0.0
  9
$PUCSBASE
  2

  9
$PUCSNAME
  2

  9
$PUCSORG
 10
0.0
 20
0.0
 30
0.0
  9
$PUCSXDIR
 10
1.0
 20
0.0
 30
0.0
  9
$PUCSYDIR
 10
0.0
 20
1.0
 30
0.0
  9
$PUCSORTHOREF
  2

  9
$PUCSORTHOVIEW
 70
     0
  9
$PUCSORGTOP
 10
0.0
 20
0.0
 30
0.0
  9
$PUCSORGBOTTOM
 10
0.0
 20
0.0
 30
0.0
  9
$PUCSORGLEFT
 10
0.0
 20
0.0
 30
0.0
  9
$PUCSORGRIGHT
 10
0.0
 20
0.0
 30
0.0
  9
$PUCSORGFRONT
 10
0.0
 20
0.0
 30
0.0
  9
$PUCSORGBACK
 10
0.0
 20
0.0
 30
0.0
  9
$USERI1
 70
     8
  9
$USERI2
 70
     0
  9
$USERI3
 70
     0
  9
$USERI4
 70
     0
  9
$USERI5
 70
     0
  9
$USERR1
 40
0.0
  9
$USERR2
 40
0.0
  9
$USERR3
 40
0.0
  9
$USERR4
 40
0.0
  9
$USERR5
 40
0.0
  9
$WORLDVIEW
 70
     1
  9
$SHADEDGE
 70
     3
  9
$SHADEDIF
 70
    70
  9
$TILEMODE
 70
     1
  9
$MAXACTVP
 70
    64
  9
$PINSBASE
 10
0.0
 20
0.0
 30
0.0
  9
$PLIMCHECK
 70
     0
  9
$PEXTMIN
 10
1.000000000000000E+20
 20
1.000000000000000E+20
 30
1.000000000000000E+20
  9
$PEXTMAX
 10
-1.000000000000000E+20
 20
-1.000000000000000E+20
 30
-1.000000000000000E+20
  9
$PLIMMIN
 10
0.0
 20
0.0
  9
$PLIMMAX
 10
12.0
 20
9.0
  9
$UNITMODE
 70
     0
  9
$VISRETAIN
 70
     1
  9
$PLINEGEN
 70
     0
  9
$PSLTSCALE
 70
     1
  9
$TREEDEPTH
 70
  3020
  9
$CMLSTYLE
  2
Standard
  9
$CMLJUST
 70
     0
  9
$CMLSCALE
 40
1.0
  9
$PROXYGRAPHICS
 70
     1
  9
$MEASUREMENT
 70
     0
  9
$CELWEIGHT
370
    -1
  9
$ENDCAPS
280
     0
  9
$JOINSTYLE
280
     0
  9
$LWDISPLAY
290
     0
  9
$INSUNITS
 70
     0
  9
$HYPERLINKBASE
  1

  9
$STYLESHEET
  1

  9
$XEDIT
290
     1
  9
$CEPSNTYPE
380
     0
  9
$PSTYLEMODE
290
     1
  9
$FINGERPRINTGUID
  2
{954896E8-D445-4369-BADE-D60FCC233FA7}
  9
$VERSIONGUID
  2
{C3FAECF7-6FB1-4AFF-BFF8-6AB1F2642908}
  9
$EXTNAMES
290
     1
  9
$PSVPSCALE
 40
0.0
  9
$OLESTARTUP
290
     0
  0
ENDSEC
  0
SECTION
  2
CLASSES
  0
CLASS
  1
ACDBDICTIONARYWDFLT
  2
AcDbDictionaryWithDefault
  3
AutoCAD 2000
 90
        0
280
     0
281
     0
  0
CLASS
  1
ACDBPLACEHOLDER
  2
AcDbPlaceHolder
  3
AutoCAD 2000
 90
        0
280
     0
281
     0
  0
CLASS
  1
LAYOUT
  2
AcDbLayout
  3
AutoCAD 2000
 90
        0
280
     0
281
     0
  0
CLASS
  1
DICTIONARYVAR
  2
AcDbDictionaryVar
  3
AutoCAD 2000
 90
        0
280
     0
281
     0
  0
ENDSEC
  0
SECTION
  2
TABLES
  0
TABLE
  2
VPORT
  5
19
330
0
100
AcDbSymbolTable
 70
     2
  0
VPORT
  5
2FA
330
19
100
AcDbSymbolTableRecord
100
AcDbViewportTableRecord
  2
*Active
 70
     0
 10
0.0
 20
0.0
 11
1.0
 21
1.0
 12
104.9981304058022
 22
148.5020976849863
 13
0.0
 23
0.0
 14
1.0
 24
1.0
 15
0.0
 25
0.0
 16
0.0
 26
0.0
 36
1.0
 17
0.0
 27
0.0
 37
0.0
 40
301.3413420222131
 41
2.407317073170731
 42
50.0
 43
0.0
 44
0.0
 50
0.0
 51
0.0
 71
     0
 72
   100
 73
     1
 74
     1
 75
     0
 76
     0
 77
     0
 78
     0
281
     0
 65
     1
110
0.0
120
0.0
130
0.0
111
1.0
121
0.0
131
0.0
112
0.0
122
1.0
132
0.0
 79
     0
146
0.0
  0
ENDTAB
  0
TABLE
  2
LTYPE
  5
14
330
0
100
AcDbSymbolTable
 70
     4
  0
LTYPE
  5
15
330
14
100
AcDbSymbolTableRecord
100
AcDbLinetypeTableRecord
  2
ByBlock
 70
     0
  3

 72
    65
 73
     0
 40
0.0
  0
LTYPE
  5
16
330
14
100
AcDbSymbolTableRecord
100
AcDbLinetypeTableRecord
  2
ByLayer
 70
     0
  3

 72
    65
 73
     0
 40
0.0
  0
LTYPE
  5
8
330
14
100
AcDbSymbolTableRecord
100
AcDbLinetypeTableRecord
  2
Continuous
 70
     0
  3
Solid line
 72
    65
 73
     0
 40
0.0
  0
LTYPE
  5
4A
330
14
100
AcDbSymbolTableRecord
100
AcDbLinetypeTableRecord
  2
DASHED
 70
     0
  3
Dashed
 72
    65
 73
     2
 40
4.7625
 49
3.174999999999998
 74
     0
 49
-1.587499999999999
 74
     0
  0
LTYPE
  5
38
330
14
100
AcDbSymbolTableRecord
100
AcDbLinetypeTableRecord
  2
CENTER
 70
     0
  3
Center
 72
    65
 73
     4
 40
9.100006759199999
 49
6.5000119209
 74
     0
 49
-0.7999984026000001
 74
     0
 49
0.9999980329999999
 74
     0
 49
-0.7999984026000001
 74
     0
  0
LTYPE
  5
29
330
14
100
AcDbSymbolTableRecord
100
AcDbLinetypeTableRecord
  2
PHANTOM
 70
     0
  3
Phantom
 72
    65
 73
     6
 40
9.499981462999999
 49
4.799990654
 74
     0
 49
-0.8999982475999999
 74
     0
 49
0.9999980329999999
 74
     0
 49
-0.8999982475999999
 74
     0
 49
0.9999980329999999
 74
     0
 49
-0.8999982475999999
 74
     0
  0
ENDTAB
  0
TABLE
  2
LAYER
  5
10
330
0
100
AcDbSymbolTable
 70
     1
  0
LAYER
  5
4
330
10
100
AcDbSymbolTableRecord
100
AcDbLayerTableRecord
  2
0
 70
     0
 62
     7
  6
Continuous
370
    -3
390
5
  0
ENDTAB
  0
TABLE
  2
STYLE
  5
11
330
0
100
AcDbSymbolTable
 70
     1
  0
STYLE
  5
12
330
11
100
AcDbSymbolTableRecord
100
AcDbTextStyleTableRecord
  2
STANDARD
 70
     0
 40
0.0
 41
1.0
 50
0.0
 71
     0
 42
2.999994039499997
  3
romans.shx
  4
bigfont.shx
  0
ENDTAB
  0
TABLE
  2
VIEW
  5
17
330
0
100
AcDbSymbolTable
 70
     0
  0
ENDTAB
  0
TABLE
  2
UCS
  5
18
330
0
100
AcDbSymbolTable
 70
     0
  0
ENDTAB
  0
TABLE
  2
APPID
  5
1B
330
0
100
AcDbSymbolTable
 70
     1
  0
APPID
  5
1C
330
1B
100
AcDbSymbolTableRecord
100
AcDbRegAppTableRecord
  2
ACAD
 70
     0
  0
ENDTAB
  0
TABLE
  2
DIMSTYLE
  5
1D
330
0
100
AcDbSymbolTable
 70
     1
100
AcDbDimStyleTable
 71
     0
  0
DIMSTYLE
105
23
330
1D
100
AcDbSymbolTableRecord
100
AcDbDimStyleTableRecord
  2
Standard
 70
     0
340
12
  0
ENDTAB
  0
TABLE
  2
BLOCK_RECORD
  5
1
330
0
100
AcDbSymbolTable
 70
     1
  0
BLOCK_RECORD
  5
2
330
1
100
AcDbSymbolTableRecord
100
AcDbBlockTableRecord
  2
*Model_Space
340
A
  0
BLOCK_RECORD
  5
C
330
1
100
AcDbSymbolTableRecord
100
AcDbBlockTableRecord
  2
*Paper_Space
340
F
  0
ENDTAB
  0
ENDSEC
  0
SECTION
  2
BLOCKS
  0
BLOCK
  5
3
330
2
100
AcDbEntity
  8
0
100
AcDbBlockBegin
  2
*Model_Space
 70
     0
 10
0.0
 20
0.0
 30
0.0
  3
*Model_Space
  1

  0
ENDBLK
  5
9
330
2
100
AcDbEntity
  8
0
100
AcDbBlockEnd
  0
BLOCK
  5
D
330
C
100
AcDbEntity
 67
     1
  8
0
100
AcDbBlockBegin
  2
*Paper_Space
 70
     0
 10
0.0
 20
0.0
 30
0.0
  3
*Paper_Space
  1

  0
ENDBLK
  5
E
330
C
100
AcDbEntity
 67
     1
  8
0
100
AcDbBlockEnd
  0
ENDSEC
  0
SECTION
  2
ENTITIES
  0
LINE
  5
24
330
2
100
AcDbEntity
  8
0
100
AcDbLine
 10
210.0
 20
0.0
 30
0.0
 11
210.0
 21
297.0
 31
0.0
  0
LINE
  5
25
330
2
100
AcDbEntity
  8
0
100
AcDbLine
 10
0.0
 20
297.0
 30
0.0
 11
0.0
 21
0.0
 31
0.0
  0
LINE
  5
26
330
2
100
AcDbEntity
  8
0
 62
     3
100
AcDbLine
 10
146.0682684791999
 20
146.4927839683999
 30
0.0
 11
165.0809819692999
 21
146.5054974584999
 31
0.0
  0
TEXT
  5
27
330
2
100
AcDbEntity
  8
0
 62
     5
100
AcDbText
 10
145.0
 20
10.0
 30
0.0
 40
5.0
  1
ＭＡ４－Ｐ０００７２
 41
0.8460446051551706
 72
     5
 11
194.0705870989999
 21
10.0
 31
0.0
100
AcDbText
  0
LINE
  5
28
330
2
100
AcDbEntity
  8
0
  6
PHANTOM
 62
     3
100
AcDbLine
 10
100.5682684791999
 20
150.4927839684
 30
0.0
 11
185.0682684791999
 21
150.4927839684
 31
0.0
  0
LINE
  5
2A
330
2
100
AcDbEntity
  8
0
 62
     3
100
AcDbLine
 10
182.5682684791999
 20
115.9927839684
 30
0.0
 11
89.06826847919999
 21
115.9927839684
 31
0.0
  0
LINE
  5
2B
330
2
100
AcDbEntity
  8
0
100
AcDbLine
 10
0.0
 20
0.0
 30
0.0
 11
210.0
 21
0.0
 31
0.0
  0
LINE
  5
2C
330
2
100
AcDbEntity
  8
0
 62
     3
100
AcDbLine
 10
77.2682684792
 20
120.4927839683999
 30
0.0
 11
89.06826847919999
 21
120.4927839683999
 31
0.0
  0
LINE
  5
2D
330
2
100
AcDbEntity
  8
0
 62
     3
100
AcDbLine
 10
89.06826847919999
 20
135.4927839684
 30
0.0
 11
77.2682684792
 21
135.4927839684
 31
0.0
  0
LINE
  5
2E
330
2
100
AcDbEntity
  8
0
 62
     3
100
AcDbLine
 10
77.8682684792
 20
123.9927839684
 30
0.0
 11
77.8682684792
 21
131.9927839684
 31
0.0
  0
LINE
  5
2F
330
2
100
AcDbEntity
  8
0
 62
     3
100
AcDbLine
 10
76.86826847919997
 20
131.9927839684
 30
0.0
 11
76.86826847919997
 21
123.9927839684
 31
0.0
  0
LINE
  5
30
330
2
100
AcDbEntity
  8
0
 62
     3
100
AcDbLine
 10
75.2682684792
 20
133.4927839684
 30
0.0
 11
75.2682684792
 21
122.4927839683999
 31
0.0
  0
ARC
  5
31
330
2
100
AcDbEntity
  8
0
 62
     3
100
AcDbCircle
 10
77.2682684792
 20
122.4927839683999
 30
0.0
 40
2.0
100
AcDbArc
 50
180.0
 51
270.0
  0
LINE
  5
32
330
2
100
AcDbEntity
  8
0
 62
     3
100
AcDbLine
 10
76.86826847919997
 20
123.9927839684
 30
0.0
 11
77.8682684792
 21
123.9927839684
 31
0.0
  0
ARC
  5
33
330
2
100
AcDbEntity
  8
0
 62
     3
100
AcDbCircle
 10
77.2682684792
 20
133.4927839684
 30
0.0
 40
2.0
100
AcDbArc
 50
90.0
 51
180.0
  0
LINE
  5
34
330
2
100
AcDbEntity
  8
0
 62
     3
100
AcDbLine
 10
77.8682684792
 20
131.9927839684
 30
0.0
 11
76.86826847919997
 21
131.9927839684
 31
0.0
  0
LINE
  5
35
330
2
100
AcDbEntity
  8
0
 62
     3
100
AcDbLine
 10
90.06826847920001
 20
146.4927839683999
 30
0.0
 11
146.0682684791999
 21
146.4927839683999
 31
0.0
  0
LINE
  5
36
330
2
100
AcDbEntity
  8
0
 62
     3
100
AcDbLine
 10
89.06826847919999
 20
115.9927839684
 30
0.0
 11
89.06826847919999
 21
145.4927839684
 31
0.0
  0
LINE
  5
37
330
2
100
AcDbEntity
  8
0
  6
CENTER
 62
     3
100
AcDbLine
 10
96.54326847919998
 20
132.9927839683999
 30
0.0
 11
91.59326847919999
 21
132.9927839683999
 31
0.0
  0
LINE
  5
39
330
2
100
AcDbEntity
  8
0
 62
     3
100
AcDbLine
 10
92.31826847920002
 20
116.9927839684
 30
0.0
 11
97.81826847920001
 21
116.9927839684
 31
0.0
  0
LINE
  5
3A
330
2
100
AcDbEntity
  8
0
 62
     3
100
AcDbLine
 10
97.81826847920001
 20
118.4927839684
 30
0.0
 11
92.31826847920002
 21
118.4927839684
 31
0.0
  0
LINE
  5
3B
330
2
100
AcDbEntity
  8
0
 62
     3
100
AcDbLine
 10
92.31826847920002
 20
120.4927839683999
 30
0.0
 11
97.81826847920001
 21
120.4927839683999
 31
0.0
  0
LINE
  5
3C
330
2
100
AcDbEntity
  8
0
 62
     3
100
AcDbLine
 10
97.81826847920001
 20
122.2927839683999
 30
0.0
 11
92.31826847920002
 21
122.2927839683999
 31
0.0
  0
LINE
  5
3D
330
2
100
AcDbEntity
  8
0
 62
     3
100
AcDbLine
 10
92.31826847920002
 20
124.2927839684
 30
0.0
 11
97.81826847920001
 21
124.2927839684
 31
0.0
  0
CIRCLE
  5
3E
330
2
100
AcDbEntity
  8
0
 62
     3
100
AcDbCircle
 10
94.06826847920001
 20
132.9927839683999
 30
0.0
 40
2.25
  0
CIRCLE
  5
3F
330
2
100
AcDbEntity
  8
0
 62
     3
100
AcDbCircle
 10
94.06826847920001
 20
132.9927839683999
 30
0.0
 40
1.199999999999999
  0
CIRCLE
  5
40
330
2
100
AcDbEntity
  8
0
  6
PHANTOM
 62
     3
100
AcDbCircle
 10
94.06826847920001
 20
132.9927839683999
 30
0.0
 40
1.5
  0
LINE
  5
41
330
2
100
AcDbEntity
  8
0
 62
     3
100
AcDbLine
 10
88.66716908619997
 20
120.4927839683999
 30
0.0
 11
88.83174218479997
 21
120.4927839683999
 31
0.0
  0
LINE
  5
42
330
2
100
AcDbEntity
  8
0
 62
     3
100
AcDbLine
 10
92.31826847920002
 20
120.4927839683999
 30
0.0
 11
92.31826847920002
 21
115.9927839684
 31
0.0
  0
LINE
  5
43
330
2
100
AcDbEntity
  8
0
 62
     3
100
AcDbLine
 10
93.56826847920002
 20
120.4927839683999
 30
0.0
 11
93.56826847920002
 21
118.4927839684
 31
0.0
  0
LINE
  5
44
330
2
100
AcDbEntity
  8
0
 62
     3
100
AcDbLine
 10
92.31826847920002
 20
122.2927839683999
 30
0.0
 11
92.31826847920002
 21
124.2927839684
 31
0.0
  0
LINE
  5
45
330
2
100
AcDbEntity
  8
0
 62
     3
100
AcDbLine
 10
93.56826847920002
 20
124.2927839684
 30
0.0
 11
93.56826847920002
 21
122.2927839683999
 31
0.0
  0
LINE
  5
46
330
2
100
AcDbEntity
  8
0
  6
CENTER
 62
     3
100
AcDbLine
 10
94.06826847920001
 20
135.4677839684
 30
0.0
 11
94.06826847920001
 21
130.5177839684
 31
0.0
  0
ARC
  5
47
330
2
100
AcDbEntity
  8
0
 62
     3
100
AcDbCircle
 10
96.32158604799997
 20
117.9590457918
 30
0.0
 40
0.9972532943999999
100
AcDbArc
 50
284.3214554708
 51
1.938749237500027
  0
LINE
  5
48
330
2
100
AcDbEntity
  8
0
 62
     3
100
AcDbLine
 10
96.56826847920001
 20
120.4927839683999
 30
0.0
 11
96.56826847920001
 21
118.4927839684
 31
0.0
  0
LINE
  5
49
330
2
100
AcDbEntity
  8
0
  6
DASHED
 62
     3
100
AcDbLine
 10
97.81826847920001
 20
118.4927839684
 30
0.0
 11
97.31826847920002
 21
118.4927839684
 31
0.0
  0
LINE
  5
4B
330
2
100
AcDbEntity
  8
0
 62
     3
100
AcDbLine
 10
97.81826847920001
 20
120.4927839683999
 30
0.0
 11
97.81826847920001
 21
115.9927839684
 31
0.0
  0
LINE
  5
4C
330
2
100
AcDbEntity
  8
0
 62
     3
100
AcDbLine
 10
97.31826847920002
 20
117.9927839684
 30
0.0
 11
97.31826847920002
 21
118.4927839684
 31
0.0
  0
LINE
  5
4D
330
2
100
AcDbEntity
  8
0
 62
     3
100
AcDbLine
 10
96.56826847920001
 20
124.2927839684
 30
0.0
 11
96.56826847920001
 21
122.2927839683999
 31
0.0
  0
LINE
  5
4E
330
2
100
AcDbEntity
  8
0
 62
     3
100
AcDbLine
 10
97.81826847920001
 20
124.2927839684
 30
0.0
 11
97.81826847920001
 21
122.2927839683999
 31
0.0
  0
CIRCLE
  5
4F
330
2
100
AcDbEntity
  8
0
 62
     3
100
AcDbCircle
 10
94.06826847920001
 20
141.4927839684
 30
0.0
 40
1.75
  0
LINE
  5
50
330
2
100
AcDbEntity
  8
0
  6
CENTER
 62
     3
100
AcDbLine
 10
95.9932684792
 20
141.4927839684
 30
0.0
 11
92.14326847919995
 21
141.4927839684
 31
0.0
  0
ARC
  5
51
330
2
100
AcDbEntity
  8
0
 62
     3
100
AcDbCircle
 10
90.06826847920001
 20
145.4927839684
 30
0.0
 40
1.0
100
AcDbArc
 50
90.0
 51
180.0
  0
LINE
  5
52
330
2
100
AcDbEntity
  8
0
  6
CENTER
 62
     3
100
AcDbLine
 10
94.06826847920001
 20
143.4177839683999
 30
0.0
 11
94.06826847920001
 21
139.5677839684
 31
0.0
  0
LINE
  5
53
330
2
100
AcDbEntity
  8
0
  6
PHANTOM
 62
     3
100
AcDbLine
 10
100.5682684791999
 20
150.4927839684
 30
0.0
 11
100.5682684791999
 21
146.4927839683999
 31
0.0
  0
LINE
  5
54
330
2
100
AcDbEntity
  8
0
  6
PHANTOM
 62
     3
100
AcDbLine
 10
98.72826847919998
 20
146.4927839683999
 30
0.0
 11
100.5682684791999
 21
150.4927839684
 31
0.0
  0
LINE
  5
55
330
2
100
AcDbEntity
  8
0
 62
     3
100
AcDbLine
 10
102.8558329138999
 20
143.4927839684
 30
0.0
 11
112.2682684791998
 21
143.4927839684
 31
0.0
  0
LINE
  5
56
330
2
100
AcDbEntity
  8
0
 62
     3
100
AcDbLine
 10
112.2682684791998
 20
140.4927839684
 30
0.0
 11
102.8558329138999
 21
140.4927839684
 31
0.0
  0
LINE
  5
57
330
2
100
AcDbEntity
  8
0
 62
     3
100
AcDbLine
 10
102.8558329138999
 20
140.4927839684
 30
0.0
 11
102.8558329138999
 21
143.4927839684
 31
0.0
  0
LINE
  5
58
330
2
100
AcDbEntity
  8
0
 62
     3
100
AcDbLine
 10
107.0682684792
 20
143.4927839684
 30
0.0
 11
107.0682684792
 21
140.4927839684
 31
0.0
  0
LINE
  5
59
330
2
100
AcDbEntity
  8
0
 62
     3
100
AcDbLine
 10
111.5682684792
 20
143.4927839684
 30
0.0
 11
111.5682684792
 21
140.4927839684
 31
0.0
  0
LINE
  5
5A
330
2
100
AcDbEntity
  8
0
 62
     3
100
AcDbLine
 10
112.2682684791998
 20
143.4927839684
 30
0.0
 11
112.2682684791998
 21
140.4927839684
 31
0.0
  0
LINE
  5
5B
330
2
100
AcDbEntity
  8
0
 62
     3
100
AcDbLine
 10
146.0682684791999
 20
146.4927839683999
 30
0.0
 11
146.0469945333999
 21
146.5140579141998
 31
0.0
  0
LINE
  5
5C
330
2
100
AcDbEntity
  8
0
 62
     3
100
AcDbLine
 10
175.3182684791999
 20
116.9927839684
 30
0.0
 11
180.8182684791999
 21
116.9927839684
 31
0.0
  0
LINE
  5
5D
330
2
100
AcDbEntity
  8
0
 62
     3
100
AcDbLine
 10
165.0682684791999
 20
146.4927839683999
 30
0.0
 11
184.5682684791999
 21
146.4927839683999
 31
0.0
  0
LINE
  5
5E
330
2
100
AcDbEntity
  8
0
 62
     3
100
AcDbLine
 10
180.8182684791999
 20
118.4927839684
 30
0.0
 11
175.3182684791999
 21
118.4927839684
 31
0.0
  0
LINE
  5
5F
330
2
100
AcDbEntity
  8
0
 62
     3
100
AcDbLine
 10
175.3182684791999
 20
120.4927839683999
 30
0.0
 11
180.8182684791999
 21
120.4927839683999
 31
0.0
  0
LINE
  5
60
330
2
100
AcDbEntity
  8
0
 62
     3
100
AcDbLine
 10
180.8182684791999
 20
122.2927839683999
 30
0.0
 11
175.3182684791999
 21
122.2927839683999
 31
0.0
  0
LINE
  5
61
330
2
100
AcDbEntity
  8
0
 62
     3
100
AcDbLine
 10
175.3182684791999
 20
124.2927839684
 30
0.0
 11
180.8182684791999
 21
124.2927839684
 31
0.0
  0
LINE
  5
62
330
2
100
AcDbEntity
  8
0
  6
CENTER
 62
     3
100
AcDbLine
 10
177.4076652388997
 20
141.4927839684
 30
0.0
 11
182.5325367115999
 21
141.4927839684
 31
0.0
  0
LINE
  5
63
330
2
100
AcDbEntity
  8
0
 62
     3
100
AcDbLine
 10
175.3182684791999
 20
120.4927839683999
 30
0.0
 11
175.3182684791999
 21
115.9927839684
 31
0.0
  0
LINE
  5
64
330
2
100
AcDbEntity
  8
0
 62
     3
100
AcDbLine
 10
176.5682684791999
 20
120.4927839683999
 30
0.0
 11
176.5682684791999
 21
118.4927839684
 31
0.0
  0
LINE
  5
65
330
2
100
AcDbEntity
  8
0
 62
     3
100
AcDbLine
 10
175.3182684791999
 20
122.2927839683999
 30
0.0
 11
175.3182684791999
 21
124.2927839684
 31
0.0
  0
LINE
  5
66
330
2
100
AcDbEntity
  8
0
 62
     3
100
AcDbLine
 10
176.5682684791999
 20
124.2927839684
 30
0.0
 11
176.5682684791999
 21
122.2927839683999
 31
0.0
  0
LINE
  5
67
330
2
100
AcDbEntity
  8
0
  6
CENTER
 62
     3
100
AcDbLine
 10
176.5432684791998
 20
132.9927839683999
 30
0.0
 11
171.5932684792
 21
132.9927839683999
 31
0.0
  0
CIRCLE
  5
68
330
2
100
AcDbEntity
  8
0
 62
     3
100
AcDbCircle
 10
174.0682684791998
 20
132.9927839683999
 30
0.0
 40
2.25
  0
CIRCLE
  5
69
330
2
100
AcDbEntity
  8
0
 62
     3
100
AcDbCircle
 10
174.0682684791998
 20
132.9927839683999
 30
0.0
 40
1.199999999999999
  0
CIRCLE
  5
6A
330
2
100
AcDbEntity
  8
0
  6
PHANTOM
 62
     3
100
AcDbCircle
 10
174.0682684791998
 20
132.9927839683999
 30
0.0
 40
1.5
  0
LINE
  5
6B
330
2
100
AcDbEntity
  8
0
  6
CENTER
 62
     3
100
AcDbLine
 10
174.0682684791998
 20
135.4677839684
 30
0.0
 11
174.0682684791998
 21
130.5177839684
 31
0.0
  0
LINE
  5
6C
330
2
100
AcDbEntity
  8
0
 62
     3
100
AcDbLine
 10
157.8558329138997
 20
143.4927839684
 30
0.0
 11
167.2682684791999
 21
143.4927839684
 31
0.0
  0
LINE
  5
6D
330
2
100
AcDbEntity
  8
0
 62
     3
100
AcDbLine
 10
167.2682684791999
 20
140.4927839684
 30
0.0
 11
157.8558329138997
 21
140.4927839684
 31
0.0
  0
LINE
  5
6E
330
2
100
AcDbEntity
  8
0
 62
     3
100
AcDbLine
 10
157.8558329138997
 20
140.4927839684
 30
0.0
 11
157.8558329138997
 21
143.4927839684
 31
0.0
  0
LINE
  5
6F
330
2
100
AcDbEntity
  8
0
 62
     3
100
AcDbLine
 10
162.0682684791999
 20
143.4927839684
 30
0.0
 11
162.0682684791999
 21
140.4927839684
 31
0.0
  0
LINE
  5
70
330
2
100
AcDbEntity
  8
0
 62
     3
100
AcDbLine
 10
166.5682684791998
 20
143.4927839684
 30
0.0
 11
166.5682684791998
 21
140.4927839684
 31
0.0
  0
LINE
  5
71
330
2
100
AcDbEntity
  8
0
 62
     3
100
AcDbLine
 10
167.2682684791999
 20
143.4927839684
 30
0.0
 11
167.2682684791999
 21
140.4927839684
 31
0.0
  0
LINE
  5
72
330
2
100
AcDbEntity
  8
0
  6
CENTER
 62
     3
100
AcDbLine
 10
175.9932684791999
 20
141.4927839684
 30
0.0
 11
172.1432684791999
 21
141.4927839684
 31
0.0
  0
CIRCLE
  5
73
330
2
100
AcDbEntity
  8
0
 62
     3
100
AcDbCircle
 10
174.0682684791998
 20
141.4927839684
 30
0.0
 40
1.75
  0
LINE
  5
74
330
2
100
AcDbEntity
  8
0
  6
CENTER
 62
     3
100
AcDbLine
 10
174.0682684791998
 20
143.4177839683999
 30
0.0
 11
174.0682684791998
 21
139.5677839684
 31
0.0
  0
LINE
  5
75
330
2
100
AcDbEntity
  8
0
  6
PHANTOM
 62
     3
100
AcDbLine
 10
185.0682684791999
 20
150.4927839684
 30
0.0
 11
185.0682684791999
 21
137.4927839684
 31
0.0
  0
LINE
  5
76
330
2
100
AcDbEntity
  8
0
  6
CENTER
 62
     3
100
AcDbLine
 10
180.0682684791999
 20
144.4370047897999
 30
0.0
 11
180.0682684791999
 21
137.6686340673999
 31
0.0
  0
LINE
  5
77
330
2
100
AcDbEntity
  8
0
 62
     3
100
AcDbLine
 10
184.5682684791999
 20
117.9927839684
 30
0.0
 11
184.5682684791999
 21
146.4927839683999
 31
0.0
  0
LINE
  5
78
330
2
100
AcDbEntity
  8
0
  6
PHANTOM
 62
     3
100
AcDbLine
 10
185.0682684791999
 20
137.4927839684
 30
0.0
 11
184.5682684791999
 21
137.4927839684
 31
0.0
  0
LINE
  5
79
330
2
100
AcDbEntity
  8
0
 62
     3
100
AcDbLine
 10
180.8182684791999
 20
120.4927839683999
 30
0.0
 11
180.8182684791999
 21
115.9927839684
 31
0.0
  0
LINE
  5
7A
330
2
100
AcDbEntity
  8
0
 62
     3
100
AcDbLine
 10
179.5682684792
 20
120.4927839683999
 30
0.0
 11
179.5682684792
 21
118.4927839684
 31
0.0
  0
LINE
  5
7B
330
2
100
AcDbEntity
  8
0
 62
     3
100
AcDbLine
 10
180.8182684791999
 20
124.2927839684
 30
0.0
 11
180.8182684791999
 21
122.2927839683999
 31
0.0
  0
LINE
  5
7C
330
2
100
AcDbEntity
  8
0
 62
     3
100
AcDbLine
 10
179.5682684792
 20
124.2927839684
 30
0.0
 11
179.5682684792
 21
122.2927839683999
 31
0.0
  0
LINE
  5
7D
330
2
100
AcDbEntity
  8
0
 62
     3
100
AcDbLine
 10
182.5682684791999
 20
117.9927839684
 30
0.0
 11
183.5682684791999
 21
117.9927839684
 31
0.0
  0
ARC
  5
7E
330
2
100
AcDbEntity
  8
0
 62
     3
100
AcDbCircle
 10
182.5682684791999
 20
117.9927839684
 30
0.0
 40
1.0
100
AcDbArc
 50
270.0
 51
0.0
  0
ARC
  5
7F
330
2
100
AcDbEntity
  8
0
 62
     3
100
AcDbCircle
 10
182.5682684791999
 20
117.9927839684
 30
0.0
 40
2.0
100
AcDbArc
 50
270.0
 51
0.0
  0
LINE
  5
80
330
2
100
AcDbEntity
  8
0
 62
     3
100
AcDbLine
 10
182.5682684791999
 20
115.9927839684
 30
0.0
 11
182.5682684791999
 21
116.9927839684
 31
0.0
  0
LINE
  5
81
330
2
100
AcDbEntity
  8
0
 62
     3
100
AcDbLine
 10
182.5682684791999
 20
116.9927839684
 30
0.0
 11
182.5682684791999
 21
117.9927839684
 31
0.0
  0
LINE
  5
82
330
2
100
AcDbEntity
  8
0
 62
     3
100
AcDbLine
 10
183.5682684791999
 20
117.9927839684
 30
0.0
 11
184.5682684791999
 21
117.9927839684
 31
0.0
  0
LINE
  5
83
330
2
100
AcDbEntity
  8
0
 62
     3
100
AcDbLine
 10
180.0682684791999
 20
139.7427839684
 30
0.0
 11
183.5682684791999
 21
139.7427839684
 31
0.0
  0
LINE
  5
84
330
2
100
AcDbEntity
  8
0
 62
     3
100
AcDbLine
 10
180.0682684791999
 20
143.2427839684
 30
0.0
 11
183.5682684791999
 21
143.2427839684
 31
0.0
  0
ARC
  5
85
330
2
100
AcDbEntity
  8
0
 62
     3
100
AcDbCircle
 10
180.0682684791999
 20
141.4927839684
 30
0.0
 40
1.75
100
AcDbArc
 50
90.0
 51
270.0
  0
ARC
  5
86
330
2
100
AcDbEntity
  8
0
 62
     3
100
AcDbCircle
 10
183.5682684791999
 20
144.2427839684
 30
0.0
 40
1.0
100
AcDbArc
 50
270.0
 51
0.0
  0
LINE
  5
87
330
2
100
AcDbEntity
  8
0
 62
     3
100
AcDbLine
 10
184.5682684791999
 20
138.7427839684
 30
0.0
 11
184.5682684791999
 21
138.342838003
 31
0.0
  0
ARC
  5
88
330
2
100
AcDbEntity
  8
0
 62
     3
100
AcDbCircle
 10
183.5682684791999
 20
138.7427839684
 30
0.0
 40
1.0
100
AcDbArc
 50
0.0
 51
90.0
  0
LINE
  5
89
330
2
100
AcDbEntity
  8
0
 62
     3
100
AcDbLine
 10
184.5682684791999
 20
145.4927839684
 30
0.0
 11
184.5682684791999
 21
145.2896701022999
 31
0.0
  0
ARC
  5
8A
330
2
100
AcDbEntity
  8
0
 62
     3
100
AcDbCircle
 10
183.5682684791999
 20
145.4927839684
 30
0.0
 40
1.0
100
AcDbArc
 50
0.0
 51
90.0
  0
ARC
  5
8B
330
2
100
AcDbEntity
  8
0
 62
     3
100
AcDbCircle
 10
181.2709000580998
 20
141.4927839684
 30
0.0
 40
5.6973684211
100
AcDbArc
 50
329.3446014711
 51
30.65539852889999
  0
LINE
  5
8C
330
2
100
AcDbEntity
  8
0
 62
     3
100
AcDbLine
 10
185.0682684791999
 20
138.3427839684
 30
0.0
 11
185.7419333283999
 21
138.3427839684
 31
0.0
  0
ARC
  5
8D
330
2
100
AcDbEntity
  8
0
 62
     3
100
AcDbCircle
 10
185.7419333283999
 20
138.8427839683999
 30
0.0
 40
0.5
100
AcDbArc
 50
270.0
 51
329.3446014711
  0
LINE
  5
8E
330
2
100
AcDbEntity
  8
0
 62
     3
100
AcDbLine
 10
185.0682684791999
 20
144.6427839683998
 30
0.0
 11
185.7419333283999
 21
144.6427839683998
 31
0.0
  0
ARC
  5
8F
330
2
100
AcDbEntity
  8
0
 62
     3
100
AcDbCircle
 10
185.7419333283999
 20
144.1427839683998
 30
0.0
 40
0.5
100
AcDbArc
 50
30.65539852889999
 51
90.0
  0
LINE
  5
90
330
2
100
AcDbEntity
  8
0
 62
     3
100
AcDbLine
 10
103.8558329138999
 20
188.0035314241998
 30
0.0
 11
184.5682684791999
 21
188.0035314241998
 31
0.0
  0
LINE
  5
91
330
2
100
AcDbEntity
  8
0
100
AcDbLine
 10
210.0
 20
297.0
 30
0.0
 11
0.0
 21
297.0
 31
0.0
  0
LINE
  5
95
330
2
100
AcDbEntity
  8
0
 62
     3
100
AcDbLine
 10
159.7218583177
 20
188.5035314241999
 30
0.0
 11
106.7218583176999
 21
188.5035314241999
 31
0.0
  0
LINE
  5
96
330
2
100
AcDbEntity
  8
0
 62
     3
100
AcDbLine
 10
102.5682684791999
 20
255.5035314241998
 30
0.0
 11
181.0682684791999
 21
255.5035314241998
 31
0.0
  0
LINE
  5
97
330
2
100
AcDbEntity
  8
0
 62
     3
100
AcDbLine
 10
184.5682684791999
 20
187.0035314241999
 30
0.0
 11
89.06826847919999
 21
187.0035314241999
 31
0.0
  0
LINE
  5
98
330
2
100
AcDbEntity
  8
0
 62
     3
100
AcDbLine
 10
105.5682684792
 20
255.046091077
 30
0.0
 11
179.5682684792
 21
255.046091077
 31
0.0
  0
ARC
  5
9A
330
2
100
AcDbEntity
  8
0
 62
     3
100
AcDbCircle
 10
27.46826847919999
 20
189.0035314241999
 30
0.0
 40
1.0
100
AcDbArc
 50
180.0
 51
270.0
  0
ARC
  5
9B
330
2
100
AcDbEntity
  8
0
 62
     3
100
AcDbCircle
 10
27.46826847919999
 20
189.0035314241999
 30
0.0
 40
2.0
100
AcDbArc
 50
180.0
 51
270.0
  0
LINE
  5
9C
330
2
100
AcDbEntity
  8
0
 62
     3
100
AcDbLine
 10
26.46826847919999
 20
253.0035314241998
 30
0.0
 11
29.96826847919999
 21
253.0035314241998
 31
0.0
  0
LINE
  5
9D
330
2
100
AcDbEntity
  8
0
 62
     3
100
AcDbLine
 10
26.46826847919999
 20
254.0035314242
 30
0.0
 11
29.96826847919999
 21
254.0035314242
 31
0.0
  0
LINE
  5
9E
330
2
100
AcDbEntity
  8
0
  6
PHANTOM
 62
     3
100
AcDbLine
 10
26.46826847919999
 20
255.5035314241998
 30
0.0
 11
59.96826847919999
 21
255.5035314241998
 31
0.0
  0
LINE
  5
A2
330
2
100
AcDbEntity
  8
0
 62
     3
100
AcDbLine
 10
25.46826847919999
 20
189.0035314241999
 30
0.0
 11
25.46826847919999
 21
255.5035314241998
 31
0.0
  0
LINE
  5
A3
330
2
100
AcDbEntity
  8
0
 62
     3
100
AcDbLine
 10
26.46826847919999
 20
253.0035314241998
 30
0.0
 11
26.46826847919999
 21
189.0035314241999
 31
0.0
  0
ARC
  5
A4
330
2
100
AcDbEntity
  8
0
 62
     3
100
AcDbCircle
 10
26.46826847919999
 20
253.0035314241998
 30
0.0
 40
1.0
100
AcDbArc
 50
90.0
 51
180.0
  0
LINE
  5
A5
330
2
100
AcDbEntity
  8
0
 62
     3
100
AcDbLine
 10
26.46826847919999
 20
255.5035314241998
 30
0.0
 11
26.46826847919999
 21
254.0035314242
 31
0.0
  0
LINE
  5
A6
330
2
100
AcDbEntity
  8
0
 62
     3
100
AcDbLine
 10
25.46826847919999
 20
255.5035314241998
 30
0.0
 11
26.46826847919999
 21
255.5035314241998
 31
0.0
  0
LINE
  5
A7
330
2
100
AcDbEntity
  8
0
 62
     3
100
AcDbLine
 10
77.36826847919997
 20
213.0035314241998
 30
0.0
 11
90.3682684792
 21
213.0035314241998
 31
0.0
  0
LINE
  5
A8
330
2
100
AcDbEntity
  8
0
 62
     3
100
AcDbLine
 10
90.3682684792
 20
214.5035314241999
 30
0.0
 11
77.36826847919997
 21
214.5035314241999
 31
0.0
  0
LINE
  5
A9
330
2
100
AcDbEntity
  8
0
 62
     3
100
AcDbLine
 10
90.3682684792
 20
222.5035314241999
 30
0.0
 11
77.36826847919997
 21
222.5035314241999
 31
0.0
  0
LINE
  5
AA
330
2
100
AcDbEntity
  8
0
 62
     3
100
AcDbLine
 10
86.3682684792
 20
241.5035314242
 30
0.0
 11
90.3682684792
 21
241.5035314242
 31
0.0
  0
LINE
  5
AB
330
2
100
AcDbEntity
  8
0
 62
     3
100
AcDbLine
 10
86.3682684792
 20
233.5035314241999
 30
0.0
 11
90.3682684792
 21
233.5035314241999
 31
0.0
  0
LINE
  5
AC
330
2
100
AcDbEntity
  8
0
 62
     3
100
AcDbLine
 10
86.3682684792
 20
232.0035314241998
 30
0.0
 11
90.3682684792
 21
232.0035314241998
 31
0.0
  0
LINE
  5
AD
330
2
100
AcDbEntity
  8
0
 62
     3
100
AcDbLine
 10
86.3682684792
 20
224.0035314241999
 30
0.0
 11
90.3682684792
 21
224.0035314241999
 31
0.0
  0
LINE
  5
AE
330
2
100
AcDbEntity
  8
0
 62
     3
100
AcDbLine
 10
86.3682684792
 20
205.0035314241998
 30
0.0
 11
90.3682684792
 21
205.0035314241998
 31
0.0
  0
LINE
  5
AF
330
2
100
AcDbEntity
  8
0
 62
     3
100
AcDbLine
 10
86.3682684792
 20
203.5035314241999
 30
0.0
 11
90.3682684792
 21
203.5035314241999
 31
0.0
  0
LINE
  5
B0
330
2
100
AcDbEntity
  8
0
 62
     3
100
AcDbLine
 10
86.3682684792
 20
195.5035314241998
 30
0.0
 11
90.3682684792
 21
195.5035314241998
 31
0.0
  0
LINE
  5
B1
330
2
100
AcDbEntity
  8
0
 62
     3
100
AcDbLine
 10
75.2682684792
 20
243.5035314242
 30
0.0
 11
92.36826847919999
 21
243.5035314242
 31
0.0
  0
LINE
  5
B2
330
2
100
AcDbEntity
  8
0
 62
     3
100
AcDbLine
 10
75.2682684792
 20
193.5035314241999
 30
0.0
 11
92.36826847919999
 21
193.5035314241999
 31
0.0
  0
LINE
  5
B3
330
2
100
AcDbEntity
  8
0
  6
PHANTOM
 62
     3
100
AcDbLine
 10
59.46826847919999
 20
188.0035314241998
 30
0.0
 11
55.96826847919999
 21
188.0035314241998
 31
0.0
  0
LINE
  5
B4
330
2
100
AcDbEntity
  8
0
 62
     3
100
AcDbLine
 10
47.36826847919997
 20
188.5035314241999
 30
0.0
 11
59.96826847919999
 21
188.5035314241999
 31
0.0
  0
LINE
  5
B5
330
2
100
AcDbEntity
  8
0
 62
     3
100
AcDbLine
 10
39.66826847919998
 20
230.5035314242
 30
0.0
 11
39.66826847919998
 21
229.2035314241998
 31
0.0
  0
LINE
  5
B6
330
2
100
AcDbEntity
  8
0
 62
     3
100
AcDbLine
 10
38.46826847919999
 20
229.2035314241998
 30
0.0
 11
38.46826847919999
 21
230.5035314242
 31
0.0
  0
CIRCLE
  5
B7
330
2
100
AcDbEntity
  8
0
 62
     3
100
AcDbCircle
 10
39.06826847919996
 20
228.0035314241998
 30
0.0
 40
3.5
  0
LINE
  5
B8
330
2
100
AcDbEntity
  8
0
 62
     3
100
AcDbLine
 10
29.96826847919999
 20
255.0035314241998
 30
0.0
 11
29.96826847919999
 21
188.5035314241999
 31
0.0
  0
LINE
  5
B9
330
2
100
AcDbEntity
  8
0
 62
     3
100
AcDbLine
 10
31.56826847919998
 20
188.5035314241999
 30
0.0
 11
31.56826847919998
 21
255.0035314241998
 31
0.0
  0
LINE
  5
BA
330
2
100
AcDbEntity
  8
0
 62
     3
100
AcDbLine
 10
46.56826847919996
 20
193.5035314241999
 30
0.0
 11
46.56826847919996
 21
243.5035314242
 31
0.0
  0
LINE
  5
BB
330
2
100
AcDbEntity
  8
0
 62
     3
100
AcDbLine
 10
44.56826847919995
 20
232.0035314241998
 30
0.0
 11
44.56826847919995
 21
224.0035314241999
 31
0.0
  0
LINE
  5
BC
330
2
100
AcDbEntity
  8
0
 62
     3
100
AcDbLine
 10
43.56826847919996
 20
224.0035314241999
 30
0.0
 11
43.56826847919996
 21
232.0035314241998
 31
0.0
  0
LINE
  5
BD
330
2
100
AcDbEntity
  8
0
 62
     3
100
AcDbLine
 10
34.56826847919998
 20
232.0035314241998
 30
0.0
 11
34.56826847919998
 21
224.0035314241999
 31
0.0
  0
LINE
  5
BE
330
2
100
AcDbEntity
  8
0
 62
     3
100
AcDbLine
 10
33.56826847919998
 20
232.0035314241998
 30
0.0
 11
33.56826847919998
 21
224.0035314241999
 31
0.0
  0
LINE
  5
BF
330
2
100
AcDbEntity
  8
0
 62
     3
100
AcDbLine
 10
48.96826847919999
 20
193.0035314241999
 30
0.0
 11
48.96826847919999
 21
255.5035314241998
 31
0.0
  0
LINE
  5
C0
330
2
100
AcDbEntity
  8
0
  6
CENTER
 62
     3
100
AcDbLine
 10
39.06826847919996
 20
243.5035314242
 30
0.0
 11
39.06826847919996
 21
193.7220929427
 31
0.0
  0
LINE
  5
C1
330
2
100
AcDbEntity
  8
0
 62
     3
100
AcDbLine
 10
43.12363568429995
 20
225.6721466797999
 30
0.0
 11
41.70133491159996
 21
224.4653460241999
 31
0.0
  0
LINE
  5
C2
330
2
100
AcDbEntity
  8
0
  6
CENTER
 62
     3
100
AcDbLine
 10
42.91826847919998
 20
228.0035314241998
 30
0.0
 11
35.21826847919999
 21
228.0035314241998
 31
0.0
  0
LINE
  5
C3
330
2
100
AcDbEntity
  8
0
 62
     3
100
AcDbLine
 10
42.91051757939996
 20
220.6750040558
 30
0.0
 11
41.48821680679998
 21
222.0973048284
 31
0.0
  0
LINE
  5
C4
330
2
100
AcDbEntity
  8
0
 62
     3
100
AcDbLine
 10
43.03981764969996
 20
216.1495015973
 30
0.0
 11
41.61751687699996
 21
214.9427009416999
 31
0.0
  0
LINE
  5
C5
330
2
100
AcDbEntity
  8
0
 62
     3
100
AcDbLine
 10
43.02862544449999
 20
201.7979356521999
 30
0.0
 11
41.60632467179996
 21
203.2202364249
 31
0.0
  0
LINE
  5
C6
330
2
100
AcDbEntity
  8
0
 62
     3
100
AcDbLine
 10
43.05554270229999
 20
206.6652697470999
 30
0.0
 11
41.63324192959999
 21
205.4584690915
 31
0.0
  0
LINE
  5
C7
330
2
100
AcDbEntity
  8
0
 62
     3
100
AcDbLine
 10
42.92624263199996
 20
211.1907722055998
 30
0.0
 11
41.50394185929997
 21
212.6130729783
 31
0.0
  0
LINE
  5
C8
330
2
100
AcDbEntity
  8
0
  6
CENTER
 62
     3
100
AcDbLine
 10
42.91826847919998
 20
218.5035314241999
 30
0.0
 11
35.21826847919999
 21
218.5035314241999
 31
0.0
  0
LINE
  5
C9
330
2
100
AcDbEntity
  8
0
  6
CENTER
 62
     3
100
AcDbLine
 10
42.91826847919998
 20
209.0035314241998
 30
0.0
 11
35.21826847919999
 21
209.0035314241998
 31
0.0
  0
CIRCLE
  5
CA
330
2
100
AcDbEntity
  8
0
 62
     3
100
AcDbCircle
 10
39.06826847919996
 20
218.5035314241999
 30
0.0
 40
3.5
  0
CIRCLE
  5
CB
330
2
100
AcDbEntity
  8
0
 62
     3
100
AcDbCircle
 10
39.06826847919996
 20
209.0035314241998
 30
0.0
 40
3.5
  0
LINE
  5
CC
330
2
100
AcDbEntity
  8
0
 62
     3
100
AcDbLine
 10
43.15792551479995
 20
197.2724331937
 30
0.0
 11
41.73562474209996
 21
196.0656325381
 31
0.0
  0
LINE
  5
CD
330
2
100
AcDbEntity
  8
0
  6
CENTER
 62
     3
100
AcDbLine
 10
42.91826847919998
 20
199.5035314241999
 30
0.0
 11
35.21826847919999
 21
199.5035314241999
 31
0.0
  0
CIRCLE
  5
CE
330
2
100
AcDbEntity
  8
0
 62
     3
100
AcDbCircle
 10
39.06826847919996
 20
199.5035314241999
 30
0.0
 40
3.5
  0
LINE
  5
CF
330
2
100
AcDbEntity
  8
0
 62
     3
100
AcDbLine
 10
31.56826847919998
 20
193.5035314241999
 30
0.0
 11
46.56826847919996
 21
193.5035314241999
 31
0.0
  0
LINE
  5
D0
330
2
100
AcDbEntity
  8
0
 62
     3
100
AcDbLine
 10
46.56826847919996
 20
195.5035314241998
 30
0.0
 11
31.56826847919998
 21
195.5035314241998
 31
0.0
  0
LINE
  5
D1
330
2
100
AcDbEntity
  8
0
 62
     3
100
AcDbLine
 10
46.56826847919996
 20
203.5035314241999
 30
0.0
 11
31.56826847919998
 21
203.5035314241999
 31
0.0
  0
LINE
  5
D2
330
2
100
AcDbEntity
  8
0
 62
     3
100
AcDbLine
 10
46.56826847919996
 20
205.0035314241998
 30
0.0
 11
31.56826847919998
 21
205.0035314241998
 31
0.0
  0
LINE
  5
D3
330
2
100
AcDbEntity
  8
0
 62
     3
100
AcDbLine
 10
46.56826847919996
 20
213.0035314241998
 30
0.0
 11
31.56826847919998
 21
213.0035314241998
 31
0.0
  0
LINE
  5
D4
330
2
100
AcDbEntity
  8
0
 62
     3
100
AcDbLine
 10
46.56826847919996
 20
214.5035314241999
 30
0.0
 11
31.56826847919998
 21
214.5035314241999
 31
0.0
  0
LINE
  5
D5
330
2
100
AcDbEntity
  8
0
 62
     3
100
AcDbLine
 10
46.56826847919996
 20
222.5035314241999
 30
0.0
 11
31.56826847919998
 21
222.5035314241999
 31
0.0
  0
LINE
  5
D6
330
2
100
AcDbEntity
  8
0
 62
     3
100
AcDbLine
 10
46.56826847919996
 20
224.0035314241999
 30
0.0
 11
31.56826847919998
 21
224.0035314241999
 31
0.0
  0
LINE
  5
D7
330
2
100
AcDbEntity
  8
0
 62
     3
100
AcDbLine
 10
43.96826847919999
 20
189.5035314241999
 30
0.0
 11
40.96826847919999
 21
189.5035314241999
 31
0.0
  0
LINE
  5
D8
330
2
100
AcDbEntity
  8
0
 62
     3
100
AcDbLine
 10
27.46826847919999
 20
188.0035314241998
 30
0.0
 11
55.96826847919999
 21
188.0035314241998
 31
0.0
  0
LINE
  5
D9
330
2
100
AcDbEntity
  8
0
 62
     3
100
AcDbLine
 10
55.96826847919999
 20
187.0035314241999
 30
0.0
 11
27.46826847919999
 21
187.0035314241999
 31
0.0
  0
LINE
  5
DA
330
2
100
AcDbEntity
  8
0
 62
     3
100
AcDbLine
 10
39.66826847919998
 20
207.8035314241999
 30
0.0
 11
39.66826847919998
 21
206.5035314241999
 31
0.0
  0
LINE
  5
DB
330
2
100
AcDbEntity
  8
0
 62
     3
100
AcDbLine
 10
38.46826847919999
 20
206.5035314241999
 30
0.0
 11
38.46826847919999
 21
207.8035314241999
 31
0.0
  0
LINE
  5
DC
330
2
100
AcDbEntity
  8
0
 62
     3
100
AcDbLine
 10
34.56826847919998
 20
213.0035314241998
 30
0.0
 11
34.56826847919998
 21
205.0035314241998
 31
0.0
  0
LINE
  5
DD
330
2
100
AcDbEntity
  8
0
 62
     3
100
AcDbLine
 10
33.56826847919998
 20
213.0035314241998
 30
0.0
 11
33.56826847919998
 21
205.0035314241998
 31
0.0
  0
LINE
  5
DE
330
2
100
AcDbEntity
  8
0
 62
     3
100
AcDbLine
 10
35.71416651289999
 20
200.5035314241998
 30
0.0
 11
34.56826847919998
 21
200.5035314241998
 31
0.0
  0
LINE
  5
DF
330
2
100
AcDbEntity
  8
0
 62
     3
100
AcDbLine
 10
35.71416651289999
 20
198.5035314241999
 30
0.0
 11
34.56826847919998
 21
198.5035314241999
 31
0.0
  0
LINE
  5
E0
330
2
100
AcDbEntity
  8
0
 62
     3
100
AcDbLine
 10
34.56826847919998
 20
203.5035314241999
 30
0.0
 11
34.56826847919998
 21
195.5035314241998
 31
0.0
  0
LINE
  5
E1
330
2
100
AcDbEntity
  8
0
 62
     3
100
AcDbLine
 10
33.56826847919998
 20
203.5035314241999
 30
0.0
 11
33.56826847919998
 21
195.5035314241998
 31
0.0
  0
LINE
  5
E2
330
2
100
AcDbEntity
  8
0
 62
     3
100
AcDbLine
 10
29.96826847919999
 20
188.5035314241999
 30
0.0
 11
31.56826847919998
 21
188.5035314241999
 31
0.0
  0
LINE
  5
E3
330
2
100
AcDbEntity
  8
0
 62
     3
100
AcDbLine
 10
29.96826847919999
 20
188.0035314241998
 30
0.0
 11
29.96826847919999
 21
190.0035314241998
 31
0.0
  0
LINE
  5
E4
330
2
100
AcDbEntity
  8
0
 62
     3
100
AcDbLine
 10
27.96826847919999
 20
188.0035314241998
 30
0.0
 11
27.96826847919999
 21
190.0035314241998
 31
0.0
  0
LINE
  5
E5
330
2
100
AcDbEntity
  8
0
 62
     3
100
AcDbLine
 10
27.96826847919999
 20
190.0035314241998
 30
0.0
 11
29.96826847919999
 21
190.0035314241998
 31
0.0
  0
LINE
  5
E6
330
2
100
AcDbEntity
  8
0
 62
     3
100
AcDbLine
 10
31.7682684792
 20
190.0035314241998
 30
0.0
 11
31.7682684792
 21
188.0035314241998
 31
0.0
  0
LINE
  5
E7
330
2
100
AcDbEntity
  8
0
 62
     3
100
AcDbLine
 10
33.7682684792
 20
190.0035314241998
 30
0.0
 11
33.7682684792
 21
188.0035314241998
 31
0.0
  0
LINE
  5
E8
330
2
100
AcDbEntity
  8
0
 62
     3
100
AcDbLine
 10
31.7682684792
 20
190.0035314241998
 30
0.0
 11
33.7682684792
 21
190.0035314241998
 31
0.0
  0
LINE
  5
E9
330
2
100
AcDbEntity
  8
0
 62
     3
100
AcDbLine
 10
40.06826847919998
 20
196.1494294579999
 30
0.0
 11
40.06826847919998
 21
195.5035314241998
 31
0.0
  0
LINE
  5
EA
330
2
100
AcDbEntity
  8
0
 62
     3
100
AcDbLine
 10
38.06826847919998
 20
196.1494294579999
 30
0.0
 11
38.06826847919998
 21
195.5035314241998
 31
0.0
  0
ARC
  5
EB
330
2
100
AcDbEntity
  8
0
 62
     3
100
AcDbCircle
 10
39.96876867929998
 20
188.9719062741
 30
0.0
 40
1.0
100
AcDbArc
 50
284.4479149006998
 51
1.812289807599958
  0
LINE
  5
EC
330
2
100
AcDbEntity
  8
0
 62
     3
100
AcDbLine
 10
40.96826847919999
 20
189.0035314241999
 30
0.0
 11
40.96826847919999
 21
189.5035314241999
 31
0.0
  0
LINE
  5
ED
330
2
100
AcDbEntity
  8
0
 62
     3
100
AcDbLine
 10
39.66826847919998
 20
206.5035314241999
 30
0.0
 11
38.46826847919999
 21
206.5035314241999
 31
0.0
  0
LINE
  5
EE
330
2
100
AcDbEntity
  8
0
 62
     3
100
AcDbLine
 10
38.46826847919999
 20
202.0035314241999
 30
0.0
 11
39.66826847919998
 21
202.0035314241999
 31
0.0
  0
ARC
  5
EF
330
2
100
AcDbEntity
  8
0
 62
     3
100
AcDbCircle
 10
37.8682684792
 20
198.3035314242
 30
0.0
 40
0.6
100
AcDbArc
 50
0.0
 51
90.0
  0
ARC
  5
F0
330
2
100
AcDbEntity
  8
0
 62
     3
100
AcDbCircle
 10
37.8682684792
 20
200.7035314242
 30
0.0
 40
0.6
100
AcDbArc
 50
270.0
 51
0.0
  0
LINE
  5
F1
330
2
100
AcDbEntity
  8
0
 62
     3
100
AcDbLine
 10
39.66826847919998
 20
197.0035314241999
 30
0.0
 11
38.46826847919999
 21
197.0035314241999
 31
0.0
  0
LINE
  5
F2
330
2
100
AcDbEntity
  8
0
 62
     3
100
AcDbLine
 10
38.46826847919999
 20
200.7035314242
 30
0.0
 11
38.46826847919999
 21
202.0035314241999
 31
0.0
  0
LINE
  5
F3
330
2
100
AcDbEntity
  8
0
 62
     3
100
AcDbLine
 10
37.8682684792
 20
198.9035314241999
 30
0.0
 11
36.56826847919996
 21
198.9035314241999
 31
0.0
  0
LINE
  5
F4
330
2
100
AcDbEntity
  8
0
 62
     3
100
AcDbLine
 10
36.56826847919996
 20
200.1035314242
 30
0.0
 11
37.8682684792
 21
200.1035314242
 31
0.0
  0
LINE
  5
F5
330
2
100
AcDbEntity
  8
0
 62
     3
100
AcDbLine
 10
36.56826847919996
 20
198.9035314241999
 30
0.0
 11
36.56826847919996
 21
200.1035314242
 31
0.0
  0
LINE
  5
F6
330
2
100
AcDbEntity
  8
0
 62
     3
100
AcDbLine
 10
35.1844211831
 20
197.6387833928
 30
0.0
 11
36.41277185039999
 21
196.0656325381
 31
0.0
  0
LINE
  5
F7
330
2
100
AcDbEntity
  8
0
 62
     3
100
AcDbLine
 10
38.46826847919999
 20
197.0035314241999
 30
0.0
 11
38.46826847919999
 21
198.3035314242
 31
0.0
  0
LINE
  5
F8
330
2
100
AcDbEntity
  8
0
 62
     3
100
AcDbLine
 10
35.08203837059994
 20
207.0316199460999
 30
0.0
 11
36.31038903789999
 21
205.4584690915
 31
0.0
  0
LINE
  5
F9
330
2
100
AcDbEntity
  8
0
 62
     3
100
AcDbLine
 10
36.56362193239999
 20
203.1124863663997
 30
0.0
 11
35.22752120659996
 21
202.0996358161
 31
0.0
  0
LINE
  5
FA
330
2
100
AcDbEntity
  8
0
 62
     3
100
AcDbLine
 10
38.06826847919998
 20
205.6494294579997
 30
0.0
 11
38.06826847919998
 21
205.0035314241998
 31
0.0
  0
LINE
  5
FB
330
2
100
AcDbEntity
  8
0
 62
     3
100
AcDbLine
 10
38.06826847919998
 20
203.5035314241999
 30
0.0
 11
38.06826847919998
 21
202.8576333904998
 31
0.0
  0
LINE
  5
FC
330
2
100
AcDbEntity
  8
0
 62
     3
100
AcDbLine
 10
39.66826847919998
 20
202.0035314241999
 30
0.0
 11
39.66826847919998
 21
200.7035314242
 31
0.0
  0
LINE
  5
FD
330
2
100
AcDbEntity
  8
0
 62
     3
100
AcDbLine
 10
40.2682684792
 20
200.1035314242
 30
0.0
 11
41.56826847919996
 21
200.1035314242
 31
0.0
  0
LINE
  5
FE
330
2
100
AcDbEntity
  8
0
 62
     3
100
AcDbLine
 10
41.56826847919996
 20
198.9035314241999
 30
0.0
 11
40.2682684792
 21
198.9035314241999
 31
0.0
  0
LINE
  5
FF
330
2
100
AcDbEntity
  8
0
 62
     3
100
AcDbLine
 10
39.66826847919998
 20
198.3035314242
 30
0.0
 11
39.66826847919998
 21
197.0035314241999
 31
0.0
  0
ARC
  5
100
330
2
100
AcDbEntity
  8
0
 62
     3
100
AcDbCircle
 10
40.2682684792
 20
200.7035314242
 30
0.0
 40
0.6
100
AcDbArc
 50
180.0
 51
270.0
  0
ARC
  5
101
330
2
100
AcDbEntity
  8
0
 62
     3
100
AcDbCircle
 10
40.2682684792
 20
198.3035314242
 30
0.0
 40
0.6
100
AcDbArc
 50
90.0
 51
180.0
  0
LINE
  5
102
330
2
100
AcDbEntity
  8
0
 62
     3
100
AcDbLine
 10
41.56826847919996
 20
200.1035314242
 30
0.0
 11
41.56826847919996
 21
198.9035314241999
 31
0.0
  0
LINE
  5
103
330
2
100
AcDbEntity
  8
0
 62
     3
100
AcDbLine
 10
40.06826847919998
 20
205.6494294579997
 30
0.0
 11
40.06826847919998
 21
205.0035314241998
 31
0.0
  0
LINE
  5
104
330
2
100
AcDbEntity
  8
0
 62
     3
100
AcDbLine
 10
40.06826847919998
 20
203.5035314241999
 30
0.0
 11
40.06826847919998
 21
202.8576333904998
 31
0.0
  0
LINE
  5
105
330
2
100
AcDbEntity
  8
0
 62
     3
100
AcDbLine
 10
35.71416651289999
 20
229.0035314241998
 30
0.0
 11
34.56826847919998
 21
229.0035314241998
 31
0.0
  0
LINE
  5
106
330
2
100
AcDbEntity
  8
0
 62
     3
100
AcDbLine
 10
35.71416651289999
 20
227.0035314241999
 30
0.0
 11
34.56826847919998
 21
227.0035314241999
 31
0.0
  0
LINE
  5
107
330
2
100
AcDbEntity
  8
0
 62
     3
100
AcDbLine
 10
35.71416651289999
 20
219.5035314241998
 30
0.0
 11
34.56826847919998
 21
219.5035314241998
 31
0.0
  0
LINE
  5
108
330
2
100
AcDbEntity
  8
0
 62
     3
100
AcDbLine
 10
35.71416651289999
 20
217.5035314241998
 30
0.0
 11
34.56826847919998
 21
217.5035314241998
 31
0.0
  0
LINE
  5
109
330
2
100
AcDbEntity
  8
0
 62
     3
100
AcDbLine
 10
35.71416651289999
 20
210.0035314241999
 30
0.0
 11
34.56826847919998
 21
210.0035314241999
 31
0.0
  0
LINE
  5
10A
330
2
100
AcDbEntity
  8
0
 62
     3
100
AcDbLine
 10
35.71416651289999
 20
208.0035314241998
 30
0.0
 11
34.56826847919998
 21
208.0035314241998
 31
0.0
  0
LINE
  5
10B
330
2
100
AcDbEntity
  8
0
 62
     3
100
AcDbLine
 10
34.56826847919998
 20
222.5035314241999
 30
0.0
 11
34.56826847919998
 21
214.5035314241999
 31
0.0
  0
LINE
  5
10C
330
2
100
AcDbEntity
  8
0
 62
     3
100
AcDbLine
 10
33.56826847919998
 20
222.5035314241999
 30
0.0
 11
33.56826847919998
 21
214.5035314241999
 31
0.0
  0
LINE
  5
10D
330
2
100
AcDbEntity
  8
0
 62
     3
100
AcDbLine
 10
41.56826847919996
 20
219.1035314241998
 30
0.0
 11
41.56826847919996
 21
217.9035314241999
 31
0.0
  0
LINE
  5
10E
330
2
100
AcDbEntity
  8
0
 62
     3
100
AcDbLine
 10
36.56826847919996
 20
217.9035314241999
 30
0.0
 11
36.56826847919996
 21
219.1035314241998
 31
0.0
  0
ARC
  5
10F
330
2
100
AcDbEntity
  8
0
 62
     3
100
AcDbCircle
 10
37.8682684792
 20
217.3035314241999
 30
0.0
 40
0.6
100
AcDbArc
 50
0.0
 51
90.0
  0
LINE
  5
110
330
2
100
AcDbEntity
  8
0
 62
     3
100
AcDbLine
 10
39.66826847919998
 20
216.0035314241999
 30
0.0
 11
38.46826847919999
 21
216.0035314241999
 31
0.0
  0
ARC
  5
111
330
2
100
AcDbEntity
  8
0
 62
     3
100
AcDbCircle
 10
37.8682684792
 20
207.8035314241999
 30
0.0
 40
0.6
100
AcDbArc
 50
0.0
 51
90.0
  0
ARC
  5
112
330
2
100
AcDbEntity
  8
0
 62
     3
100
AcDbCircle
 10
37.8682684792
 20
210.2035314241998
 30
0.0
 40
0.6
100
AcDbArc
 50
270.0
 51
0.0
  0
LINE
  5
113
330
2
100
AcDbEntity
  8
0
 62
     3
100
AcDbLine
 10
38.46826847919999
 20
211.5035314241999
 30
0.0
 11
39.66826847919998
 21
211.5035314241999
 31
0.0
  0
LINE
  5
114
330
2
100
AcDbEntity
  8
0
 62
     3
100
AcDbLine
 10
38.06826847919998
 20
213.0035314241998
 30
0.0
 11
38.06826847919998
 21
212.3576333904999
 31
0.0
  0
LINE
  5
115
330
2
100
AcDbEntity
  8
0
 62
     3
100
AcDbLine
 10
37.8682684792
 20
208.4035314241999
 30
0.0
 11
36.56826847919996
 21
208.4035314241999
 31
0.0
  0
LINE
  5
116
330
2
100
AcDbEntity
  8
0
 62
     3
100
AcDbLine
 10
36.56826847919996
 20
209.6035314241999
 30
0.0
 11
37.8682684792
 21
209.6035314241999
 31
0.0
  0
LINE
  5
117
330
2
100
AcDbEntity
  8
0
 62
     3
100
AcDbLine
 10
36.56826847919996
 20
208.4035314241999
 30
0.0
 11
36.56826847919996
 21
209.6035314241999
 31
0.0
  0
LINE
  5
118
330
2
100
AcDbEntity
  8
0
 62
     3
100
AcDbLine
 10
36.4612391199
 20
212.5053229196998
 30
0.0
 11
35.12513839409996
 21
211.4924723694999
 31
0.0
  0
LINE
  5
119
330
2
100
AcDbEntity
  8
0
 62
     3
100
AcDbLine
 10
38.46826847919999
 20
210.2035314241998
 30
0.0
 11
38.46826847919999
 21
211.5035314241999
 31
0.0
  0
LINE
  5
11A
330
2
100
AcDbEntity
  8
0
 62
     3
100
AcDbLine
 10
37.8682684792
 20
217.9035314241999
 30
0.0
 11
36.56826847919996
 21
217.9035314241999
 31
0.0
  0
LINE
  5
11B
330
2
100
AcDbEntity
  8
0
 62
     3
100
AcDbLine
 10
35.06631331809998
 20
216.5158517962999
 30
0.0
 11
36.29466398539998
 21
214.9427009416999
 31
0.0
  0
LINE
  5
11C
330
2
100
AcDbEntity
  8
0
 62
     3
100
AcDbLine
 10
38.06826847919998
 20
215.1494294579999
 30
0.0
 11
38.06826847919998
 21
214.5035314241999
 31
0.0
  0
LINE
  5
11D
330
2
100
AcDbEntity
  8
0
 62
     3
100
AcDbLine
 10
38.46826847919999
 20
216.0035314241999
 30
0.0
 11
38.46826847919999
 21
217.3035314241999
 31
0.0
  0
LINE
  5
11E
330
2
100
AcDbEntity
  8
0
 62
     3
100
AcDbLine
 10
40.06826847919998
 20
213.0035314241998
 30
0.0
 11
40.06826847919998
 21
212.3576333904999
 31
0.0
  0
LINE
  5
11F
330
2
100
AcDbEntity
  8
0
 62
     3
100
AcDbLine
 10
40.2682684792
 20
209.6035314241999
 30
0.0
 11
41.56826847919996
 21
209.6035314241999
 31
0.0
  0
LINE
  5
120
330
2
100
AcDbEntity
  8
0
 62
     3
100
AcDbLine
 10
41.56826847919996
 20
208.4035314241999
 30
0.0
 11
40.2682684792
 21
208.4035314241999
 31
0.0
  0
LINE
  5
121
330
2
100
AcDbEntity
  8
0
 62
     3
100
AcDbLine
 10
39.66826847919998
 20
211.5035314241999
 30
0.0
 11
39.66826847919998
 21
210.2035314241998
 31
0.0
  0
ARC
  5
122
330
2
100
AcDbEntity
  8
0
 62
     3
100
AcDbCircle
 10
40.2682684792
 20
210.2035314241998
 30
0.0
 40
0.6
100
AcDbArc
 50
180.0
 51
270.0
  0
ARC
  5
123
330
2
100
AcDbEntity
  8
0
 62
     3
100
AcDbCircle
 10
40.2682684792
 20
207.8035314241999
 30
0.0
 40
0.6
100
AcDbArc
 50
90.0
 51
180.0
  0
LINE
  5
124
330
2
100
AcDbEntity
  8
0
 62
     3
100
AcDbLine
 10
41.56826847919996
 20
209.6035314241999
 30
0.0
 11
41.56826847919996
 21
208.4035314241999
 31
0.0
  0
LINE
  5
125
330
2
100
AcDbEntity
  8
0
 62
     3
100
AcDbLine
 10
41.56826847919996
 20
217.9035314241999
 30
0.0
 11
40.2682684792
 21
217.9035314241999
 31
0.0
  0
LINE
  5
126
330
2
100
AcDbEntity
  8
0
 62
     3
100
AcDbLine
 10
40.06826847919998
 20
215.1494294579999
 30
0.0
 11
40.06826847919998
 21
214.5035314241999
 31
0.0
  0
LINE
  5
127
330
2
100
AcDbEntity
  8
0
 62
     3
100
AcDbLine
 10
39.66826847919998
 20
217.3035314241999
 30
0.0
 11
39.66826847919998
 21
216.0035314241999
 31
0.0
  0
LINE
  5
128
330
2
100
AcDbEntity
  8
0
 62
     3
100
AcDbLine
 10
39.06826847919996
 20
218.5035314241999
 30
0.0
 11
39.07585659849999
 21
218.5035314241999
 31
0.0
  0
ARC
  5
129
330
2
100
AcDbEntity
  8
0
 62
     3
100
AcDbCircle
 10
40.2682684792
 20
217.3035314241999
 30
0.0
 40
0.6
100
AcDbArc
 50
90.0
 51
180.0
  0
ARC
  5
12A
330
2
100
AcDbEntity
  8
0
 62
     3
100
AcDbCircle
 10
37.8682684792
 20
226.8035314241999
 30
0.0
 40
0.6
100
AcDbArc
 50
0.0
 51
90.0
  0
ARC
  5
12B
330
2
100
AcDbEntity
  8
0
 62
     3
100
AcDbCircle
 10
37.8682684792
 20
229.2035314241998
 30
0.0
 40
0.6
100
AcDbArc
 50
270.0
 51
0.0
  0
LINE
  5
12C
330
2
100
AcDbEntity
  8
0
 62
     3
100
AcDbLine
 10
39.66826847919998
 20
225.5035314241999
 30
0.0
 11
38.46826847919999
 21
225.5035314241999
 31
0.0
  0
ARC
  5
12D
330
2
100
AcDbEntity
  8
0
 62
     3
100
AcDbCircle
 10
37.8682684792
 20
219.7035314241998
 30
0.0
 40
0.6
100
AcDbArc
 50
270.0
 51
0.0
  0
LINE
  5
12E
330
2
100
AcDbEntity
  8
0
 62
     3
100
AcDbLine
 10
38.46826847919999
 20
221.0035314241999
 30
0.0
 11
39.66826847919998
 21
221.0035314241999
 31
0.0
  0
LINE
  5
12F
330
2
100
AcDbEntity
  8
0
 62
     3
100
AcDbLine
 10
38.06826847919998
 20
224.6494294579999
 30
0.0
 11
38.06826847919998
 21
224.0035314241999
 31
0.0
  0
LINE
  5
130
330
2
100
AcDbEntity
  8
0
 62
     3
100
AcDbLine
 10
36.56826847919996
 20
219.1035314241998
 30
0.0
 11
37.8682684792
 21
219.1035314241998
 31
0.0
  0
LINE
  5
131
330
2
100
AcDbEntity
  8
0
 62
     3
100
AcDbLine
 10
36.44551406729997
 20
221.9895547699
 30
0.0
 11
35.10941334149999
 21
220.9767042197
 31
0.0
  0
LINE
  5
132
330
2
100
AcDbEntity
  8
0
 62
     3
100
AcDbLine
 10
38.06826847919998
 20
222.5035314241999
 30
0.0
 11
38.06826847919998
 21
221.8576333904999
 31
0.0
  0
LINE
  5
133
330
2
100
AcDbEntity
  8
0
 62
     3
100
AcDbLine
 10
38.46826847919999
 20
219.7035314241998
 30
0.0
 11
38.46826847919999
 21
221.0035314241999
 31
0.0
  0
LINE
  5
134
330
2
100
AcDbEntity
  8
0
 62
     3
100
AcDbLine
 10
37.8682684792
 20
227.4035314241999
 30
0.0
 11
36.56826847919996
 21
227.4035314241999
 31
0.0
  0
LINE
  5
135
330
2
100
AcDbEntity
  8
0
 62
     3
100
AcDbLine
 10
36.56826847919996
 20
228.6035314241999
 30
0.0
 11
37.8682684792
 21
228.6035314241999
 31
0.0
  0
LINE
  5
136
330
2
100
AcDbEntity
  8
0
 62
     3
100
AcDbLine
 10
36.56826847919996
 20
227.4035314241999
 30
0.0
 11
36.56826847919996
 21
228.6035314241999
 31
0.0
  0
LINE
  5
137
330
2
100
AcDbEntity
  8
0
 62
     3
100
AcDbLine
 10
35.15013135269998
 20
226.0384968788
 30
0.0
 11
36.37848201999998
 21
224.4653460241999
 31
0.0
  0
LINE
  5
138
330
2
100
AcDbEntity
  8
0
 62
     3
100
AcDbLine
 10
38.46826847919999
 20
225.5035314241999
 30
0.0
 11
38.46826847919999
 21
226.8035314241999
 31
0.0
  0
LINE
  5
139
330
2
100
AcDbEntity
  8
0
 62
     3
100
AcDbLine
 10
40.06826847919998
 20
224.6494294579999
 30
0.0
 11
40.06826847919998
 21
224.0035314241999
 31
0.0
  0
LINE
  5
13A
330
2
100
AcDbEntity
  8
0
 62
     3
100
AcDbLine
 10
40.2682684792
 20
219.1035314241998
 30
0.0
 11
41.56826847919996
 21
219.1035314241998
 31
0.0
  0
LINE
  5
13B
330
2
100
AcDbEntity
  8
0
 62
     3
100
AcDbLine
 10
40.06826847919998
 20
222.5035314241999
 30
0.0
 11
40.06826847919998
 21
221.8576333904999
 31
0.0
  0
LINE
  5
13C
330
2
100
AcDbEntity
  8
0
 62
     3
100
AcDbLine
 10
39.66826847919998
 20
221.0035314241999
 30
0.0
 11
39.66826847919998
 21
219.7035314241998
 31
0.0
  0
ARC
  5
13D
330
2
100
AcDbEntity
  8
0
 62
     3
100
AcDbCircle
 10
40.2682684792
 20
219.7035314241998
 30
0.0
 40
0.6
100
AcDbArc
 50
180.0
 51
270.0
  0
LINE
  5
13E
330
2
100
AcDbEntity
  8
0
 62
     3
100
AcDbLine
 10
40.2682684792
 20
228.6035314241999
 30
0.0
 11
41.56826847919996
 21
228.6035314241999
 31
0.0
  0
LINE
  5
13F
330
2
100
AcDbEntity
  8
0
 62
     3
100
AcDbLine
 10
41.56826847919996
 20
227.4035314241999
 30
0.0
 11
40.2682684792
 21
227.4035314241999
 31
0.0
  0
LINE
  5
140
330
2
100
AcDbEntity
  8
0
 62
     3
100
AcDbLine
 10
39.66826847919998
 20
226.8035314241999
 30
0.0
 11
39.66826847919998
 21
225.5035314241999
 31
0.0
  0
LINE
  5
141
330
2
100
AcDbEntity
  8
0
 62
     3
100
AcDbLine
 10
39.06826847919996
 20
228.0035314241998
 30
0.0
 11
39.08348046429995
 21
228.0035314241998
 31
0.0
  0
ARC
  5
142
330
2
100
AcDbEntity
  8
0
 62
     3
100
AcDbCircle
 10
40.2682684792
 20
229.2035314241998
 30
0.0
 40
0.6
100
AcDbArc
 50
180.0
 51
270.0
  0
ARC
  5
143
330
2
100
AcDbEntity
  8
0
 62
     3
100
AcDbCircle
 10
40.2682684792
 20
226.8035314241999
 30
0.0
 40
0.6
100
AcDbArc
 50
90.0
 51
180.0
  0
LINE
  5
144
330
2
100
AcDbEntity
  8
0
 62
     3
100
AcDbLine
 10
41.56826847919996
 20
228.6035314241999
 30
0.0
 11
41.56826847919996
 21
227.4035314241999
 31
0.0
  0
LINE
  5
145
330
2
100
AcDbEntity
  8
0
 62
     3
100
AcDbLine
 10
44.56826847919995
 20
213.0035314241998
 30
0.0
 11
44.56826847919995
 21
205.0035314241998
 31
0.0
  0
LINE
  5
146
330
2
100
AcDbEntity
  8
0
 62
     3
100
AcDbLine
 10
43.56826847919996
 20
205.0035314241998
 30
0.0
 11
43.56826847919996
 21
213.0035314241998
 31
0.0
  0
LINE
  5
147
330
2
100
AcDbEntity
  8
0
 62
     3
100
AcDbLine
 10
55.46826847919999
 20
193.0035314241999
 30
0.0
 11
48.96826847919999
 21
193.0035314241999
 31
0.0
  0
LINE
  5
148
330
2
100
AcDbEntity
  8
0
 62
     3
100
AcDbLine
 10
44.56826847919995
 20
203.5035314241999
 30
0.0
 11
44.56826847919995
 21
195.5035314241998
 31
0.0
  0
LINE
  5
149
330
2
100
AcDbEntity
  8
0
 62
     3
100
AcDbLine
 10
43.56826847919996
 20
195.5035314241998
 30
0.0
 11
43.56826847919996
 21
203.5035314241999
 31
0.0
  0
ARC
  5
14A
330
2
100
AcDbEntity
  8
0
 62
     3
100
AcDbCircle
 10
44.96776827899998
 20
188.9719062741
 30
0.0
 40
1.0
100
AcDbArc
 50
178.1877101922999
 51
255.5520850993999
  0
LINE
  5
14B
330
2
100
AcDbEntity
  8
0
 62
     3
100
AcDbLine
 10
43.96826847919999
 20
189.0035314241999
 30
0.0
 11
43.96826847919999
 21
189.5035314241999
 31
0.0
  0
LINE
  5
14C
330
2
100
AcDbEntity
  8
0
 62
     3
100
AcDbLine
 10
47.36826847919997
 20
188.0035314241998
 30
0.0
 11
47.36826847919997
 21
188.5035314241999
 31
0.0
  0
LINE
  5
14D
330
2
100
AcDbEntity
  8
0
 62
     3
100
AcDbLine
 10
43.56826847919996
 20
200.5035314241998
 30
0.0
 11
42.42237044539999
 21
200.5035314241998
 31
0.0
  0
LINE
  5
14E
330
2
100
AcDbEntity
  8
0
 62
     3
100
AcDbLine
 10
43.56826847919996
 20
198.5035314241999
 30
0.0
 11
42.42237044539999
 21
198.5035314241999
 31
0.0
  0
LINE
  5
14F
330
2
100
AcDbEntity
  8
0
 62
     3
100
AcDbLine
 10
55.46826847919999
 20
188.5035314241999
 30
0.0
 11
55.46826847919999
 21
193.0035314241999
 31
0.0
  0
LINE
  5
150
330
2
100
AcDbEntity
  8
0
 62
     3
100
AcDbLine
 10
55.96826847919999
 20
188.0035314241998
 30
0.0
 11
55.96826847919999
 21
187.0035314241999
 31
0.0
  0
LINE
  5
151
330
2
100
AcDbEntity
  8
0
 62
     3
100
AcDbLine
 10
44.56826847919995
 20
222.5035314241999
 30
0.0
 11
44.56826847919995
 21
214.5035314241999
 31
0.0
  0
LINE
  5
152
330
2
100
AcDbEntity
  8
0
 62
     3
100
AcDbLine
 10
43.56826847919996
 20
214.5035314241999
 30
0.0
 11
43.56826847919996
 21
222.5035314241999
 31
0.0
  0
LINE
  5
153
330
2
100
AcDbEntity
  8
0
 62
     3
100
AcDbLine
 10
43.56826847919996
 20
210.0035314241999
 30
0.0
 11
42.42237044539999
 21
210.0035314241999
 31
0.0
  0
LINE
  5
154
330
2
100
AcDbEntity
  8
0
 62
     3
100
AcDbLine
 10
43.56826847919996
 20
208.0035314241998
 30
0.0
 11
42.42237044539999
 21
208.0035314241998
 31
0.0
  0
LINE
  5
155
330
2
100
AcDbEntity
  8
0
 62
     3
100
AcDbLine
 10
43.56826847919996
 20
217.5035314241998
 30
0.0
 11
42.42237044539999
 21
217.5035314241998
 31
0.0
  0
LINE
  5
156
330
2
100
AcDbEntity
  8
0
 62
     3
100
AcDbLine
 10
43.56826847919996
 20
219.5035314241998
 30
0.0
 11
42.42237044539999
 21
219.5035314241998
 31
0.0
  0
LINE
  5
157
330
2
100
AcDbEntity
  8
0
 62
     3
100
AcDbLine
 10
43.56826847919996
 20
229.0035314241998
 30
0.0
 11
42.42237044539999
 21
229.0035314241998
 31
0.0
  0
LINE
  5
158
330
2
100
AcDbEntity
  8
0
 62
     3
100
AcDbLine
 10
43.56826847919996
 20
227.0035314241999
 30
0.0
 11
42.42237044539999
 21
227.0035314241999
 31
0.0
  0
LINE
  5
159
330
2
100
AcDbEntity
  8
0
 62
     3
100
AcDbLine
 10
42.81269713639995
 20
239.7107613875
 30
0.0
 11
41.39039636379999
 21
241.1330621602
 31
0.0
  0
LINE
  5
15A
330
2
100
AcDbEntity
  8
0
 62
     3
100
AcDbLine
 10
42.94199720669999
 20
235.1852589291
 30
0.0
 11
41.519696434
 21
233.9784582735
 31
0.0
  0
LINE
  5
15B
330
2
100
AcDbEntity
  8
0
 62
     3
100
AcDbLine
 10
42.99433561399999
 20
230.1976491382
 30
0.0
 11
41.57203484139995
 21
231.6199499109
 31
0.0
  0
LINE
  5
15C
330
2
100
AcDbEntity
  8
0
  6
CENTER
 62
     3
100
AcDbLine
 10
42.91826847919998
 20
237.5035314241999
 30
0.0
 11
35.21826847919999
 21
237.5035314241999
 31
0.0
  0
CIRCLE
  5
15D
330
2
100
AcDbEntity
  8
0
 62
     3
100
AcDbCircle
 10
39.06826847919996
 20
237.5035314241999
 30
0.0
 40
3.5
  0
LINE
  5
15E
330
2
100
AcDbEntity
  8
0
 62
     3
100
AcDbLine
 10
46.56826847919996
 20
243.5035314242
 30
0.0
 11
31.56826847919998
 21
243.5035314242
 31
0.0
  0
LINE
  5
15F
330
2
100
AcDbEntity
  8
0
 62
     3
100
AcDbLine
 10
46.56826847919996
 20
232.0035314241998
 30
0.0
 11
31.56826847919998
 21
232.0035314241998
 31
0.0
  0
LINE
  5
160
330
2
100
AcDbEntity
  8
0
 62
     3
100
AcDbLine
 10
46.56826847919996
 20
233.5035314241999
 30
0.0
 11
31.56826847919998
 21
233.5035314241999
 31
0.0
  0
LINE
  5
161
330
2
100
AcDbEntity
  8
0
 62
     3
100
AcDbLine
 10
46.56826847919996
 20
241.5035314242
 30
0.0
 11
31.56826847919998
 21
241.5035314242
 31
0.0
  0
LINE
  5
162
330
2
100
AcDbEntity
  8
0
 62
     3
100
AcDbLine
 10
34.2682684792
 20
254.0035314242
 30
0.0
 11
34.2682684792
 21
253.0035314241998
 31
0.0
  0
LINE
  5
163
330
2
100
AcDbEntity
  8
0
 62
     3
100
AcDbLine
 10
31.7682684792
 20
254.0035314242
 30
0.0
 11
31.7682684792
 21
253.0035314241998
 31
0.0
  0
LINE
  5
164
330
2
100
AcDbEntity
  8
0
 62
     3
100
AcDbLine
 10
31.56826847919998
 20
250.8035314241999
 30
0.0
 11
38.36826847919999
 21
250.8035314241999
 31
0.0
  0
LINE
  5
165
330
2
100
AcDbEntity
  8
0
 62
     3
100
AcDbLine
 10
35.71416651289999
 20
238.5035314241999
 30
0.0
 11
34.56826847919998
 21
238.5035314241999
 31
0.0
  0
LINE
  5
166
330
2
100
AcDbEntity
  8
0
 62
     3
100
AcDbLine
 10
35.71416651289999
 20
236.5035314241999
 30
0.0
 11
34.56826847919998
 21
236.5035314241999
 31
0.0
  0
LINE
  5
167
330
2
100
AcDbEntity
  8
0
 62
     3
100
AcDbLine
 10
31.56826847919998
 20
244.0035314241999
 30
0.0
 11
38.36826847919999
 21
244.0035314241999
 31
0.0
  0
CIRCLE
  5
168
330
2
100
AcDbEntity
  8
0
 62
     3
100
AcDbCircle
 10
36.56826847919996
 20
247.4035314241998
 30
0.0
 40
1.85
  0
ARC
  5
169
330
2
100
AcDbEntity
  8
0
 62
     3
100
AcDbCircle
 10
36.56826847919996
 20
247.4035314241998
 30
0.0
 40
3.399999999999999
100
AcDbArc
 50
8.968120927499997
 51
0.0
  0
LINE
  5
16A
330
2
100
AcDbEntity
  8
0
 62
     3
100
AcDbLine
 10
34.56826847919998
 20
241.5035314242
 30
0.0
 11
34.56826847919998
 21
233.5035314241999
 31
0.0
  0
LINE
  5
16B
330
2
100
AcDbEntity
  8
0
 62
     3
100
AcDbLine
 10
33.56826847919998
 20
241.5035314242
 30
0.0
 11
33.56826847919998
 21
233.5035314241999
 31
0.0
  0
LINE
  5
16C
330
2
100
AcDbEntity
  8
0
 62
     3
100
AcDbLine
 10
34.2682684792
 20
253.0035314241998
 30
0.0
 11
31.56826847919998
 21
253.0035314241998
 31
0.0
  0
LINE
  5
16D
330
2
100
AcDbEntity
  8
0
 62
     3
100
AcDbLine
 10
31.56826847919998
 20
252.9420572040999
 30
0.0
 11
31.56826847919998
 21
253.0035314241998
 31
0.0
  0
ARC
  5
16E
330
2
100
AcDbEntity
  8
0
 62
     3
100
AcDbCircle
 10
37.8682684792
 20
236.3035314241999
 30
0.0
 40
0.6
100
AcDbArc
 50
0.0
 51
90.0
  0
ARC
  5
16F
330
2
100
AcDbEntity
  8
0
 62
     3
100
AcDbCircle
 10
37.8682684792
 20
238.7035314241999
 30
0.0
 40
0.6
100
AcDbArc
 50
270.0
 51
0.0
  0
LINE
  5
170
330
2
100
AcDbEntity
  8
0
 62
     3
100
AcDbLine
 10
38.46826847919999
 20
240.0035314241999
 30
0.0
 11
39.66826847919998
 21
240.0035314241999
 31
0.0
  0
LINE
  5
171
330
2
100
AcDbEntity
  8
0
 62
     3
100
AcDbLine
 10
39.66826847919998
 20
235.0035314241999
 30
0.0
 11
38.46826847919999
 21
235.0035314241999
 31
0.0
  0
LINE
  5
172
330
2
100
AcDbEntity
  8
0
 62
     3
100
AcDbLine
 10
38.46826847919999
 20
230.5035314242
 30
0.0
 11
39.66826847919998
 21
230.5035314242
 31
0.0
  0
LINE
  5
173
330
2
100
AcDbEntity
  8
0
 62
     3
100
AcDbLine
 10
38.46826847919999
 20
235.0035314241999
 30
0.0
 11
38.46826847919999
 21
236.3035314241999
 31
0.0
  0
LINE
  5
174
330
2
100
AcDbEntity
  8
0
 62
     3
100
AcDbLine
 10
34.96849287509999
 20
235.5516091281
 30
0.0
 11
36.19684354239999
 21
233.9784582735
 31
0.0
  0
LINE
  5
175
330
2
100
AcDbEntity
  8
0
 62
     3
100
AcDbLine
 10
36.52933210189999
 20
231.5121998524
 30
0.0
 11
35.19323137609998
 21
230.4993493021
 31
0.0
  0
LINE
  5
176
330
2
100
AcDbEntity
  8
0
 62
     3
100
AcDbLine
 10
38.06826847919998
 20
234.1494294579999
 30
0.0
 11
38.06826847919998
 21
233.5035314241999
 31
0.0
  0
LINE
  5
177
330
2
100
AcDbEntity
  8
0
 62
     3
100
AcDbLine
 10
38.06826847919998
 20
232.0035314241998
 30
0.0
 11
38.06826847919998
 21
231.3576333904999
 31
0.0
  0
LINE
  5
178
330
2
100
AcDbEntity
  8
0
 62
     3
100
AcDbLine
 10
37.8682684792
 20
236.9035314241999
 30
0.0
 11
36.56826847919996
 21
236.9035314241999
 31
0.0
  0
LINE
  5
179
330
2
100
AcDbEntity
  8
0
 62
     3
100
AcDbLine
 10
36.56826847919996
 20
238.1035314241997
 30
0.0
 11
37.8682684792
 21
238.1035314241997
 31
0.0
  0
LINE
  5
17A
330
2
100
AcDbEntity
  8
0
 62
     3
100
AcDbLine
 10
36.56826847919996
 20
236.9035314241999
 30
0.0
 11
36.56826847919996
 21
238.1035314241997
 31
0.0
  0
LINE
  5
17B
330
2
100
AcDbEntity
  8
0
 62
     3
100
AcDbLine
 10
36.34769362429997
 20
241.0253121016999
 30
0.0
 11
35.01159289849999
 21
240.0124615513999
 31
0.0
  0
LINE
  5
17C
330
2
100
AcDbEntity
  8
0
 62
     3
100
AcDbLine
 10
38.46826847919999
 20
238.7035314241999
 30
0.0
 11
38.46826847919999
 21
240.0035314241999
 31
0.0
  0
LINE
  5
17D
330
2
100
AcDbEntity
  8
0
 62
     3
100
AcDbLine
 10
38.06826847919998
 20
240.8576333904999
 30
0.0
 11
38.06826847919998
 21
241.5035314242
 31
0.0
  0
LINE
  5
17E
330
2
100
AcDbEntity
  8
0
 62
     3
100
AcDbLine
 10
39.66826847919998
 20
236.3035314241999
 30
0.0
 11
39.66826847919998
 21
235.0035314241999
 31
0.0
  0
LINE
  5
17F
330
2
100
AcDbEntity
  8
0
 62
     3
100
AcDbLine
 10
40.06826847919998
 20
234.1494294579999
 30
0.0
 11
40.06826847919998
 21
233.5035314241999
 31
0.0
  0
LINE
  5
180
330
2
100
AcDbEntity
  8
0
 62
     3
100
AcDbLine
 10
40.06826847919998
 20
232.0035314241998
 30
0.0
 11
40.06826847919998
 21
231.3576333904999
 31
0.0
  0
LINE
  5
181
330
2
100
AcDbEntity
  8
0
 62
     3
100
AcDbLine
 10
40.2682684792
 20
238.1035314241997
 30
0.0
 11
41.56826847919996
 21
238.1035314241997
 31
0.0
  0
LINE
  5
182
330
2
100
AcDbEntity
  8
0
 62
     3
100
AcDbLine
 10
41.56826847919996
 20
236.9035314241999
 30
0.0
 11
40.2682684792
 21
236.9035314241999
 31
0.0
  0
LINE
  5
183
330
2
100
AcDbEntity
  8
0
 62
     3
100
AcDbLine
 10
39.66826847919998
 20
240.0035314241999
 30
0.0
 11
39.66826847919998
 21
238.7035314241999
 31
0.0
  0
LINE
  5
184
330
2
100
AcDbEntity
  8
0
 62
     3
100
AcDbLine
 10
40.06826847919998
 20
241.5035314242
 30
0.0
 11
40.06826847919998
 21
240.8576333904999
 31
0.0
  0
ARC
  5
185
330
2
100
AcDbEntity
  8
0
 62
     3
100
AcDbCircle
 10
40.2682684792
 20
238.7035314241999
 30
0.0
 40
0.6
100
AcDbArc
 50
180.0
 51
270.0
  0
ARC
  5
186
330
2
100
AcDbEntity
  8
0
 62
     3
100
AcDbCircle
 10
40.2682684792
 20
236.3035314241999
 30
0.0
 40
0.6
100
AcDbArc
 50
90.0
 51
180.0
  0
LINE
  5
187
330
2
100
AcDbEntity
  8
0
 62
     3
100
AcDbLine
 10
41.56826847919996
 20
238.1035314241997
 30
0.0
 11
41.56826847919996
 21
236.9035314241999
 31
0.0
  0
LINE
  5
188
330
2
100
AcDbEntity
  8
0
 62
     3
100
AcDbLine
 10
38.36826847919999
 20
250.8035314241999
 30
0.0
 11
39.96826847919999
 21
249.2035314241999
 31
0.0
  0
LINE
  5
189
330
2
100
AcDbEntity
  8
0
 62
     3
100
AcDbLine
 10
38.36826847919999
 20
244.0035314241999
 30
0.0
 11
39.96826847919999
 21
245.6035314241999
 31
0.0
  0
LINE
  5
18A
330
2
100
AcDbEntity
  8
0
 62
     3
100
AcDbLine
 10
36.03825983199999
 20
244.0450956523
 30
0.0
 11
39.92670425109997
 21
247.9335400714
 31
0.0
  0
LINE
  5
18B
330
2
100
AcDbEntity
  8
0
 62
     3
100
AcDbLine
 10
37.13395390409996
 20
247.4035314241998
 30
0.0
 11
38.12831516909998
 21
246.4091701591998
 31
0.0
  0
LINE
  5
18C
330
2
100
AcDbEntity
  8
0
 62
     3
100
AcDbLine
 10
36.00258305419996
 20
247.4035314241998
 30
0.0
 11
35.01263356059999
 21
246.4135819306
 31
0.0
  0
LINE
  5
18D
330
2
100
AcDbEntity
  8
0
 62
     3
100
AcDbLine
 10
37.56262974409998
 20
245.8434847343
 30
0.0
 11
36.56826847919996
 21
246.8378459993
 31
0.0
  0
LINE
  5
18E
330
2
100
AcDbEntity
  8
0
 62
     3
100
AcDbLine
 10
36.56826847919996
 20
246.8378459993
 30
0.0
 11
35.57831898549997
 21
245.8478965055999
 31
0.0
  0
LINE
  5
18F
330
2
100
AcDbEntity
  8
0
 62
     3
100
AcDbLine
 10
36.56826847919996
 20
247.9692168491999
 30
0.0
 11
37.56262974409998
 21
248.9635781140999
 31
0.0
  0
LINE
  5
190
330
2
100
AcDbEntity
  8
0
 62
     3
100
AcDbLine
 10
35.5739072142
 20
248.9635781140999
 30
0.0
 11
36.56826847919996
 21
247.9692168491999
 31
0.0
  0
LINE
  5
191
330
2
100
AcDbEntity
  8
0
 62
     3
100
AcDbLine
 10
35.00822178929996
 20
248.3978926891998
 30
0.0
 11
36.00258305419996
 21
247.4035314241998
 31
0.0
  0
LINE
  5
192
330
2
100
AcDbEntity
  8
0
 62
     3
100
AcDbLine
 10
38.12831516909998
 20
248.3978926891998
 30
0.0
 11
37.13395390409996
 21
247.4035314241998
 31
0.0
  0
LINE
  5
193
330
2
100
AcDbEntity
  8
0
 62
     3
100
AcDbLine
 10
39.96826847919999
 20
249.2035314241999
 30
0.0
 11
39.96826847919999
 21
245.6035314241999
 31
0.0
  0
ARC
  5
194
330
2
100
AcDbEntity
  8
0
 62
     3
100
AcDbCircle
 10
36.56826847919996
 20
247.4035314241998
 30
0.0
 40
3.399999999999999
100
AcDbArc
 50
0.0
 51
8.968120927499997
  0
LINE
  5
195
330
2
100
AcDbEntity
  8
0
 62
     3
100
AcDbLine
 10
31.56826847919998
 20
255.0035314241998
 30
0.0
 11
29.96826847919999
 21
255.0035314241998
 31
0.0
  0
LINE
  5
196
330
2
100
AcDbEntity
  8
0
 62
     3
100
AcDbLine
 10
31.56826847919998
 20
254.0035314242
 30
0.0
 11
34.2682684792
 21
254.0035314242
 31
0.0
  0
LINE
  5
197
330
2
100
AcDbEntity
  8
0
 62
     3
100
AcDbLine
 10
31.56826847919998
 20
254.0035314242
 30
0.0
 11
31.56826847919998
 21
254.0667042827999
 31
0.0
  0
LINE
  5
198
330
2
100
AcDbEntity
  8
0
 62
     3
100
AcDbLine
 10
44.56826847919995
 20
241.5035314242
 30
0.0
 11
44.56826847919995
 21
233.5035314241999
 31
0.0
  0
LINE
  5
199
330
2
100
AcDbEntity
  8
0
 62
     3
100
AcDbLine
 10
43.56826847919996
 20
233.5035314241999
 30
0.0
 11
43.56826847919996
 21
241.5035314242
 31
0.0
  0
LINE
  5
19A
330
2
100
AcDbEntity
  8
0
 62
     3
100
AcDbLine
 10
43.56826847919996
 20
238.5035314241999
 30
0.0
 11
42.42237044539999
 21
238.5035314241999
 31
0.0
  0
LINE
  5
19B
330
2
100
AcDbEntity
  8
0
 62
     3
100
AcDbLine
 10
43.56826847919996
 20
236.5035314241999
 30
0.0
 11
42.42237044539999
 21
236.5035314241999
 31
0.0
  0
LINE
  5
19C
330
2
100
AcDbEntity
  8
0
 62
     3
100
AcDbLine
 10
81.3682684792
 20
231.5035314241999
 30
0.0
 11
81.3682684792
 21
224.5035314241999
 31
0.0
  0
ARC
  5
19D
330
2
100
AcDbEntity
  8
0
 62
     3
100
AcDbCircle
 10
83.4307684792
 20
228.0035314241998
 30
0.0
 40
4.0625
100
AcDbArc
 50
120.5102374060997
 51
239.4897625938999
  0
LINE
  5
19E
330
2
100
AcDbEntity
  8
0
 62
     3
100
AcDbLine
 10
84.3682684792
 20
224.0035314241999
 30
0.0
 11
84.3682684792
 21
232.0035314241998
 31
0.0
  0
LINE
  5
19F
330
2
100
AcDbEntity
  8
0
 62
     3
100
AcDbLine
 10
85.3682684792
 20
232.0035314241998
 30
0.0
 11
85.3682684792
 21
224.0035314241999
 31
0.0
  0
LINE
  5
1A0
330
2
100
AcDbEntity
  8
0
 62
     3
100
AcDbLine
 10
86.3682684792
 20
224.0035314241999
 30
0.0
 11
86.3682684792
 21
232.0035314241998
 31
0.0
  0
LINE
  5
1A1
330
2
100
AcDbEntity
  8
0
  6
PHANTOM
 62
     3
100
AcDbLine
 10
76.3682684792
 20
195.5035314241998
 30
0.0
 11
76.3682684792
 21
241.5035314242
 31
0.0
  0
LINE
  5
1A2
330
2
100
AcDbEntity
  8
0
  6
PHANTOM
 62
     3
100
AcDbLine
 10
77.36826847919997
 20
195.5035314241998
 30
0.0
 11
77.36826847919997
 21
241.5035314242
 31
0.0
  0
LINE
  5
1A3
330
2
100
AcDbEntity
  8
0
  6
PHANTOM
 62
     3
100
AcDbLine
 10
59.96826847919999
 20
255.5035314241998
 30
0.0
 11
59.96826847919999
 21
188.5035314241999
 31
0.0
  0
LINE
  5
1A4
330
2
100
AcDbEntity
  8
0
 62
     3
100
AcDbLine
 10
82.36826847919997
 20
224.0035314241999
 30
0.0
 11
82.36826847919997
 21
232.0035314241998
 31
0.0
  0
ARC
  5
1A5
330
2
100
AcDbEntity
  8
0
  6
PHANTOM
 62
     3
100
AcDbCircle
 10
59.46826847919999
 20
188.5035314241999
 30
0.0
 40
0.5
100
AcDbArc
 50
270.0
 51
0.0
  0
LINE
  5
1A6
330
2
100
AcDbEntity
  8
0
 62
     3
100
AcDbLine
 10
81.3682684792
 20
205.5035314242
 30
0.0
 11
81.3682684792
 21
212.5035314241999
 31
0.0
  0
LINE
  5
1A7
330
2
100
AcDbEntity
  8
0
 62
     3
100
AcDbLine
 10
84.3682684792
 20
205.0035314241998
 30
0.0
 11
84.3682684792
 21
213.0035314241998
 31
0.0
  0
LINE
  5
1A8
330
2
100
AcDbEntity
  8
0
 62
     3
100
AcDbLine
 10
82.36826847919997
 20
205.0035314241998
 30
0.0
 11
82.36826847919997
 21
213.0035314241998
 31
0.0
  0
LINE
  5
1A9
330
2
100
AcDbEntity
  8
0
 62
     3
100
AcDbLine
 10
85.3682684792
 20
205.0035314241998
 30
0.0
 11
85.3682684792
 21
213.0035314241998
 31
0.0
  0
LINE
  5
1AA
330
2
100
AcDbEntity
  8
0
 62
     3
100
AcDbLine
 10
86.3682684792
 20
205.0035314241998
 30
0.0
 11
86.3682684792
 21
213.0035314241998
 31
0.0
  0
ARC
  5
1AB
330
2
100
AcDbEntity
  8
0
 62
     3
100
AcDbCircle
 10
83.4307684792
 20
209.0035314241998
 30
0.0
 40
4.0625
100
AcDbArc
 50
120.5102374060997
 51
239.4897625938999
  0
LINE
  5
1AC
330
2
100
AcDbEntity
  8
0
 62
     3
100
AcDbLine
 10
77.36826847919997
 20
205.0035314241998
 30
0.0
 11
84.3682684792
 21
205.0035314241998
 31
0.0
  0
LINE
  5
1AD
330
2
100
AcDbEntity
  8
0
 62
     3
100
AcDbLine
 10
77.36826847919997
 20
203.5035314241999
 30
0.0
 11
84.3682684792
 21
203.5035314241999
 31
0.0
  0
LINE
  5
1AE
330
2
100
AcDbEntity
  8
0
 62
     3
100
AcDbLine
 10
79.41282046429998
 20
200.1035314242
 30
0.0
 11
80.3682684792
 21
200.1035314242
 31
0.0
  0
LINE
  5
1AF
330
2
100
AcDbEntity
  8
0
 62
     3
100
AcDbLine
 10
80.3682684792
 20
198.9035314241999
 30
0.0
 11
79.41282046429998
 21
198.9035314241999
 31
0.0
  0
LINE
  5
1B0
330
2
100
AcDbEntity
  8
0
 62
     3
100
AcDbLine
 10
75.2682684792
 20
195.5035314241998
 30
0.0
 11
84.3682684792
 21
195.5035314241998
 31
0.0
  0
ARC
  5
1B1
330
2
100
AcDbEntity
  8
0
 62
     3
100
AcDbCircle
 10
83.4307684792
 20
199.5035314241999
 30
0.0
 40
4.0625
100
AcDbArc
 50
120.5102374060997
 51
239.4897625938999
  0
LINE
  5
1B2
330
2
100
AcDbEntity
  8
0
 62
     3
100
AcDbLine
 10
75.2682684792
 20
193.5035314241999
 30
0.0
 11
75.2682684792
 21
195.5035314241998
 31
0.0
  0
LINE
  5
1B3
330
2
100
AcDbEntity
  8
0
 62
     3
100
AcDbLine
 10
77.36826847919997
 20
203.5035314241999
 30
0.0
 11
77.36826847919997
 21
205.0035314241998
 31
0.0
  0
LINE
  5
1B4
330
2
100
AcDbEntity
  8
0
 62
     3
100
AcDbLine
 10
82.36826847919997
 20
196.0035314241999
 30
0.0
 11
82.8682684792
 21
195.5035314241998
 31
0.0
  0
LINE
  5
1B5
330
2
100
AcDbEntity
  8
0
 62
     3
100
AcDbLine
 10
84.3682684792
 20
195.5035314241998
 30
0.0
 11
84.3682684792
 21
203.5035314241999
 31
0.0
  0
LINE
  5
1B6
330
2
100
AcDbEntity
  8
0
 62
     3
100
AcDbLine
 10
85.3682684792
 20
195.5035314241998
 30
0.0
 11
85.3682684792
 21
203.5035314241999
 31
0.0
  0
LINE
  5
1B7
330
2
100
AcDbEntity
  8
0
 62
     3
100
AcDbLine
 10
86.3682684792
 20
195.5035314241998
 30
0.0
 11
86.3682684792
 21
203.5035314241999
 31
0.0
  0
LINE
  5
1B8
330
2
100
AcDbEntity
  8
0
 62
     3
100
AcDbLine
 10
82.36826847919997
 20
195.5035314241998
 30
0.0
 11
82.36826847919997
 21
203.5035314241999
 31
0.0
  0
LINE
  5
1B9
330
2
100
AcDbEntity
  8
0
 62
     3
100
AcDbLine
 10
84.3682684792
 20
195.5035314241998
 30
0.0
 11
86.3682684792
 21
195.5035314241998
 31
0.0
  0
LINE
  5
1BA
330
2
100
AcDbEntity
  8
0
 62
     3
100
AcDbLine
 10
81.3682684792
 20
196.0035314241999
 30
0.0
 11
81.3682684792
 21
203.0035314241998
 31
0.0
  0
LINE
  5
1BB
330
2
100
AcDbEntity
  8
0
 62
     3
100
AcDbLine
 10
81.3682684792
 20
196.0035314241999
 30
0.0
 11
82.36826847919997
 21
196.0035314241999
 31
0.0
  0
LINE
  5
1BC
330
2
100
AcDbEntity
  8
0
 62
     3
100
AcDbLine
 10
81.3682684792
 20
200.5035314241998
 30
0.0
 11
82.36826847919997
 21
199.5035314241999
 31
0.0
  0
LINE
  5
1BD
330
2
100
AcDbEntity
  8
0
 62
     3
100
AcDbLine
 10
81.3682684792
 20
199.5035314241999
 30
0.0
 11
82.36826847919997
 21
198.5035314241999
 31
0.0
  0
LINE
  5
1BE
330
2
100
AcDbEntity
  8
0
 62
     3
100
AcDbLine
 10
80.3682684792
 20
200.1035314242
 30
0.0
 11
80.3682684792
 21
198.9035314241999
 31
0.0
  0
LINE
  5
1BF
330
2
100
AcDbEntity
  8
0
 62
     3
100
AcDbLine
 10
81.3682684792
 20
205.5035314242
 30
0.0
 11
82.36826847919997
 21
205.5035314242
 31
0.0
  0
LINE
  5
1C0
330
2
100
AcDbEntity
  8
0
 62
     3
100
AcDbLine
 10
81.3682684792
 20
203.0035314241998
 30
0.0
 11
82.36826847919997
 21
203.0035314241998
 31
0.0
  0
LINE
  5
1C1
330
2
100
AcDbEntity
  8
0
 62
     3
100
AcDbLine
 10
82.36826847919997
 20
205.5035314242
 30
0.0
 11
82.8682684792
 21
205.0035314241998
 31
0.0
  0
LINE
  5
1C2
330
2
100
AcDbEntity
  8
0
 62
     3
100
AcDbLine
 10
82.36826847919997
 20
203.0035314241998
 30
0.0
 11
82.8682684792
 21
203.5035314241999
 31
0.0
  0
LINE
  5
1C3
330
2
100
AcDbEntity
  8
0
 62
     3
100
AcDbLine
 10
83.8682684792
 20
200.5035314241998
 30
0.0
 11
84.3682684792
 21
201.0035314241998
 31
0.0
  0
LINE
  5
1C4
330
2
100
AcDbEntity
  8
0
 62
     3
100
AcDbLine
 10
83.8682684792
 20
198.5035314241999
 30
0.0
 11
84.3682684792
 21
198.0035314242
 31
0.0
  0
LINE
  5
1C5
330
2
100
AcDbEntity
  8
0
 62
     3
100
AcDbLine
 10
83.8682684792
 20
200.5035314241998
 30
0.0
 11
84.3682684792
 21
200.5035314241998
 31
0.0
  0
LINE
  5
1C6
330
2
100
AcDbEntity
  8
0
 62
     3
100
AcDbLine
 10
83.8682684792
 20
198.5035314241999
 30
0.0
 11
84.3682684792
 21
198.5035314241999
 31
0.0
  0
LINE
  5
1C7
330
2
100
AcDbEntity
  8
0
 62
     3
100
AcDbLine
 10
84.3682684792
 20
197.0035314241999
 30
0.0
 11
85.3682684792
 21
197.0035314241999
 31
0.0
  0
LINE
  5
1C8
330
2
100
AcDbEntity
  8
0
 62
     3
100
AcDbLine
 10
84.3682684792
 20
205.0035314241998
 30
0.0
 11
86.3682684792
 21
205.0035314241998
 31
0.0
  0
LINE
  5
1C9
330
2
100
AcDbEntity
  8
0
 62
     3
100
AcDbLine
 10
84.3682684792
 20
203.5035314241999
 30
0.0
 11
86.3682684792
 21
203.5035314241999
 31
0.0
  0
LINE
  5
1CA
330
2
100
AcDbEntity
  8
0
 62
     3
100
AcDbLine
 10
84.3682684792
 20
206.5035314241999
 30
0.0
 11
85.3682684792
 21
206.5035314241999
 31
0.0
  0
LINE
  5
1CB
330
2
100
AcDbEntity
  8
0
 62
     3
100
AcDbLine
 10
84.3682684792
 20
202.0035314241999
 30
0.0
 11
85.3682684792
 21
202.0035314241999
 31
0.0
  0
LINE
  5
1CC
330
2
100
AcDbEntity
  8
0
 62
     3
100
AcDbLine
 10
80.3682684792
 20
227.4035314241999
 30
0.0
 11
79.41282046429998
 21
227.4035314241999
 31
0.0
  0
LINE
  5
1CD
330
2
100
AcDbEntity
  8
0
 62
     3
100
AcDbLine
 10
79.41282046429998
 20
228.6035314241999
 30
0.0
 11
80.3682684792
 21
228.6035314241999
 31
0.0
  0
LINE
  5
1CE
330
2
100
AcDbEntity
  8
0
 62
     3
100
AcDbLine
 10
79.41282046429998
 20
219.1035314241998
 30
0.0
 11
80.3682684792
 21
219.1035314241998
 31
0.0
  0
LINE
  5
1CF
330
2
100
AcDbEntity
  8
0
 62
     3
100
AcDbLine
 10
80.3682684792
 20
217.9035314241999
 30
0.0
 11
79.41282046429998
 21
217.9035314241999
 31
0.0
  0
LINE
  5
1D0
330
2
100
AcDbEntity
  8
0
 62
     3
100
AcDbLine
 10
80.3682684792
 20
208.4035314241999
 30
0.0
 11
79.41282046429998
 21
208.4035314241999
 31
0.0
  0
LINE
  5
1D1
330
2
100
AcDbEntity
  8
0
 62
     3
100
AcDbLine
 10
79.41282046429998
 20
209.6035314241999
 30
0.0
 11
80.3682684792
 21
209.6035314241999
 31
0.0
  0
LINE
  5
1D2
330
2
100
AcDbEntity
  8
0
 62
     3
100
AcDbLine
 10
77.36826847919997
 20
224.0035314241999
 30
0.0
 11
84.3682684792
 21
224.0035314241999
 31
0.0
  0
ARC
  5
1D3
330
2
100
AcDbEntity
  8
0
 62
     3
100
AcDbCircle
 10
83.4307684792
 20
218.5035314241999
 30
0.0
 40
4.0625
100
AcDbArc
 50
120.5102374060997
 51
239.4897625938999
  0
LINE
  5
1D4
330
2
100
AcDbEntity
  8
0
 62
     3
100
AcDbLine
 10
77.36826847919997
 20
213.0035314241998
 30
0.0
 11
77.36826847919997
 21
214.5035314241999
 31
0.0
  0
LINE
  5
1D5
330
2
100
AcDbEntity
  8
0
 62
     3
100
AcDbLine
 10
77.36826847919997
 20
222.5035314241999
 30
0.0
 11
77.36826847919997
 21
224.0035314241999
 31
0.0
  0
LINE
  5
1D6
330
2
100
AcDbEntity
  8
0
 62
     3
100
AcDbLine
 10
85.3682684792
 20
222.5035314241999
 30
0.0
 11
85.3682684792
 21
214.5035314241999
 31
0.0
  0
LINE
  5
1D7
330
2
100
AcDbEntity
  8
0
 62
     3
100
AcDbLine
 10
86.3682684792
 20
214.5035314241999
 30
0.0
 11
86.3682684792
 21
222.5035314241999
 31
0.0
  0
LINE
  5
1D8
330
2
100
AcDbEntity
  8
0
 62
     3
100
AcDbLine
 10
81.3682684792
 20
219.5035314241998
 30
0.0
 11
82.36826847919997
 21
218.5035314241999
 31
0.0
  0
LINE
  5
1D9
330
2
100
AcDbEntity
  8
0
 62
     3
100
AcDbLine
 10
84.3682684792
 20
214.5035314241999
 30
0.0
 11
84.3682684792
 21
222.5035314241999
 31
0.0
  0
LINE
  5
1DA
330
2
100
AcDbEntity
  8
0
 62
     3
100
AcDbLine
 10
81.3682684792
 20
222.0035314242
 30
0.0
 11
81.3682684792
 21
215.0035314241999
 31
0.0
  0
LINE
  5
1DB
330
2
100
AcDbEntity
  8
0
 62
     3
100
AcDbLine
 10
82.36826847919997
 20
214.5035314241999
 30
0.0
 11
82.36826847919997
 21
222.5035314241999
 31
0.0
  0
LINE
  5
1DC
330
2
100
AcDbEntity
  8
0
 62
     3
100
AcDbLine
 10
80.3682684792
 20
219.1035314241998
 30
0.0
 11
80.3682684792
 21
217.9035314241999
 31
0.0
  0
LINE
  5
1DD
330
2
100
AcDbEntity
  8
0
 62
     3
100
AcDbLine
 10
80.3682684792
 20
219.1035314241998
 30
0.0
 11
80.3682684792
 21
217.9035314241999
 31
0.0
  0
LINE
  5
1DE
330
2
100
AcDbEntity
  8
0
 62
     3
100
AcDbLine
 10
82.36826847919997
 20
212.5035314241999
 30
0.0
 11
82.8682684792
 21
213.0035314241998
 31
0.0
  0
LINE
  5
1DF
330
2
100
AcDbEntity
  8
0
 62
     3
100
AcDbLine
 10
81.3682684792
 20
212.5035314241999
 30
0.0
 11
82.36826847919997
 21
212.5035314241999
 31
0.0
  0
LINE
  5
1E0
330
2
100
AcDbEntity
  8
0
 62
     3
100
AcDbLine
 10
81.3682684792
 20
210.0035314241999
 30
0.0
 11
82.36826847919997
 21
209.0035314241998
 31
0.0
  0
LINE
  5
1E1
330
2
100
AcDbEntity
  8
0
 62
     3
100
AcDbLine
 10
81.3682684792
 20
209.0035314241998
 30
0.0
 11
82.36826847919997
 21
208.0035314241998
 31
0.0
  0
LINE
  5
1E2
330
2
100
AcDbEntity
  8
0
 62
     3
100
AcDbLine
 10
80.3682684792
 20
209.6035314241999
 30
0.0
 11
80.3682684792
 21
208.4035314241999
 31
0.0
  0
LINE
  5
1E3
330
2
100
AcDbEntity
  8
0
 62
     3
100
AcDbLine
 10
81.3682684792
 20
215.0035314241999
 30
0.0
 11
82.36826847919997
 21
215.0035314241999
 31
0.0
  0
LINE
  5
1E4
330
2
100
AcDbEntity
  8
0
 62
     3
100
AcDbLine
 10
81.3682684792
 20
218.5035314241999
 30
0.0
 11
82.36826847919997
 21
217.5035314241998
 31
0.0
  0
LINE
  5
1E5
330
2
100
AcDbEntity
  8
0
 62
     3
100
AcDbLine
 10
82.36826847919997
 20
215.0035314241999
 30
0.0
 11
82.8682684792
 21
214.5035314241999
 31
0.0
  0
LINE
  5
1E6
330
2
100
AcDbEntity
  8
0
 62
     3
100
AcDbLine
 10
83.8682684792
 20
210.0035314241999
 30
0.0
 11
84.3682684792
 21
210.5035314241999
 31
0.0
  0
LINE
  5
1E7
330
2
100
AcDbEntity
  8
0
 62
     3
100
AcDbLine
 10
83.8682684792
 20
208.0035314241998
 30
0.0
 11
84.3682684792
 21
207.6596303066
 31
0.0
  0
LINE
  5
1E8
330
2
100
AcDbEntity
  8
0
 62
     3
100
AcDbLine
 10
83.8682684792
 20
210.0035314241999
 30
0.0
 11
84.3682684792
 21
210.0035314241999
 31
0.0
  0
LINE
  5
1E9
330
2
100
AcDbEntity
  8
0
 62
     3
100
AcDbLine
 10
83.8682684792
 20
208.0035314241998
 30
0.0
 11
84.3682684792
 21
208.0035314241998
 31
0.0
  0
LINE
  5
1EA
330
2
100
AcDbEntity
  8
0
 62
     3
100
AcDbLine
 10
84.3682684792
 20
211.5035314241999
 30
0.0
 11
85.3682684792
 21
211.5035314241999
 31
0.0
  0
LINE
  5
1EB
330
2
100
AcDbEntity
  8
0
 62
     3
100
AcDbLine
 10
83.8682684792
 20
217.5035314241998
 30
0.0
 11
84.3682684792
 21
217.0035314241999
 31
0.0
  0
LINE
  5
1EC
330
2
100
AcDbEntity
  8
0
 62
     3
100
AcDbLine
 10
83.8682684792
 20
217.5035314241998
 30
0.0
 11
84.3682684792
 21
217.5035314241998
 31
0.0
  0
LINE
  5
1ED
330
2
100
AcDbEntity
  8
0
 62
     3
100
AcDbLine
 10
84.3682684792
 20
216.0035314241999
 30
0.0
 11
85.3682684792
 21
216.0035314241999
 31
0.0
  0
LINE
  5
1EE
330
2
100
AcDbEntity
  8
0
 62
     3
100
AcDbLine
 10
82.36826847919997
 20
224.5035314241999
 30
0.0
 11
82.8682684792
 21
224.0035314241999
 31
0.0
  0
LINE
  5
1EF
330
2
100
AcDbEntity
  8
0
 62
     3
100
AcDbLine
 10
81.3682684792
 20
222.0035314242
 30
0.0
 11
82.36826847919997
 21
222.0035314242
 31
0.0
  0
LINE
  5
1F0
330
2
100
AcDbEntity
  8
0
 62
     3
100
AcDbLine
 10
82.36826847919997
 20
222.0035314242
 30
0.0
 11
82.8682684792
 21
222.5035314241999
 31
0.0
  0
LINE
  5
1F1
330
2
100
AcDbEntity
  8
0
 62
     3
100
AcDbLine
 10
81.3682684792
 20
224.5035314241999
 30
0.0
 11
82.36826847919997
 21
224.5035314241999
 31
0.0
  0
LINE
  5
1F2
330
2
100
AcDbEntity
  8
0
 62
     3
100
AcDbLine
 10
81.3682684792
 20
229.0035314241998
 30
0.0
 11
82.36826847919997
 21
228.0035314241998
 31
0.0
  0
LINE
  5
1F3
330
2
100
AcDbEntity
  8
0
 62
     3
100
AcDbLine
 10
81.3682684792
 20
228.0035314241998
 30
0.0
 11
82.36826847919997
 21
227.0035314241999
 31
0.0
  0
LINE
  5
1F4
330
2
100
AcDbEntity
  8
0
 62
     3
100
AcDbLine
 10
80.3682684792
 20
228.6035314241999
 30
0.0
 11
80.3682684792
 21
227.4035314241999
 31
0.0
  0
LINE
  5
1F5
330
2
100
AcDbEntity
  8
0
 62
     3
100
AcDbLine
 10
80.3682684792
 20
228.6035314241999
 30
0.0
 11
80.3682684792
 21
227.4035314241999
 31
0.0
  0
LINE
  5
1F6
330
2
100
AcDbEntity
  8
0
 62
     3
100
AcDbLine
 10
80.3682684792
 20
228.6035314241999
 30
0.0
 11
80.3682684792
 21
227.4035314241999
 31
0.0
  0
LINE
  5
1F7
330
2
100
AcDbEntity
  8
0
 62
     3
100
AcDbLine
 10
80.3682684792
 20
228.6035314241999
 30
0.0
 11
80.3682684792
 21
227.4035314241999
 31
0.0
  0
LINE
  5
1F8
330
2
100
AcDbEntity
  8
0
 62
     3
100
AcDbLine
 10
84.3682684792
 20
224.0035314241999
 30
0.0
 11
86.3682684792
 21
224.0035314241999
 31
0.0
  0
LINE
  5
1F9
330
2
100
AcDbEntity
  8
0
 62
     3
100
AcDbLine
 10
83.8682684792
 20
219.5035314241998
 30
0.0
 11
84.3682684792
 21
220.0035314241999
 31
0.0
  0
LINE
  5
1FA
330
2
100
AcDbEntity
  8
0
 62
     3
100
AcDbLine
 10
83.8682684792
 20
219.5035314241998
 30
0.0
 11
84.3682684792
 21
219.5035314241998
 31
0.0
  0
LINE
  5
1FB
330
2
100
AcDbEntity
  8
0
 62
     3
100
AcDbLine
 10
84.3682684792
 20
221.0035314241999
 30
0.0
 11
85.3682684792
 21
221.0035314241999
 31
0.0
  0
LINE
  5
1FC
330
2
100
AcDbEntity
  8
0
 62
     3
100
AcDbLine
 10
83.8682684792
 20
229.0035314241998
 30
0.0
 11
84.3682684792
 21
229.5035314241999
 31
0.0
  0
LINE
  5
1FD
330
2
100
AcDbEntity
  8
0
 62
     3
100
AcDbLine
 10
83.8682684792
 20
227.0035314241999
 30
0.0
 11
84.3682684792
 21
226.5035314242
 31
0.0
  0
LINE
  5
1FE
330
2
100
AcDbEntity
  8
0
 62
     3
100
AcDbLine
 10
83.8682684792
 20
227.0035314241999
 30
0.0
 11
84.3682684792
 21
227.0035314241999
 31
0.0
  0
LINE
  5
1FF
330
2
100
AcDbEntity
  8
0
 62
     3
100
AcDbLine
 10
83.8682684792
 20
229.0035314241998
 30
0.0
 11
84.3682684792
 21
229.0035314241998
 31
0.0
  0
LINE
  5
200
330
2
100
AcDbEntity
  8
0
 62
     3
100
AcDbLine
 10
84.3682684792
 20
225.5035314241999
 30
0.0
 11
85.3682684792
 21
225.5035314241999
 31
0.0
  0
LINE
  5
201
330
2
100
AcDbEntity
  8
0
 62
     3
100
AcDbLine
 10
80.3682684792
 20
236.9035314241999
 30
0.0
 11
79.41282046429998
 21
236.9035314241999
 31
0.0
  0
LINE
  5
202
330
2
100
AcDbEntity
  8
0
 62
     3
100
AcDbLine
 10
79.41282046429998
 20
238.1035314241997
 30
0.0
 11
80.3682684792
 21
238.1035314241997
 31
0.0
  0
LINE
  5
203
330
2
100
AcDbEntity
  8
0
 62
     3
100
AcDbLine
 10
77.36826847919997
 20
233.5035314241999
 30
0.0
 11
84.3682684792
 21
233.5035314241999
 31
0.0
  0
LINE
  5
204
330
2
100
AcDbEntity
  8
0
 62
     3
100
AcDbLine
 10
77.36826847919997
 20
232.0035314241998
 30
0.0
 11
84.3682684792
 21
232.0035314241998
 31
0.0
  0
ARC
  5
205
330
2
100
AcDbEntity
  8
0
 62
     3
100
AcDbCircle
 10
83.4307684792
 20
237.5035314241999
 30
0.0
 40
4.0625
100
AcDbArc
 50
120.5102374060997
 51
239.4897625938999
  0
LINE
  5
206
330
2
100
AcDbEntity
  8
0
 62
     3
100
AcDbLine
 10
75.2682684792
 20
241.5035314242
 30
0.0
 11
84.3682684792
 21
241.5035314242
 31
0.0
  0
LINE
  5
207
330
2
100
AcDbEntity
  8
0
 62
     3
100
AcDbLine
 10
75.2682684792
 20
241.5035314242
 30
0.0
 11
75.2682684792
 21
243.5035314242
 31
0.0
  0
LINE
  5
208
330
2
100
AcDbEntity
  8
0
 62
     3
100
AcDbLine
 10
77.36826847919997
 20
232.0035314241998
 30
0.0
 11
77.36826847919997
 21
233.5035314241999
 31
0.0
  0
LINE
  5
209
330
2
100
AcDbEntity
  8
0
 62
     3
100
AcDbLine
 10
81.3682684792
 20
241.0035314241998
 30
0.0
 11
81.3682684792
 21
234.0035314241998
 31
0.0
  0
LINE
  5
20A
330
2
100
AcDbEntity
  8
0
 62
     3
100
AcDbLine
 10
82.36826847919997
 20
233.5035314241999
 30
0.0
 11
82.36826847919997
 21
241.5035314242
 31
0.0
  0
LINE
  5
20B
330
2
100
AcDbEntity
  8
0
 62
     3
100
AcDbLine
 10
81.3682684792
 20
234.0035314241998
 30
0.0
 11
82.36826847919997
 21
234.0035314241998
 31
0.0
  0
LINE
  5
20C
330
2
100
AcDbEntity
  8
0
 62
     3
100
AcDbLine
 10
81.3682684792
 20
231.5035314241999
 30
0.0
 11
82.36826847919997
 21
231.5035314241999
 31
0.0
  0
LINE
  5
20D
330
2
100
AcDbEntity
  8
0
 62
     3
100
AcDbLine
 10
82.36826847919997
 20
234.0035314241998
 30
0.0
 11
82.8682684792
 21
233.5035314241999
 31
0.0
  0
LINE
  5
20E
330
2
100
AcDbEntity
  8
0
 62
     3
100
AcDbLine
 10
82.36826847919997
 20
231.5035314241999
 30
0.0
 11
82.8682684792
 21
232.0035314241998
 31
0.0
  0
LINE
  5
20F
330
2
100
AcDbEntity
  8
0
 62
     3
100
AcDbLine
 10
82.36826847919997
 20
234.0035314241998
 30
0.0
 11
82.8682684792
 21
233.5035314241999
 31
0.0
  0
LINE
  5
210
330
2
100
AcDbEntity
  8
0
 62
     3
100
AcDbLine
 10
81.3682684792
 20
241.0035314241998
 30
0.0
 11
82.36826847919997
 21
241.0035314241998
 31
0.0
  0
LINE
  5
211
330
2
100
AcDbEntity
  8
0
 62
     3
100
AcDbLine
 10
81.3682684792
 20
238.5035314241999
 30
0.0
 11
82.36826847919997
 21
237.5035314241999
 31
0.0
  0
LINE
  5
212
330
2
100
AcDbEntity
  8
0
 62
     3
100
AcDbLine
 10
81.3682684792
 20
237.5035314241999
 30
0.0
 11
82.36826847919997
 21
236.5035314241999
 31
0.0
  0
LINE
  5
213
330
2
100
AcDbEntity
  8
0
 62
     3
100
AcDbLine
 10
80.3682684792
 20
238.1035314241997
 30
0.0
 11
80.3682684792
 21
236.9035314241999
 31
0.0
  0
LINE
  5
214
330
2
100
AcDbEntity
  8
0
 62
     3
100
AcDbLine
 10
82.36826847919997
 20
241.0035314241998
 30
0.0
 11
82.8682684792
 21
241.5035314242
 31
0.0
  0
LINE
  5
215
330
2
100
AcDbEntity
  8
0
 62
     3
100
AcDbLine
 10
82.36826847919997
 20
241.0035314241998
 30
0.0
 11
82.8682684792
 21
241.5035314242
 31
0.0
  0
LINE
  5
216
330
2
100
AcDbEntity
  8
0
 62
     3
100
AcDbLine
 10
84.3682684792
 20
233.5035314241999
 30
0.0
 11
84.3682684792
 21
241.5035314242
 31
0.0
  0
LINE
  5
217
330
2
100
AcDbEntity
  8
0
 62
     3
100
AcDbLine
 10
85.3682684792
 20
241.5035314242
 30
0.0
 11
85.3682684792
 21
233.5035314241999
 31
0.0
  0
LINE
  5
218
330
2
100
AcDbEntity
  8
0
 62
     3
100
AcDbLine
 10
86.3682684792
 20
233.5035314241999
 30
0.0
 11
86.3682684792
 21
241.5035314242
 31
0.0
  0
LINE
  5
219
330
2
100
AcDbEntity
  8
0
 62
     3
100
AcDbLine
 10
84.3682684792
 20
233.5035314241999
 30
0.0
 11
86.3682684792
 21
233.5035314241999
 31
0.0
  0
LINE
  5
21A
330
2
100
AcDbEntity
  8
0
 62
     3
100
AcDbLine
 10
84.3682684792
 20
232.0035314241998
 30
0.0
 11
86.3682684792
 21
232.0035314241998
 31
0.0
  0
LINE
  5
21B
330
2
100
AcDbEntity
  8
0
 62
     3
100
AcDbLine
 10
84.3682684792
 20
235.0035314241999
 30
0.0
 11
85.3682684792
 21
235.0035314241999
 31
0.0
  0
LINE
  5
21C
330
2
100
AcDbEntity
  8
0
 62
     3
100
AcDbLine
 10
84.3682684792
 20
230.5035314242
 30
0.0
 11
85.3682684792
 21
230.5035314242
 31
0.0
  0
LINE
  5
21D
330
2
100
AcDbEntity
  8
0
 62
     3
100
AcDbLine
 10
84.3682684792
 20
241.5035314242
 30
0.0
 11
86.3682684792
 21
241.5035314242
 31
0.0
  0
LINE
  5
21E
330
2
100
AcDbEntity
  8
0
 62
     3
100
AcDbLine
 10
83.8682684792
 20
238.5035314241999
 30
0.0
 11
84.3682684792
 21
239.0035314242
 31
0.0
  0
LINE
  5
21F
330
2
100
AcDbEntity
  8
0
 62
     3
100
AcDbLine
 10
83.8682684792
 20
236.5035314241999
 30
0.0
 11
84.3682684792
 21
236.0035314241998
 31
0.0
  0
LINE
  5
220
330
2
100
AcDbEntity
  8
0
 62
     3
100
AcDbLine
 10
83.8682684792
 20
238.5035314241999
 30
0.0
 11
84.3682684792
 21
238.5035314241999
 31
0.0
  0
LINE
  5
221
330
2
100
AcDbEntity
  8
0
 62
     3
100
AcDbLine
 10
83.8682684792
 20
236.5035314241999
 30
0.0
 11
84.3682684792
 21
236.5035314241999
 31
0.0
  0
LINE
  5
222
330
2
100
AcDbEntity
  8
0
 62
     3
100
AcDbLine
 10
83.8682684792
 20
238.5035314241999
 30
0.0
 11
84.3682684792
 21
239.0035314242
 31
0.0
  0
LINE
  5
223
330
2
100
AcDbEntity
  8
0
 62
     3
100
AcDbLine
 10
84.3682684792
 20
240.0035314241999
 30
0.0
 11
85.3682684792
 21
240.0035314241999
 31
0.0
  0
ARC
  5
224
330
2
100
AcDbEntity
  8
0
 62
     3
100
AcDbCircle
 10
117.5682684792
 20
217.0035314241999
 30
0.0
 40
0.5
100
AcDbArc
 50
180.0
 51
270.0
  0
ARC
  5
225
330
2
100
AcDbEntity
  8
0
 62
     3
100
AcDbCircle
 10
117.5682684792
 20
215.0035314241999
 30
0.0
 40
0.5
100
AcDbArc
 50
90.0
 51
180.0
  0
CIRCLE
  5
226
330
2
100
AcDbEntity
  8
0
 62
     3
100
AcDbCircle
 10
116.5682684792
 20
216.0035314241999
 30
0.0
 40
3.149999999999999
  0
LINE
  5
227
330
2
100
AcDbEntity
  8
0
 62
     3
100
AcDbLine
 10
90.3682684792
 20
224.0035314241999
 30
0.0
 11
90.3682684792
 21
232.0035314241998
 31
0.0
  0
LINE
  5
228
330
2
100
AcDbEntity
  8
0
 62
     3
100
AcDbLine
 10
90.3682684792
 20
232.0035314241998
 30
0.0
 11
90.3682684792
 21
224.0035314241999
 31
0.0
  0
LINE
  5
229
330
2
100
AcDbEntity
  8
0
 62
     3
100
AcDbLine
 10
90.3682684792
 20
224.0035314241999
 30
0.0
 11
90.3682684792
 21
232.0035314241998
 31
0.0
  0
LINE
  5
22A
330
2
100
AcDbEntity
  8
0
  6
PHANTOM
 62
     3
100
AcDbLine
 10
100.5682684791999
 20
188.0035314241998
 30
0.0
 11
100.5682684791999
 21
255.0035314241998
 31
0.0
  0
LINE
  5
22B
330
2
100
AcDbEntity
  8
0
 62
     3
100
AcDbLine
 10
90.3682684792
 20
232.0035314241998
 30
0.0
 11
90.3682684792
 21
224.0035314241999
 31
0.0
  0
LINE
  5
22C
330
2
100
AcDbEntity
  8
0
 62
     3
100
AcDbLine
 10
92.36826847919999
 20
193.5035314241999
 30
0.0
 11
92.36826847919999
 21
243.5035314242
 31
0.0
  0
LINE
  5
22D
330
2
100
AcDbEntity
  8
0
 62
     3
100
AcDbLine
 10
89.06826847919999
 20
188.0035314241998
 30
0.0
 11
103.8558329138999
 21
188.0035314241998
 31
0.0
  0
LINE
  5
22E
330
2
100
AcDbEntity
  8
0
 62
     3
100
AcDbLine
 10
104.7218583176999
 20
188.5035314241999
 30
0.0
 11
97.50576847920001
 21
188.5035314241999
 31
0.0
  0
LINE
  5
22F
330
2
100
AcDbEntity
  8
0
 62
     3
100
AcDbLine
 10
90.3682684792
 20
205.0035314241998
 30
0.0
 11
90.3682684792
 21
213.0035314241998
 31
0.0
  0
LINE
  5
230
330
2
100
AcDbEntity
  8
0
 62
     3
100
AcDbLine
 10
90.3682684792
 20
213.0035314241998
 30
0.0
 11
90.3682684792
 21
205.0035314241998
 31
0.0
  0
LINE
  5
231
330
2
100
AcDbEntity
  8
0
 62
     3
100
AcDbLine
 10
90.3682684792
 20
213.0035314241998
 30
0.0
 11
90.3682684792
 21
205.0035314241998
 31
0.0
  0
LINE
  5
232
330
2
100
AcDbEntity
  8
0
 62
     3
100
AcDbLine
 10
90.3682684792
 20
205.0035314241998
 30
0.0
 11
90.3682684792
 21
213.0035314241998
 31
0.0
  0
LINE
  5
233
330
2
100
AcDbEntity
  8
0
 62
     3
100
AcDbLine
 10
90.3682684792
 20
213.0035314241998
 30
0.0
 11
90.3682684792
 21
205.0035314241998
 31
0.0
  0
LINE
  5
234
330
2
100
AcDbEntity
  8
0
 62
     3
100
AcDbLine
 10
96.8682684792
 20
201.1035314242
 30
0.0
 11
92.36826847919999
 21
201.1035314242
 31
0.0
  0
LINE
  5
235
330
2
100
AcDbEntity
  8
0
 62
     3
100
AcDbLine
 10
95.56826847920001
 20
189.5035314241999
 30
0.0
 11
92.56826847920001
 21
189.5035314241999
 31
0.0
  0
LINE
  5
236
330
2
100
AcDbEntity
  8
0
 62
     3
100
AcDbLine
 10
93.56826847920002
 20
190.0035314241998
 30
0.0
 11
96.56826847920001
 21
190.0035314241998
 31
0.0
  0
LINE
  5
237
330
2
100
AcDbEntity
  8
0
 62
     3
100
AcDbLine
 10
96.8682684792
 20
197.9035314241999
 30
0.0
 11
92.36826847919999
 21
197.9035314241999
 31
0.0
  0
LINE
  5
238
330
2
100
AcDbEntity
  8
0
 62
     3
100
AcDbLine
 10
90.3682684792
 20
195.5035314241998
 30
0.0
 11
90.3682684792
 21
203.5035314241999
 31
0.0
  0
LINE
  5
239
330
2
100
AcDbEntity
  8
0
 62
     3
100
AcDbLine
 10
90.3682684792
 20
203.5035314241999
 30
0.0
 11
90.3682684792
 21
195.5035314241998
 31
0.0
  0
LINE
  5
23A
330
2
100
AcDbEntity
  8
0
 62
     3
100
AcDbLine
 10
90.3682684792
 20
195.5035314241998
 30
0.0
 11
90.3682684792
 21
203.5035314241999
 31
0.0
  0
LINE
  5
23B
330
2
100
AcDbEntity
  8
0
 62
     3
100
AcDbLine
 10
90.3682684792
 20
203.5035314241999
 30
0.0
 11
90.3682684792
 21
195.5035314241998
 31
0.0
  0
LINE
  5
23C
330
2
100
AcDbEntity
  8
0
 62
     3
100
AcDbLine
 10
92.4522985317
 20
188.5035314241999
 30
0.0
 11
89.06826847919999
 21
188.5035314241999
 31
0.0
  0
LINE
  5
23D
330
2
100
AcDbEntity
  8
0
 62
     3
100
AcDbLine
 10
89.06826847919999
 20
193.5035314241999
 30
0.0
 11
89.06826847919999
 21
188.5035314241999
 31
0.0
  0
LINE
  5
23E
330
2
100
AcDbEntity
  8
0
 62
     3
100
AcDbLine
 10
89.06826847919999
 20
193.5035314241999
 30
0.0
 11
89.06826847919999
 21
188.5035314241999
 31
0.0
  0
LINE
  5
23F
330
2
100
AcDbEntity
  8
0
 62
     3
100
AcDbLine
 10
89.06826847919999
 20
193.5035314241999
 30
0.0
 11
89.06826847919999
 21
187.0035314241999
 31
0.0
  0
LINE
  5
240
330
2
100
AcDbEntity
  8
0
 62
     3
100
AcDbLine
 10
93.25576847920002
 20
189.5035314241999
 30
0.0
 11
93.56826847920002
 21
190.0035314241998
 31
0.0
  0
LINE
  5
241
330
2
100
AcDbEntity
  8
0
 62
     3
100
AcDbLine
 10
92.56826847920001
 20
189.0035314241999
 30
0.0
 11
92.56826847920001
 21
189.5035314241999
 31
0.0
  0
ARC
  5
242
330
2
100
AcDbEntity
  8
0
 62
     3
100
AcDbCircle
 10
91.56876867929998
 20
188.9719062741
 30
0.0
 40
1.0
100
AcDbArc
 50
284.4479149006998
 51
1.812289807599958
  0
LINE
  5
243
330
2
100
AcDbEntity
  8
0
 62
     3
100
AcDbLine
 10
96.56826847920001
 20
190.0035314241998
 30
0.0
 11
97.81826847920001
 21
188.0035314241998
 31
0.0
  0
LINE
  5
244
330
2
100
AcDbEntity
  8
0
 62
     3
100
AcDbLine
 10
95.56826847920001
 20
189.0035314241999
 30
0.0
 11
95.56826847920001
 21
189.5035314241999
 31
0.0
  0
ARC
  5
245
330
2
100
AcDbEntity
  8
0
 62
     3
100
AcDbCircle
 10
96.56776827900001
 20
188.9719062741
 30
0.0
 40
1.0
100
AcDbArc
 50
178.1877101922999
 51
255.5520850993999
  0
LINE
  5
246
330
2
100
AcDbEntity
  8
0
 62
     3
100
AcDbLine
 10
96.8682684792
 20
201.1035314242
 30
0.0
 11
96.8682684792
 21
197.9035314241999
 31
0.0
  0
LINE
  5
247
330
2
100
AcDbEntity
  8
0
 62
     3
100
AcDbLine
 10
96.8682684792
 20
226.4035314241999
 30
0.0
 11
92.36826847919999
 21
226.4035314241999
 31
0.0
  0
LINE
  5
248
330
2
100
AcDbEntity
  8
0
 62
     3
100
AcDbLine
 10
96.8682684792
 20
229.6035314241998
 30
0.0
 11
92.36826847919999
 21
229.6035314241998
 31
0.0
  0
LINE
  5
249
330
2
100
AcDbEntity
  8
0
 62
     3
100
AcDbLine
 10
96.8682684792
 20
207.4035314241998
 30
0.0
 11
92.36826847919999
 21
207.4035314241998
 31
0.0
  0
LINE
  5
24A
330
2
100
AcDbEntity
  8
0
 62
     3
100
AcDbLine
 10
96.8682684792
 20
210.6035314241998
 30
0.0
 11
92.36826847919999
 21
210.6035314241998
 31
0.0
  0
LINE
  5
24B
330
2
100
AcDbEntity
  8
0
 62
     3
100
AcDbLine
 10
96.8682684792
 20
216.9035314241999
 30
0.0
 11
92.36826847919999
 21
216.9035314241999
 31
0.0
  0
LINE
  5
24C
330
2
100
AcDbEntity
  8
0
 62
     3
100
AcDbLine
 10
96.8682684792
 20
220.1035314241999
 30
0.0
 11
92.36826847919999
 21
220.1035314241999
 31
0.0
  0
LINE
  5
24D
330
2
100
AcDbEntity
  8
0
 62
     3
100
AcDbLine
 10
90.3682684792
 20
214.5035314241999
 30
0.0
 11
90.3682684792
 21
222.5035314241999
 31
0.0
  0
LINE
  5
24E
330
2
100
AcDbEntity
  8
0
 62
     3
100
AcDbLine
 10
90.3682684792
 20
222.5035314241999
 30
0.0
 11
90.3682684792
 21
214.5035314241999
 31
0.0
  0
LINE
  5
24F
330
2
100
AcDbEntity
  8
0
 62
     3
100
AcDbLine
 10
90.3682684792
 20
222.5035314241999
 30
0.0
 11
90.3682684792
 21
214.5035314241999
 31
0.0
  0
LINE
  5
250
330
2
100
AcDbEntity
  8
0
 62
     3
100
AcDbLine
 10
90.3682684792
 20
214.5035314241999
 30
0.0
 11
90.3682684792
 21
222.5035314241999
 31
0.0
  0
LINE
  5
251
330
2
100
AcDbEntity
  8
0
 62
     3
100
AcDbLine
 10
90.3682684792
 20
222.5035314241999
 30
0.0
 11
90.3682684792
 21
214.5035314241999
 31
0.0
  0
LINE
  5
252
330
2
100
AcDbEntity
  8
0
 62
     3
100
AcDbLine
 10
96.8682684792
 20
216.9035314241999
 30
0.0
 11
96.8682684792
 21
220.1035314241999
 31
0.0
  0
LINE
  5
253
330
2
100
AcDbEntity
  8
0
 62
     3
100
AcDbLine
 10
96.8682684792
 20
207.4035314241998
 30
0.0
 11
96.8682684792
 21
210.6035314241998
 31
0.0
  0
LINE
  5
254
330
2
100
AcDbEntity
  8
0
  6
CENTER
 62
     3
100
AcDbLine
 10
101.2182684791999
 20
223.5035314241998
 30
0.0
 11
97.91826847919999
 21
223.5035314241998
 31
0.0
  0
CIRCLE
  5
255
330
2
100
AcDbEntity
  8
0
  6
PHANTOM
 62
     3
100
AcDbCircle
 10
99.56826847920002
 20
223.5035314241998
 30
0.0
 40
1.5
  0
CIRCLE
  5
256
330
2
100
AcDbEntity
  8
0
 62
     3
100
AcDbCircle
 10
99.56826847920002
 20
223.5035314241998
 30
0.0
 40
1.199999999999999
  0
LINE
  5
257
330
2
100
AcDbEntity
  8
0
 62
     3
100
AcDbLine
 10
96.8682684792
 20
226.4035314241999
 30
0.0
 11
96.8682684792
 21
229.6035314241998
 31
0.0
  0
LINE
  5
258
330
2
100
AcDbEntity
  8
0
  6
CENTER
 62
     3
100
AcDbLine
 10
99.56826847920002
 20
225.1535314241999
 30
0.0
 11
99.56826847920002
 21
221.8535314242
 31
0.0
  0
LINE
  5
259
330
2
100
AcDbEntity
  8
0
 62
     3
100
AcDbLine
 10
106.8003192866999
 20
189.7035314242
 30
0.0
 11
111.5682684792
 21
189.7035314242
 31
0.0
  0
LINE
  5
25A
330
2
100
AcDbEntity
  8
0
 62
     3
100
AcDbLine
 10
111.5682684792
 20
188.7035314242
 30
0.0
 11
107.0682684792
 21
188.7035314242
 31
0.0
  0
LINE
  5
25B
330
2
100
AcDbEntity
  8
0
 62
     3
100
AcDbLine
 10
107.0682684792
 20
188.7035314242
 30
0.0
 11
105.8558329138999
 21
188.0035314241998
 31
0.0
  0
LINE
  5
25C
330
2
100
AcDbEntity
  8
0
 62
     3
100
AcDbLine
 10
104.7218583176999
 20
188.5035314241999
 30
0.0
 11
106.8003192866999
 21
189.7035314242
 31
0.0
  0
LINE
  5
25D
330
2
100
AcDbEntity
  8
0
 62
     3
100
AcDbLine
 10
103.8558329138999
 20
188.0035314241998
 30
0.0
 11
104.7218583176999
 21
188.5035314241999
 31
0.0
  0
LINE
  5
25E
330
2
100
AcDbEntity
  8
0
 62
     3
100
AcDbLine
 10
111.5682684792
 20
189.7035314242
 30
0.0
 11
111.5682684792
 21
188.7035314242
 31
0.0
  0
LINE
  5
25F
330
2
100
AcDbEntity
  8
0
 62
     3
100
AcDbLine
 10
115.5682684792
 20
216.5035314241998
 30
0.0
 11
114.5682684792
 21
216.5035314241998
 31
0.0
  0
LINE
  5
260
330
2
100
AcDbEntity
  8
0
 62
     3
100
AcDbLine
 10
114.5682684792
 20
215.5035314241998
 30
0.0
 11
115.5682684792
 21
215.5035314241998
 31
0.0
  0
LINE
  5
261
330
2
100
AcDbEntity
  8
0
 62
     3
100
AcDbLine
 10
114.5682684792
 20
216.5035314241998
 30
0.0
 11
114.5682684792
 21
215.5035314241998
 31
0.0
  0
LINE
  5
262
330
2
100
AcDbEntity
  8
0
 62
     3
100
AcDbLine
 10
117.0682684791999
 20
214.0035314242
 30
0.0
 11
117.0682684791999
 21
215.0035314241999
 31
0.0
  0
LINE
  5
263
330
2
100
AcDbEntity
  8
0
 62
     3
100
AcDbLine
 10
117.0682684791999
 20
217.0035314241999
 30
0.0
 11
117.0682684791999
 21
218.0035314242
 31
0.0
  0
ARC
  5
264
330
2
100
AcDbEntity
  8
0
 62
     3
100
AcDbCircle
 10
115.5682684792
 20
217.0035314241999
 30
0.0
 40
0.5
100
AcDbArc
 50
270.0
 51
0.0
  0
ARC
  5
265
330
2
100
AcDbEntity
  8
0
 62
     3
100
AcDbCircle
 10
115.5682684792
 20
215.0035314241999
 30
0.0
 40
0.5
100
AcDbArc
 50
0.0
 51
90.0
  0
LINE
  5
266
330
2
100
AcDbEntity
  8
0
 62
     3
100
AcDbLine
 10
116.0682684791999
 20
218.0035314242
 30
0.0
 11
116.0682684791999
 21
217.0035314241999
 31
0.0
  0
LINE
  5
267
330
2
100
AcDbEntity
  8
0
 62
     3
100
AcDbLine
 10
116.0682684791999
 20
215.0035314241999
 30
0.0
 11
116.0682684791999
 21
214.0035314242
 31
0.0
  0
LINE
  5
268
330
2
100
AcDbEntity
  8
0
 62
     3
100
AcDbLine
 10
116.0682684791999
 20
218.0035314242
 30
0.0
 11
116.1392270121998
 21
218.0035314242
 31
0.0
  0
LINE
  5
269
330
2
100
AcDbEntity
  8
0
 62
     3
100
AcDbLine
 10
116.0682684791999
 20
214.0035314242
 30
0.0
 11
117.0682684791999
 21
214.0035314242
 31
0.0
  0
LINE
  5
26A
330
2
100
AcDbEntity
  8
0
 62
     3
100
AcDbLine
 10
117.0682684791999
 20
218.0035314242
 30
0.0
 11
116.1398126702999
 21
218.0035314242
 31
0.0
  0
ARC
  5
26B
330
2
100
AcDbEntity
  8
0
 62
     3
100
AcDbCircle
 10
102.5682684791999
 20
254.5035314241999
 30
0.0
 40
1.0
100
AcDbArc
 50
90.0
 51
180.0
  0
LINE
  5
26C
330
2
100
AcDbEntity
  8
0
 62
     3
100
AcDbLine
 10
89.06826847919999
 20
255.5035314241998
 30
0.0
 11
102.5682684791999
 21
255.5035314241998
 31
0.0
  0
LINE
  5
26D
330
2
100
AcDbEntity
  8
0
 62
     3
100
AcDbLine
 10
94.06826847920001
 20
252.5435314241998
 30
0.0
 11
105.5682684792
 21
252.5435314241998
 31
0.0
  0
LINE
  5
26E
330
2
100
AcDbEntity
  8
0
 62
     3
100
AcDbLine
 10
101.5682684791999
 20
253.0035314241998
 30
0.0
 11
101.5682684791999
 21
254.5035314241999
 31
0.0
  0
LINE
  5
26F
330
2
100
AcDbEntity
  8
0
 62
     3
100
AcDbLine
 10
99.56826847920002
 20
253.0035314241998
 30
0.0
 11
99.56826847920002
 21
254.0035314242
 31
0.0
  0
LINE
  5
270
330
2
100
AcDbEntity
  8
0
 62
     3
100
AcDbLine
 10
91.06826847920002
 20
254.0035314242
 30
0.0
 11
91.06826847920002
 21
253.0035314241998
 31
0.0
  0
LINE
  5
271
330
2
100
AcDbEntity
  8
0
 62
     3
100
AcDbLine
 10
89.06826847919999
 20
254.5035314241999
 30
0.0
 11
89.06826847919999
 21
253.0035314241998
 31
0.0
  0
LINE
  5
272
330
2
100
AcDbEntity
  8
0
 62
     3
100
AcDbLine
 10
89.06826847919999
 20
254.5035314241999
 30
0.0
 11
89.06826847919999
 21
253.0035314241998
 31
0.0
  0
LINE
  5
273
330
2
100
AcDbEntity
  8
0
 62
     3
100
AcDbLine
 10
89.06826847919999
 20
254.5035314241999
 30
0.0
 11
89.06826847919999
 21
253.0035314241998
 31
0.0
  0
LINE
  5
274
330
2
100
AcDbEntity
  8
0
 62
     3
100
AcDbLine
 10
89.06826847919999
 20
254.5035314241999
 30
0.0
 11
89.06826847919999
 21
253.0035314241998
 31
0.0
  0
LINE
  5
275
330
2
100
AcDbEntity
  8
0
 62
     3
100
AcDbLine
 10
89.06826847919999
 20
254.5035314241999
 30
0.0
 11
89.06826847919999
 21
243.5035314242
 31
0.0
  0
LINE
  5
276
330
2
100
AcDbEntity
  8
0
 62
     3
100
AcDbLine
 10
89.06826847919999
 20
254.5035314241999
 30
0.0
 11
89.06826847919999
 21
243.5035314242
 31
0.0
  0
LINE
  5
277
330
2
100
AcDbEntity
  8
0
 62
     3
100
AcDbLine
 10
93.20326847919998
 20
248.2035314241998
 30
0.0
 11
94.96826847919999
 21
248.2035314241998
 31
0.0
  0
LINE
  5
278
330
2
100
AcDbEntity
  8
0
 62
     3
100
AcDbLine
 10
91.06826847920002
 20
253.0035314241998
 30
0.0
 11
101.5682684791999
 21
253.0035314241998
 31
0.0
  0
LINE
  5
279
330
2
100
AcDbEntity
  8
0
 62
     3
100
AcDbLine
 10
94.96826847919999
 20
246.6035314241998
 30
0.0
 11
93.20326847919998
 21
246.6035314241998
 31
0.0
  0
LINE
  5
27A
330
2
100
AcDbEntity
  8
0
 62
     3
100
AcDbLine
 10
96.8682684792
 20
235.9035314241999
 30
0.0
 11
92.36826847919999
 21
235.9035314241999
 31
0.0
  0
LINE
  5
27B
330
2
100
AcDbEntity
  8
0
 62
     3
100
AcDbLine
 10
96.8682684792
 20
239.1035314241998
 30
0.0
 11
92.36826847919999
 21
239.1035314241998
 31
0.0
  0
LINE
  5
27C
330
2
100
AcDbEntity
  8
0
 62
     3
100
AcDbLine
 10
90.3682684792
 20
233.5035314241999
 30
0.0
 11
90.3682684792
 21
241.5035314242
 31
0.0
  0
LINE
  5
27D
330
2
100
AcDbEntity
  8
0
 62
     3
100
AcDbLine
 10
90.3682684792
 20
241.5035314242
 30
0.0
 11
90.3682684792
 21
233.5035314241999
 31
0.0
  0
LINE
  5
27E
330
2
100
AcDbEntity
  8
0
 62
     3
100
AcDbLine
 10
90.3682684792
 20
241.5035314242
 30
0.0
 11
90.3682684792
 21
233.5035314241999
 31
0.0
  0
LINE
  5
27F
330
2
100
AcDbEntity
  8
0
 62
     3
100
AcDbLine
 10
90.3682684792
 20
233.5035314241999
 30
0.0
 11
90.3682684792
 21
241.5035314242
 31
0.0
  0
LINE
  5
280
330
2
100
AcDbEntity
  8
0
 62
     3
100
AcDbLine
 10
90.3682684792
 20
241.5035314242
 30
0.0
 11
90.3682684792
 21
233.5035314241999
 31
0.0
  0
LINE
  5
281
330
2
100
AcDbEntity
  8
0
 62
     3
100
AcDbLine
 10
89.06826847919999
 20
250.8035314241999
 30
0.0
 11
91.46826847919999
 21
250.8035314241999
 31
0.0
  0
LINE
  5
282
330
2
100
AcDbEntity
  8
0
 62
     3
100
AcDbLine
 10
91.46826847919999
 20
244.0035314241999
 30
0.0
 11
89.06826847919999
 21
244.0035314241999
 31
0.0
  0
LINE
  5
283
330
2
100
AcDbEntity
  8
0
 62
     3
100
AcDbLine
 10
90.26826847919995
 20
247.9335400714
 30
0.0
 11
90.26826847919995
 21
244.0035314241999
 31
0.0
  0
LINE
  5
284
330
2
100
AcDbEntity
  8
0
 62
     3
100
AcDbLine
 10
89.06826847919999
 20
247.9335400714
 30
0.0
 11
90.26826847919995
 21
247.9335400714
 31
0.0
  0
LINE
  5
285
330
2
100
AcDbEntity
  8
0
 62
     3
100
AcDbLine
 10
91.46826847919999
 20
250.8035314241999
 30
0.0
 11
91.46826847919999
 21
244.0035314241999
 31
0.0
  0
LINE
  5
286
330
2
100
AcDbEntity
  8
0
 62
     3
100
AcDbLine
 10
92.56826847920001
 20
250.8035314241999
 30
0.0
 11
92.56826847920001
 21
244.0035314241999
 31
0.0
  0
LINE
  5
287
330
2
100
AcDbEntity
  8
0
 62
     3
100
AcDbLine
 10
93.20326847919998
 20
244.0035314241999
 30
0.0
 11
93.20326847919998
 21
250.8035314241999
 31
0.0
  0
LINE
  5
288
330
2
100
AcDbEntity
  8
0
 62
     3
100
AcDbLine
 10
92.56826847920001
 20
244.0035314241999
 30
0.0
 11
93.20326847919998
 21
244.0035314241999
 31
0.0
  0
LINE
  5
289
330
2
100
AcDbEntity
  8
0
 62
     3
100
AcDbLine
 10
91.46826847919999
 20
244.6535314241998
 30
0.0
 11
92.56826847920001
 21
244.6535314241998
 31
0.0
  0
LINE
  5
28A
330
2
100
AcDbEntity
  8
0
 62
     3
100
AcDbLine
 10
93.20326847919998
 20
250.8035314241999
 30
0.0
 11
92.56826847920001
 21
250.8035314241999
 31
0.0
  0
LINE
  5
28B
330
2
100
AcDbEntity
  8
0
 62
     3
100
AcDbLine
 10
92.56826847920001
 20
250.1535314241999
 30
0.0
 11
91.46826847919999
 21
250.1535314241999
 31
0.0
  0
LINE
  5
28C
330
2
100
AcDbEntity
  8
0
 62
     3
100
AcDbLine
 10
94.06826847920001
 20
253.0035314241998
 30
0.0
 11
94.06826847920001
 21
252.5435314241998
 31
0.0
  0
LINE
  5
28D
330
2
100
AcDbEntity
  8
0
 62
     3
100
AcDbLine
 10
96.8682684792
 20
235.9035314241999
 30
0.0
 11
96.8682684792
 21
239.1035314241998
 31
0.0
  0
LINE
  5
28E
330
2
100
AcDbEntity
  8
0
 62
     3
100
AcDbLine
 10
94.96826847919999
 20
248.2035314241998
 30
0.0
 11
94.96826847919999
 21
246.6035314241998
 31
0.0
  0
LINE
  5
28F
330
2
100
AcDbEntity
  8
0
 62
     3
100
AcDbLine
 10
94.06826847920001
 20
255.0035314241998
 30
0.0
 11
101.7022430753999
 21
255.0035314241998
 31
0.0
  0
LINE
  5
290
330
2
100
AcDbEntity
  8
0
 62
     3
100
AcDbLine
 10
99.56826847920002
 20
254.0035314242
 30
0.0
 11
91.06826847920002
 21
254.0035314242
 31
0.0
  0
LINE
  5
291
330
2
100
AcDbEntity
  8
0
 62
     3
100
AcDbLine
 10
89.06826847919999
 20
255.0035314241998
 30
0.0
 11
94.06826847920001
 21
255.0035314241998
 31
0.0
  0
LINE
  5
292
330
2
100
AcDbEntity
  8
0
 62
     3
100
AcDbLine
 10
89.06826847919999
 20
255.0035314241998
 30
0.0
 11
89.06826847919999
 21
254.3778447206
 31
0.0
  0
LINE
  5
293
330
2
100
AcDbEntity
  8
0
 62
     3
100
AcDbLine
 10
89.06826847919999
 20
255.0035314241998
 30
0.0
 11
89.06826847919999
 21
255.5035314241998
 31
0.0
  0
LINE
  5
294
330
2
100
AcDbEntity
  8
0
 62
     3
100
AcDbLine
 10
94.06826847920001
 20
255.0035314241998
 30
0.0
 11
94.06826847920001
 21
254.0035314242
 31
0.0
  0
LINE
  5
295
330
2
100
AcDbEntity
  8
0
 62
     3
100
AcDbLine
 10
105.5682684792
 20
252.5435314241998
 30
0.0
 11
105.5682684792
 21
255.046091077
 31
0.0
  0
LINE
  5
296
330
2
100
AcDbEntity
  8
0
 62
     3
100
AcDbLine
 10
118.5682684792
 20
215.5035314241998
 30
0.0
 11
118.5682684792
 21
216.5035314241998
 31
0.0
  0
LINE
  5
297
330
2
100
AcDbEntity
  8
0
 62
     3
100
AcDbLine
 10
117.5682684792
 20
215.5035314241998
 30
0.0
 11
118.5682684792
 21
215.5035314241998
 31
0.0
  0
LINE
  5
298
330
2
100
AcDbEntity
  8
0
 62
     3
100
AcDbLine
 10
118.5682684792
 20
216.5035314241998
 30
0.0
 11
117.5682684792
 21
216.5035314241998
 31
0.0
  0
LINE
  5
299
330
2
100
AcDbEntity
  8
0
 62
     3
100
AcDbLine
 10
176.5682684791999
 20
254.0035314242
 30
0.0
 11
182.0682684791998
 21
254.0035314242
 31
0.0
  0
LINE
  5
29A
330
2
100
AcDbEntity
  8
0
 62
     3
100
AcDbLine
 10
176.5682684791999
 20
253.0035314241998
 30
0.0
 11
183.5682684791999
 21
253.0035314241998
 31
0.0
  0
LINE
  5
29B
330
2
100
AcDbEntity
  8
0
 62
     3
100
AcDbLine
 10
176.5682684791999
 20
190.0035314241998
 30
0.0
 11
179.5682684792
 21
190.0035314241998
 31
0.0
  0
LINE
  5
29C
330
2
100
AcDbEntity
  8
0
 62
     3
100
AcDbLine
 10
166.5682684791998
 20
188.7035314242
 30
0.0
 11
162.0682684791999
 21
188.7035314242
 31
0.0
  0
LINE
  5
29D
330
2
100
AcDbEntity
  8
0
 62
     3
100
AcDbLine
 10
161.8003192867
 20
189.7035314242
 30
0.0
 11
166.5682684791998
 21
189.7035314242
 31
0.0
  0
LINE
  5
29E
330
2
100
AcDbEntity
  8
0
 62
     3
100
AcDbLine
 10
172.4522985316999
 20
188.5035314241999
 30
0.0
 11
161.7218583177
 21
188.5035314241999
 31
0.0
  0
LINE
  5
29F
330
2
100
AcDbEntity
  8
0
 62
     3
100
AcDbLine
 10
159.7218583177
 20
188.5035314241999
 30
0.0
 11
161.8003192867
 21
189.7035314242
 31
0.0
  0
LINE
  5
2A0
330
2
100
AcDbEntity
  8
0
 62
     3
100
AcDbLine
 10
158.8558329138997
 20
188.0035314241998
 30
0.0
 11
159.7218583177
 21
188.5035314241999
 31
0.0
  0
LINE
  5
2A1
330
2
100
AcDbEntity
  8
0
 62
     3
100
AcDbLine
 10
162.0682684791999
 20
188.7035314242
 30
0.0
 11
160.8558329138998
 21
188.0035314241998
 31
0.0
  0
LINE
  5
2A2
330
2
100
AcDbEntity
  8
0
 62
     3
100
AcDbLine
 10
166.5682684791998
 20
189.7035314242
 30
0.0
 11
166.5682684791998
 21
188.7035314242
 31
0.0
  0
LINE
  5
2A3
330
2
100
AcDbEntity
  8
0
 62
     3
100
AcDbLine
 10
175.5682684792
 20
189.5035314241999
 30
0.0
 11
172.5682684791999
 21
189.5035314241999
 31
0.0
  0
ARC
  5
2A4
330
2
100
AcDbEntity
  8
0
 62
     3
100
AcDbCircle
 10
171.5687686792999
 20
188.9719062741
 30
0.0
 40
1.0
100
AcDbArc
 50
284.4479149006998
 51
1.812289807599958
  0
LINE
  5
2A5
330
2
100
AcDbEntity
  8
0
 62
     3
100
AcDbLine
 10
172.5682684791999
 20
189.0035314241999
 30
0.0
 11
172.5682684791999
 21
189.5035314241999
 31
0.0
  0
LINE
  5
2A6
330
2
100
AcDbEntity
  8
0
 62
     3
100
AcDbLine
 10
175.6605670976999
 20
188.5512092137999
 30
0.0
 11
176.5682684791999
 21
190.0035314241998
 31
0.0
  0
ARC
  5
2A7
330
2
100
AcDbEntity
  8
0
 62
     3
100
AcDbCircle
 10
176.5677682789998
 20
188.9719062741
 30
0.0
 40
1.0
100
AcDbArc
 50
178.1877101922999
 51
255.5520850993999
  0
LINE
  5
2A8
330
2
100
AcDbEntity
  8
0
 62
     3
100
AcDbLine
 10
175.5682684792
 20
189.0035314241999
 30
0.0
 11
175.5682684792
 21
189.5035314241999
 31
0.0
  0
LINE
  5
2A9
330
2
100
AcDbEntity
  8
0
  6
CENTER
 62
     3
100
AcDbLine
 10
171.2182684791999
 20
223.5035314241998
 30
0.0
 11
167.9182684791999
 21
223.5035314241998
 31
0.0
  0
CIRCLE
  5
2AA
330
2
100
AcDbEntity
  8
0
  6
PHANTOM
 62
     3
100
AcDbCircle
 10
169.5682684791998
 20
223.5035314241998
 30
0.0
 40
1.5
  0
CIRCLE
  5
2AB
330
2
100
AcDbEntity
  8
0
 62
     3
100
AcDbCircle
 10
169.5682684791998
 20
223.5035314241998
 30
0.0
 40
1.199999999999999
  0
LINE
  5
2AC
330
2
100
AcDbEntity
  8
0
  6
CENTER
 62
     3
100
AcDbLine
 10
169.5682684791998
 20
225.1535314241999
 30
0.0
 11
169.5682684791998
 21
221.8535314242
 31
0.0
  0
LINE
  5
2AD
330
2
100
AcDbEntity
  8
0
 62
     3
100
AcDbLine
 10
176.5682684791999
 20
254.0035314242
 30
0.0
 11
176.5682684791999
 21
253.0035314241998
 31
0.0
  0
LINE
  5
2AE
330
2
100
AcDbEntity
  8
0
 62
     3
100
AcDbLine
 10
185.0682684791999
 20
188.0035314241998
 30
0.0
 11
185.0682684791999
 21
255.5035314241998
 31
0.0
  0
LINE
  5
2AF
330
2
100
AcDbEntity
  8
0
 62
     3
100
AcDbLine
 10
184.5682684791999
 20
254.7035314241998
 30
0.0
 11
184.5682684791999
 21
187.0035314241999
 31
0.0
  0
LINE
  5
2B0
330
2
100
AcDbEntity
  8
0
 62
     3
100
AcDbLine
 10
183.5682684791999
 20
254.7035314241998
 30
0.0
 11
183.5682684791999
 21
223.2535314241999
 31
0.0
  0
LINE
  5
2B1
330
2
100
AcDbEntity
  8
0
 62
     3
100
AcDbLine
 10
182.5682684791999
 20
252.5435314241998
 30
0.0
 11
182.5682684791999
 21
222.5035314241999
 31
0.0
  0
LINE
  5
2B2
330
2
100
AcDbEntity
  8
0
 62
     3
100
AcDbLine
 10
183.5682684791999
 20
218.7535314241999
 30
0.0
 11
183.5682684791999
 21
188.0035314241998
 31
0.0
  0
LINE
  5
2B3
330
2
100
AcDbEntity
  8
0
 62
     3
100
AcDbLine
 10
182.5682684791999
 20
219.5035314241998
 30
0.0
 11
182.5682684791999
 21
188.5035314241999
 31
0.0
  0
LINE
  5
2B4
330
2
100
AcDbEntity
  8
0
  6
PHANTOM
 62
     3
100
AcDbLine
 10
184.5682684791999
 20
188.0035314241998
 30
0.0
 11
185.0682684791999
 21
188.0035314241998
 31
0.0
  0
LINE
  5
2B5
330
2
100
AcDbEntity
  8
0
 62
     3
100
AcDbLine
 10
182.5682684791999
 20
188.5035314241999
 30
0.0
 11
180.5057684791998
 21
188.5035314241999
 31
0.0
  0
LINE
  5
2B6
330
2
100
AcDbEntity
  8
0
 62
     3
100
AcDbLine
 10
179.5682684792
 20
190.0035314241998
 30
0.0
 11
180.8182684791999
 21
188.0035314241998
 31
0.0
  0
LINE
  5
2B7
330
2
100
AcDbEntity
  8
0
 62
     3
100
AcDbLine
 10
183.5682684791999
 20
191.0035314241999
 30
0.0
 11
184.5682684791999
 21
191.0035314241999
 31
0.0
  0
LINE
  5
2B8
330
2
100
AcDbEntity
  8
0
 62
     3
100
AcDbLine
 10
183.5682684791999
 20
200.0035314241999
 30
0.0
 11
184.5682684791999
 21
200.0035314241999
 31
0.0
  0
LINE
  5
2B9
330
2
100
AcDbEntity
  8
0
 62
     3
100
AcDbLine
 10
183.5682684791999
 20
210.0035314241999
 30
0.0
 11
184.5682684791999
 21
210.0035314241999
 31
0.0
  0
ARC
  5
2BA
330
2
100
AcDbEntity
  8
0
  6
DASHED
 62
     3
100
AcDbCircle
 10
182.5998936292998
 20
223.5030312241
 30
0.0
 40
1.0
100
AcDbArc
 50
268.1877101923999
 51
345.5520850993
  0
ARC
  5
2BB
330
2
100
AcDbEntity
  8
0
  6
DASHED
 62
     3
100
AcDbCircle
 10
182.5998936292998
 20
218.5040316244
 30
0.0
 40
1.0
100
AcDbArc
 50
14.4479149005
 51
91.81228980780002
  0
LINE
  5
2BC
330
2
100
AcDbEntity
  8
0
  6
DASHED
 62
     3
100
AcDbLine
 10
182.0682684791998
 20
219.5035314241998
 30
0.0
 11
182.0682684791998
 21
222.5035314241999
 31
0.0
  0
LINE
  5
2BD
330
2
100
AcDbEntity
  8
0
  6
DASHED
 62
     3
100
AcDbLine
 10
182.5682684791999
 20
219.5035314241998
 30
0.0
 11
182.0682684791998
 21
219.5035314241998
 31
0.0
  0
LINE
  5
2BE
330
2
100
AcDbEntity
  8
0
  6
DASHED
 62
     3
100
AcDbLine
 10
182.0682684791998
 20
222.5035314241999
 30
0.0
 11
182.5682684791999
 21
222.5035314241999
 31
0.0
  0
LINE
  5
2BF
330
2
100
AcDbEntity
  8
0
 62
     3
100
AcDbLine
 10
183.5682684791999
 20
223.2535314241999
 30
0.0
 11
183.5682684791999
 21
218.7535314241999
 31
0.0
  0
ARC
  5
2C0
330
2
100
AcDbEntity
  8
0
 62
     3
100
AcDbCircle
 10
181.2709000580998
 20
221.0035314241999
 30
0.0
 40
5.6973684211
100
AcDbArc
 50
329.3446014711
 51
30.65539852889999
  0
LINE
  5
2C1
330
2
100
AcDbEntity
  8
0
 62
     3
100
AcDbLine
 10
185.0682684791999
 20
217.8535314241999
 30
0.0
 11
185.7419333283999
 21
217.8535314241999
 31
0.0
  0
ARC
  5
2C2
330
2
100
AcDbEntity
  8
0
 62
     3
100
AcDbCircle
 10
185.7419333283999
 20
218.3535314241999
 30
0.0
 40
0.5
100
AcDbArc
 50
270.0
 51
329.3446014711
  0
LINE
  5
2C3
330
2
100
AcDbEntity
  8
0
 62
     3
100
AcDbLine
 10
185.0682684791999
 20
224.1535314241999
 30
0.0
 11
185.7419333283999
 21
224.1535314241999
 31
0.0
  0
ARC
  5
2C4
330
2
100
AcDbEntity
  8
0
 62
     3
100
AcDbCircle
 10
185.7419333283999
 20
223.6535314241999
 30
0.0
 40
0.5
100
AcDbArc
 50
30.65539852889999
 51
90.0
  0
LINE
  5
2C5
330
2
100
AcDbEntity
  8
0
 62
     3
100
AcDbLine
 10
183.5682684791999
 20
239.5035314241999
 30
0.0
 11
184.5682684791999
 21
239.5035314241999
 31
0.0
  0
LINE
  5
2C6
330
2
100
AcDbEntity
  8
0
 62
     3
100
AcDbLine
 10
179.5682684792
 20
252.5435314241998
 30
0.0
 11
182.5682684791999
 21
252.5435314241998
 31
0.0
  0
LINE
  5
2C7
330
2
100
AcDbEntity
  8
0
 62
     3
100
AcDbLine
 10
179.5682684792
 20
253.0035314241998
 30
0.0
 11
179.5682684792
 21
252.5435314241998
 31
0.0
  0
LINE
  5
2C8
330
2
100
AcDbEntity
  8
0
 62
     3
100
AcDbLine
 10
183.5682684791999
 20
249.5035314241999
 30
0.0
 11
184.5682684791999
 21
249.5035314241999
 31
0.0
  0
LINE
  5
2C9
330
2
100
AcDbEntity
  8
0
 62
     3
100
AcDbLine
 10
185.0682684791999
 20
255.5035314241998
 30
0.0
 11
181.0682684791999
 21
255.5035314241998
 31
0.0
  0
ARC
  5
2CA
330
2
100
AcDbEntity
  8
0
 62
     3
100
AcDbCircle
 10
181.0682684791999
 20
254.5035314241999
 30
0.0
 40
1.0
100
AcDbArc
 50
0.0
 51
90.0
  0
LINE
  5
2CB
330
2
100
AcDbEntity
  8
0
 62
     3
100
AcDbLine
 10
179.5682684792
 20
255.046091077
 30
0.0
 11
179.5682684792
 21
254.0035314242
 31
0.0
  0
LINE
  5
2CC
330
2
100
AcDbEntity
  8
0
 62
     3
100
AcDbLine
 10
182.0682684791998
 20
254.0035314242
 30
0.0
 11
183.5682684791999
 21
254.0035314242
 31
0.0
  0
LINE
  5
2CD
330
2
100
AcDbEntity
  8
0
 62
     3
100
AcDbLine
 10
182.0682684791998
 20
254.0035314242
 30
0.0
 11
182.0682684791998
 21
254.5035314241999
 31
0.0
  0
LINE
  5
2CE
330
2
100
AcDbEntity
  8
0
 62
     3
100
AcDbLine
 10
183.5682684791999
 20
254.7035314241998
 30
0.0
 11
184.5682684791999
 21
254.7035314241998
 31
0.0
  0
TEXT
  5
2EC
330
2
100
AcDbEntity
  8
0
 62
     7
100
AcDbText
 10
146.0
 20
50.00000295525
 30
0.0
 40
2.999994089499998
  1
PS3N-C24A1N
 11
146.0
 21
51.5
 31
0.0
100
AcDbText
 73
     2
  0
TEXT
  5
2ED
330
2
100
AcDbEntity
  8
0
 62
     7
100
AcDbText
 10
146.0
 20
45.00000295525
 30
0.0
 40
2.999994089499998
  1
PS3N-C24A2CN
 11
146.0
 21
46.5
 31
0.0
100
AcDbText
 73
     2
  0
TEXT
  5
2EE
330
2
100
AcDbEntity
  8
0
 62
     7
100
AcDbText
 10
146.0
 20
40.00000295525
 30
0.0
 40
2.999994089499998
  1
PS3N-C24A2N
 11
146.0
 21
41.5
 31
0.0
100
AcDbText
 73
     2
  0
TEXT
  5
2EF
330
2
100
AcDbEntity
  8
0
 62
     7
100
AcDbText
 10
146.0
 20
95.00000295525
 30
0.0
 40
2.999994089499998
  1
PS3N-C05A1CN
 11
146.0
 21
96.5
 31
0.0
100
AcDbText
 73
     2
  0
TEXT
  5
2F0
330
2
100
AcDbEntity
  8
0
 62
     7
100
AcDbText
 10
146.0
 20
90.00000295525
 30
0.0
 40
2.999994089499998
  1
PS3N-C05A1N
 11
146.0
 21
91.5
 31
0.0
100
AcDbText
 73
     2
  0
TEXT
  5
2F1
330
2
100
AcDbEntity
  8
0
 62
     7
100
AcDbText
 10
146.0
 20
75.00000295525
 30
0.0
 40
2.999994089499998
  1
PS3N-C12A1CN
 11
146.0
 21
76.5
 31
0.0
100
AcDbText
 73
     2
  0
TEXT
  5
2F2
330
2
100
AcDbEntity
  8
0
 62
     7
100
AcDbText
 10
146.0
 20
70.00000295525
 30
0.0
 40
2.999994089499998
  1
PS3N-C12A1N
 11
146.0
 21
71.5
 31
0.0
100
AcDbText
 73
     2
  0
TEXT
  5
2F3
330
2
100
AcDbEntity
  8
0
 62
     7
100
AcDbText
 10
146.0
 20
85.00000295525
 30
0.0
 40
2.999994089499998
  1
PS3N-C05A2CN
 11
146.0
 21
86.5
 31
0.0
100
AcDbText
 73
     2
  0
TEXT
  5
2F4
330
2
100
AcDbEntity
  8
0
 62
     7
100
AcDbText
 10
146.0
 20
65.00000295525
 30
0.0
 40
2.999994089499998
  1
PS3N-C12A2CN
 11
146.0
 21
66.5
 31
0.0
100
AcDbText
 73
     2
  0
TEXT
  5
2F5
330
2
100
AcDbEntity
  8
0
 62
     7
100
AcDbText
 10
146.0
 20
80.00000295525
 30
0.0
 40
2.999994089499998
  1
PS3N-C05A2N
 11
146.0
 21
81.5
 31
0.0
100
AcDbText
 73
     2
  0
TEXT
  5
2F6
330
2
100
AcDbEntity
  8
0
 62
     7
100
AcDbText
 10
146.0
 20
60.00000295525
 30
0.0
 40
2.999994089499998
  1
PS3N-C12A2N
 11
146.0
 21
61.5
 31
0.0
100
AcDbText
 73
     2
  0
TEXT
  5
2F7
330
2
100
AcDbEntity
  8
0
 62
     7
100
AcDbText
 10
146.0
 20
55.00000295525
 30
0.0
 40
2.999994089499998
  1
PS3N-C24A1CN
 11
146.0
 21
56.5
 31
0.0
100
AcDbText
 73
     2
  0
ENDSEC
  0
SECTION
  2
OBJECTS
  0
DICTIONARY
  5
7
330
0
100
AcDbDictionary
281
     1
  3
ACAD_GROUP
350
1F
  3
ACAD_LAYOUT
350
B
  3
ACAD_MLINESTYLE
350
20
  3
ACAD_PLOTSETTINGS
350
21
  3
ACAD_PLOTSTYLENAME
350
6
  3
AcDbVariableDictionary
350
2F8
  0
DICTIONARY
  5
1F
102
{ACAD_REACTORS
330
7
102
}
330
7
100
AcDbDictionary
281
     1
  0
DICTIONARY
  5
B
102
{ACAD_REACTORS
330
7
102
}
330
7
100
AcDbDictionary
281
     1
  3
Model
350
A
  3
ﾚｲｱｳﾄ1
350
F
  0
DICTIONARY
  5
20
102
{ACAD_REACTORS
330
7
102
}
330
7
100
AcDbDictionary
281
     1
  3
Standard
350
22
  0
DICTIONARY
  5
21
102
{ACAD_REACTORS
330
7
102
}
330
7
100
AcDbDictionary
281
     1
  0
ACDBDICTIONARYWDFLT
  5
6
102
{ACAD_REACTORS
330
7
102
}
330
7
100
AcDbDictionary
281
     1
  3
Normal
350
5
100
AcDbDictionaryWithDefault
340
5
  0
DICTIONARY
  5
2F8
102
{ACAD_REACTORS
330
7
102
}
330
7
100
AcDbDictionary
281
     1
  3
DIMASSOC
350
2F9
  0
LAYOUT
  5
A
102
{ACAD_REACTORS
330
B
102
}
330
B
100
AcDbPlotSettings
  1

  2
C:\Program Files\AutoCAD 2000i\plotters\DWF Classic.pc3
  4

  6

 40
0.0
 41
0.0
 42
0.0
 43
0.0
 44
0.0
 45
0.0
 46
0.0
 47
0.0
 48
0.0
 49
0.0
140
0.0
141
0.0
142
1.0
143
1.0
 70
  1712
 72
     0
 73
     0
 74
     0
  7

 75
     0
147
1.0
148
0.0
149
0.0
100
AcDbLayout
  1
Model
 70
     1
 71
     0
 10
0.0
 20
0.0
 11
12.0
 21
9.0
 12
0.0
 22
0.0
 32
0.0
 14
0.0
 24
0.0
 34
0.0
 15
0.0
 25
0.0
 35
0.0
146
0.0
 13
0.0
 23
0.0
 33
0.0
 16
1.0
 26
0.0
 36
0.0
 17
0.0
 27
1.0
 37
0.0
 76
     0
330
2
  0
LAYOUT
  5
F
102
{ACAD_REACTORS
330
B
102
}
330
B
100
AcDbPlotSettings
  1

  2
C:\Program Files\AutoCAD 2000i\plotters\DWF Classic.pc3
  4

  6

 40
0.0
 41
0.0
 42
0.0
 43
0.0
 44
0.0
 45
0.0
 46
0.0
 47
0.0
 48
0.0
 49
0.0
140
0.0
141
0.0
142
1.0
143
1.0
 70
   688
 72
     0
 73
     0
 74
     5
  7

 75
    16
147
1.0
148
0.0
149
0.0
100
AcDbLayout
  1
ﾚｲｱｳﾄ1
 70
     1
 71
     1
 10
0.0
 20
0.0
 11
12.0
 21
9.0
 12
0.0
 22
0.0
 32
0.0
 14
1.000000000000000E+20
 24
1.000000000000000E+20
 34
1.000000000000000E+20
 15
-1.000000000000000E+20
 25
-1.000000000000000E+20
 35
-1.000000000000000E+20
146
0.0
 13
0.0
 23
0.0
 33
0.0
 16
1.0
 26
0.0
 36
0.0
 17
0.0
 27
1.0
 37
0.0
 76
     0
330
C
  0
MLINESTYLE
  5
22
102
{ACAD_REACTORS
330
20
102
}
330
20
100
AcDbMlineStyle
  2
STANDARD
 70
     0
  3

 62
   256
 51
90.0
 52
90.0
 71
     2
 49
0.5
 62
   256
  6
BYLAYER
 49
-0.5
 62
   256
  6
BYLAYER
  0
ACDBPLACEHOLDER
  5
5
102
{ACAD_REACTORS
330
6
102
}
330
6
  0
DICTIONARYVAR
  5
2F9
102
{ACAD_REACTORS
330
2F8
102
}
330
2F8
100
DictionaryVariables
280
     0
  1
1
  0
ENDSEC
  0
EOF
