  0
SECTION
  2
HEADER
  9
$ACADVER
  1
AC1015
  9
$ACADMAINTVER
 70
    13
  9
$DWGCODEPAGE
  3
ANSI_932
  9
$INSBASE
 10
0.0
 20
0.0
 30
0.0
  9
$EXTMIN
 10
-0.0215680970729864
 20
-0.0006542270044747
 30
-0.0000000349181948
  9
$EXTMAX
 10
210.0067797448064
 20
297.0044458588005
 30
0.0000000814935747
  9
$LIMMIN
 10
-189.175
 20
-3.174999999999998
  9
$LIMMAX
 10
3.174999999999998
 20
291.2585876465
  9
$ORTHOMODE
 70
     0
  9
$REGENMODE
 70
     1
  9
$FILLMODE
 70
     1
  9
$QTEXTMODE
 70
     0
  9
$MIRRTEXT
 70
     0
  9
$LTSCALE
 40
1.0
  9
$ATTMODE
 70
     1
  9
$TEXTSIZE
 40
2.999994039499997
  9
$TRACEWID
 40
0.05
  9
$TEXTSTYLE
  7
STANDARD
  9
$CLAYER
  8
0
  9
$CELTYPE
  6
ByLayer
  9
$CECOLOR
 62
   256
  9
$CELTSCALE
 40
1.0
  9
$DISPSILH
 70
     0
  9
$DIMSCALE
 40
1.0
  9
$DIMASZ
 40
1.9727878465
  9
$DIMEXO
 40
2.539999961899999
  9
$DIMDLI
 40
0.38
  9
$DIMRND
 40
0.0
  9
$DIMDLE
 40
0.0
  9
$DIMEXE
 40
3.809999942799997
  9
$DIMTP
 40
0.0
  9
$DIMTM
 40
0.0
  9
$DIMTXT
 40
2.999994039499997
  9
$DIMCEN
 40
0.09
  9
$DIMTSZ
 40
0.0
  9
$DIMTOL
 70
     0
  9
$DIMLIM
 70
     0
  9
$DIMTIH
 70
     0
  9
$DIMTOH
 70
     1
  9
$DIMSE1
 70
     0
  9
$DIMSE2
 70
     0
  9
$DIMTAD
 70
     0
  9
$DIMZIN
 70
     0
  9
$DIMBLK
  1

  9
$DIMASO
 70
     1
  9
$DIMSHO
 70
     0
  9
$DIMPOST
  1

  9
$DIMAPOST
  1

  9
$DIMALT
 70
     0
  9
$DIMALTD
 70
     2
  9
$DIMALTF
 40
25.4
  9
$DIMLFAC
 40
1.0
  9
$DIMTOFL
 70
     0
  9
$DIMTVP
 40
0.0
  9
$DIMTIX
 70
     0
  9
$DIMSOXD
 70
     0
  9
$DIMSAH
 70
     0
  9
$DIMBLK1
  1

  9
$DIMBLK2
  1

  9
$DIMSTYLE
  2
Standard
  9
$DIMCLRD
 70
     0
  9
$DIMCLRE
 70
     0
  9
$DIMCLRT
 70
     0
  9
$DIMTFAC
 40
1.0
  9
$DIMGAP
 40
0.09
  9
$DIMJUST
 70
     0
  9
$DIMSD1
 70
     0
  9
$DIMSD2
 70
     0
  9
$DIMTOLJ
 70
     1
  9
$DIMTZIN
 70
     0
  9
$DIMALTZ
 70
     0
  9
$DIMALTTZ
 70
     0
  9
$DIMUPT
 70
     0
  9
$DIMDEC
 70
     4
  9
$DIMTDEC
 70
     4
  9
$DIMALTU
 70
     2
  9
$DIMALTTD
 70
     2
  9
$DIMTXSTY
  7
STANDARD
  9
$DIMAUNIT
 70
     0
  9
$DIMADEC
 70
     0
  9
$DIMALTRND
 40
0.0
  9
$DIMAZIN
 70
     0
  9
$DIMDSEP
 70
    46
  9
$DIMATFIT
 70
     3
  9
$DIMFRAC
 70
     0
  9
$DIMLDRBLK
  1

  9
$DIMLUNIT
 70
     2
  9
$DIMLWD
 70
    -2
  9
$DIMLWE
 70
    -2
  9
$DIMTMOVE
 70
     0
  9
$LUNITS
 70
     2
  9
$LUPREC
 70
     3
  9
$SKETCHINC
 40
0.1
  9
$FILLETRAD
 40
0.0625
  9
$AUNITS
 70
     0
  9
$AUPREC
 70
     0
  9
$MENU
  1
ACAD
  9
$ELEVATION
 40
0.0
  9
$PELEVATION
 40
0.0
  9
$THICKNESS
 40
0.0
  9
$LIMCHECK
 70
     0
  9
$CHAMFERA
 40
0.0
  9
$CHAMFERB
 40
0.0
  9
$CHAMFERC
 40
0.0
  9
$CHAMFERD
 40
0.0
  9
$SKPOLY
 70
     0
  9
$TDCREATE
 40
2452383.612719907
  9
$TDUCREATE
 40
2452383.237719907
  9
$TDUPDATE
 40
2453376.730070891
  9
$TDUUPDATE
 40
2453376.355070891
  9
$TDINDWG
 40
0.0034067477
  9
$TDUSRTIMER
 40
0.0034067477
  9
$USRTIMER
 70
     1
  9
$ANGBASE
 50
0.0
  9
$ANGDIR
 70
     0
  9
$PDMODE
 70
     0
  9
$PDSIZE
 40
0.0
  9
$PLINEWID
 40
0.0
  9
$SPLFRAME
 70
     0
  9
$SPLINETYPE
 70
     6
  9
$SPLINESEGS
 70
     8
  9
$HANDSEED
  5
2CB
  9
$SURFTAB1
 70
     6
  9
$SURFTAB2
 70
     6
  9
$SURFTYPE
 70
     6
  9
$SURFU
 70
     6
  9
$SURFV
 70
     6
  9
$UCSBASE
  2

  9
$UCSNAME
  2

  9
$UCSORG
 10
0.0
 20
0.0
 30
0.0
  9
$UCSXDIR
 10
1.0
 20
0.0
 30
0.0
  9
$UCSYDIR
 10
0.0
 20
1.0
 30
0.0
  9
$UCSORTHOREF
  2

  9
$UCSORTHOVIEW
 70
     0
  9
$UCSORGTOP
 10
0.0
 20
0.0
 30
0.0
  9
$UCSORGBOTTOM
 10
0.0
 20
0.0
 30
0.0
  9
$UCSORGLEFT
 10
0.0
 20
0.0
 30
0.0
  9
$UCSORGRIGHT
 10
0.0
 20
0.0
 30
0.0
  9
$UCSORGFRONT
 10
0.0
 20
0.0
 30
0.0
  9
$UCSORGBACK
 10
0.0
 20
0.0
 30
0.0
  9
$PUCSBASE
  2

  9
$PUCSNAME
  2

  9
$PUCSORG
 10
0.0
 20
0.0
 30
0.0
  9
$PUCSXDIR
 10
1.0
 20
0.0
 30
0.0
  9
$PUCSYDIR
 10
0.0
 20
1.0
 30
0.0
  9
$PUCSORTHOREF
  2

  9
$PUCSORTHOVIEW
 70
     0
  9
$PUCSORGTOP
 10
0.0
 20
0.0
 30
0.0
  9
$PUCSORGBOTTOM
 10
0.0
 20
0.0
 30
0.0
  9
$PUCSORGLEFT
 10
0.0
 20
0.0
 30
0.0
  9
$PUCSORGRIGHT
 10
0.0
 20
0.0
 30
0.0
  9
$PUCSORGFRONT
 10
0.0
 20
0.0
 30
0.0
  9
$PUCSORGBACK
 10
0.0
 20
0.0
 30
0.0
  9
$USERI1
 70
     8
  9
$USERI2
 70
     0
  9
$USERI3
 70
     0
  9
$USERI4
 70
     0
  9
$USERI5
 70
     0
  9
$USERR1
 40
0.0
  9
$USERR2
 40
0.0
  9
$USERR3
 40
0.0
  9
$USERR4
 40
0.0
  9
$USERR5
 40
0.0
  9
$WORLDVIEW
 70
     1
  9
$SHADEDGE
 70
     3
  9
$SHADEDIF
 70
    70
  9
$TILEMODE
 70
     1
  9
$MAXACTVP
 70
    64
  9
$PINSBASE
 10
0.0
 20
0.0
 30
0.0
  9
$PLIMCHECK
 70
     0
  9
$PEXTMIN
 10
1.000000000000000E+20
 20
1.000000000000000E+20
 30
1.000000000000000E+20
  9
$PEXTMAX
 10
-1.000000000000000E+20
 20
-1.000000000000000E+20
 30
-1.000000000000000E+20
  9
$PLIMMIN
 10
0.0
 20
0.0
  9
$PLIMMAX
 10
12.0
 20
9.0
  9
$UNITMODE
 70
     0
  9
$VISRETAIN
 70
     1
  9
$PLINEGEN
 70
     0
  9
$PSLTSCALE
 70
     1
  9
$TREEDEPTH
 70
  3020
  9
$CMLSTYLE
  2
Standard
  9
$CMLJUST
 70
     0
  9
$CMLSCALE
 40
1.0
  9
$PROXYGRAPHICS
 70
     1
  9
$MEASUREMENT
 70
     0
  9
$CELWEIGHT
370
    -1
  9
$ENDCAPS
280
     0
  9
$JOINSTYLE
280
     0
  9
$LWDISPLAY
290
     0
  9
$INSUNITS
 70
     0
  9
$HYPERLINKBASE
  1

  9
$STYLESHEET
  1

  9
$XEDIT
290
     1
  9
$CEPSNTYPE
380
     0
  9
$PSTYLEMODE
290
     1
  9
$FINGERPRINTGUID
  2
{1039697E-8617-483F-BF67-630F43D3411E}
  9
$VERSIONGUID
  2
{7A6305DD-00ED-42D5-83CB-E5106086921A}
  9
$EXTNAMES
290
     1
  9
$PSVPSCALE
 40
0.0
  9
$OLESTARTUP
290
     0
  0
ENDSEC
  0
SECTION
  2
CLASSES
  0
CLASS
  1
ACDBDICTIONARYWDFLT
  2
AcDbDictionaryWithDefault
  3
AutoCAD 2000
 90
        0
280
     0
281
     0
  0
CLASS
  1
ACDBPLACEHOLDER
  2
AcDbPlaceHolder
  3
AutoCAD 2000
 90
        0
280
     0
281
     0
  0
CLASS
  1
LAYOUT
  2
AcDbLayout
  3
AutoCAD 2000
 90
        0
280
     0
281
     0
  0
CLASS
  1
DICTIONARYVAR
  2
AcDbDictionaryVar
  3
AutoCAD 2000
 90
        0
280
     0
281
     0
  0
ENDSEC
  0
SECTION
  2
TABLES
  0
TABLE
  2
VPORT
  5
19
330
0
100
AcDbSymbolTable
 70
     2
  0
VPORT
  5
2CA
330
19
100
AcDbSymbolTableRecord
100
AcDbViewportTableRecord
  2
*Active
 70
     0
 10
0.0
 20
0.0
 11
1.0
 21
1.0
 12
104.9926058238667
 22
148.501895815898
 13
0.0
 23
0.0
 14
1.0
 24
1.0
 15
0.0
 25
0.0
 16
0.0
 26
0.0
 36
1.0
 17
0.0
 27
0.0
 37
0.0
 40
301.3409409629701
 41
2.407317073170731
 42
50.0
 43
0.0
 44
0.0
 50
0.0
 51
0.0
 71
     0
 72
   100
 73
     1
 74
     1
 75
     0
 76
     0
 77
     0
 78
     0
281
     0
 65
     1
110
0.0
120
0.0
130
0.0
111
1.0
121
0.0
131
0.0
112
0.0
122
1.0
132
0.0
 79
     0
146
0.0
  0
ENDTAB
  0
TABLE
  2
LTYPE
  5
14
330
0
100
AcDbSymbolTable
 70
     3
  0
LTYPE
  5
15
330
14
100
AcDbSymbolTableRecord
100
AcDbLinetypeTableRecord
  2
ByBlock
 70
     0
  3

 72
    65
 73
     0
 40
0.0
  0
LTYPE
  5
16
330
14
100
AcDbSymbolTableRecord
100
AcDbLinetypeTableRecord
  2
ByLayer
 70
     0
  3

 72
    65
 73
     0
 40
0.0
  0
LTYPE
  5
8
330
14
100
AcDbSymbolTableRecord
100
AcDbLinetypeTableRecord
  2
Continuous
 70
     0
  3
Solid line
 72
    65
 73
     0
 40
0.0
  0
LTYPE
  5
34
330
14
100
AcDbSymbolTableRecord
100
AcDbLinetypeTableRecord
  2
CENTER
 70
     0
  3
Center
 72
    65
 73
     4
 40
9.100006759199999
 49
6.5000119209
 74
     0
 49
-0.7999984026000001
 74
     0
 49
0.9999980329999999
 74
     0
 49
-0.7999984026000001
 74
     0
  0
LTYPE
  5
29
330
14
100
AcDbSymbolTableRecord
100
AcDbLinetypeTableRecord
  2
PHANTOM
 70
     0
  3
Phantom
 72
    65
 73
     6
 40
9.499981462999999
 49
4.799990654
 74
     0
 49
-0.8999982475999999
 74
     0
 49
0.9999980329999999
 74
     0
 49
-0.8999982475999999
 74
     0
 49
0.9999980329999999
 74
     0
 49
-0.8999982475999999
 74
     0
  0
ENDTAB
  0
TABLE
  2
LAYER
  5
10
330
0
100
AcDbSymbolTable
 70
     1
  0
LAYER
  5
4
330
10
100
AcDbSymbolTableRecord
100
AcDbLayerTableRecord
  2
0
 70
     0
 62
     7
  6
Continuous
370
    -3
390
5
  0
ENDTAB
  0
TABLE
  2
STYLE
  5
11
330
0
100
AcDbSymbolTable
 70
     1
  0
STYLE
  5
12
330
11
100
AcDbSymbolTableRecord
100
AcDbTextStyleTableRecord
  2
STANDARD
 70
     0
 40
0.0
 41
1.0
 50
0.0
 71
     0
 42
2.999994039499997
  3
romans.shx
  4
bigfont.shx
  0
ENDTAB
  0
TABLE
  2
VIEW
  5
17
330
0
100
AcDbSymbolTable
 70
     0
  0
ENDTAB
  0
TABLE
  2
UCS
  5
18
330
0
100
AcDbSymbolTable
 70
     0
  0
ENDTAB
  0
TABLE
  2
APPID
  5
1B
330
0
100
AcDbSymbolTable
 70
     1
  0
APPID
  5
1C
330
1B
100
AcDbSymbolTableRecord
100
AcDbRegAppTableRecord
  2
ACAD
 70
     0
  0
ENDTAB
  0
TABLE
  2
DIMSTYLE
  5
1D
330
0
100
AcDbSymbolTable
 70
     1
100
AcDbDimStyleTable
 71
     0
  0
DIMSTYLE
105
23
330
1D
100
AcDbSymbolTableRecord
100
AcDbDimStyleTableRecord
  2
Standard
 70
     0
340
12
  0
ENDTAB
  0
TABLE
  2
BLOCK_RECORD
  5
1
330
0
100
AcDbSymbolTable
 70
     1
  0
BLOCK_RECORD
  5
2
330
1
100
AcDbSymbolTableRecord
100
AcDbBlockTableRecord
  2
*Model_Space
340
A
  0
BLOCK_RECORD
  5
C
330
1
100
AcDbSymbolTableRecord
100
AcDbBlockTableRecord
  2
*Paper_Space
340
F
  0
ENDTAB
  0
ENDSEC
  0
SECTION
  2
BLOCKS
  0
BLOCK
  5
3
330
2
100
AcDbEntity
  8
0
100
AcDbBlockBegin
  2
*Model_Space
 70
     0
 10
0.0
 20
0.0
 30
0.0
  3
*Model_Space
  1

  0
ENDBLK
  5
9
330
2
100
AcDbEntity
  8
0
100
AcDbBlockEnd
  0
BLOCK
  5
D
330
C
100
AcDbEntity
 67
     1
  8
0
100
AcDbBlockBegin
  2
*Paper_Space
 70
     0
 10
0.0
 20
0.0
 30
0.0
  3
*Paper_Space
  1

  0
ENDBLK
  5
E
330
C
100
AcDbEntity
 67
     1
  8
0
100
AcDbBlockEnd
  0
ENDSEC
  0
SECTION
  2
ENTITIES
  0
LINE
  5
24
330
2
100
AcDbEntity
  8
0
100
AcDbLine
 10
210.0
 20
0.0
 30
0.0
 11
210.0
 21
297.0
 31
0.0
  0
LINE
  5
25
330
2
100
AcDbEntity
  8
0
100
AcDbLine
 10
0.0
 20
297.0
 30
0.0
 11
0.0
 21
0.0
 31
0.0
  0
LINE
  5
26
330
2
100
AcDbEntity
  8
0
 62
     3
100
AcDbLine
 10
143.65977338
 20
147.4757000975
 30
0.0
 11
161.6597733799999
 21
147.4757000975
 31
0.0
  0
TEXT
  5
27
330
2
100
AcDbEntity
  8
0
 62
     5
100
AcDbText
 10
145.0
 20
10.0
 30
0.0
 40
5.0
  1
ＭＡ４－Ｐ０００７１
 41
0.8659515370411748
 72
     5
 11
194.0705870989999
 21
10.0
 31
0.0
100
AcDbText
  0
LINE
  5
28
330
2
100
AcDbEntity
  8
0
  6
PHANTOM
 62
     3
100
AcDbLine
 10
111.1597733799999
 20
151.9757000974998
 30
0.0
 11
175.6597733799999
 21
151.9757000974998
 31
0.0
  0
LINE
  5
2A
330
2
100
AcDbEntity
  8
0
 62
     3
100
AcDbLine
 10
175.6597733799999
 20
117.9757000975
 30
0.0
 11
99.65977338
 21
117.9757000975
 31
0.0
  0
LINE
  5
2B
330
2
100
AcDbEntity
  8
0
100
AcDbLine
 10
0.0
 20
0.0
 30
0.0
 11
210.0
 21
0.0
 31
0.0
  0
ARC
  5
2C
330
2
100
AcDbEntity
  8
0
 62
     3
100
AcDbCircle
 10
87.75977338000002
 20
135.9757000975
 30
0.0
 40
2.0
100
AcDbArc
 50
90.0
 51
180.0
  0
ARC
  5
2D
330
2
100
AcDbEntity
  8
0
 62
     3
100
AcDbCircle
 10
87.75977338000002
 20
124.9757000974999
 30
0.0
 40
2.0
100
AcDbArc
 50
180.0
 51
270.0
  0
LINE
  5
2E
330
2
100
AcDbEntity
  8
0
 62
     3
100
AcDbLine
 10
85.75977337999999
 20
135.9757000975
 30
0.0
 11
85.75977337999999
 21
124.9757000974999
 31
0.0
  0
LINE
  5
2F
330
2
100
AcDbEntity
  8
0
 62
     3
100
AcDbLine
 10
122.8597733799999
 20
141.9757000974998
 30
0.0
 11
112.7152870070998
 21
141.9757000974998
 31
0.0
  0
LINE
  5
30
330
2
100
AcDbEntity
  8
0
 62
     3
100
AcDbLine
 10
112.7152870070998
 20
144.9757000974998
 30
0.0
 11
122.8597733799999
 21
144.9757000974998
 31
0.0
  0
LINE
  5
31
330
2
100
AcDbEntity
  8
0
 62
     3
100
AcDbLine
 10
100.6597733799999
 20
147.9757000974998
 30
0.0
 11
143.1597733799998
 21
147.9757000974998
 31
0.0
  0
LINE
  5
32
330
2
100
AcDbEntity
  8
0
 62
     3
100
AcDbLine
 10
99.65977338
 20
117.9757000975
 30
0.0
 11
99.65977338
 21
146.9757000974998
 31
0.0
  0
LINE
  5
33
330
2
100
AcDbEntity
  8
0
  6
CENTER
 62
     3
100
AcDbLine
 10
107.1347733799999
 20
133.9757000975
 30
0.0
 11
102.18477338
 21
133.9757000975
 31
0.0
  0
LINE
  5
35
330
2
100
AcDbEntity
  8
0
 62
     3
100
AcDbLine
 10
99.65977338
 20
137.9757000975
 30
0.0
 11
87.75977338000002
 21
137.9757000975
 31
0.0
  0
LINE
  5
36
330
2
100
AcDbEntity
  8
0
 62
     3
100
AcDbLine
 10
87.75977338000002
 20
122.9757000975
 30
0.0
 11
99.65977338
 21
122.9757000975
 31
0.0
  0
LINE
  5
37
330
2
100
AcDbEntity
  8
0
 62
     3
100
AcDbLine
 10
87.35977337999997
 20
134.4757000975
 30
0.0
 11
87.35977337999997
 21
126.4757000974999
 31
0.0
  0
LINE
  5
38
330
2
100
AcDbEntity
  8
0
 62
     3
100
AcDbLine
 10
88.35977337999997
 20
126.4757000974999
 30
0.0
 11
88.35977337999997
 21
134.4757000975
 31
0.0
  0
LINE
  5
39
330
2
100
AcDbEntity
  8
0
 62
     3
100
AcDbLine
 10
87.35977337999997
 20
126.4757000974999
 30
0.0
 11
88.35977337999997
 21
126.4757000974999
 31
0.0
  0
LINE
  5
3A
330
2
100
AcDbEntity
  8
0
 62
     3
100
AcDbLine
 10
88.35977337999997
 20
134.4757000975
 30
0.0
 11
87.35977337999997
 21
134.4757000975
 31
0.0
  0
LINE
  5
3B
330
2
100
AcDbEntity
  8
0
 62
     3
100
AcDbLine
 10
99.47697338000001
 20
122.9757000975
 30
0.0
 11
99.65977338
 21
122.9757000975
 31
0.0
  0
LINE
  5
3C
330
2
100
AcDbEntity
  8
0
 62
     3
100
AcDbLine
 10
108.15977338
 20
126.7757000975
 30
0.0
 11
108.15977338
 21
124.7757000975
 31
0.0
  0
LINE
  5
3D
330
2
100
AcDbEntity
  8
0
 62
     3
100
AcDbLine
 10
109.4097733799999
 20
126.7757000975
 30
0.0
 11
109.4097733799999
 21
124.7757000975
 31
0.0
  0
LINE
  5
3E
330
2
100
AcDbEntity
  8
0
 62
     3
100
AcDbLine
 10
105.1597733799999
 20
126.7757000975
 30
0.0
 11
105.1597733799999
 21
124.7757000975
 31
0.0
  0
LINE
  5
3F
330
2
100
AcDbEntity
  8
0
 62
     3
100
AcDbLine
 10
103.9097733799999
 20
124.7757000975
 30
0.0
 11
103.9097733799999
 21
126.7757000975
 31
0.0
  0
LINE
  5
40
330
2
100
AcDbEntity
  8
0
 62
     3
100
AcDbLine
 10
109.4097733799999
 20
120.9757000974999
 30
0.0
 11
103.9097733799999
 21
120.9757000974999
 31
0.0
  0
LINE
  5
41
330
2
100
AcDbEntity
  8
0
 62
     3
100
AcDbLine
 10
103.9097733799999
 20
122.9757000975
 30
0.0
 11
109.4097733799999
 21
122.9757000975
 31
0.0
  0
LINE
  5
42
330
2
100
AcDbEntity
  8
0
 62
     3
100
AcDbLine
 10
109.4097733799999
 20
124.7757000975
 30
0.0
 11
103.9097733799999
 21
124.7757000975
 31
0.0
  0
LINE
  5
43
330
2
100
AcDbEntity
  8
0
 62
     3
100
AcDbLine
 10
103.9097733799999
 20
120.9757000974999
 30
0.0
 11
103.9097733799999
 21
122.9757000975
 31
0.0
  0
LINE
  5
44
330
2
100
AcDbEntity
  8
0
 62
     3
100
AcDbLine
 10
105.1597733799999
 20
122.9757000975
 30
0.0
 11
105.1597733799999
 21
120.9757000974999
 31
0.0
  0
LINE
  5
45
330
2
100
AcDbEntity
  8
0
 62
     3
100
AcDbLine
 10
104.8769733799999
 20
122.9757000975
 30
0.0
 11
105.6769733799999
 21
122.9757000975
 31
0.0
  0
LINE
  5
46
330
2
100
AcDbEntity
  8
0
 62
     3
100
AcDbLine
 10
109.4097733799999
 20
122.9757000975
 30
0.0
 11
109.4097733799999
 21
120.9757000974999
 31
0.0
  0
LINE
  5
47
330
2
100
AcDbEntity
  8
0
 62
     3
100
AcDbLine
 10
108.15977338
 20
122.9757000975
 30
0.0
 11
108.15977338
 21
120.9757000974999
 31
0.0
  0
CIRCLE
  5
48
330
2
100
AcDbEntity
  8
0
  6
PHANTOM
 62
     3
100
AcDbCircle
 10
104.6597733799997
 20
133.9757000975
 30
0.0
 40
1.5
  0
LINE
  5
49
330
2
100
AcDbEntity
  8
0
 62
     3
100
AcDbLine
 10
103.9097733799999
 20
126.7757000975
 30
0.0
 11
109.4097733799999
 21
126.7757000975
 31
0.0
  0
CIRCLE
  5
4A
330
2
100
AcDbEntity
  8
0
 62
     3
100
AcDbCircle
 10
104.6597733799997
 20
133.9757000975
 30
0.0
 40
2.25
  0
LINE
  5
4B
330
2
100
AcDbEntity
  8
0
  6
CENTER
 62
     3
100
AcDbLine
 10
104.6597733799997
 20
136.4507000974999
 30
0.0
 11
104.6597733799997
 21
131.5007000974999
 31
0.0
  0
CIRCLE
  5
4C
330
2
100
AcDbEntity
  8
0
 62
     3
100
AcDbCircle
 10
104.6597733799997
 20
133.9757000975
 30
0.0
 40
1.199999999999999
  0
ARC
  5
4D
330
2
100
AcDbEntity
  8
0
 62
     3
100
AcDbCircle
 10
100.6597733799999
 20
146.9757000974998
 30
0.0
 40
1.0
100
AcDbArc
 50
90.0
 51
180.0
  0
LINE
  5
4E
330
2
100
AcDbEntity
  8
0
  6
PHANTOM
 62
     3
100
AcDbLine
 10
111.1597733799999
 20
151.9757000974998
 30
0.0
 11
109.3197733799997
 21
147.9757000974998
 31
0.0
  0
LINE
  5
4F
330
2
100
AcDbEntity
  8
0
  6
CENTER
 62
     3
100
AcDbLine
 10
106.5847733799997
 20
142.9757000974998
 30
0.0
 11
102.7347733799998
 21
142.9757000974998
 31
0.0
  0
CIRCLE
  5
50
330
2
100
AcDbEntity
  8
0
 62
     3
100
AcDbCircle
 10
104.6597733799997
 20
142.9757000974998
 30
0.0
 40
1.75
  0
LINE
  5
51
330
2
100
AcDbEntity
  8
0
  6
CENTER
 62
     3
100
AcDbLine
 10
104.6597733799997
 20
144.9007000975
 30
0.0
 11
104.6597733799997
 21
141.0507000974998
 31
0.0
  0
LINE
  5
52
330
2
100
AcDbEntity
  8
0
  6
PHANTOM
 62
     3
100
AcDbLine
 10
111.1597733799999
 20
147.9757000974998
 30
0.0
 11
111.1597733799999
 21
151.9757000974998
 31
0.0
  0
LINE
  5
53
330
2
100
AcDbEntity
  8
0
 62
     3
100
AcDbLine
 10
112.7152870070998
 20
141.9757000974998
 30
0.0
 11
112.7152870070998
 21
144.9757000974998
 31
0.0
  0
LINE
  5
54
330
2
100
AcDbEntity
  8
0
 62
     3
100
AcDbLine
 10
117.6597733799999
 20
144.9757000974998
 30
0.0
 11
117.6597733799999
 21
141.9757000974998
 31
0.0
  0
LINE
  5
55
330
2
100
AcDbEntity
  8
0
 62
     3
100
AcDbLine
 10
122.8597733799999
 20
144.9757000974998
 30
0.0
 11
122.8597733799999
 21
141.9757000974998
 31
0.0
  0
LINE
  5
56
330
2
100
AcDbEntity
  8
0
 62
     3
100
AcDbLine
 10
122.1597733799999
 20
144.9757000974998
 30
0.0
 11
122.1597733799999
 21
141.9757000974998
 31
0.0
  0
LINE
  5
57
330
2
100
AcDbEntity
  8
0
 62
     3
100
AcDbLine
 10
143.1597733799998
 20
147.9757000974998
 30
0.0
 11
143.65977338
 21
147.4757000975
 31
0.0
  0
LINE
  5
58
330
2
100
AcDbEntity
  8
0
 62
     3
100
AcDbLine
 10
143.1597733799998
 20
147.9757000974998
 30
0.0
 11
143.1483871687999
 21
147.9870863087
 31
0.0
  0
ARC
  5
59
330
2
100
AcDbEntity
  8
0
 62
     3
100
AcDbCircle
 10
171.8624049588999
 20
127.9757000974999
 30
0.0
 40
5.6973684211
100
AcDbArc
 50
329.3446014711
 51
30.65539852889999
  0
LINE
  5
5A
330
2
100
AcDbEntity
  8
0
 62
     3
100
AcDbLine
 10
175.6597733799999
 20
140.2257000975
 30
0.0
 11
175.6597733799999
 21
117.9757000975
 31
0.0
  0
CIRCLE
  5
5B
330
2
100
AcDbEntity
  8
0
 62
     3
100
AcDbCircle
 10
169.65977338
 20
133.9757000975
 30
0.0
 40
1.199999999999999
  0
CIRCLE
  5
5C
330
2
100
AcDbEntity
  8
0
  6
PHANTOM
 62
     3
100
AcDbCircle
 10
169.65977338
 20
133.9757000975
 30
0.0
 40
1.5
  0
LINE
  5
5D
330
2
100
AcDbEntity
  8
0
  6
CENTER
 62
     3
100
AcDbLine
 10
172.1347733799999
 20
133.9757000975
 30
0.0
 11
167.1847733799999
 21
133.9757000975
 31
0.0
  0
LINE
  5
5E
330
2
100
AcDbEntity
  8
0
 62
     3
100
AcDbLine
 10
170.4097733799999
 20
120.9757000974999
 30
0.0
 11
164.9097733799998
 21
120.9757000974999
 31
0.0
  0
LINE
  5
5F
330
2
100
AcDbEntity
  8
0
 62
     3
100
AcDbLine
 10
164.9097733799998
 20
122.9757000975
 30
0.0
 11
170.4097733799999
 21
122.9757000975
 31
0.0
  0
LINE
  5
60
330
2
100
AcDbEntity
  8
0
 62
     3
100
AcDbLine
 10
170.4097733799999
 20
124.7757000975
 30
0.0
 11
164.9097733799998
 21
124.7757000975
 31
0.0
  0
LINE
  5
61
330
2
100
AcDbEntity
  8
0
 62
     3
100
AcDbLine
 10
164.9097733799998
 20
126.7757000975
 30
0.0
 11
170.4097733799999
 21
126.7757000975
 31
0.0
  0
CIRCLE
  5
62
330
2
100
AcDbEntity
  8
0
 62
     3
100
AcDbCircle
 10
169.65977338
 20
133.9757000975
 30
0.0
 40
2.25
  0
LINE
  5
63
330
2
100
AcDbEntity
  8
0
 62
     3
100
AcDbLine
 10
169.1597733799999
 20
126.7757000975
 30
0.0
 11
169.1597733799999
 21
124.7757000975
 31
0.0
  0
LINE
  5
64
330
2
100
AcDbEntity
  8
0
 62
     3
100
AcDbLine
 10
166.1597733799998
 20
126.7757000975
 30
0.0
 11
166.1597733799998
 21
124.7757000975
 31
0.0
  0
LINE
  5
65
330
2
100
AcDbEntity
  8
0
 62
     3
100
AcDbLine
 10
164.9097733799998
 20
124.7757000975
 30
0.0
 11
164.9097733799998
 21
126.7757000975
 31
0.0
  0
LINE
  5
66
330
2
100
AcDbEntity
  8
0
 62
     3
100
AcDbLine
 10
166.1597733799998
 20
122.9757000975
 30
0.0
 11
166.1597733799998
 21
120.9757000974999
 31
0.0
  0
LINE
  5
67
330
2
100
AcDbEntity
  8
0
 62
     3
100
AcDbLine
 10
164.9097733799998
 20
120.9757000974999
 30
0.0
 11
164.9097733799998
 21
122.9757000975
 31
0.0
  0
LINE
  5
68
330
2
100
AcDbEntity
  8
0
 62
     3
100
AcDbLine
 10
169.1597733799999
 20
122.9757000975
 30
0.0
 11
169.1597733799999
 21
120.9757000974999
 31
0.0
  0
LINE
  5
69
330
2
100
AcDbEntity
  8
0
  6
CENTER
 62
     3
100
AcDbLine
 10
169.65977338
 20
136.4507000974999
 30
0.0
 11
169.65977338
 21
131.5007000974999
 31
0.0
  0
LINE
  5
6A
330
2
100
AcDbEntity
  8
0
 62
     3
100
AcDbLine
 10
170.4097733799999
 20
126.7757000975
 30
0.0
 11
170.4097733799999
 21
124.7757000975
 31
0.0
  0
LINE
  5
6B
330
2
100
AcDbEntity
  8
0
 62
     3
100
AcDbLine
 10
170.4097733799999
 20
122.9757000975
 30
0.0
 11
170.4097733799999
 21
120.9757000974999
 31
0.0
  0
LINE
  5
6C
330
2
100
AcDbEntity
  8
0
 62
     3
100
AcDbLine
 10
174.1597733799999
 20
118.9757000974999
 30
0.0
 11
175.6597733799999
 21
118.9757000974999
 31
0.0
  0
LINE
  5
6D
330
2
100
AcDbEntity
  8
0
 62
     3
100
AcDbLine
 10
174.1597733799999
 20
117.9757000975
 30
0.0
 11
174.1597733799999
 21
118.9757000974999
 31
0.0
  0
ARC
  5
6E
330
2
100
AcDbEntity
  8
0
 62
     3
100
AcDbCircle
 10
174.1597733799999
 20
118.9757000974999
 30
0.0
 40
1.0
100
AcDbArc
 50
270.0
 51
0.0
  0
LINE
  5
6F
330
2
100
AcDbEntity
  8
0
 62
     3
100
AcDbLine
 10
175.6597733799999
 20
124.8257000975
 30
0.0
 11
176.3334382291999
 21
124.8257000975
 31
0.0
  0
ARC
  5
70
330
2
100
AcDbEntity
  8
0
 62
     3
100
AcDbCircle
 10
176.3334382291999
 20
125.3257000975
 30
0.0
 40
0.5
100
AcDbArc
 50
270.0
 51
329.3446014711
  0
LINE
  5
71
330
2
100
AcDbEntity
  8
0
 62
     3
100
AcDbLine
 10
175.6597733799999
 20
131.1257000974999
 30
0.0
 11
176.3334382291999
 21
131.1257000974999
 31
0.0
  0
ARC
  5
72
330
2
100
AcDbEntity
  8
0
 62
     3
100
AcDbCircle
 10
176.3334382291999
 20
130.6257000974999
 30
0.0
 40
0.5
100
AcDbArc
 50
30.65539852889999
 51
90.0
  0
LINE
  5
73
330
2
100
AcDbEntity
  8
0
 62
     3
100
AcDbLine
 10
162.1597733799999
 20
147.9757000974998
 30
0.0
 11
174.6597733799999
 21
147.9757000974998
 31
0.0
  0
LINE
  5
74
330
2
100
AcDbEntity
  8
0
 62
     3
100
AcDbLine
 10
162.1597733799999
 20
147.9757000974998
 30
0.0
 11
162.1739539106999
 21
147.9898806282998
 31
0.0
  0
LINE
  5
75
330
2
100
AcDbEntity
  8
0
 62
     3
100
AcDbLine
 10
162.1597733799999
 20
147.9757000974998
 30
0.0
 11
161.6597733799999
 21
147.4757000975
 31
0.0
  0
LINE
  5
76
330
2
100
AcDbEntity
  8
0
  6
CENTER
 62
     3
100
AcDbLine
 10
169.8611362689999
 20
142.9757000974998
 30
0.0
 11
176.6533364162999
 21
142.9757000974998
 31
0.0
  0
LINE
  5
77
330
2
100
AcDbEntity
  8
0
  6
PHANTOM
 62
     3
100
AcDbLine
 10
175.6597733799999
 20
151.9757000974998
 30
0.0
 11
175.6597733799999
 21
139.3956560072999
 31
0.0
  0
LINE
  5
78
330
2
100
AcDbEntity
  8
0
 62
     3
100
AcDbLine
 10
172.65977338
 20
144.7257000974999
 30
0.0
 11
174.6597733799999
 21
144.7257000974999
 31
0.0
  0
LINE
  5
79
330
2
100
AcDbEntity
  8
0
 62
     3
100
AcDbLine
 10
172.65977338
 20
141.2257000975
 30
0.0
 11
174.6597733799999
 21
141.2257000975
 31
0.0
  0
LINE
  5
7A
330
2
100
AcDbEntity
  8
0
  6
CENTER
 62
     3
100
AcDbLine
 10
172.65977338
 20
145.3741092162999
 30
0.0
 11
172.65977338
 21
140.2179864768
 31
0.0
  0
ARC
  5
7B
330
2
100
AcDbEntity
  8
0
 62
     3
100
AcDbCircle
 10
172.65977338
 20
142.9757000974998
 30
0.0
 40
1.75
100
AcDbArc
 50
90.0
 51
270.0
  0
ARC
  5
7C
330
2
100
AcDbEntity
  8
0
 62
     3
100
AcDbCircle
 10
174.6597733799999
 20
140.2257000975
 30
0.0
 40
1.0
100
AcDbArc
 50
0.0
 51
90.0
  0
ARC
  5
7D
330
2
100
AcDbEntity
  8
0
 62
     3
100
AcDbCircle
 10
174.6597733799999
 20
145.7257000974998
 30
0.0
 40
1.0
100
AcDbArc
 50
270.0
 51
0.0
  0
ARC
  5
7E
330
2
100
AcDbEntity
  8
0
 62
     3
100
AcDbCircle
 10
174.6597733799999
 20
146.9757000974998
 30
0.0
 40
1.0
100
AcDbArc
 50
0.0
 51
90.0
  0
LINE
  5
7F
330
2
100
AcDbEntity
  8
0
 62
     3
100
AcDbLine
 10
175.6597733799999
 20
146.9757000974998
 30
0.0
 11
175.6597733799999
 21
145.7257000974998
 31
0.0
  0
LINE
  5
80
330
2
100
AcDbEntity
  8
0
 62
     3
100
AcDbLine
 10
175.6597733799999
 20
187.9757000975
 30
0.0
 11
99.65977338
 21
187.9757000975
 31
0.0
  0
LINE
  5
81
330
2
100
AcDbEntity
  8
0
 62
     3
100
AcDbLine
 10
111.6597733799999
 20
256.9757000975
 30
0.0
 11
165.1597733799999
 21
256.9757000975
 31
0.0
  0
LINE
  5
82
330
2
100
AcDbEntity
  8
0
 62
     3
100
AcDbLine
 10
175.6597733799999
 20
188.9757000975
 30
0.0
 11
99.65977338
 21
188.9757000975
 31
0.0
  0
LINE
  5
83
330
2
100
AcDbEntity
  8
0
100
AcDbLine
 10
210.0
 20
297.0
 30
0.0
 11
0.0
 21
297.0
 31
0.0
  0
LINE
  5
87
330
2
100
AcDbEntity
  8
0
 62
     3
100
AcDbLine
 10
117.3133632183999
 20
189.4757000975
 30
0.0
 11
165.2774204388
 21
189.4757000975
 31
0.0
  0
LINE
  5
88
330
2
100
AcDbEntity
  8
0
 62
     3
100
AcDbLine
 10
116.1597733799997
 20
256.4757000975
 30
0.0
 11
172.1597733799999
 21
256.4757000975
 31
0.0
  0
LINE
  5
8D
330
2
100
AcDbEntity
  8
0
 62
     3
100
AcDbLine
 10
85.75977337999999
 20
240.4857000974998
 30
0.0
 11
101.3597733799999
 21
240.4857000974998
 31
0.0
  0
LINE
  5
8E
330
2
100
AcDbEntity
  8
0
 62
     3
100
AcDbLine
 10
85.75977337999999
 20
242.4857000974999
 30
0.0
 11
103.3597733799999
 21
242.4857000974999
 31
0.0
  0
LINE
  5
8F
330
2
100
AcDbEntity
  8
0
 62
     3
100
AcDbLine
 10
85.75977337999999
 20
194.4857000975
 30
0.0
 11
101.3597733799999
 21
194.4857000975
 31
0.0
  0
LINE
  5
90
330
2
100
AcDbEntity
  8
0
 62
     3
100
AcDbLine
 10
85.75977337999999
 20
192.4857000974999
 30
0.0
 11
103.3597733799999
 21
192.4857000974999
 31
0.0
  0
LINE
  5
91
330
2
100
AcDbEntity
  8
0
 62
     3
100
AcDbLine
 10
62.55977338
 20
187.9757000975
 30
0.0
 11
33.55977337999997
 21
187.9757000975
 31
0.0
  0
LINE
  5
92
330
2
100
AcDbEntity
  8
0
 62
     3
100
AcDbLine
 10
33.55977337999997
 20
188.9757000975
 30
0.0
 11
62.55977338
 21
188.9757000975
 31
0.0
  0
LINE
  5
93
330
2
100
AcDbEntity
  8
0
 62
     3
100
AcDbLine
 10
54.45977338
 20
189.4757000975
 30
0.0
 11
66.55977337999999
 21
189.4757000975
 31
0.0
  0
LINE
  5
94
330
2
100
AcDbEntity
  8
0
 62
     3
100
AcDbLine
 10
62.05977338
 20
194.4757000975
 30
0.0
 11
56.55977337999999
 21
194.4757000975
 31
0.0
  0
LINE
  5
95
330
2
100
AcDbEntity
  8
0
  6
PHANTOM
 62
     3
100
AcDbLine
 10
32.55977337999997
 20
256.9757000975
 30
0.0
 11
66.55977337999999
 21
256.9757000975
 31
0.0
  0
LINE
  5
96
330
2
100
AcDbEntity
  8
0
 62
     3
100
AcDbLine
 10
50.5858405148
 20
229.1798178115
 30
0.0
 11
49.16353974219996
 21
230.6021185841999
 31
0.0
  0
LINE
  5
97
330
2
100
AcDbEntity
  8
0
 62
     3
100
AcDbLine
 10
44.12083700269994
 20
230.4943685256
 30
0.0
 11
42.78473627689999
 21
229.4815179753998
 31
0.0
  0
LINE
  5
98
330
2
100
AcDbEntity
  8
0
 62
     3
100
AcDbLine
 10
54.15977337999999
 20
192.4857000974999
 30
0.0
 11
54.15977337999999
 21
242.4857000974999
 31
0.0
  0
LINE
  5
99
330
2
100
AcDbEntity
  8
0
 62
     3
100
AcDbLine
 10
52.15977337999999
 20
230.9857000975
 30
0.0
 11
52.15977337999999
 21
222.9857000975
 31
0.0
  0
LINE
  5
9A
330
2
100
AcDbEntity
  8
0
 62
     3
100
AcDbLine
 10
41.15977337999999
 20
230.9857000975
 30
0.0
 11
41.15977337999999
 21
222.9857000975
 31
0.0
  0
LINE
  5
9B
330
2
100
AcDbEntity
  8
0
 62
     3
100
AcDbLine
 10
51.15977337999999
 20
222.9857000975
 30
0.0
 11
51.15977337999999
 21
230.9857000975
 31
0.0
  0
LINE
  5
9C
330
2
100
AcDbEntity
  8
0
 62
     3
100
AcDbLine
 10
42.15977337999999
 20
230.9857000975
 30
0.0
 11
42.15977337999999
 21
222.9857000975
 31
0.0
  0
LINE
  5
9D
330
2
100
AcDbEntity
  8
0
 62
     3
100
AcDbLine
 10
39.15977337999996
 20
192.4857000974999
 30
0.0
 11
39.15977337999996
 21
242.4857000974999
 31
0.0
  0
LINE
  5
9E
330
2
100
AcDbEntity
  8
0
 62
     3
100
AcDbLine
 10
33.55977337999997
 20
188.9757000975
 30
0.0
 11
33.55977337999997
 21
254.4757000975
 31
0.0
  0
LINE
  5
9F
330
2
100
AcDbEntity
  8
0
 62
     3
100
AcDbLine
 10
32.55977337999997
 20
256.9757000975
 30
0.0
 11
32.55977337999997
 21
188.9757000975
 31
0.0
  0
CIRCLE
  5
A0
330
2
100
AcDbEntity
  8
0
 62
     3
100
AcDbCircle
 10
46.65977337999999
 20
226.9857000975
 30
0.0
 40
3.5
  0
LINE
  5
A1
330
2
100
AcDbEntity
  8
0
  6
CENTER
 62
     3
100
AcDbLine
 10
46.65977337999999
 20
242.4857000974999
 30
0.0
 11
46.65977337999999
 21
194.4857000975
 31
0.0
  0
LINE
  5
A2
330
2
100
AcDbEntity
  8
0
 62
     3
100
AcDbLine
 10
55.55977337999999
 20
195.4757000975
 30
0.0
 11
55.55977337999999
 21
256.9757000975
 31
0.0
  0
LINE
  5
A3
330
2
100
AcDbEntity
  8
0
 62
     3
100
AcDbLine
 10
39.15977337999996
 20
189.4757000975
 30
0.0
 11
39.15977337999996
 21
256.4757000975
 31
0.0
  0
LINE
  5
A4
330
2
100
AcDbEntity
  8
0
 62
     3
100
AcDbLine
 10
37.55977337999997
 20
256.4757000975
 30
0.0
 11
37.55977337999997
 21
188.9757000975
 31
0.0
  0
LINE
  5
A5
330
2
100
AcDbEntity
  8
0
 62
     3
100
AcDbLine
 10
43.30567141369994
 20
227.9857000974998
 30
0.0
 11
42.15977337999999
 21
227.9857000974998
 31
0.0
  0
LINE
  5
A6
330
2
100
AcDbEntity
  8
0
 62
     3
100
AcDbLine
 10
43.30567141369994
 20
225.9857000974999
 30
0.0
 11
42.15977337999999
 21
225.9857000974999
 31
0.0
  0
LINE
  5
A7
330
2
100
AcDbEntity
  8
0
 62
     3
100
AcDbLine
 10
43.30567141369994
 20
218.4857000975
 30
0.0
 11
42.15977337999999
 21
218.4857000975
 31
0.0
  0
LINE
  5
A8
330
2
100
AcDbEntity
  8
0
 62
     3
100
AcDbLine
 10
43.30567141369994
 20
216.4857000974999
 30
0.0
 11
42.15977337999999
 21
216.4857000974999
 31
0.0
  0
LINE
  5
A9
330
2
100
AcDbEntity
  8
0
 62
     3
100
AcDbLine
 10
43.30567141369994
 20
208.9857000974999
 30
0.0
 11
42.15977337999999
 21
208.9857000974999
 31
0.0
  0
LINE
  5
AA
330
2
100
AcDbEntity
  8
0
 62
     3
100
AcDbLine
 10
43.30567141369994
 20
206.9857000974999
 30
0.0
 11
42.15977337999999
 21
206.9857000974999
 31
0.0
  0
LINE
  5
AB
330
2
100
AcDbEntity
  8
0
 62
     3
100
AcDbLine
 10
43.30567141369994
 20
199.4857000975
 30
0.0
 11
42.15977337999999
 21
199.4857000975
 31
0.0
  0
LINE
  5
AC
330
2
100
AcDbEntity
  8
0
 62
     3
100
AcDbLine
 10
43.30567141369994
 20
197.4857000974999
 30
0.0
 11
42.15977337999999
 21
197.4857000974999
 31
0.0
  0
LINE
  5
AD
330
2
100
AcDbEntity
  8
0
 62
     3
100
AcDbLine
 10
39.15977337999996
 20
192.4857000974999
 30
0.0
 11
54.15977337999999
 21
192.4857000974999
 31
0.0
  0
LINE
  5
AE
330
2
100
AcDbEntity
  8
0
 62
     3
100
AcDbLine
 10
54.15977337999999
 20
222.9857000975
 30
0.0
 11
39.15977337999996
 21
222.9857000975
 31
0.0
  0
LINE
  5
AF
330
2
100
AcDbEntity
  8
0
 62
     3
100
AcDbLine
 10
54.15977337999999
 20
221.4857000974999
 30
0.0
 11
39.15977337999996
 21
221.4857000974999
 31
0.0
  0
LINE
  5
B0
330
2
100
AcDbEntity
  8
0
 62
     3
100
AcDbLine
 10
54.15977337999999
 20
213.4857000974999
 30
0.0
 11
39.15977337999996
 21
213.4857000974999
 31
0.0
  0
LINE
  5
B1
330
2
100
AcDbEntity
  8
0
 62
     3
100
AcDbLine
 10
54.15977337999999
 20
211.9857000975
 30
0.0
 11
39.15977337999996
 21
211.9857000975
 31
0.0
  0
LINE
  5
B2
330
2
100
AcDbEntity
  8
0
 62
     3
100
AcDbLine
 10
54.15977337999999
 20
203.9857000974999
 30
0.0
 11
39.15977337999996
 21
203.9857000974999
 31
0.0
  0
LINE
  5
B3
330
2
100
AcDbEntity
  8
0
 62
     3
100
AcDbLine
 10
54.15977337999999
 20
202.4857000974999
 30
0.0
 11
39.15977337999996
 21
202.4857000974999
 31
0.0
  0
LINE
  5
B4
330
2
100
AcDbEntity
  8
0
 62
     3
100
AcDbLine
 10
54.15977337999999
 20
194.4857000975
 30
0.0
 11
39.15977337999996
 21
194.4857000975
 31
0.0
  0
LINE
  5
B5
330
2
100
AcDbEntity
  8
0
 62
     3
100
AcDbLine
 10
41.15977337999999
 20
211.9857000975
 30
0.0
 11
41.15977337999999
 21
203.9857000974999
 31
0.0
  0
LINE
  5
B6
330
2
100
AcDbEntity
  8
0
 62
     3
100
AcDbLine
 10
42.15977337999999
 20
211.9857000975
 30
0.0
 11
42.15977337999999
 21
203.9857000974999
 31
0.0
  0
ARC
  5
B7
330
2
100
AcDbEntity
  8
0
 62
     3
100
AcDbCircle
 10
33.55977337999997
 20
188.9757000975
 30
0.0
 40
1.0
100
AcDbArc
 50
180.0
 51
270.0
  0
LINE
  5
B8
330
2
100
AcDbEntity
  8
0
 62
     3
100
AcDbLine
 10
41.15977337999999
 20
202.4857000974999
 30
0.0
 11
41.15977337999999
 21
194.4857000975
 31
0.0
  0
LINE
  5
B9
330
2
100
AcDbEntity
  8
0
 62
     3
100
AcDbLine
 10
42.15977337999999
 20
202.4857000974999
 30
0.0
 11
42.15977337999999
 21
194.4857000975
 31
0.0
  0
LINE
  5
BA
330
2
100
AcDbEntity
  8
0
 62
     3
100
AcDbLine
 10
37.55977337999997
 20
189.4757000975
 30
0.0
 11
39.15977337999996
 21
189.4757000975
 31
0.0
  0
LINE
  5
BB
330
2
100
AcDbEntity
  8
0
 62
     3
100
AcDbLine
 10
35.55977337999996
 20
188.9757000975
 30
0.0
 11
35.55977337999996
 21
190.9757000975
 31
0.0
  0
LINE
  5
BC
330
2
100
AcDbEntity
  8
0
 62
     3
100
AcDbLine
 10
35.55977337999996
 20
190.9757000975
 30
0.0
 11
37.55977337999997
 21
190.9757000975
 31
0.0
  0
LINE
  5
BD
330
2
100
AcDbEntity
  8
0
 62
     3
100
AcDbLine
 10
41.35977337999998
 20
190.9757000975
 30
0.0
 11
41.35977337999998
 21
188.9757000975
 31
0.0
  0
LINE
  5
BE
330
2
100
AcDbEntity
  8
0
 62
     3
100
AcDbLine
 10
39.35977337999998
 20
188.9757000975
 30
0.0
 11
39.35977337999998
 21
190.9757000975
 31
0.0
  0
LINE
  5
BF
330
2
100
AcDbEntity
  8
0
 62
     3
100
AcDbLine
 10
39.35977337999998
 20
190.9757000975
 30
0.0
 11
41.35977337999998
 21
190.9757000975
 31
0.0
  0
LINE
  5
C0
330
2
100
AcDbEntity
  8
0
 62
     3
100
AcDbLine
 10
33.55977337999997
 20
226.9757000975
 30
0.0
 11
33.55977337999997
 21
220.9757000975
 31
0.0
  0
LINE
  5
C1
330
2
100
AcDbEntity
  8
0
 62
     3
100
AcDbLine
 10
41.15977337999999
 20
221.4857000974999
 30
0.0
 11
41.15977337999999
 21
213.4857000974999
 31
0.0
  0
LINE
  5
C2
330
2
100
AcDbEntity
  8
0
 62
     3
100
AcDbLine
 10
42.15977337999999
 20
221.4857000974999
 30
0.0
 11
42.15977337999999
 21
213.4857000974999
 31
0.0
  0
LINE
  5
C3
330
2
100
AcDbEntity
  8
0
 62
     3
100
AcDbLine
 10
52.15977337999999
 20
211.9857000975
 30
0.0
 11
52.15977337999999
 21
203.9857000974999
 31
0.0
  0
LINE
  5
C4
330
2
100
AcDbEntity
  8
0
 62
     3
100
AcDbLine
 10
51.15977337999999
 20
203.9857000974999
 30
0.0
 11
51.15977337999999
 21
211.9857000975
 31
0.0
  0
ARC
  5
C5
330
2
100
AcDbEntity
  8
0
 62
     3
100
AcDbCircle
 10
47.85977337999997
 20
206.7857000975
 30
0.0
 40
0.6
100
AcDbArc
 50
90.0
 51
180.0
  0
ARC
  5
C6
330
2
100
AcDbEntity
  8
0
 62
     3
100
AcDbCircle
 10
45.45977338
 20
206.7857000975
 30
0.0
 40
0.6
100
AcDbArc
 50
0.0
 51
90.0
  0
CIRCLE
  5
C7
330
2
100
AcDbEntity
  8
0
 62
     3
100
AcDbCircle
 10
46.65977337999999
 20
207.9857000974999
 30
0.0
 40
3.5
  0
LINE
  5
C8
330
2
100
AcDbEntity
  8
0
 62
     3
100
AcDbLine
 10
50.64704760299997
 20
205.6474384204
 30
0.0
 11
49.22474683039999
 21
204.4406377647999
 31
0.0
  0
LINE
  5
C9
330
2
100
AcDbEntity
  8
0
 62
     3
100
AcDbLine
 10
50.74943041549997
 20
196.254601867
 30
0.0
 11
49.32712964289999
 21
195.0478012113998
 31
0.0
  0
LINE
  5
CA
330
2
100
AcDbEntity
  8
0
 62
     3
100
AcDbLine
 10
47.05977337999999
 20
190.4757000975
 30
0.0
 11
50.83647132089999
 21
190.4757000975
 31
0.0
  0
LINE
  5
CB
330
2
100
AcDbEntity
  8
0
 62
     3
100
AcDbLine
 10
50.62013034529996
 20
200.7801043254999
 30
0.0
 11
49.19782957259997
 21
202.2024050981998
 31
0.0
  0
LINE
  5
CC
330
2
100
AcDbEntity
  8
0
  6
CENTER
 62
     3
100
AcDbLine
 10
50.50977337999999
 20
198.4857000974999
 30
0.0
 11
42.80977337999996
 21
198.4857000974999
 31
0.0
  0
CIRCLE
  5
CD
330
2
100
AcDbEntity
  8
0
 62
     3
100
AcDbCircle
 10
46.65977337999999
 20
198.4857000974999
 30
0.0
 40
3.5
  0
LINE
  5
CE
330
2
100
AcDbEntity
  8
0
 62
     3
100
AcDbLine
 10
42.77592608389997
 20
196.620952066
 30
0.0
 11
44.00427675119999
 21
195.0478012113998
 31
0.0
  0
LINE
  5
CF
330
2
100
AcDbEntity
  8
0
 62
     3
100
AcDbLine
 10
45.65977337999998
 20
195.1315981311999
 30
0.0
 11
45.65977337999998
 21
194.4857000975
 31
0.0
  0
ARC
  5
D0
330
2
100
AcDbEntity
  8
0
 62
     3
100
AcDbCircle
 10
46.06027358009995
 20
189.9440749473999
 30
0.0
 40
1.0
100
AcDbArc
 50
284.4479149006998
 51
1.812289807599958
  0
LINE
  5
D1
330
2
100
AcDbEntity
  8
0
 62
     3
100
AcDbLine
 10
47.65977337999999
 20
195.1315981311999
 30
0.0
 11
47.65977337999999
 21
194.4857000975
 31
0.0
  0
LINE
  5
D2
330
2
100
AcDbEntity
  8
0
 62
     3
100
AcDbLine
 10
47.05977337999999
 20
190.4757000975
 30
0.0
 11
47.05977337999999
 21
189.9757000975
 31
0.0
  0
ARC
  5
D3
330
2
100
AcDbEntity
  8
0
 62
     3
100
AcDbCircle
 10
45.45977338
 20
197.2857000975
 30
0.0
 40
0.6
100
AcDbArc
 50
0.0
 51
90.0
  0
ARC
  5
D4
330
2
100
AcDbEntity
  8
0
 62
     3
100
AcDbCircle
 10
45.45977338
 20
199.6857000974999
 30
0.0
 40
0.6
100
AcDbArc
 50
270.0
 51
0.0
  0
LINE
  5
D5
330
2
100
AcDbEntity
  8
0
 62
     3
100
AcDbLine
 10
44.1551268332
 20
202.0946550395999
 30
0.0
 11
42.81902610729997
 21
201.0818044894
 31
0.0
  0
LINE
  5
D6
330
2
100
AcDbEntity
  8
0
 62
     3
100
AcDbLine
 10
44.15977337999999
 20
197.8857000974998
 30
0.0
 11
44.15977337999999
 21
199.0857000974999
 31
0.0
  0
LINE
  5
D7
330
2
100
AcDbEntity
  8
0
 62
     3
100
AcDbLine
 10
44.15977337999999
 20
199.0857000974999
 30
0.0
 11
45.45977338
 21
199.0857000974999
 31
0.0
  0
LINE
  5
D8
330
2
100
AcDbEntity
  8
0
 62
     3
100
AcDbLine
 10
45.45977338
 20
197.8857000974998
 30
0.0
 11
44.15977337999999
 21
197.8857000974998
 31
0.0
  0
LINE
  5
D9
330
2
100
AcDbEntity
  8
0
 62
     3
100
AcDbLine
 10
42.67354327139995
 20
206.0137886193999
 30
0.0
 11
43.90189393869997
 21
204.4406377647999
 31
0.0
  0
LINE
  5
DA
330
2
100
AcDbEntity
  8
0
 62
     3
100
AcDbLine
 10
45.65977337999998
 20
204.6315981311999
 30
0.0
 11
45.65977337999998
 21
203.9857000974999
 31
0.0
  0
LINE
  5
DB
330
2
100
AcDbEntity
  8
0
 62
     3
100
AcDbLine
 10
45.65977337999998
 20
202.4857000974999
 30
0.0
 11
45.65977337999998
 21
201.8398020637
 31
0.0
  0
LINE
  5
DC
330
2
100
AcDbEntity
  8
0
 62
     3
100
AcDbLine
 10
49.15977337999999
 20
197.8857000974998
 30
0.0
 11
47.85977337999997
 21
197.8857000974998
 31
0.0
  0
LINE
  5
DD
330
2
100
AcDbEntity
  8
0
 62
     3
100
AcDbLine
 10
47.85977337999997
 20
199.0857000974999
 30
0.0
 11
49.15977337999999
 21
199.0857000974999
 31
0.0
  0
ARC
  5
DE
330
2
100
AcDbEntity
  8
0
 62
     3
100
AcDbCircle
 10
47.85977337999997
 20
197.2857000975
 30
0.0
 40
0.6
100
AcDbArc
 50
90.0
 51
180.0
  0
ARC
  5
DF
330
2
100
AcDbEntity
  8
0
 62
     3
100
AcDbCircle
 10
47.85977337999997
 20
199.6857000974999
 30
0.0
 40
0.6
100
AcDbArc
 50
180.0
 51
270.0
  0
LINE
  5
E0
330
2
100
AcDbEntity
  8
0
 62
     3
100
AcDbLine
 10
47.25977337999998
 20
197.2857000975
 30
0.0
 11
47.25977337999998
 21
195.9857000975
 31
0.0
  0
LINE
  5
E1
330
2
100
AcDbEntity
  8
0
 62
     3
100
AcDbLine
 10
47.25977337999998
 20
200.9857000974998
 30
0.0
 11
47.25977337999998
 21
199.6857000974999
 31
0.0
  0
LINE
  5
E2
330
2
100
AcDbEntity
  8
0
 62
     3
100
AcDbLine
 10
46.05977337999997
 20
199.6857000974999
 30
0.0
 11
46.05977337999997
 21
200.9857000974998
 31
0.0
  0
LINE
  5
E3
330
2
100
AcDbEntity
  8
0
 62
     3
100
AcDbLine
 10
46.05977337999997
 20
195.9857000975
 30
0.0
 11
46.05977337999997
 21
197.2857000975
 31
0.0
  0
LINE
  5
E4
330
2
100
AcDbEntity
  8
0
 62
     3
100
AcDbLine
 10
46.05977337999997
 20
200.9857000974998
 30
0.0
 11
47.25977337999998
 21
200.9857000974998
 31
0.0
  0
LINE
  5
E5
330
2
100
AcDbEntity
  8
0
 62
     3
100
AcDbLine
 10
47.25977337999998
 20
195.9857000975
 30
0.0
 11
46.05977337999997
 21
195.9857000975
 31
0.0
  0
LINE
  5
E6
330
2
100
AcDbEntity
  8
0
 62
     3
100
AcDbLine
 10
49.15977337999999
 20
199.0857000974999
 30
0.0
 11
49.15977337999999
 21
197.8857000974998
 31
0.0
  0
LINE
  5
E7
330
2
100
AcDbEntity
  8
0
 62
     3
100
AcDbLine
 10
47.65977337999999
 20
204.6315981311999
 30
0.0
 11
47.65977337999999
 21
203.9857000974999
 31
0.0
  0
LINE
  5
E8
330
2
100
AcDbEntity
  8
0
 62
     3
100
AcDbLine
 10
47.65977337999999
 20
202.4857000974999
 30
0.0
 11
47.65977337999999
 21
201.8398020637
 31
0.0
  0
LINE
  5
E9
330
2
100
AcDbEntity
  8
0
 62
     3
100
AcDbLine
 10
47.25977337999998
 20
206.7857000975
 30
0.0
 11
47.25977337999998
 21
205.4857000975
 31
0.0
  0
LINE
  5
EA
330
2
100
AcDbEntity
  8
0
 62
     3
100
AcDbLine
 10
46.05977337999997
 20
205.4857000975
 30
0.0
 11
46.05977337999997
 21
206.7857000975
 31
0.0
  0
LINE
  5
EB
330
2
100
AcDbEntity
  8
0
 62
     3
100
AcDbLine
 10
47.25977337999998
 20
205.4857000975
 30
0.0
 11
46.05977337999997
 21
205.4857000975
 31
0.0
  0
LINE
  5
EC
330
2
100
AcDbEntity
  8
0
 62
     3
100
AcDbLine
 10
52.15977337999999
 20
202.4857000974999
 30
0.0
 11
52.15977337999999
 21
194.4857000975
 31
0.0
  0
LINE
  5
ED
330
2
100
AcDbEntity
  8
0
 62
     3
100
AcDbLine
 10
51.15977337999999
 20
194.4857000975
 30
0.0
 11
51.15977337999999
 21
202.4857000974999
 31
0.0
  0
ARC
  5
EE
330
2
100
AcDbEntity
  8
0
 62
     3
100
AcDbCircle
 10
51.05927317979999
 20
189.9440749473999
 30
0.0
 40
1.0
100
AcDbArc
 50
178.1877101922999
 51
255.5520850993999
  0
LINE
  5
EF
330
2
100
AcDbEntity
  8
0
 62
     3
100
AcDbLine
 10
50.05977338
 20
190.4757000975
 30
0.0
 11
50.05977338
 21
189.9757000975
 31
0.0
  0
LINE
  5
F0
330
2
100
AcDbEntity
  8
0
  6
PHANTOM
 62
     3
100
AcDbLine
 10
54.45977338
 20
189.4757000975
 30
0.0
 11
54.45977338
 21
188.9757000975
 31
0.0
  0
ARC
  5
F1
330
2
100
AcDbEntity
  8
0
 62
     3
100
AcDbCircle
 10
56.55977337999999
 20
195.4757000975
 30
0.0
 40
1.0
100
AcDbArc
 50
180.0
 51
270.0
  0
LINE
  5
F2
330
2
100
AcDbEntity
  8
0
 62
     3
100
AcDbLine
 10
51.15977337999999
 20
199.4857000975
 30
0.0
 11
50.0138753462
 21
199.4857000975
 31
0.0
  0
LINE
  5
F3
330
2
100
AcDbEntity
  8
0
 62
     3
100
AcDbLine
 10
51.15977337999999
 20
197.4857000974999
 30
0.0
 11
50.0138753462
 21
197.4857000974999
 31
0.0
  0
LINE
  5
F4
330
2
100
AcDbEntity
  8
0
 62
     3
100
AcDbLine
 10
51.15977337999999
 20
206.9857000974999
 30
0.0
 11
50.0138753462
 21
206.9857000974999
 31
0.0
  0
LINE
  5
F5
330
2
100
AcDbEntity
  8
0
  6
CENTER
 62
     3
100
AcDbLine
 10
50.50977337999999
 20
226.9857000975
 30
0.0
 11
42.80977337999996
 21
226.9857000975
 31
0.0
  0
LINE
  5
F6
330
2
100
AcDbEntity
  8
0
 62
     3
100
AcDbLine
 10
50.50202248019997
 20
219.657172729
 30
0.0
 11
49.07972170749999
 21
221.0794735016999
 31
0.0
  0
LINE
  5
F7
330
2
100
AcDbEntity
  8
0
 62
     3
100
AcDbLine
 10
50.63132255049999
 20
215.1316702704999
 30
0.0
 11
49.20902177779999
 21
213.9248696149
 31
0.0
  0
LINE
  5
F8
330
2
100
AcDbEntity
  8
0
 62
     3
100
AcDbLine
 10
50.51774753279994
 20
210.1729408789
 30
0.0
 11
49.09544676009995
 21
211.5952416514998
 31
0.0
  0
LINE
  5
F9
330
2
100
AcDbEntity
  8
0
  6
CENTER
 62
     3
100
AcDbLine
 10
50.50977337999999
 20
207.9857000974999
 30
0.0
 11
42.80977337999996
 21
207.9857000974999
 31
0.0
  0
CIRCLE
  5
FA
330
2
100
AcDbEntity
  8
0
 62
     3
100
AcDbCircle
 10
46.65977337999999
 20
217.4857000974999
 30
0.0
 40
3.5
  0
LINE
  5
FB
330
2
100
AcDbEntity
  8
0
  6
CENTER
 62
     3
100
AcDbLine
 10
50.50977337999999
 20
217.4857000974999
 30
0.0
 11
42.80977337999996
 21
217.4857000974999
 31
0.0
  0
LINE
  5
FC
330
2
100
AcDbEntity
  8
0
 62
     3
100
AcDbLine
 10
50.71514058510001
 20
224.6543153529999
 30
0.0
 11
49.29283981239999
 21
223.4475146974
 31
0.0
  0
ARC
  5
FD
330
2
100
AcDbEntity
  8
0
 62
     3
100
AcDbCircle
 10
47.85977337999997
 20
218.6857000974999
 30
0.0
 40
0.6
100
AcDbArc
 50
180.0
 51
270.0
  0
ARC
  5
FE
330
2
100
AcDbEntity
  8
0
 62
     3
100
AcDbCircle
 10
45.45977338
 20
218.6857000974999
 30
0.0
 40
0.6
100
AcDbArc
 50
270.0
 51
0.0
  0
ARC
  5
FF
330
2
100
AcDbEntity
  8
0
 62
     3
100
AcDbCircle
 10
45.45977338
 20
216.2857000975
 30
0.0
 40
0.6
100
AcDbArc
 50
0.0
 51
90.0
  0
ARC
  5
100
330
2
100
AcDbEntity
  8
0
 62
     3
100
AcDbCircle
 10
45.45977338
 20
209.1857000974999
 30
0.0
 40
0.6
100
AcDbArc
 50
270.0
 51
0.0
  0
LINE
  5
101
330
2
100
AcDbEntity
  8
0
 62
     3
100
AcDbLine
 10
44.05274402069998
 20
211.4874915929997
 30
0.0
 11
42.71664329479998
 21
210.4746410427999
 31
0.0
  0
LINE
  5
102
330
2
100
AcDbEntity
  8
0
 62
     3
100
AcDbLine
 10
45.65977337999998
 20
211.9857000975
 30
0.0
 11
45.65977337999998
 21
211.3398020636999
 31
0.0
  0
LINE
  5
103
330
2
100
AcDbEntity
  8
0
 62
     3
100
AcDbLine
 10
44.15977337999999
 20
207.3857000974999
 30
0.0
 11
44.15977337999999
 21
208.5857000974999
 31
0.0
  0
LINE
  5
104
330
2
100
AcDbEntity
  8
0
 62
     3
100
AcDbLine
 10
44.15977337999999
 20
208.5857000974999
 30
0.0
 11
45.45977338
 21
208.5857000974999
 31
0.0
  0
LINE
  5
105
330
2
100
AcDbEntity
  8
0
 62
     3
100
AcDbLine
 10
45.45977338
 20
207.3857000974999
 30
0.0
 11
44.15977337999999
 21
207.3857000974999
 31
0.0
  0
LINE
  5
106
330
2
100
AcDbEntity
  8
0
 62
     3
100
AcDbLine
 10
42.65781821879994
 20
215.4980204695998
 30
0.0
 11
43.88616888609996
 21
213.9248696149
 31
0.0
  0
LINE
  5
107
330
2
100
AcDbEntity
  8
0
 62
     3
100
AcDbLine
 10
45.65977337999998
 20
214.1315981311999
 30
0.0
 11
45.65977337999998
 21
213.4857000974999
 31
0.0
  0
LINE
  5
108
330
2
100
AcDbEntity
  8
0
 62
     3
100
AcDbLine
 10
44.15977337999999
 20
216.8857000975
 30
0.0
 11
44.15977337999999
 21
218.0857000974999
 31
0.0
  0
LINE
  5
109
330
2
100
AcDbEntity
  8
0
 62
     3
100
AcDbLine
 10
44.15977337999999
 20
218.0857000974999
 30
0.0
 11
45.45977338
 21
218.0857000974999
 31
0.0
  0
LINE
  5
10A
330
2
100
AcDbEntity
  8
0
 62
     3
100
AcDbLine
 10
45.45977338
 20
216.8857000975
 30
0.0
 11
44.15977337999999
 21
216.8857000975
 31
0.0
  0
LINE
  5
10B
330
2
100
AcDbEntity
  8
0
 62
     3
100
AcDbLine
 10
49.15977337999999
 20
207.3857000974999
 30
0.0
 11
47.85977337999997
 21
207.3857000974999
 31
0.0
  0
LINE
  5
10C
330
2
100
AcDbEntity
  8
0
 62
     3
100
AcDbLine
 10
47.85977337999997
 20
208.5857000974999
 30
0.0
 11
49.15977337999999
 21
208.5857000974999
 31
0.0
  0
LINE
  5
10D
330
2
100
AcDbEntity
  8
0
 62
     3
100
AcDbLine
 10
47.65977337999999
 20
211.9857000975
 30
0.0
 11
47.65977337999999
 21
211.3398020636999
 31
0.0
  0
ARC
  5
10E
330
2
100
AcDbEntity
  8
0
 62
     3
100
AcDbCircle
 10
47.85977337999997
 20
209.1857000974999
 30
0.0
 40
0.6
100
AcDbArc
 50
180.0
 51
270.0
  0
LINE
  5
10F
330
2
100
AcDbEntity
  8
0
 62
     3
100
AcDbLine
 10
47.25977337999998
 20
210.4857000975
 30
0.0
 11
47.25977337999998
 21
209.1857000974999
 31
0.0
  0
LINE
  5
110
330
2
100
AcDbEntity
  8
0
 62
     3
100
AcDbLine
 10
46.05977337999997
 20
209.1857000974999
 30
0.0
 11
46.05977337999997
 21
210.4857000975
 31
0.0
  0
LINE
  5
111
330
2
100
AcDbEntity
  8
0
 62
     3
100
AcDbLine
 10
46.05977337999997
 20
210.4857000975
 30
0.0
 11
47.25977337999998
 21
210.4857000975
 31
0.0
  0
LINE
  5
112
330
2
100
AcDbEntity
  8
0
 62
     3
100
AcDbLine
 10
49.15977337999999
 20
208.5857000974999
 30
0.0
 11
49.15977337999999
 21
207.3857000974999
 31
0.0
  0
LINE
  5
113
330
2
100
AcDbEntity
  8
0
 62
     3
100
AcDbLine
 10
49.15977337999999
 20
216.8857000975
 30
0.0
 11
47.85977337999997
 21
216.8857000975
 31
0.0
  0
LINE
  5
114
330
2
100
AcDbEntity
  8
0
 62
     3
100
AcDbLine
 10
47.85977337999997
 20
218.0857000974999
 30
0.0
 11
49.15977337999999
 21
218.0857000974999
 31
0.0
  0
LINE
  5
115
330
2
100
AcDbEntity
  8
0
 62
     3
100
AcDbLine
 10
47.65977337999999
 20
214.1315981311999
 30
0.0
 11
47.65977337999999
 21
213.4857000974999
 31
0.0
  0
ARC
  5
116
330
2
100
AcDbEntity
  8
0
 62
     3
100
AcDbCircle
 10
47.85977337999997
 20
216.2857000975
 30
0.0
 40
0.6
100
AcDbArc
 50
90.0
 51
180.0
  0
LINE
  5
117
330
2
100
AcDbEntity
  8
0
 62
     3
100
AcDbLine
 10
47.25977337999998
 20
216.2857000975
 30
0.0
 11
47.25977337999998
 21
214.9857000974999
 31
0.0
  0
LINE
  5
118
330
2
100
AcDbEntity
  8
0
 62
     3
100
AcDbLine
 10
46.05977337999997
 20
214.9857000974999
 30
0.0
 11
46.05977337999997
 21
216.2857000975
 31
0.0
  0
LINE
  5
119
330
2
100
AcDbEntity
  8
0
 62
     3
100
AcDbLine
 10
47.25977337999998
 20
214.9857000974999
 30
0.0
 11
46.05977337999997
 21
214.9857000974999
 31
0.0
  0
LINE
  5
11A
330
2
100
AcDbEntity
  8
0
 62
     3
100
AcDbLine
 10
49.15977337999999
 20
218.0857000974999
 30
0.0
 11
49.15977337999999
 21
216.8857000975
 31
0.0
  0
ARC
  5
11B
330
2
100
AcDbEntity
  8
0
 62
     3
100
AcDbCircle
 10
45.45977338
 20
228.1857000974999
 30
0.0
 40
0.6
100
AcDbArc
 50
270.0
 51
0.0
  0
ARC
  5
11C
330
2
100
AcDbEntity
  8
0
 62
     3
100
AcDbCircle
 10
45.45977338
 20
225.7857000975
 30
0.0
 40
0.6
100
AcDbArc
 50
0.0
 51
90.0
  0
LINE
  5
11D
330
2
100
AcDbEntity
  8
0
 62
     3
100
AcDbLine
 10
42.74163625339997
 20
225.0206655519999
 30
0.0
 11
43.96998692069999
 21
223.4475146974
 31
0.0
  0
LINE
  5
11E
330
2
100
AcDbEntity
  8
0
 62
     3
100
AcDbLine
 10
44.0370189681
 20
220.9717234431
 30
0.0
 11
42.70091824229999
 21
219.9588728929
 31
0.0
  0
LINE
  5
11F
330
2
100
AcDbEntity
  8
0
 62
     3
100
AcDbLine
 10
45.65977337999998
 20
223.6315981311999
 30
0.0
 11
45.65977337999998
 21
222.9857000975
 31
0.0
  0
LINE
  5
120
330
2
100
AcDbEntity
  8
0
 62
     3
100
AcDbLine
 10
45.65977337999998
 20
221.4857000974999
 30
0.0
 11
45.65977337999998
 21
220.8398020636999
 31
0.0
  0
LINE
  5
121
330
2
100
AcDbEntity
  8
0
 62
     3
100
AcDbLine
 10
44.15977337999999
 20
226.3857000975
 30
0.0
 11
44.15977337999999
 21
227.5857000974998
 31
0.0
  0
LINE
  5
122
330
2
100
AcDbEntity
  8
0
 62
     3
100
AcDbLine
 10
45.45977338
 20
226.3857000975
 30
0.0
 11
44.15977337999999
 21
226.3857000975
 31
0.0
  0
LINE
  5
123
330
2
100
AcDbEntity
  8
0
 62
     3
100
AcDbLine
 10
44.15977337999999
 20
227.5857000974998
 30
0.0
 11
45.45977338
 21
227.5857000974998
 31
0.0
  0
LINE
  5
124
330
2
100
AcDbEntity
  8
0
 62
     3
100
AcDbLine
 10
47.65977337999999
 20
223.6315981311999
 30
0.0
 11
47.65977337999999
 21
222.9857000975
 31
0.0
  0
LINE
  5
125
330
2
100
AcDbEntity
  8
0
 62
     3
100
AcDbLine
 10
47.65977337999999
 20
221.4857000974999
 30
0.0
 11
47.65977337999999
 21
220.8398020636999
 31
0.0
  0
LINE
  5
126
330
2
100
AcDbEntity
  8
0
 62
     3
100
AcDbLine
 10
47.25977337999998
 20
219.9857000975
 30
0.0
 11
47.25977337999998
 21
218.6857000974999
 31
0.0
  0
LINE
  5
127
330
2
100
AcDbEntity
  8
0
 62
     3
100
AcDbLine
 10
46.05977337999997
 20
218.6857000974999
 30
0.0
 11
46.05977337999997
 21
219.9857000975
 31
0.0
  0
LINE
  5
128
330
2
100
AcDbEntity
  8
0
 62
     3
100
AcDbLine
 10
46.05977337999997
 20
219.9857000975
 30
0.0
 11
47.25977337999998
 21
219.9857000975
 31
0.0
  0
LINE
  5
129
330
2
100
AcDbEntity
  8
0
 62
     3
100
AcDbLine
 10
49.15977337999999
 20
226.3857000975
 30
0.0
 11
47.85977337999997
 21
226.3857000975
 31
0.0
  0
LINE
  5
12A
330
2
100
AcDbEntity
  8
0
 62
     3
100
AcDbLine
 10
47.85977337999997
 20
227.5857000974998
 30
0.0
 11
49.15977337999999
 21
227.5857000974998
 31
0.0
  0
ARC
  5
12B
330
2
100
AcDbEntity
  8
0
 62
     3
100
AcDbCircle
 10
47.85977337999997
 20
225.7857000975
 30
0.0
 40
0.6
100
AcDbArc
 50
90.0
 51
180.0
  0
ARC
  5
12C
330
2
100
AcDbEntity
  8
0
 62
     3
100
AcDbCircle
 10
47.85977337999997
 20
228.1857000974999
 30
0.0
 40
0.6
100
AcDbArc
 50
180.0
 51
270.0
  0
LINE
  5
12D
330
2
100
AcDbEntity
  8
0
 62
     3
100
AcDbLine
 10
47.25977337999998
 20
225.7857000975
 30
0.0
 11
47.25977337999998
 21
224.4857000975
 31
0.0
  0
LINE
  5
12E
330
2
100
AcDbEntity
  8
0
 62
     3
100
AcDbLine
 10
47.25977337999998
 20
229.4857000975
 30
0.0
 11
47.25977337999998
 21
228.1857000974999
 31
0.0
  0
LINE
  5
12F
330
2
100
AcDbEntity
  8
0
 62
     3
100
AcDbLine
 10
46.05977337999997
 20
224.4857000975
 30
0.0
 11
46.05977337999997
 21
225.7857000975
 31
0.0
  0
LINE
  5
130
330
2
100
AcDbEntity
  8
0
 62
     3
100
AcDbLine
 10
46.05977337999997
 20
228.1857000974999
 30
0.0
 11
46.05977337999997
 21
229.4857000975
 31
0.0
  0
LINE
  5
131
330
2
100
AcDbEntity
  8
0
 62
     3
100
AcDbLine
 10
47.25977337999998
 20
224.4857000975
 30
0.0
 11
46.05977337999997
 21
224.4857000975
 31
0.0
  0
LINE
  5
132
330
2
100
AcDbEntity
  8
0
 62
     3
100
AcDbLine
 10
46.05977337999997
 20
229.4857000975
 30
0.0
 11
47.25977337999998
 21
229.4857000975
 31
0.0
  0
LINE
  5
133
330
2
100
AcDbEntity
  8
0
 62
     3
100
AcDbLine
 10
49.15977337999999
 20
227.5857000974998
 30
0.0
 11
49.15977337999999
 21
226.3857000975
 31
0.0
  0
LINE
  5
134
330
2
100
AcDbEntity
  8
0
 62
     3
100
AcDbLine
 10
52.15977337999999
 20
221.4857000974999
 30
0.0
 11
52.15977337999999
 21
213.4857000974999
 31
0.0
  0
LINE
  5
135
330
2
100
AcDbEntity
  8
0
 62
     3
100
AcDbLine
 10
51.15977337999999
 20
213.4857000974999
 30
0.0
 11
51.15977337999999
 21
221.4857000974999
 31
0.0
  0
LINE
  5
136
330
2
100
AcDbEntity
  8
0
 62
     3
100
AcDbLine
 10
51.15977337999999
 20
208.9857000974999
 30
0.0
 11
50.0138753462
 21
208.9857000974999
 31
0.0
  0
LINE
  5
137
330
2
100
AcDbEntity
  8
0
 62
     3
100
AcDbLine
 10
51.15977337999999
 20
218.4857000975
 30
0.0
 11
50.0138753462
 21
218.4857000975
 31
0.0
  0
LINE
  5
138
330
2
100
AcDbEntity
  8
0
 62
     3
100
AcDbLine
 10
51.15977337999999
 20
216.4857000974999
 30
0.0
 11
50.0138753462
 21
216.4857000974999
 31
0.0
  0
LINE
  5
139
330
2
100
AcDbEntity
  8
0
 62
     3
100
AcDbLine
 10
51.15977337999999
 20
227.9857000974998
 30
0.0
 11
50.0138753462
 21
227.9857000974998
 31
0.0
  0
LINE
  5
13A
330
2
100
AcDbEntity
  8
0
 62
     3
100
AcDbLine
 10
51.15977337999999
 20
225.9857000974999
 30
0.0
 11
50.0138753462
 21
225.9857000974999
 31
0.0
  0
LINE
  5
13B
330
2
100
AcDbEntity
  8
0
 62
     3
100
AcDbLine
 10
43.30567141369994
 20
237.4857000974999
 30
0.0
 11
42.15977337999999
 21
237.4857000974999
 31
0.0
  0
LINE
  5
13C
330
2
100
AcDbEntity
  8
0
 62
     3
100
AcDbLine
 10
43.30567141369994
 20
235.4857000975
 30
0.0
 11
42.15977337999999
 21
235.4857000975
 31
0.0
  0
LINE
  5
13D
330
2
100
AcDbEntity
  8
0
 62
     3
100
AcDbLine
 10
54.15977337999999
 20
242.4857000974999
 30
0.0
 11
39.15977337999996
 21
242.4857000974999
 31
0.0
  0
LINE
  5
13E
330
2
100
AcDbEntity
  8
0
 62
     3
100
AcDbLine
 10
54.15977337999999
 20
240.4857000974998
 30
0.0
 11
39.15977337999996
 21
240.4857000974998
 31
0.0
  0
LINE
  5
13F
330
2
100
AcDbEntity
  8
0
 62
     3
100
AcDbLine
 10
54.15977337999999
 20
232.4857000975
 30
0.0
 11
39.15977337999996
 21
232.4857000975
 31
0.0
  0
LINE
  5
140
330
2
100
AcDbEntity
  8
0
 62
     3
100
AcDbLine
 10
54.15977337999999
 20
230.9857000975
 30
0.0
 11
39.15977337999996
 21
230.9857000975
 31
0.0
  0
ARC
  5
141
330
2
100
AcDbEntity
  8
0
 62
     3
100
AcDbCircle
 10
44.15977337999999
 20
247.5757000974999
 30
0.0
 40
3.399999999999999
100
AcDbArc
 50
8.968120927499997
 51
0.0
  0
LINE
  5
142
330
2
100
AcDbEntity
  8
0
 62
     3
100
AcDbLine
 10
39.15977337999996
 20
250.9757000975
 30
0.0
 11
45.95977337999999
 21
250.9757000975
 31
0.0
  0
LINE
  5
143
330
2
100
AcDbEntity
  8
0
 62
     3
100
AcDbLine
 10
39.15977337999996
 20
244.1757000975
 30
0.0
 11
45.95977337999999
 21
244.1757000975
 31
0.0
  0
LINE
  5
144
330
2
100
AcDbEntity
  8
0
 62
     3
100
AcDbLine
 10
41.15977337999999
 20
240.4857000974998
 30
0.0
 11
41.15977337999999
 21
232.4857000975
 31
0.0
  0
LINE
  5
145
330
2
100
AcDbEntity
  8
0
 62
     3
100
AcDbLine
 10
42.15977337999999
 20
240.4857000974998
 30
0.0
 11
42.15977337999999
 21
232.4857000975
 31
0.0
  0
LINE
  5
146
330
2
100
AcDbEntity
  8
0
 62
     3
100
AcDbLine
 10
33.55977337999997
 20
255.4757000975
 30
0.0
 11
37.55977337999997
 21
255.4757000975
 31
0.0
  0
LINE
  5
147
330
2
100
AcDbEntity
  8
0
 62
     3
100
AcDbLine
 10
32.55977337999997
 20
254.4757000975
 30
0.0
 11
37.55977337999997
 21
254.4757000975
 31
0.0
  0
LINE
  5
148
330
2
100
AcDbEntity
  8
0
 62
     3
100
AcDbLine
 10
32.55977337999997
 20
256.9757000975
 30
0.0
 11
33.55977337999997
 21
256.9757000975
 31
0.0
  0
ARC
  5
149
330
2
100
AcDbEntity
  8
0
 62
     3
100
AcDbCircle
 10
33.53587195159997
 20
254.4996015258
 30
0.0
 40
0.9763911613000001
100
AcDbArc
 50
88.5972960105
 51
181.4027039895
  0
LINE
  5
14A
330
2
100
AcDbEntity
  8
0
 62
     3
100
AcDbLine
 10
33.55977337999997
 20
256.9757000975
 30
0.0
 11
33.55977337999997
 21
255.4757000975
 31
0.0
  0
LINE
  5
14B
330
2
100
AcDbEntity
  8
0
 62
     3
100
AcDbLine
 10
37.55977337999997
 20
256.4757000975
 30
0.0
 11
39.15977337999996
 21
256.4757000975
 31
0.0
  0
LINE
  5
14C
330
2
100
AcDbEntity
  8
0
 62
     3
100
AcDbLine
 10
37.55977337999997
 20
255.4757000975
 30
0.0
 11
37.55977337999997
 21
254.4757000975
 31
0.0
  0
LINE
  5
14D
330
2
100
AcDbEntity
  8
0
 62
     3
100
AcDbLine
 10
39.15977337999996
 20
254.4757000975
 30
0.0
 11
41.85977337999998
 21
254.4757000975
 31
0.0
  0
LINE
  5
14E
330
2
100
AcDbEntity
  8
0
 62
     3
100
AcDbLine
 10
39.15977337999996
 20
255.4757000975
 30
0.0
 11
41.85977337999998
 21
255.4757000975
 31
0.0
  0
LINE
  5
14F
330
2
100
AcDbEntity
  8
0
 62
     3
100
AcDbLine
 10
39.35977337999998
 20
255.4757000975
 30
0.0
 11
39.35977337999998
 21
254.4757000975
 31
0.0
  0
LINE
  5
150
330
2
100
AcDbEntity
  8
0
 62
     3
100
AcDbLine
 10
41.85977337999998
 20
255.4757000975
 30
0.0
 11
41.85977337999998
 21
254.4757000975
 31
0.0
  0
LINE
  5
151
330
2
100
AcDbEntity
  8
0
 62
     3
100
AcDbLine
 10
50.40420203719998
 20
238.6929300608
 30
0.0
 11
48.9819012646
 21
240.1152308334999
 31
0.0
  0
LINE
  5
152
330
2
100
AcDbEntity
  8
0
 62
     3
100
AcDbLine
 10
50.5335021075
 20
234.1674276022998
 30
0.0
 11
49.1112013348
 21
232.9606269466999
 31
0.0
  0
LINE
  5
153
330
2
100
AcDbEntity
  8
0
  6
CENTER
 62
     3
100
AcDbLine
 10
50.50977337999999
 20
236.4857000974999
 30
0.0
 11
42.80977337999996
 21
236.4857000974999
 31
0.0
  0
CIRCLE
  5
154
330
2
100
AcDbEntity
  8
0
 62
     3
100
AcDbCircle
 10
46.65977337999999
 20
236.4857000974999
 30
0.0
 40
3.5
  0
ARC
  5
155
330
2
100
AcDbEntity
  8
0
 62
     3
100
AcDbCircle
 10
45.45977338
 20
237.6857000974999
 30
0.0
 40
0.6
100
AcDbArc
 50
270.0
 51
0.0
  0
ARC
  5
156
330
2
100
AcDbEntity
  8
0
 62
     3
100
AcDbCircle
 10
45.45977338
 20
235.2857000975
 30
0.0
 40
0.6
100
AcDbArc
 50
0.0
 51
90.0
  0
LINE
  5
157
330
2
100
AcDbEntity
  8
0
 62
     3
100
AcDbLine
 10
42.55999777589994
 20
234.5337778013
 30
0.0
 11
43.78834844319999
 21
232.9606269466999
 31
0.0
  0
LINE
  5
158
330
2
100
AcDbEntity
  8
0
 62
     3
100
AcDbLine
 10
45.65977337999998
 20
233.1315981311999
 30
0.0
 11
45.65977337999998
 21
232.4857000975
 31
0.0
  0
LINE
  5
159
330
2
100
AcDbEntity
  8
0
 62
     3
100
AcDbLine
 10
45.65977337999998
 20
230.9857000975
 30
0.0
 11
45.65977337999998
 21
230.3398020636999
 31
0.0
  0
LINE
  5
15A
330
2
100
AcDbEntity
  8
0
 62
     3
100
AcDbLine
 10
43.93919852509998
 20
240.0074807749
 30
0.0
 11
42.60309779929997
 21
238.9946302247
 31
0.0
  0
LINE
  5
15B
330
2
100
AcDbEntity
  8
0
 62
     3
100
AcDbLine
 10
45.65977337999998
 20
239.8398020636999
 30
0.0
 11
45.65977337999998
 21
240.4857000974998
 31
0.0
  0
LINE
  5
15C
330
2
100
AcDbEntity
  8
0
 62
     3
100
AcDbLine
 10
44.15977337999999
 20
235.8857000975
 30
0.0
 11
44.15977337999999
 21
237.0857000974999
 31
0.0
  0
LINE
  5
15D
330
2
100
AcDbEntity
  8
0
 62
     3
100
AcDbLine
 10
44.15977337999999
 20
237.0857000974999
 30
0.0
 11
45.45977338
 21
237.0857000974999
 31
0.0
  0
LINE
  5
15E
330
2
100
AcDbEntity
  8
0
 62
     3
100
AcDbLine
 10
45.45977338
 20
235.8857000975
 30
0.0
 11
44.15977337999999
 21
235.8857000975
 31
0.0
  0
ARC
  5
15F
330
2
100
AcDbEntity
  8
0
 62
     3
100
AcDbCircle
 10
47.85977337999997
 20
235.2857000975
 30
0.0
 40
0.6
100
AcDbArc
 50
90.0
 51
180.0
  0
LINE
  5
160
330
2
100
AcDbEntity
  8
0
 62
     3
100
AcDbLine
 10
47.65977337999999
 20
233.1315981311999
 30
0.0
 11
47.65977337999999
 21
232.4857000975
 31
0.0
  0
LINE
  5
161
330
2
100
AcDbEntity
  8
0
 62
     3
100
AcDbLine
 10
47.65977337999999
 20
230.9857000975
 30
0.0
 11
47.65977337999999
 21
230.3398020636999
 31
0.0
  0
LINE
  5
162
330
2
100
AcDbEntity
  8
0
 62
     3
100
AcDbLine
 10
47.25977337999998
 20
235.2857000975
 30
0.0
 11
47.25977337999998
 21
233.9857000974999
 31
0.0
  0
LINE
  5
163
330
2
100
AcDbEntity
  8
0
 62
     3
100
AcDbLine
 10
46.05977337999997
 20
233.9857000974999
 30
0.0
 11
46.05977337999997
 21
235.2857000975
 31
0.0
  0
LINE
  5
164
330
2
100
AcDbEntity
  8
0
 62
     3
100
AcDbLine
 10
47.25977337999998
 20
233.9857000974999
 30
0.0
 11
46.05977337999997
 21
233.9857000974999
 31
0.0
  0
LINE
  5
165
330
2
100
AcDbEntity
  8
0
 62
     3
100
AcDbLine
 10
49.15977337999999
 20
235.8857000975
 30
0.0
 11
47.85977337999997
 21
235.8857000975
 31
0.0
  0
LINE
  5
166
330
2
100
AcDbEntity
  8
0
 62
     3
100
AcDbLine
 10
47.85977337999997
 20
237.0857000974999
 30
0.0
 11
49.15977337999999
 21
237.0857000974999
 31
0.0
  0
LINE
  5
167
330
2
100
AcDbEntity
  8
0
 62
     3
100
AcDbLine
 10
47.65977337999999
 20
240.4857000974998
 30
0.0
 11
47.65977337999999
 21
239.8398020636999
 31
0.0
  0
ARC
  5
168
330
2
100
AcDbEntity
  8
0
 62
     3
100
AcDbCircle
 10
47.85977337999997
 20
237.6857000974999
 30
0.0
 40
0.6
100
AcDbArc
 50
180.0
 51
270.0
  0
LINE
  5
169
330
2
100
AcDbEntity
  8
0
 62
     3
100
AcDbLine
 10
47.25977337999998
 20
238.9857000975
 30
0.0
 11
47.25977337999998
 21
237.6857000974999
 31
0.0
  0
LINE
  5
16A
330
2
100
AcDbEntity
  8
0
 62
     3
100
AcDbLine
 10
46.05977337999997
 20
237.6857000974999
 30
0.0
 11
46.05977337999997
 21
238.9857000975
 31
0.0
  0
LINE
  5
16B
330
2
100
AcDbEntity
  8
0
 62
     3
100
AcDbLine
 10
46.05977337999997
 20
238.9857000975
 30
0.0
 11
47.25977337999998
 21
238.9857000975
 31
0.0
  0
LINE
  5
16C
330
2
100
AcDbEntity
  8
0
 62
     3
100
AcDbLine
 10
49.15977337999999
 20
237.0857000974999
 30
0.0
 11
49.15977337999999
 21
235.8857000975
 31
0.0
  0
LINE
  5
16D
330
2
100
AcDbEntity
  8
0
 62
     3
100
AcDbLine
 10
45.95977337999999
 20
250.9757000975
 30
0.0
 11
47.55977338
 21
249.3757000974999
 31
0.0
  0
LINE
  5
16E
330
2
100
AcDbEntity
  8
0
 62
     3
100
AcDbLine
 10
45.95977337999999
 20
244.1757000975
 30
0.0
 11
47.55977338
 21
245.7757000975
 31
0.0
  0
LINE
  5
16F
330
2
100
AcDbEntity
  8
0
 62
     3
100
AcDbLine
 10
43.62976473279997
 20
244.2172643256
 30
0.0
 11
47.51820915189995
 21
248.1057087445999
 31
0.0
  0
CIRCLE
  5
170
330
2
100
AcDbEntity
  8
0
 62
     3
100
AcDbCircle
 10
44.15977337999999
 20
247.5757000974999
 30
0.0
 40
1.85
  0
LINE
  5
171
330
2
100
AcDbEntity
  8
0
 62
     3
100
AcDbLine
 10
44.7254588049
 20
247.5757000974999
 30
0.0
 11
45.71982006989998
 21
246.5813388324999
 31
0.0
  0
LINE
  5
172
330
2
100
AcDbEntity
  8
0
 62
     3
100
AcDbLine
 10
43.59408795499999
 20
247.5757000974999
 30
0.0
 11
42.60413846129995
 21
246.5857506038
 31
0.0
  0
LINE
  5
173
330
2
100
AcDbEntity
  8
0
 62
     3
100
AcDbLine
 10
44.15977337999999
 20
247.0100146725
 30
0.0
 11
43.16982388629997
 21
246.0200651788999
 31
0.0
  0
LINE
  5
174
330
2
100
AcDbEntity
  8
0
 62
     3
100
AcDbLine
 10
45.15413464489998
 20
246.0156534075998
 30
0.0
 11
44.15977337999999
 21
247.0100146725
 31
0.0
  0
LINE
  5
175
330
2
100
AcDbEntity
  8
0
 62
     3
100
AcDbLine
 10
43.16541211499997
 20
249.1357467874
 30
0.0
 11
44.15977337999999
 21
248.1413855224
 31
0.0
  0
LINE
  5
176
330
2
100
AcDbEntity
  8
0
 62
     3
100
AcDbLine
 10
42.59972668999995
 20
248.5700613625
 30
0.0
 11
43.59408795499999
 21
247.5757000974999
 31
0.0
  0
LINE
  5
177
330
2
100
AcDbEntity
  8
0
 62
     3
100
AcDbLine
 10
44.15977337999999
 20
248.1413855224
 30
0.0
 11
45.15413464489998
 21
249.1357467874
 31
0.0
  0
LINE
  5
178
330
2
100
AcDbEntity
  8
0
 62
     3
100
AcDbLine
 10
45.71982006989998
 20
248.5700613625
 30
0.0
 11
44.7254588049
 21
247.5757000974999
 31
0.0
  0
LINE
  5
179
330
2
100
AcDbEntity
  8
0
 62
     3
100
AcDbLine
 10
47.55977338
 20
249.3757000974999
 30
0.0
 11
47.55977338
 21
245.7757000975
 31
0.0
  0
ARC
  5
17A
330
2
100
AcDbEntity
  8
0
 62
     3
100
AcDbCircle
 10
44.15977337999999
 20
247.5757000974999
 30
0.0
 40
3.399999999999999
100
AcDbArc
 50
0.0
 51
8.968120927499997
  0
LINE
  5
17B
330
2
100
AcDbEntity
  8
0
 62
     3
100
AcDbLine
 10
52.15977337999999
 20
240.4857000974998
 30
0.0
 11
52.15977337999999
 21
232.4857000975
 31
0.0
  0
LINE
  5
17C
330
2
100
AcDbEntity
  8
0
 62
     3
100
AcDbLine
 10
51.15977337999999
 20
232.4857000975
 30
0.0
 11
51.15977337999999
 21
240.4857000974998
 31
0.0
  0
LINE
  5
17D
330
2
100
AcDbEntity
  8
0
 62
     3
100
AcDbLine
 10
51.15977337999999
 20
235.4857000975
 30
0.0
 11
50.0138753462
 21
235.4857000975
 31
0.0
  0
LINE
  5
17E
330
2
100
AcDbEntity
  8
0
 62
     3
100
AcDbLine
 10
51.15977337999999
 20
237.4857000974999
 30
0.0
 11
50.0138753462
 21
237.4857000974999
 31
0.0
  0
LINE
  5
17F
330
2
100
AcDbEntity
  8
0
  6
PHANTOM
 62
     3
100
AcDbLine
 10
66.55977337999999
 20
256.9757000975
 30
0.0
 11
66.55977337999999
 21
189.4757000975
 31
0.0
  0
LINE
  5
180
330
2
100
AcDbEntity
  8
0
  6
PHANTOM
 62
     3
100
AcDbLine
 10
62.55977338
 20
188.9757000975
 30
0.0
 11
66.05977337999999
 21
188.9757000975
 31
0.0
  0
ARC
  5
181
330
2
100
AcDbEntity
  8
0
 62
     3
100
AcDbCircle
 10
63.05977337999999
 20
190.4757000975
 30
0.0
 40
1.0
100
AcDbArc
 50
180.0
 51
270.0
  0
LINE
  5
182
330
2
100
AcDbEntity
  8
0
 62
     3
100
AcDbLine
 10
62.55977338
 20
188.9757000975
 30
0.0
 11
62.55977338
 21
187.9757000975
 31
0.0
  0
LINE
  5
183
330
2
100
AcDbEntity
  8
0
  6
PHANTOM
 62
     3
100
AcDbLine
 10
62.94413337979998
 20
189.4757000975
 30
0.0
 11
62.94795707269995
 21
189.4757000975
 31
0.0
  0
LINE
  5
184
330
2
100
AcDbEntity
  8
0
 62
     3
100
AcDbLine
 10
62.05977338
 20
190.4757000975
 30
0.0
 11
62.05977338
 21
194.4757000975
 31
0.0
  0
ARC
  5
185
330
2
100
AcDbEntity
  8
0
  6
PHANTOM
 62
     3
100
AcDbCircle
 10
66.05977337999999
 20
189.4757000975
 30
0.0
 40
0.5
100
AcDbArc
 50
270.0
 51
0.0
  0
LINE
  5
186
330
2
100
AcDbEntity
  8
0
 62
     3
100
AcDbLine
 10
85.75977337999999
 20
192.4857000974999
 30
0.0
 11
85.75977337999999
 21
194.4857000975
 31
0.0
  0
LINE
  5
187
330
2
100
AcDbEntity
  8
0
 62
     3
100
AcDbLine
 10
85.75977337999999
 20
240.4857000974998
 30
0.0
 11
85.75977337999999
 21
242.4857000974999
 31
0.0
  0
LINE
  5
188
330
2
100
AcDbEntity
  8
0
 62
     3
100
AcDbLine
 10
117.3918241875
 20
190.6757000974999
 30
0.0
 11
114.4473378147
 21
188.9757000975
 31
0.0
  0
LINE
  5
189
330
2
100
AcDbEntity
  8
0
 62
     3
100
AcDbLine
 10
116.4473378147
 20
188.9757000975
 30
0.0
 11
117.6597733799999
 21
189.6757000975
 31
0.0
  0
CIRCLE
  5
18A
330
2
100
AcDbEntity
  8
0
 62
     3
100
AcDbCircle
 10
117.1597733799997
 20
223.9757000975
 30
0.0
 40
1.199999999999999
  0
CIRCLE
  5
18B
330
2
100
AcDbEntity
  8
0
 62
     3
100
AcDbCircle
 10
117.1597733799997
 20
223.9757000975
 30
0.0
 40
1.199999999999999
  0
CIRCLE
  5
18C
330
2
100
AcDbEntity
  8
0
 62
     3
100
AcDbCircle
 10
117.1597733799997
 20
223.9757000975
 30
0.0
 40
1.199999999999999
  0
CIRCLE
  5
18D
330
2
100
AcDbEntity
  8
0
  6
PHANTOM
 62
     3
100
AcDbCircle
 10
117.1597733799997
 20
223.9757000975
 30
0.0
 40
1.5
  0
LINE
  5
18E
330
2
100
AcDbEntity
  8
0
  6
CENTER
 62
     3
100
AcDbLine
 10
118.80977338
 20
223.9757000975
 30
0.0
 11
115.5097733799999
 21
223.9757000975
 31
0.0
  0
LINE
  5
18F
330
2
100
AcDbEntity
  8
0
 62
     3
100
AcDbLine
 10
92.35977337999997
 20
230.4857000975
 30
0.0
 11
92.35977337999997
 21
223.4857000974999
 31
0.0
  0
LINE
  5
190
330
2
100
AcDbEntity
  8
0
 62
     3
100
AcDbLine
 10
93.35977337999997
 20
222.9857000975
 30
0.0
 11
93.35977337999997
 21
230.9857000975
 31
0.0
  0
LINE
  5
191
330
2
100
AcDbEntity
  8
0
 62
     3
100
AcDbLine
 10
95.35977337999998
 20
222.9857000975
 30
0.0
 11
95.35977337999998
 21
230.9857000975
 31
0.0
  0
LINE
  5
192
330
2
100
AcDbEntity
  8
0
 62
     3
100
AcDbLine
 10
96.35977337999998
 20
230.9857000975
 30
0.0
 11
96.35977337999998
 21
222.9857000975
 31
0.0
  0
LINE
  5
193
330
2
100
AcDbEntity
  8
0
 62
     3
100
AcDbLine
 10
97.35977337999997
 20
222.9857000975
 30
0.0
 11
97.35977337999997
 21
230.9857000975
 31
0.0
  0
LINE
  5
194
330
2
100
AcDbEntity
  8
0
 62
     3
100
AcDbLine
 10
103.3597733799999
 20
192.4857000974999
 30
0.0
 11
103.3597733799999
 21
242.4857000974999
 31
0.0
  0
LINE
  5
195
330
2
100
AcDbEntity
  8
0
 62
     3
100
AcDbLine
 10
101.3597733799999
 20
222.9857000975
 30
0.0
 11
101.3597733799999
 21
230.9857000975
 31
0.0
  0
LINE
  5
196
330
2
100
AcDbEntity
  8
0
  6
PHANTOM
 62
     3
100
AcDbLine
 10
111.1597733799999
 20
256.9757000975
 30
0.0
 11
111.1597733799999
 21
188.9757000975
 31
0.0
  0
ARC
  5
197
330
2
100
AcDbEntity
  8
0
 62
     3
100
AcDbCircle
 10
94.42227337999998
 20
226.9857000975
 30
0.0
 40
4.0625
100
AcDbArc
 50
120.5102374060997
 51
239.4897625938999
  0
LINE
  5
198
330
2
100
AcDbEntity
  8
0
  6
PHANTOM
 62
     3
100
AcDbLine
 10
87.35977337999997
 20
194.4857000975
 30
0.0
 11
87.35977337999997
 21
240.4857000974998
 31
0.0
  0
LINE
  5
199
330
2
100
AcDbEntity
  8
0
  6
PHANTOM
 62
     3
100
AcDbLine
 10
88.35977337999997
 20
194.4857000975
 30
0.0
 11
88.35977337999997
 21
240.4857000974998
 31
0.0
  0
LINE
  5
19A
330
2
100
AcDbEntity
  8
0
 62
     3
100
AcDbLine
 10
99.65977338
 20
189.4757000975
 30
0.0
 11
103.0438034324998
 21
189.4757000975
 31
0.0
  0
LINE
  5
19B
330
2
100
AcDbEntity
  8
0
 62
     3
100
AcDbLine
 10
101.3597733799999
 20
203.9857000974999
 30
0.0
 11
101.3597733799999
 21
211.9857000975
 31
0.0
  0
LINE
  5
19C
330
2
100
AcDbEntity
  8
0
 62
     3
100
AcDbLine
 10
97.35977337999997
 20
203.9857000974999
 30
0.0
 11
97.35977337999997
 21
211.9857000975
 31
0.0
  0
LINE
  5
19D
330
2
100
AcDbEntity
  8
0
 62
     3
100
AcDbLine
 10
96.35977337999998
 20
203.9857000974999
 30
0.0
 11
96.35977337999998
 21
211.9857000975
 31
0.0
  0
LINE
  5
19E
330
2
100
AcDbEntity
  8
0
 62
     3
100
AcDbLine
 10
92.35977337999997
 20
207.9857000974999
 30
0.0
 11
93.35977337999997
 21
206.9857000974999
 31
0.0
  0
LINE
  5
19F
330
2
100
AcDbEntity
  8
0
 62
     3
100
AcDbLine
 10
92.35977337999997
 20
204.4857000975
 30
0.0
 11
92.35977337999997
 21
211.4857000974999
 31
0.0
  0
LINE
  5
1A0
330
2
100
AcDbEntity
  8
0
 62
     3
100
AcDbLine
 10
95.35977337999998
 20
203.9857000974999
 30
0.0
 11
95.35977337999998
 21
211.9857000975
 31
0.0
  0
LINE
  5
1A1
330
2
100
AcDbEntity
  8
0
 62
     3
100
AcDbLine
 10
93.35977337999997
 20
203.9857000974999
 30
0.0
 11
93.35977337999997
 21
211.9857000975
 31
0.0
  0
ARC
  5
1A2
330
2
100
AcDbEntity
  8
0
 62
     3
100
AcDbCircle
 10
94.42227337999998
 20
207.9857000974999
 30
0.0
 40
4.0625
100
AcDbArc
 50
120.5102374060997
 51
239.4897625938999
  0
LINE
  5
1A3
330
2
100
AcDbEntity
  8
0
 62
     3
100
AcDbLine
 10
101.3597733799999
 20
203.9857000974999
 30
0.0
 11
88.35977337999997
 21
203.9857000974999
 31
0.0
  0
LINE
  5
1A4
330
2
100
AcDbEntity
  8
0
 62
     3
100
AcDbLine
 10
88.35977337999997
 20
202.4857000974999
 30
0.0
 11
101.3597733799999
 21
202.4857000974999
 31
0.0
  0
LINE
  5
1A5
330
2
100
AcDbEntity
  8
0
 62
     3
100
AcDbLine
 10
92.35977337999997
 20
194.9857000975
 30
0.0
 11
92.35977337999997
 21
201.9857000975
 31
0.0
  0
LINE
  5
1A6
330
2
100
AcDbEntity
  8
0
 62
     3
100
AcDbLine
 10
93.35977337999997
 20
194.4857000975
 30
0.0
 11
93.35977337999997
 21
202.4857000974999
 31
0.0
  0
ARC
  5
1A7
330
2
100
AcDbEntity
  8
0
 62
     3
100
AcDbCircle
 10
94.42227337999998
 20
198.4857000974999
 30
0.0
 40
4.0625
100
AcDbArc
 50
120.5102374060997
 51
239.4897625938999
  0
LINE
  5
1A8
330
2
100
AcDbEntity
  8
0
 62
     3
100
AcDbLine
 10
92.35977337999997
 20
194.9857000975
 30
0.0
 11
93.35977337999997
 21
194.9857000975
 31
0.0
  0
LINE
  5
1A9
330
2
100
AcDbEntity
  8
0
 62
     3
100
AcDbLine
 10
93.35977337999997
 20
194.9857000975
 30
0.0
 11
93.85977337999998
 21
194.4857000975
 31
0.0
  0
LINE
  5
1AA
330
2
100
AcDbEntity
  8
0
 62
     3
100
AcDbLine
 10
91.35977337999998
 20
197.8857000974998
 30
0.0
 11
90.40432536509996
 21
197.8857000974998
 31
0.0
  0
LINE
  5
1AB
330
2
100
AcDbEntity
  8
0
 62
     3
100
AcDbLine
 10
90.40432536509996
 20
199.0857000974999
 30
0.0
 11
91.35977337999998
 21
199.0857000974999
 31
0.0
  0
LINE
  5
1AC
330
2
100
AcDbEntity
  8
0
 62
     3
100
AcDbLine
 10
88.35977337999997
 20
202.4857000974999
 30
0.0
 11
88.35977337999997
 21
203.9857000974999
 31
0.0
  0
LINE
  5
1AD
330
2
100
AcDbEntity
  8
0
 62
     3
100
AcDbLine
 10
92.35977337999997
 20
199.4857000975
 30
0.0
 11
93.35977337999997
 21
198.4857000974999
 31
0.0
  0
LINE
  5
1AE
330
2
100
AcDbEntity
  8
0
 62
     3
100
AcDbLine
 10
92.35977337999997
 20
198.4857000974999
 30
0.0
 11
93.35977337999997
 21
197.4857000974999
 31
0.0
  0
LINE
  5
1AF
330
2
100
AcDbEntity
  8
0
 62
     3
100
AcDbLine
 10
91.35977337999998
 20
199.0857000974999
 30
0.0
 11
91.35977337999998
 21
197.8857000974998
 31
0.0
  0
LINE
  5
1B0
330
2
100
AcDbEntity
  8
0
 62
     3
100
AcDbLine
 10
92.35977337999997
 20
204.4857000975
 30
0.0
 11
93.35977337999997
 21
204.4857000975
 31
0.0
  0
LINE
  5
1B1
330
2
100
AcDbEntity
  8
0
 62
     3
100
AcDbLine
 10
92.35977337999997
 20
201.9857000975
 30
0.0
 11
93.35977337999997
 21
201.9857000975
 31
0.0
  0
LINE
  5
1B2
330
2
100
AcDbEntity
  8
0
 62
     3
100
AcDbLine
 10
93.35977337999997
 20
204.4857000975
 30
0.0
 11
93.85977337999998
 21
203.9857000974999
 31
0.0
  0
LINE
  5
1B3
330
2
100
AcDbEntity
  8
0
 62
     3
100
AcDbLine
 10
93.35977337999997
 20
201.9857000975
 30
0.0
 11
93.85977337999998
 21
202.4857000974999
 31
0.0
  0
LINE
  5
1B4
330
2
100
AcDbEntity
  8
0
 62
     3
100
AcDbLine
 10
95.35977337999998
 20
194.4857000975
 30
0.0
 11
95.35977337999998
 21
202.4857000974999
 31
0.0
  0
LINE
  5
1B5
330
2
100
AcDbEntity
  8
0
 62
     3
100
AcDbLine
 10
96.35977337999998
 20
194.4857000975
 30
0.0
 11
96.35977337999998
 21
202.4857000974999
 31
0.0
  0
LINE
  5
1B6
330
2
100
AcDbEntity
  8
0
 62
     3
100
AcDbLine
 10
97.35977337999997
 20
194.4857000975
 30
0.0
 11
97.35977337999997
 21
202.4857000974999
 31
0.0
  0
LINE
  5
1B7
330
2
100
AcDbEntity
  8
0
 62
     3
100
AcDbLine
 10
101.3597733799999
 20
194.4857000975
 30
0.0
 11
101.3597733799999
 21
202.4857000974999
 31
0.0
  0
LINE
  5
1B8
330
2
100
AcDbEntity
  8
0
 62
     3
100
AcDbLine
 10
99.65977338
 20
187.9757000975
 30
0.0
 11
99.65977338
 21
192.4857000974999
 31
0.0
  0
LINE
  5
1B9
330
2
100
AcDbEntity
  8
0
 62
     3
100
AcDbLine
 10
94.85977337999997
 20
199.4857000975
 30
0.0
 11
95.35977337999998
 21
199.9857000974999
 31
0.0
  0
LINE
  5
1BA
330
2
100
AcDbEntity
  8
0
 62
     3
100
AcDbLine
 10
94.85977337999997
 20
197.4857000974999
 30
0.0
 11
95.35977337999998
 21
196.9857000975
 31
0.0
  0
LINE
  5
1BB
330
2
100
AcDbEntity
  8
0
 62
     3
100
AcDbLine
 10
94.85977337999997
 20
199.4857000975
 30
0.0
 11
95.35977337999998
 21
199.4857000975
 31
0.0
  0
LINE
  5
1BC
330
2
100
AcDbEntity
  8
0
 62
     3
100
AcDbLine
 10
94.85977337999997
 20
197.4857000974999
 30
0.0
 11
95.35977337999998
 21
197.4857000974999
 31
0.0
  0
LINE
  5
1BD
330
2
100
AcDbEntity
  8
0
 62
     3
100
AcDbLine
 10
95.35977337999998
 20
200.9857000974998
 30
0.0
 11
96.35977337999998
 21
200.9857000974998
 31
0.0
  0
LINE
  5
1BE
330
2
100
AcDbEntity
  8
0
 62
     3
100
AcDbLine
 10
95.35977337999998
 20
195.9857000975
 30
0.0
 11
96.35977337999998
 21
195.9857000975
 31
0.0
  0
LINE
  5
1BF
330
2
100
AcDbEntity
  8
0
 62
     3
100
AcDbLine
 10
94.85977337999997
 20
206.9857000974999
 30
0.0
 11
95.35977337999998
 21
206.9857000974999
 31
0.0
  0
LINE
  5
1C0
330
2
100
AcDbEntity
  8
0
 62
     3
100
AcDbLine
 10
94.85977337999997
 20
206.9857000974999
 30
0.0
 11
95.35977337999998
 21
206.6417989797999
 31
0.0
  0
LINE
  5
1C1
330
2
100
AcDbEntity
  8
0
 62
     3
100
AcDbLine
 10
95.35977337999998
 20
205.4857000975
 30
0.0
 11
96.35977337999998
 21
205.4857000975
 31
0.0
  0
LINE
  5
1C2
330
2
100
AcDbEntity
  8
0
 62
     3
100
AcDbLine
 10
88.35977337999997
 20
222.9857000975
 30
0.0
 11
101.3597733799999
 21
222.9857000975
 31
0.0
  0
LINE
  5
1C3
330
2
100
AcDbEntity
  8
0
 62
     3
100
AcDbLine
 10
88.35977337999997
 20
221.4857000974999
 30
0.0
 11
101.3597733799999
 21
221.4857000974999
 31
0.0
  0
LINE
  5
1C4
330
2
100
AcDbEntity
  8
0
 62
     3
100
AcDbLine
 10
88.35977337999997
 20
213.4857000974999
 30
0.0
 11
101.3597733799999
 21
213.4857000974999
 31
0.0
  0
LINE
  5
1C5
330
2
100
AcDbEntity
  8
0
 62
     3
100
AcDbLine
 10
101.3597733799999
 20
211.9857000975
 30
0.0
 11
88.35977337999997
 21
211.9857000975
 31
0.0
  0
LINE
  5
1C6
330
2
100
AcDbEntity
  8
0
 62
     3
100
AcDbLine
 10
92.35977337999997
 20
220.9857000975
 30
0.0
 11
92.35977337999997
 21
213.9857000975
 31
0.0
  0
LINE
  5
1C7
330
2
100
AcDbEntity
  8
0
 62
     3
100
AcDbLine
 10
93.35977337999997
 20
213.4857000974999
 30
0.0
 11
93.35977337999997
 21
221.4857000974999
 31
0.0
  0
ARC
  5
1C8
330
2
100
AcDbEntity
  8
0
 62
     3
100
AcDbCircle
 10
94.42227337999998
 20
217.4857000974999
 30
0.0
 40
4.0625
100
AcDbArc
 50
120.5102374060997
 51
239.4897625938999
  0
LINE
  5
1C9
330
2
100
AcDbEntity
  8
0
 62
     3
100
AcDbLine
 10
90.40432536509996
 20
218.0857000974999
 30
0.0
 11
91.35977337999998
 21
218.0857000974999
 31
0.0
  0
LINE
  5
1CA
330
2
100
AcDbEntity
  8
0
 62
     3
100
AcDbLine
 10
91.35977337999998
 20
216.8857000975
 30
0.0
 11
90.40432536509996
 21
216.8857000975
 31
0.0
  0
LINE
  5
1CB
330
2
100
AcDbEntity
  8
0
 62
     3
100
AcDbLine
 10
90.40432536509996
 20
208.5857000974999
 30
0.0
 11
91.35977337999998
 21
208.5857000974999
 31
0.0
  0
LINE
  5
1CC
330
2
100
AcDbEntity
  8
0
 62
     3
100
AcDbLine
 10
91.35977337999998
 20
207.3857000974999
 30
0.0
 11
90.40432536509996
 21
207.3857000974999
 31
0.0
  0
LINE
  5
1CD
330
2
100
AcDbEntity
  8
0
 62
     3
100
AcDbLine
 10
88.35977337999997
 20
211.9857000975
 30
0.0
 11
88.35977337999997
 21
213.4857000974999
 31
0.0
  0
LINE
  5
1CE
330
2
100
AcDbEntity
  8
0
 62
     3
100
AcDbLine
 10
92.35977337999997
 20
211.4857000974999
 30
0.0
 11
93.35977337999997
 21
211.4857000974999
 31
0.0
  0
LINE
  5
1CF
330
2
100
AcDbEntity
  8
0
 62
     3
100
AcDbLine
 10
92.35977337999997
 20
208.9857000974999
 30
0.0
 11
93.35977337999997
 21
207.9857000974999
 31
0.0
  0
LINE
  5
1D0
330
2
100
AcDbEntity
  8
0
 62
     3
100
AcDbLine
 10
91.35977337999998
 20
208.5857000974999
 30
0.0
 11
91.35977337999998
 21
207.3857000974999
 31
0.0
  0
LINE
  5
1D1
330
2
100
AcDbEntity
  8
0
 62
     3
100
AcDbLine
 10
93.35977337999997
 20
211.4857000974999
 30
0.0
 11
93.85977337999998
 21
211.9857000975
 31
0.0
  0
LINE
  5
1D2
330
2
100
AcDbEntity
  8
0
 62
     3
100
AcDbLine
 10
92.35977337999997
 20
213.9857000975
 30
0.0
 11
93.35977337999997
 21
213.9857000975
 31
0.0
  0
LINE
  5
1D3
330
2
100
AcDbEntity
  8
0
 62
     3
100
AcDbLine
 10
92.35977337999997
 20
217.4857000974999
 30
0.0
 11
93.35977337999997
 21
216.4857000974999
 31
0.0
  0
LINE
  5
1D4
330
2
100
AcDbEntity
  8
0
 62
     3
100
AcDbLine
 10
92.35977337999997
 20
218.4857000975
 30
0.0
 11
93.35977337999997
 21
217.4857000974999
 31
0.0
  0
LINE
  5
1D5
330
2
100
AcDbEntity
  8
0
 62
     3
100
AcDbLine
 10
91.35977337999998
 20
218.0857000974999
 30
0.0
 11
91.35977337999998
 21
216.8857000975
 31
0.0
  0
LINE
  5
1D6
330
2
100
AcDbEntity
  8
0
 62
     3
100
AcDbLine
 10
91.35977337999998
 20
218.0857000974999
 30
0.0
 11
91.35977337999998
 21
216.8857000975
 31
0.0
  0
LINE
  5
1D7
330
2
100
AcDbEntity
  8
0
 62
     3
100
AcDbLine
 10
93.35977337999997
 20
213.9857000975
 30
0.0
 11
93.85977337999998
 21
213.4857000974999
 31
0.0
  0
LINE
  5
1D8
330
2
100
AcDbEntity
  8
0
 62
     3
100
AcDbLine
 10
90.40432536509996
 20
227.5857000974998
 30
0.0
 11
91.35977337999998
 21
227.5857000974998
 31
0.0
  0
LINE
  5
1D9
330
2
100
AcDbEntity
  8
0
 62
     3
100
AcDbLine
 10
91.35977337999998
 20
226.3857000975
 30
0.0
 11
90.40432536509996
 21
226.3857000975
 31
0.0
  0
LINE
  5
1DA
330
2
100
AcDbEntity
  8
0
 62
     3
100
AcDbLine
 10
88.35977337999997
 20
221.4857000974999
 30
0.0
 11
88.35977337999997
 21
222.9857000975
 31
0.0
  0
LINE
  5
1DB
330
2
100
AcDbEntity
  8
0
 62
     3
100
AcDbLine
 10
92.35977337999997
 20
223.4857000974999
 30
0.0
 11
93.35977337999997
 21
223.4857000974999
 31
0.0
  0
LINE
  5
1DC
330
2
100
AcDbEntity
  8
0
 62
     3
100
AcDbLine
 10
92.35977337999997
 20
220.9857000975
 30
0.0
 11
93.35977337999997
 21
220.9857000975
 31
0.0
  0
LINE
  5
1DD
330
2
100
AcDbEntity
  8
0
 62
     3
100
AcDbLine
 10
93.35977337999997
 20
223.4857000974999
 30
0.0
 11
93.85977337999998
 21
222.9857000975
 31
0.0
  0
LINE
  5
1DE
330
2
100
AcDbEntity
  8
0
 62
     3
100
AcDbLine
 10
93.35977337999997
 20
220.9857000975
 30
0.0
 11
93.85977337999998
 21
221.4857000974999
 31
0.0
  0
LINE
  5
1DF
330
2
100
AcDbEntity
  8
0
 62
     3
100
AcDbLine
 10
92.35977337999997
 20
227.9857000974998
 30
0.0
 11
93.35977337999997
 21
226.9857000975
 31
0.0
  0
LINE
  5
1E0
330
2
100
AcDbEntity
  8
0
 62
     3
100
AcDbLine
 10
92.35977337999997
 20
226.9857000975
 30
0.0
 11
93.35977337999997
 21
225.9857000974999
 31
0.0
  0
LINE
  5
1E1
330
2
100
AcDbEntity
  8
0
 62
     3
100
AcDbLine
 10
91.35977337999998
 20
227.5857000974998
 30
0.0
 11
91.35977337999998
 21
226.3857000975
 31
0.0
  0
LINE
  5
1E2
330
2
100
AcDbEntity
  8
0
 62
     3
100
AcDbLine
 10
91.35977337999998
 20
227.5857000974998
 30
0.0
 11
91.35977337999998
 21
226.3857000975
 31
0.0
  0
LINE
  5
1E3
330
2
100
AcDbEntity
  8
0
 62
     3
100
AcDbLine
 10
91.35977337999998
 20
227.5857000974998
 30
0.0
 11
91.35977337999998
 21
226.3857000975
 31
0.0
  0
LINE
  5
1E4
330
2
100
AcDbEntity
  8
0
 62
     3
100
AcDbLine
 10
91.35977337999998
 20
227.5857000974998
 30
0.0
 11
91.35977337999998
 21
226.3857000975
 31
0.0
  0
LINE
  5
1E5
330
2
100
AcDbEntity
  8
0
 62
     3
100
AcDbLine
 10
101.3597733799999
 20
213.4857000974999
 30
0.0
 11
101.3597733799999
 21
221.4857000974999
 31
0.0
  0
LINE
  5
1E6
330
2
100
AcDbEntity
  8
0
 62
     3
100
AcDbLine
 10
96.35977337999998
 20
221.4857000974999
 30
0.0
 11
96.35977337999998
 21
213.4857000974999
 31
0.0
  0
LINE
  5
1E7
330
2
100
AcDbEntity
  8
0
 62
     3
100
AcDbLine
 10
97.35977337999997
 20
213.4857000974999
 30
0.0
 11
97.35977337999997
 21
221.4857000974999
 31
0.0
  0
LINE
  5
1E8
330
2
100
AcDbEntity
  8
0
 62
     3
100
AcDbLine
 10
94.85977337999997
 20
218.4857000975
 30
0.0
 11
95.35977337999998
 21
218.9857000975
 31
0.0
  0
LINE
  5
1E9
330
2
100
AcDbEntity
  8
0
 62
     3
100
AcDbLine
 10
95.35977337999998
 20
213.4857000974999
 30
0.0
 11
95.35977337999998
 21
221.4857000974999
 31
0.0
  0
LINE
  5
1EA
330
2
100
AcDbEntity
  8
0
 62
     3
100
AcDbLine
 10
94.85977337999997
 20
208.9857000974999
 30
0.0
 11
95.35977337999998
 21
209.4857000974999
 31
0.0
  0
LINE
  5
1EB
330
2
100
AcDbEntity
  8
0
 62
     3
100
AcDbLine
 10
94.85977337999997
 20
208.9857000974999
 30
0.0
 11
95.35977337999998
 21
208.9857000974999
 31
0.0
  0
LINE
  5
1EC
330
2
100
AcDbEntity
  8
0
 62
     3
100
AcDbLine
 10
95.35977337999998
 20
210.4857000975
 30
0.0
 11
96.35977337999998
 21
210.4857000975
 31
0.0
  0
LINE
  5
1ED
330
2
100
AcDbEntity
  8
0
 62
     3
100
AcDbLine
 10
94.85977337999997
 20
218.4857000975
 30
0.0
 11
95.35977337999998
 21
218.4857000975
 31
0.0
  0
LINE
  5
1EE
330
2
100
AcDbEntity
  8
0
 62
     3
100
AcDbLine
 10
94.85977337999997
 20
216.4857000974999
 30
0.0
 11
95.35977337999998
 21
215.9857000975
 31
0.0
  0
LINE
  5
1EF
330
2
100
AcDbEntity
  8
0
 62
     3
100
AcDbLine
 10
94.85977337999997
 20
216.4857000974999
 30
0.0
 11
95.35977337999998
 21
216.4857000974999
 31
0.0
  0
LINE
  5
1F0
330
2
100
AcDbEntity
  8
0
 62
     3
100
AcDbLine
 10
95.35977337999998
 20
214.9857000974999
 30
0.0
 11
96.35977337999998
 21
214.9857000974999
 31
0.0
  0
LINE
  5
1F1
330
2
100
AcDbEntity
  8
0
 62
     3
100
AcDbLine
 10
95.35977337999998
 20
219.9857000975
 30
0.0
 11
96.35977337999998
 21
219.9857000975
 31
0.0
  0
LINE
  5
1F2
330
2
100
AcDbEntity
  8
0
 62
     3
100
AcDbLine
 10
94.85977337999997
 20
227.9857000974998
 30
0.0
 11
95.35977337999998
 21
228.4857000975
 31
0.0
  0
LINE
  5
1F3
330
2
100
AcDbEntity
  8
0
 62
     3
100
AcDbLine
 10
94.85977337999997
 20
225.9857000974999
 30
0.0
 11
95.35977337999998
 21
225.4857000974999
 31
0.0
  0
LINE
  5
1F4
330
2
100
AcDbEntity
  8
0
 62
     3
100
AcDbLine
 10
94.85977337999997
 20
225.9857000974999
 30
0.0
 11
95.35977337999998
 21
225.9857000974999
 31
0.0
  0
LINE
  5
1F5
330
2
100
AcDbEntity
  8
0
 62
     3
100
AcDbLine
 10
94.85977337999997
 20
227.9857000974998
 30
0.0
 11
95.35977337999998
 21
227.9857000974998
 31
0.0
  0
LINE
  5
1F6
330
2
100
AcDbEntity
  8
0
 62
     3
100
AcDbLine
 10
95.35977337999998
 20
229.4857000975
 30
0.0
 11
96.35977337999998
 21
229.4857000975
 31
0.0
  0
LINE
  5
1F7
330
2
100
AcDbEntity
  8
0
 62
     3
100
AcDbLine
 10
95.35977337999998
 20
224.4857000975
 30
0.0
 11
96.35977337999998
 21
224.4857000975
 31
0.0
  0
LINE
  5
1F8
330
2
100
AcDbEntity
  8
0
 62
     3
100
AcDbLine
 10
107.8597733799999
 20
206.3857000974997
 30
0.0
 11
107.8597733799999
 21
209.5857000974999
 31
0.0
  0
LINE
  5
1F9
330
2
100
AcDbEntity
  8
0
 62
     3
100
AcDbLine
 10
109.0972733799999
 20
189.4757000975
 30
0.0
 11
115.3133632183999
 21
189.4757000975
 31
0.0
  0
LINE
  5
1FA
330
2
100
AcDbEntity
  8
0
 62
     3
100
AcDbLine
 10
105.1597733799999
 20
190.9757000975
 30
0.0
 11
108.15977338
 21
190.9757000975
 31
0.0
  0
ARC
  5
1FB
330
2
100
AcDbEntity
  8
0
 62
     3
100
AcDbCircle
 10
107.1592731797998
 20
189.9440749473999
 30
0.0
 40
1.0
100
AcDbArc
 50
178.1877101922999
 51
255.5520850993999
  0
LINE
  5
1FC
330
2
100
AcDbEntity
  8
0
 62
     3
100
AcDbLine
 10
103.1597733799999
 20
190.4757000975
 30
0.0
 11
106.1597733799999
 21
190.4757000975
 31
0.0
  0
ARC
  5
1FD
330
2
100
AcDbEntity
  8
0
 62
     3
100
AcDbCircle
 10
102.1602735800998
 20
189.9440749473999
 30
0.0
 40
1.0
100
AcDbArc
 50
284.4479149006998
 51
1.812289807599958
  0
LINE
  5
1FE
330
2
100
AcDbEntity
  8
0
 62
     3
100
AcDbLine
 10
103.1597733799999
 20
190.4757000975
 30
0.0
 11
103.1597733799999
 21
189.9757000975
 31
0.0
  0
LINE
  5
1FF
330
2
100
AcDbEntity
  8
0
 62
     3
100
AcDbLine
 10
104.8472733799999
 20
190.4757000975
 30
0.0
 11
105.1597733799999
 21
190.9757000975
 31
0.0
  0
LINE
  5
200
330
2
100
AcDbEntity
  8
0
 62
     3
100
AcDbLine
 10
107.6055257383997
 20
189.9757000975
 30
0.0
 11
108.2305257383999
 21
188.9757000975
 31
0.0
  0
LINE
  5
201
330
2
100
AcDbEntity
  8
0
 62
     3
100
AcDbLine
 10
108.15977338
 20
190.9757000975
 30
0.0
 11
109.4097733799999
 21
188.9757000975
 31
0.0
  0
LINE
  5
202
330
2
100
AcDbEntity
  8
0
 62
     3
100
AcDbLine
 10
106.2757433273999
 20
189.4757000975
 30
0.0
 11
107.9180257383999
 21
189.4757000975
 31
0.0
  0
LINE
  5
203
330
2
100
AcDbEntity
  8
0
 62
     3
100
AcDbLine
 10
106.1597733799999
 20
190.4757000975
 30
0.0
 11
106.1597733799999
 21
189.9757000975
 31
0.0
  0
LINE
  5
204
330
2
100
AcDbEntity
  8
0
 62
     3
100
AcDbLine
 10
106.1597733799999
 20
189.9757000975
 30
0.0
 11
107.6055257383997
 21
189.9757000975
 31
0.0
  0
LINE
  5
205
330
2
100
AcDbEntity
  8
0
 62
     3
100
AcDbLine
 10
107.8597733799999
 20
196.8857000975
 30
0.0
 11
103.3597733799999
 21
196.8857000975
 31
0.0
  0
LINE
  5
206
330
2
100
AcDbEntity
  8
0
 62
     3
100
AcDbLine
 10
107.8597733799999
 20
200.0857000974999
 30
0.0
 11
103.3597733799999
 21
200.0857000974999
 31
0.0
  0
LINE
  5
207
330
2
100
AcDbEntity
  8
0
 62
     3
100
AcDbLine
 10
107.8597733799999
 20
206.3857000974997
 30
0.0
 11
103.3597733799999
 21
206.3857000974997
 31
0.0
  0
LINE
  5
208
330
2
100
AcDbEntity
  8
0
 62
     3
100
AcDbLine
 10
107.8597733799999
 20
200.0857000974999
 30
0.0
 11
107.8597733799999
 21
196.8857000975
 31
0.0
  0
LINE
  5
209
330
2
100
AcDbEntity
  8
0
 62
     3
100
AcDbLine
 10
107.8597733799999
 20
215.8857000975
 30
0.0
 11
107.8597733799999
 21
219.0857000974999
 31
0.0
  0
LINE
  5
20A
330
2
100
AcDbEntity
  8
0
 62
     3
100
AcDbLine
 10
107.8597733799999
 20
209.5857000974999
 30
0.0
 11
103.3597733799999
 21
209.5857000974999
 31
0.0
  0
LINE
  5
20B
330
2
100
AcDbEntity
  8
0
 62
     3
100
AcDbLine
 10
107.8597733799999
 20
215.8857000975
 30
0.0
 11
103.3597733799999
 21
215.8857000975
 31
0.0
  0
LINE
  5
20C
330
2
100
AcDbEntity
  8
0
 62
     3
100
AcDbLine
 10
107.8597733799999
 20
225.3857000975
 30
0.0
 11
103.3597733799999
 21
225.3857000975
 31
0.0
  0
LINE
  5
20D
330
2
100
AcDbEntity
  8
0
 62
     3
100
AcDbLine
 10
107.8597733799999
 20
228.5857000975
 30
0.0
 11
103.3597733799999
 21
228.5857000975
 31
0.0
  0
LINE
  5
20E
330
2
100
AcDbEntity
  8
0
 62
     3
100
AcDbLine
 10
107.8597733799999
 20
219.0857000974999
 30
0.0
 11
103.3597733799999
 21
219.0857000974999
 31
0.0
  0
LINE
  5
20F
330
2
100
AcDbEntity
  8
0
 62
     3
100
AcDbLine
 10
107.8597733799999
 20
225.3857000975
 30
0.0
 11
107.8597733799999
 21
228.5857000975
 31
0.0
  0
LINE
  5
210
330
2
100
AcDbEntity
  8
0
  6
CENTER
 62
     3
100
AcDbLine
 10
117.1597733799997
 20
225.6257000974999
 30
0.0
 11
117.1597733799997
 21
222.3257000974999
 31
0.0
  0
LINE
  5
211
330
2
100
AcDbEntity
  8
0
 62
     3
100
AcDbLine
 10
103.1597733799999
 20
250.3257000975
 30
0.0
 11
102.05977338
 21
250.3257000975
 31
0.0
  0
LINE
  5
212
330
2
100
AcDbEntity
  8
0
 62
     3
100
AcDbLine
 10
102.05977338
 20
244.8257000974999
 30
0.0
 11
103.1597733799999
 21
244.8257000974999
 31
0.0
  0
LINE
  5
213
330
2
100
AcDbEntity
  8
0
 62
     3
100
AcDbLine
 10
109.6597733799999
 20
255.4757000975
 30
0.0
 11
100.1597733799999
 21
255.4757000975
 31
0.0
  0
LINE
  5
214
330
2
100
AcDbEntity
  8
0
 62
     3
100
AcDbLine
 10
100.1597733799999
 20
254.4757000975
 30
0.0
 11
110.6597733799999
 21
254.4757000975
 31
0.0
  0
LINE
  5
215
330
2
100
AcDbEntity
  8
0
 62
     3
100
AcDbLine
 10
99.65977338
 20
256.9757000975
 30
0.0
 11
111.6597733799999
 21
256.9757000975
 31
0.0
  0
LINE
  5
216
330
2
100
AcDbEntity
  8
0
 62
     3
100
AcDbLine
 10
99.65977338
 20
256.4757000975
 30
0.0
 11
104.6597733799997
 21
256.4757000975
 31
0.0
  0
LINE
  5
217
330
2
100
AcDbEntity
  8
0
 62
     3
100
AcDbLine
 10
99.65977338
 20
256.4757000975
 30
0.0
 11
99.65977338
 21
242.4857000974999
 31
0.0
  0
LINE
  5
218
330
2
100
AcDbEntity
  8
0
 62
     3
100
AcDbLine
 10
88.35977337999997
 20
232.4857000975
 30
0.0
 11
101.3597733799999
 21
232.4857000975
 31
0.0
  0
LINE
  5
219
330
2
100
AcDbEntity
  8
0
 62
     3
100
AcDbLine
 10
88.35977337999997
 20
230.9857000975
 30
0.0
 11
101.3597733799999
 21
230.9857000975
 31
0.0
  0
LINE
  5
21A
330
2
100
AcDbEntity
  8
0
 62
     3
100
AcDbLine
 10
90.40432536509996
 20
237.0857000974999
 30
0.0
 11
91.35977337999998
 21
237.0857000974999
 31
0.0
  0
LINE
  5
21B
330
2
100
AcDbEntity
  8
0
 62
     3
100
AcDbLine
 10
91.35977337999998
 20
235.8857000975
 30
0.0
 11
90.40432536509996
 21
235.8857000975
 31
0.0
  0
ARC
  5
21C
330
2
100
AcDbEntity
  8
0
 62
     3
100
AcDbCircle
 10
94.42227337999998
 20
236.4857000974999
 30
0.0
 40
4.0625
100
AcDbArc
 50
120.5102374060997
 51
239.4897625938999
  0
LINE
  5
21D
330
2
100
AcDbEntity
  8
0
 62
     3
100
AcDbLine
 10
88.35977337999997
 20
230.9857000975
 30
0.0
 11
88.35977337999997
 21
232.4857000975
 31
0.0
  0
LINE
  5
21E
330
2
100
AcDbEntity
  8
0
 62
     3
100
AcDbLine
 10
92.35977337999997
 20
239.9857000974999
 30
0.0
 11
92.35977337999997
 21
232.9857000974999
 31
0.0
  0
LINE
  5
21F
330
2
100
AcDbEntity
  8
0
 62
     3
100
AcDbLine
 10
92.35977337999997
 20
236.4857000974999
 30
0.0
 11
93.35977337999997
 21
235.4857000975
 31
0.0
  0
LINE
  5
220
330
2
100
AcDbEntity
  8
0
 62
     3
100
AcDbLine
 10
93.35977337999997
 20
232.4857000975
 30
0.0
 11
93.35977337999997
 21
240.4857000974998
 31
0.0
  0
LINE
  5
221
330
2
100
AcDbEntity
  8
0
 62
     3
100
AcDbLine
 10
92.35977337999997
 20
230.4857000975
 30
0.0
 11
93.35977337999997
 21
230.4857000975
 31
0.0
  0
LINE
  5
222
330
2
100
AcDbEntity
  8
0
 62
     3
100
AcDbLine
 10
92.35977337999997
 20
232.9857000974999
 30
0.0
 11
93.35977337999997
 21
232.9857000974999
 31
0.0
  0
LINE
  5
223
330
2
100
AcDbEntity
  8
0
 62
     3
100
AcDbLine
 10
93.35977337999997
 20
232.9857000974999
 30
0.0
 11
93.85977337999998
 21
232.4857000975
 31
0.0
  0
LINE
  5
224
330
2
100
AcDbEntity
  8
0
 62
     3
100
AcDbLine
 10
93.35977337999997
 20
232.9857000974999
 30
0.0
 11
93.85977337999998
 21
232.4857000975
 31
0.0
  0
LINE
  5
225
330
2
100
AcDbEntity
  8
0
 62
     3
100
AcDbLine
 10
93.35977337999997
 20
230.4857000975
 30
0.0
 11
93.85977337999998
 21
230.9857000975
 31
0.0
  0
LINE
  5
226
330
2
100
AcDbEntity
  8
0
 62
     3
100
AcDbLine
 10
92.35977337999997
 20
237.4857000974999
 30
0.0
 11
93.35977337999997
 21
236.4857000974999
 31
0.0
  0
LINE
  5
227
330
2
100
AcDbEntity
  8
0
 62
     3
100
AcDbLine
 10
92.35977337999997
 20
239.9857000974999
 30
0.0
 11
93.35977337999997
 21
239.9857000974999
 31
0.0
  0
LINE
  5
228
330
2
100
AcDbEntity
  8
0
 62
     3
100
AcDbLine
 10
91.35977337999998
 20
237.0857000974999
 30
0.0
 11
91.35977337999998
 21
235.8857000975
 31
0.0
  0
LINE
  5
229
330
2
100
AcDbEntity
  8
0
 62
     3
100
AcDbLine
 10
91.35977337999998
 20
237.0857000974999
 30
0.0
 11
91.35977337999998
 21
235.8857000975
 31
0.0
  0
LINE
  5
22A
330
2
100
AcDbEntity
  8
0
 62
     3
100
AcDbLine
 10
91.35977337999998
 20
237.0857000974999
 30
0.0
 11
91.35977337999998
 21
235.8857000975
 31
0.0
  0
LINE
  5
22B
330
2
100
AcDbEntity
  8
0
 62
     3
100
AcDbLine
 10
91.35977337999998
 20
237.0857000974999
 30
0.0
 11
91.35977337999998
 21
235.8857000975
 31
0.0
  0
LINE
  5
22C
330
2
100
AcDbEntity
  8
0
 62
     3
100
AcDbLine
 10
91.35977337999998
 20
237.0857000974999
 30
0.0
 11
91.35977337999998
 21
235.8857000975
 31
0.0
  0
LINE
  5
22D
330
2
100
AcDbEntity
  8
0
 62
     3
100
AcDbLine
 10
91.35977337999998
 20
237.0857000974999
 30
0.0
 11
91.35977337999998
 21
235.8857000975
 31
0.0
  0
LINE
  5
22E
330
2
100
AcDbEntity
  8
0
 62
     3
100
AcDbLine
 10
91.35977337999998
 20
237.0857000974999
 30
0.0
 11
91.35977337999998
 21
235.8857000975
 31
0.0
  0
LINE
  5
22F
330
2
100
AcDbEntity
  8
0
 62
     3
100
AcDbLine
 10
91.35977337999998
 20
237.0857000974999
 30
0.0
 11
91.35977337999998
 21
235.8857000975
 31
0.0
  0
LINE
  5
230
330
2
100
AcDbEntity
  8
0
 62
     3
100
AcDbLine
 10
93.35977337999997
 20
239.9857000974999
 30
0.0
 11
93.85977337999998
 21
240.4857000974998
 31
0.0
  0
LINE
  5
231
330
2
100
AcDbEntity
  8
0
 62
     3
100
AcDbLine
 10
93.35977337999997
 20
239.9857000974999
 30
0.0
 11
93.85977337999998
 21
240.4857000974998
 31
0.0
  0
LINE
  5
232
330
2
100
AcDbEntity
  8
0
 62
     3
100
AcDbLine
 10
96.35977337999998
 20
240.4857000974998
 30
0.0
 11
96.35977337999998
 21
232.4857000975
 31
0.0
  0
LINE
  5
233
330
2
100
AcDbEntity
  8
0
 62
     3
100
AcDbLine
 10
97.35977337999997
 20
232.4857000975
 30
0.0
 11
97.35977337999997
 21
240.4857000974998
 31
0.0
  0
LINE
  5
234
330
2
100
AcDbEntity
  8
0
 62
     3
100
AcDbLine
 10
95.35977337999998
 20
232.4857000975
 30
0.0
 11
95.35977337999998
 21
240.4857000974998
 31
0.0
  0
LINE
  5
235
330
2
100
AcDbEntity
  8
0
 62
     3
100
AcDbLine
 10
94.85977337999997
 20
235.4857000975
 30
0.0
 11
95.35977337999998
 21
234.9857000975
 31
0.0
  0
LINE
  5
236
330
2
100
AcDbEntity
  8
0
 62
     3
100
AcDbLine
 10
94.85977337999997
 20
235.4857000975
 30
0.0
 11
95.35977337999998
 21
235.4857000975
 31
0.0
  0
LINE
  5
237
330
2
100
AcDbEntity
  8
0
 62
     3
100
AcDbLine
 10
95.35977337999998
 20
233.9857000974999
 30
0.0
 11
96.35977337999998
 21
233.9857000974999
 31
0.0
  0
LINE
  5
238
330
2
100
AcDbEntity
  8
0
 62
     3
100
AcDbLine
 10
94.85977337999997
 20
237.4857000974999
 30
0.0
 11
95.35977337999998
 21
237.9857000974999
 31
0.0
  0
LINE
  5
239
330
2
100
AcDbEntity
  8
0
 62
     3
100
AcDbLine
 10
94.85977337999997
 20
237.4857000974999
 30
0.0
 11
95.35977337999998
 21
237.9857000974999
 31
0.0
  0
LINE
  5
23A
330
2
100
AcDbEntity
  8
0
 62
     3
100
AcDbLine
 10
94.85977337999997
 20
237.4857000974999
 30
0.0
 11
95.35977337999998
 21
237.4857000974999
 31
0.0
  0
LINE
  5
23B
330
2
100
AcDbEntity
  8
0
 62
     3
100
AcDbLine
 10
95.35977337999998
 20
238.9857000975
 30
0.0
 11
96.35977337999998
 21
238.9857000975
 31
0.0
  0
LINE
  5
23C
330
2
100
AcDbEntity
  8
0
 62
     3
100
AcDbLine
 10
101.3597733799999
 20
232.4857000975
 30
0.0
 11
101.3597733799999
 21
240.4857000974998
 31
0.0
  0
LINE
  5
23D
330
2
100
AcDbEntity
  8
0
 62
     3
100
AcDbLine
 10
100.8597733799999
 20
248.1057087445999
 30
0.0
 11
100.8597733799999
 21
244.1757000975
 31
0.0
  0
LINE
  5
23E
330
2
100
AcDbEntity
  8
0
 62
     3
100
AcDbLine
 10
102.05977338
 20
250.9757000975
 30
0.0
 11
102.05977338
 21
244.1757000975
 31
0.0
  0
LINE
  5
23F
330
2
100
AcDbEntity
  8
0
 62
     3
100
AcDbLine
 10
102.05977338
 20
244.1757000975
 30
0.0
 11
99.65977338
 21
244.1757000975
 31
0.0
  0
LINE
  5
240
330
2
100
AcDbEntity
  8
0
 62
     3
100
AcDbLine
 10
99.65977338
 20
248.1057087445999
 30
0.0
 11
100.8597733799999
 21
248.1057087445999
 31
0.0
  0
LINE
  5
241
330
2
100
AcDbEntity
  8
0
 62
     3
100
AcDbLine
 10
99.65977338
 20
250.9757000975
 30
0.0
 11
102.05977338
 21
250.9757000975
 31
0.0
  0
LINE
  5
242
330
2
100
AcDbEntity
  8
0
 62
     3
100
AcDbLine
 10
100.1597733799999
 20
254.4757000975
 30
0.0
 11
100.1597733799999
 21
255.4757000975
 31
0.0
  0
LINE
  5
243
330
2
100
AcDbEntity
  8
0
  6
PHANTOM
 62
     3
100
AcDbLine
 10
99.65977338
 20
256.4757000975
 30
0.0
 11
99.65977338
 21
256.9757000975
 31
0.0
  0
LINE
  5
244
330
2
100
AcDbEntity
  8
0
 62
     3
100
AcDbLine
 10
107.8597733799999
 20
234.8857000975
 30
0.0
 11
103.3597733799999
 21
234.8857000975
 31
0.0
  0
LINE
  5
245
330
2
100
AcDbEntity
  8
0
 62
     3
100
AcDbLine
 10
107.8597733799999
 20
238.0857000974998
 30
0.0
 11
103.3597733799999
 21
238.0857000974998
 31
0.0
  0
LINE
  5
246
330
2
100
AcDbEntity
  8
0
 62
     3
100
AcDbLine
 10
107.8597733799999
 20
234.8857000975
 30
0.0
 11
107.8597733799999
 21
238.0857000974998
 31
0.0
  0
LINE
  5
247
330
2
100
AcDbEntity
  8
0
 62
     3
100
AcDbLine
 10
105.5597733799999
 20
248.3757000974999
 30
0.0
 11
105.5597733799999
 21
246.7757000974999
 31
0.0
  0
LINE
  5
248
330
2
100
AcDbEntity
  8
0
 62
     3
100
AcDbLine
 10
103.7947733799999
 20
244.1757000975
 30
0.0
 11
103.7947733799999
 21
250.9757000975
 31
0.0
  0
LINE
  5
249
330
2
100
AcDbEntity
  8
0
 62
     3
100
AcDbLine
 10
103.1597733799999
 20
250.9757000975
 30
0.0
 11
103.1597733799999
 21
244.1757000975
 31
0.0
  0
LINE
  5
24A
330
2
100
AcDbEntity
  8
0
 62
     3
100
AcDbLine
 10
105.5597733799999
 20
246.7757000974999
 30
0.0
 11
103.7947733799999
 21
246.7757000974999
 31
0.0
  0
LINE
  5
24B
330
2
100
AcDbEntity
  8
0
 62
     3
100
AcDbLine
 10
103.1597733799999
 20
244.1757000975
 30
0.0
 11
103.7947733799999
 21
244.1757000975
 31
0.0
  0
LINE
  5
24C
330
2
100
AcDbEntity
  8
0
 62
     3
100
AcDbLine
 10
103.7947733799999
 20
248.3757000974999
 30
0.0
 11
105.5597733799999
 21
248.3757000974999
 31
0.0
  0
LINE
  5
24D
330
2
100
AcDbEntity
  8
0
 62
     3
100
AcDbLine
 10
103.7947733799999
 20
250.9757000975
 30
0.0
 11
103.1597733799999
 21
250.9757000975
 31
0.0
  0
LINE
  5
24E
330
2
100
AcDbEntity
  8
0
 62
     3
100
AcDbLine
 10
104.6597733799997
 20
253.9757000974999
 30
0.0
 11
116.1597733799997
 21
253.9757000974999
 31
0.0
  0
LINE
  5
24F
330
2
100
AcDbEntity
  8
0
 62
     3
100
AcDbLine
 10
104.6597733799997
 20
254.4757000975
 30
0.0
 11
104.6597733799997
 21
253.9757000974999
 31
0.0
  0
LINE
  5
250
330
2
100
AcDbEntity
  8
0
 62
     3
100
AcDbLine
 10
104.6597733799997
 20
256.4757000975
 30
0.0
 11
104.6597733799997
 21
255.4757000975
 31
0.0
  0
LINE
  5
251
330
2
100
AcDbEntity
  8
0
 62
     3
100
AcDbLine
 10
109.6597733799999
 20
255.4757000975
 30
0.0
 11
109.6597733799999
 21
254.4757000975
 31
0.0
  0
LINE
  5
252
330
2
100
AcDbEntity
  8
0
 62
     3
100
AcDbLine
 10
110.6597733799999
 20
254.4757000975
 30
0.0
 11
110.6597733799999
 21
255.9757000975
 31
0.0
  0
ARC
  5
253
330
2
100
AcDbEntity
  8
0
 62
     3
100
AcDbCircle
 10
111.6597733799999
 20
255.9757000975
 30
0.0
 40
1.0
100
AcDbArc
 50
90.0
 51
180.0
  0
LINE
  5
254
330
2
100
AcDbEntity
  8
0
 62
     3
100
AcDbLine
 10
116.1597733799997
 20
253.9757000974999
 30
0.0
 11
116.1597733799997
 21
256.4757000975
 31
0.0
  0
LINE
  5
255
330
2
100
AcDbEntity
  8
0
 62
     3
100
AcDbLine
 10
122.1597733799999
 20
190.6757000974999
 30
0.0
 11
117.3918241875
 21
190.6757000974999
 31
0.0
  0
LINE
  5
256
330
2
100
AcDbEntity
  8
0
 62
     3
100
AcDbLine
 10
117.6597733799999
 20
189.6757000975
 30
0.0
 11
122.1597733799999
 21
189.6757000975
 31
0.0
  0
LINE
  5
257
330
2
100
AcDbEntity
  8
0
 62
     3
100
AcDbLine
 10
122.1597733799999
 20
189.6757000975
 30
0.0
 11
122.1597733799999
 21
190.6757000974999
 31
0.0
  0
LINE
  5
258
330
2
100
AcDbEntity
  8
0
 62
     3
100
AcDbLine
 10
125.1597733799999
 20
224.4757000974999
 30
0.0
 11
124.1597733799999
 21
224.4757000974999
 31
0.0
  0
LINE
  5
259
330
2
100
AcDbEntity
  8
0
 62
     3
100
AcDbLine
 10
124.1597733799999
 20
223.4757000975
 30
0.0
 11
125.1597733799999
 21
223.4757000975
 31
0.0
  0
CIRCLE
  5
25A
330
2
100
AcDbEntity
  8
0
 62
     3
100
AcDbCircle
 10
126.1597733799999
 20
223.9757000975
 30
0.0
 40
3.149999999999999
  0
LINE
  5
25B
330
2
100
AcDbEntity
  8
0
 62
     3
100
AcDbLine
 10
124.1597733799999
 20
224.4757000974999
 30
0.0
 11
124.1597733799999
 21
223.4757000975
 31
0.0
  0
LINE
  5
25C
330
2
100
AcDbEntity
  8
0
 62
     3
100
AcDbLine
 10
128.1597733799999
 20
223.4757000975
 30
0.0
 11
128.1597733799999
 21
224.4757000974999
 31
0.0
  0
ARC
  5
25D
330
2
100
AcDbEntity
  8
0
 62
     3
100
AcDbCircle
 10
127.1597733799999
 20
222.9757000975
 30
0.0
 40
0.5
100
AcDbArc
 50
90.0
 51
180.0
  0
LINE
  5
25E
330
2
100
AcDbEntity
  8
0
 62
     3
100
AcDbLine
 10
126.6597733799999
 20
221.9757000975
 30
0.0
 11
126.6597733799999
 21
222.9757000975
 31
0.0
  0
ARC
  5
25F
330
2
100
AcDbEntity
  8
0
 62
     3
100
AcDbCircle
 10
125.1597733799999
 20
222.9757000975
 30
0.0
 40
0.5
100
AcDbArc
 50
0.0
 51
90.0
  0
LINE
  5
260
330
2
100
AcDbEntity
  8
0
 62
     3
100
AcDbLine
 10
125.6597733799999
 20
222.9757000975
 30
0.0
 11
125.6597733799999
 21
221.9757000975
 31
0.0
  0
LINE
  5
261
330
2
100
AcDbEntity
  8
0
 62
     3
100
AcDbLine
 10
125.6597733799999
 20
221.9757000975
 30
0.0
 11
126.6597733799999
 21
221.9757000975
 31
0.0
  0
LINE
  5
262
330
2
100
AcDbEntity
  8
0
 62
     3
100
AcDbLine
 10
127.1597733799999
 20
223.4757000975
 30
0.0
 11
128.1597733799999
 21
223.4757000975
 31
0.0
  0
ARC
  5
263
330
2
100
AcDbEntity
  8
0
 62
     3
100
AcDbCircle
 10
127.1597733799999
 20
224.9757000975
 30
0.0
 40
0.5
100
AcDbArc
 50
180.0
 51
270.0
  0
LINE
  5
264
330
2
100
AcDbEntity
  8
0
 62
     3
100
AcDbLine
 10
126.6597733799999
 20
224.9757000975
 30
0.0
 11
126.6597733799999
 21
225.9757000975
 31
0.0
  0
ARC
  5
265
330
2
100
AcDbEntity
  8
0
 62
     3
100
AcDbCircle
 10
125.1597733799999
 20
224.9757000975
 30
0.0
 40
0.5
100
AcDbArc
 50
270.0
 51
0.0
  0
LINE
  5
266
330
2
100
AcDbEntity
  8
0
 62
     3
100
AcDbLine
 10
125.6597733799999
 20
225.9757000975
 30
0.0
 11
125.6597733799999
 21
224.9757000975
 31
0.0
  0
LINE
  5
267
330
2
100
AcDbEntity
  8
0
 62
     3
100
AcDbLine
 10
126.6597733799999
 20
225.9757000975
 30
0.0
 11
125.6597733799999
 21
225.9757000975
 31
0.0
  0
LINE
  5
268
330
2
100
AcDbEntity
  8
0
 62
     3
100
AcDbLine
 10
128.1597733799999
 20
224.4757000974999
 30
0.0
 11
127.1597733799999
 21
224.4757000974999
 31
0.0
  0
LINE
  5
269
330
2
100
AcDbEntity
  8
0
 62
     3
100
AcDbLine
 10
143.65977338
 20
188.9757000975
 30
0.0
 11
143.65977338
 21
187.9757000975
 31
0.0
  0
ARC
  5
26A
330
2
100
AcDbEntity
  8
0
 62
     3
100
AcDbCircle
 10
171.8624049588999
 20
195.9757000975
 30
0.0
 40
5.6973684211
100
AcDbArc
 50
329.3446014711
 51
30.65539852889999
  0
LINE
  5
26B
330
2
100
AcDbEntity
  8
0
 62
     3
100
AcDbLine
 10
175.1597733799999
 20
253.9757000974999
 30
0.0
 11
175.1597733799999
 21
225.9757000975
 31
0.0
  0
LINE
  5
26C
330
2
100
AcDbEntity
  8
0
 62
     3
100
AcDbLine
 10
175.6597733799999
 20
254.4757000975
 30
0.0
 11
175.6597733799999
 21
201.9757000975
 31
0.0
  0
LINE
  5
26D
330
2
100
AcDbEntity
  8
0
 62
     3
100
AcDbLine
 10
161.6597733799999
 20
188.9757000975
 30
0.0
 11
161.6597733799999
 21
187.9757000975
 31
0.0
  0
LINE
  5
26E
330
2
100
AcDbEntity
  8
0
 62
     3
100
AcDbLine
 10
175.1597733799999
 20
221.9757000975
 30
0.0
 11
175.1597733799999
 21
200.9757000975
 31
0.0
  0
LINE
  5
26F
330
2
100
AcDbEntity
  8
0
 62
     3
100
AcDbLine
 10
168.1597733799998
 20
190.4757000975
 30
0.0
 11
171.1597733799998
 21
190.4757000975
 31
0.0
  0
LINE
  5
270
330
2
100
AcDbEntity
  8
0
 62
     3
100
AcDbLine
 10
166.1597733799998
 20
190.6757000974999
 30
0.0
 11
169.1597733799999
 21
190.6757000974999
 31
0.0
  0
LINE
  5
271
330
2
100
AcDbEntity
  8
0
 62
     3
100
AcDbLine
 10
166.1597733799998
 20
188.9757000975
 30
0.0
 11
166.6657114885
 21
189.6757000975
 31
0.0
  0
LINE
  5
272
330
2
100
AcDbEntity
  8
0
 62
     3
100
AcDbLine
 10
164.9097733799998
 20
188.9757000975
 30
0.0
 11
166.1597733799998
 21
190.6757000974999
 31
0.0
  0
ARC
  5
273
330
2
100
AcDbEntity
  8
0
 62
     3
100
AcDbCircle
 10
167.1602735800999
 20
189.9440749473999
 30
0.0
 40
1.0
100
AcDbArc
 50
284.4479149006998
 51
1.812289807599958
  0
LINE
  5
274
330
2
100
AcDbEntity
  8
0
 62
     3
100
AcDbLine
 10
166.6657114885
 20
189.6757000975
 30
0.0
 11
168.1235881392999
 21
189.6757000975
 31
0.0
  0
LINE
  5
275
330
2
100
AcDbEntity
  8
0
 62
     3
100
AcDbLine
 10
168.1597733799998
 20
190.4757000975
 30
0.0
 11
168.1597733799998
 21
189.9757000975
 31
0.0
  0
LINE
  5
276
330
2
100
AcDbEntity
  8
0
 62
     3
100
AcDbLine
 10
169.1597733799999
 20
190.6757000974999
 30
0.0
 11
169.3068322034999
 21
190.4757000975
 31
0.0
  0
LINE
  5
277
330
2
100
AcDbEntity
  8
0
 62
     3
100
AcDbLine
 10
175.1597733799999
 20
200.4757000975
 30
0.0
 11
175.1597733799999
 21
191.4757000975
 31
0.0
  0
LINE
  5
278
330
2
100
AcDbEntity
  8
0
 62
     3
100
AcDbLine
 10
172.65977338
 20
197.4757000975
 30
0.0
 11
172.65977338
 21
194.4757000975
 31
0.0
  0
LINE
  5
279
330
2
100
AcDbEntity
  8
0
 62
     3
100
AcDbLine
 10
174.1597733799999
 20
200.9757000975
 30
0.0
 11
174.1597733799999
 21
188.9757000975
 31
0.0
  0
LINE
  5
27A
330
2
100
AcDbEntity
  8
0
  6
PHANTOM
 62
     3
100
AcDbLine
 10
175.6597733799999
 20
188.9757000975
 30
0.0
 11
175.6597733799999
 21
201.9757000975
 31
0.0
  0
ARC
  5
27B
330
2
100
AcDbEntity
  8
0
 62
     3
100
AcDbCircle
 10
173.1913985300999
 20
193.4762002975999
 30
0.0
 40
1.0
100
AcDbArc
 50
14.4479149008
 51
91.81228980749999
  0
LINE
  5
27C
330
2
100
AcDbEntity
  8
0
 62
     3
100
AcDbLine
 10
173.65977338
 20
194.3597301499999
 30
0.0
 11
173.65977338
 21
189.4757000975
 31
0.0
  0
ARC
  5
27D
330
2
100
AcDbEntity
  8
0
 62
     3
100
AcDbCircle
 10
172.1592731797999
 20
189.9440749473999
 30
0.0
 40
1.0
100
AcDbArc
 50
178.1877101922999
 51
255.5520850993999
  0
LINE
  5
27E
330
2
100
AcDbEntity
  8
0
 62
     3
100
AcDbLine
 10
173.65977338
 20
189.4757000975
 30
0.0
 11
171.2757433273999
 21
189.4757000975
 31
0.0
  0
LINE
  5
27F
330
2
100
AcDbEntity
  8
0
 62
     3
100
AcDbLine
 10
171.1597733799998
 20
190.4757000975
 30
0.0
 11
171.1597733799998
 21
189.9757000975
 31
0.0
  0
LINE
  5
280
330
2
100
AcDbEntity
  8
0
 62
     3
100
AcDbLine
 10
172.65977338
 20
194.4757000975
 30
0.0
 11
173.1597733799999
 21
194.4757000975
 31
0.0
  0
LINE
  5
281
330
2
100
AcDbEntity
  8
0
 62
     3
100
AcDbLine
 10
175.6597733799999
 20
188.9757000975
 30
0.0
 11
175.6597733799999
 21
187.9757000975
 31
0.0
  0
LINE
  5
282
330
2
100
AcDbEntity
  8
0
 62
     3
100
AcDbLine
 10
175.1597733799999
 20
191.4757000975
 30
0.0
 11
174.1597733799999
 21
191.4757000975
 31
0.0
  0
LINE
  5
283
330
2
100
AcDbEntity
  8
0
 62
     3
100
AcDbLine
 10
175.6597733799999
 20
192.8257000975
 30
0.0
 11
176.3334382291999
 21
192.8257000975
 31
0.0
  0
ARC
  5
284
330
2
100
AcDbEntity
  8
0
 62
     3
100
AcDbCircle
 10
176.3334382291999
 20
193.3257000975
 30
0.0
 40
0.5
100
AcDbArc
 50
270.0
 51
329.3446014711
  0
ARC
  5
285
330
2
100
AcDbEntity
  8
0
 62
     3
100
AcDbCircle
 10
173.1913985300999
 20
198.4751998972999
 30
0.0
 40
1.0
100
AcDbArc
 50
268.1877101925
 51
345.5520850991001
  0
LINE
  5
286
330
2
100
AcDbEntity
  8
0
 62
     3
100
AcDbLine
 10
175.1597733799999
 20
200.9757000975
 30
0.0
 11
173.65977338
 21
200.9757000975
 31
0.0
  0
LINE
  5
287
330
2
100
AcDbEntity
  8
0
 62
     3
100
AcDbLine
 10
173.65977338
 20
200.9757000975
 30
0.0
 11
173.65977338
 21
197.591670045
 31
0.0
  0
LINE
  5
288
330
2
100
AcDbEntity
  8
0
 62
     3
100
AcDbLine
 10
172.65977338
 20
197.4757000975
 30
0.0
 11
173.1597733799999
 21
197.4757000975
 31
0.0
  0
LINE
  5
289
330
2
100
AcDbEntity
  8
0
 62
     3
100
AcDbLine
 10
174.1597733799999
 20
200.4757000975
 30
0.0
 11
175.1597733799999
 21
200.4757000975
 31
0.0
  0
LINE
  5
28A
330
2
100
AcDbEntity
  8
0
 62
     3
100
AcDbLine
 10
175.6597733799999
 20
199.1257000974999
 30
0.0
 11
176.3334382291999
 21
199.1257000974999
 31
0.0
  0
ARC
  5
28B
330
2
100
AcDbEntity
  8
0
 62
     3
100
AcDbCircle
 10
176.3334382291999
 20
198.6257000974998
 30
0.0
 40
0.5
100
AcDbArc
 50
30.65539852889999
 51
90.0
  0
LINE
  5
28C
330
2
100
AcDbEntity
  8
0
 62
     3
100
AcDbLine
 10
175.6597733799999
 20
201.9757000975
 30
0.0
 11
175.1597733799999
 21
201.9757000975
 31
0.0
  0
LINE
  5
28D
330
2
100
AcDbEntity
  8
0
 62
     3
100
AcDbLine
 10
172.1597733799999
 20
225.9757000975
 30
0.0
 11
175.1597733799999
 21
225.9757000975
 31
0.0
  0
LINE
  5
28E
330
2
100
AcDbEntity
  8
0
 62
     3
100
AcDbLine
 10
172.1597733799999
 20
221.9757000975
 30
0.0
 11
175.1597733799999
 21
221.9757000975
 31
0.0
  0
LINE
  5
28F
330
2
100
AcDbEntity
  8
0
  6
CENTER
 62
     3
100
AcDbLine
 10
173.8097733799999
 20
223.9757000975
 30
0.0
 11
170.5097733799999
 21
223.9757000975
 31
0.0
  0
CIRCLE
  5
290
330
2
100
AcDbEntity
  8
0
 62
     3
100
AcDbCircle
 10
172.1597733799999
 20
223.9757000975
 30
0.0
 40
1.199999999999999
  0
CIRCLE
  5
291
330
2
100
AcDbEntity
  8
0
  6
PHANTOM
 62
     3
100
AcDbCircle
 10
172.1597733799999
 20
223.9757000975
 30
0.0
 40
1.5
  0
ARC
  5
292
330
2
100
AcDbEntity
  8
0
 62
     3
100
AcDbCircle
 10
172.1597733799999
 20
223.9757000975
 30
0.0
 40
2.0
100
AcDbArc
 50
90.0
 51
270.0
  0
LINE
  5
293
330
2
100
AcDbEntity
  8
0
  6
CENTER
 62
     3
100
AcDbLine
 10
172.1597733799999
 20
225.6257000974999
 30
0.0
 11
172.1597733799999
 21
222.3257000974999
 31
0.0
  0
LINE
  5
294
330
2
100
AcDbEntity
  8
0
 62
     3
100
AcDbLine
 10
175.1597733799999
 20
255.4757000975
 30
0.0
 11
167.1597733799998
 21
255.4757000975
 31
0.0
  0
LINE
  5
295
330
2
100
AcDbEntity
  8
0
 62
     3
100
AcDbLine
 10
175.6597733799999
 20
254.4757000975
 30
0.0
 11
167.6597733799999
 21
254.4757000975
 31
0.0
  0
LINE
  5
296
330
2
100
AcDbEntity
  8
0
 62
     3
100
AcDbLine
 10
165.1597733799999
 20
256.9757000975
 30
0.0
 11
175.6597733799999
 21
256.9757000975
 31
0.0
  0
LINE
  5
297
330
2
100
AcDbEntity
  8
0
 62
     3
100
AcDbLine
 10
165.1597733799999
 20
256.9757000975
 30
0.0
 11
165.1597733799999
 21
256.4757000975
 31
0.0
  0
LINE
  5
298
330
2
100
AcDbEntity
  8
0
 62
     3
100
AcDbLine
 10
167.1597733799998
 20
254.4757000975
 30
0.0
 11
167.1597733799998
 21
255.4757000975
 31
0.0
  0
LINE
  5
299
330
2
100
AcDbEntity
  8
0
 62
     3
100
AcDbLine
 10
167.1597733799998
 20
254.4757000975
 30
0.0
 11
167.7232997296998
 21
254.4757000975
 31
0.0
  0
LINE
  5
29A
330
2
100
AcDbEntity
  8
0
 62
     3
100
AcDbLine
 10
172.1597733799999
 20
253.9757000974999
 30
0.0
 11
175.1597733799999
 21
253.9757000974999
 31
0.0
  0
LINE
  5
29B
330
2
100
AcDbEntity
  8
0
 62
     3
100
AcDbLine
 10
172.1597733799999
 20
254.4757000975
 30
0.0
 11
172.1597733799999
 21
253.9757000974999
 31
0.0
  0
LINE
  5
29C
330
2
100
AcDbEntity
  8
0
 62
     3
100
AcDbLine
 10
172.1597733799999
 20
256.4757000975
 30
0.0
 11
172.1597733799999
 21
255.4757000975
 31
0.0
  0
LINE
  5
29D
330
2
100
AcDbEntity
  8
0
 62
     3
100
AcDbLine
 10
175.1597733799999
 20
255.4757000975
 30
0.0
 11
175.1597733799999
 21
254.4757000975
 31
0.0
  0
LINE
  5
29E
330
2
100
AcDbEntity
  8
0
 62
     3
100
AcDbLine
 10
175.6597733799999
 20
254.4757000975
 30
0.0
 11
175.6597733799999
 21
256.9757000975
 31
0.0
  0
TEXT
  5
2BC
330
2
100
AcDbEntity
  8
0
 62
     7
100
AcDbText
 10
146.0000000000001
 20
40.00000295525
 30
0.0
 40
2.999994089499998
  1
PS3N-B24A2N
 11
146.0000000000001
 21
41.5
 31
0.0
100
AcDbText
 73
     2
  0
TEXT
  5
2BD
330
2
100
AcDbEntity
  8
0
 62
     7
100
AcDbText
 10
146.0000000000001
 20
45.00000295525
 30
0.0
 40
2.999994089499998
  1
PS3N-B24A2CN
 11
146.0000000000001
 21
46.5
 31
0.0
100
AcDbText
 73
     2
  0
TEXT
  5
2BE
330
2
100
AcDbEntity
  8
0
 62
     7
100
AcDbText
 10
146.0000000000001
 20
50.00000295525
 30
0.0
 40
2.999994089499998
  1
PS3N-B24A1N
 11
146.0000000000001
 21
51.5
 31
0.0
100
AcDbText
 73
     2
  0
TEXT
  5
2BF
330
2
100
AcDbEntity
  8
0
 62
     7
100
AcDbText
 10
146.0000000000001
 20
55.00000295525
 30
0.0
 40
2.999994089499998
  1
PS3N-B24A1CN
 11
146.0000000000001
 21
56.5
 31
0.0
100
AcDbText
 73
     2
  0
TEXT
  5
2C0
330
2
100
AcDbEntity
  8
0
 62
     7
100
AcDbText
 10
146.0000000000001
 20
60.00000295525
 30
0.0
 40
2.999994089499998
  1
PS3N-B12A2N
 11
146.0000000000001
 21
61.5
 31
0.0
100
AcDbText
 73
     2
  0
TEXT
  5
2C1
330
2
100
AcDbEntity
  8
0
 62
     7
100
AcDbText
 10
146.0000000000001
 20
80.00000295525
 30
0.0
 40
2.999994089499998
  1
PS3N-B05A2N
 11
146.0000000000001
 21
81.5
 31
0.0
100
AcDbText
 73
     2
  0
TEXT
  5
2C2
330
2
100
AcDbEntity
  8
0
 62
     7
100
AcDbText
 10
146.0000000000001
 20
65.00000295525
 30
0.0
 40
2.999994089499998
  1
PS3N-B12A2CN
 11
146.0000000000001
 21
66.5
 31
0.0
100
AcDbText
 73
     2
  0
TEXT
  5
2C3
330
2
100
AcDbEntity
  8
0
 62
     7
100
AcDbText
 10
146.0000000000001
 20
85.00000295525
 30
0.0
 40
2.999994089499998
  1
PS3N-B05A2CN
 11
146.0000000000001
 21
86.5
 31
0.0
100
AcDbText
 73
     2
  0
TEXT
  5
2C4
330
2
100
AcDbEntity
  8
0
 62
     7
100
AcDbText
 10
146.0000000000001
 20
70.00000295525
 30
0.0
 40
2.999994089499998
  1
PS3N-B12A1N
 11
146.0000000000001
 21
71.5
 31
0.0
100
AcDbText
 73
     2
  0
TEXT
  5
2C5
330
2
100
AcDbEntity
  8
0
 62
     7
100
AcDbText
 10
146.0000000000001
 20
75.00000295525
 30
0.0
 40
2.999994089499998
  1
PS3N-B12A1CN
 11
146.0000000000001
 21
76.5
 31
0.0
100
AcDbText
 73
     2
  0
TEXT
  5
2C6
330
2
100
AcDbEntity
  8
0
 62
     7
100
AcDbText
 10
146.0000000000001
 20
90.00000295525
 30
0.0
 40
2.999994089499998
  1
PS3N-B05A1N
 11
146.0000000000001
 21
91.5
 31
0.0
100
AcDbText
 73
     2
  0
TEXT
  5
2C7
330
2
100
AcDbEntity
  8
0
 62
     7
100
AcDbText
 10
146.0000000000001
 20
95.00000295525
 30
0.0
 40
2.999994089499998
  1
PS3N-B05A1CN
 11
146.0000000000001
 21
96.5
 31
0.0
100
AcDbText
 73
     2
  0
ENDSEC
  0
SECTION
  2
OBJECTS
  0
DICTIONARY
  5
7
330
0
100
AcDbDictionary
281
     1
  3
ACAD_GROUP
350
1F
  3
ACAD_LAYOUT
350
B
  3
ACAD_MLINESTYLE
350
20
  3
ACAD_PLOTSETTINGS
350
21
  3
ACAD_PLOTSTYLENAME
350
6
  3
AcDbVariableDictionary
350
2C8
  0
DICTIONARY
  5
1F
102
{ACAD_REACTORS
330
7
102
}
330
7
100
AcDbDictionary
281
     1
  0
DICTIONARY
  5
B
102
{ACAD_REACTORS
330
7
102
}
330
7
100
AcDbDictionary
281
     1
  3
Model
350
A
  3
ﾚｲｱｳﾄ1
350
F
  0
DICTIONARY
  5
20
102
{ACAD_REACTORS
330
7
102
}
330
7
100
AcDbDictionary
281
     1
  3
Standard
350
22
  0
DICTIONARY
  5
21
102
{ACAD_REACTORS
330
7
102
}
330
7
100
AcDbDictionary
281
     1
  0
ACDBDICTIONARYWDFLT
  5
6
102
{ACAD_REACTORS
330
7
102
}
330
7
100
AcDbDictionary
281
     1
  3
Normal
350
5
100
AcDbDictionaryWithDefault
340
5
  0
DICTIONARY
  5
2C8
102
{ACAD_REACTORS
330
7
102
}
330
7
100
AcDbDictionary
281
     1
  3
DIMASSOC
350
2C9
  0
LAYOUT
  5
A
102
{ACAD_REACTORS
330
B
102
}
330
B
100
AcDbPlotSettings
  1

  2
C:\Program Files\AutoCAD 2000i\plotters\DWF Classic.pc3
  4

  6

 40
0.0
 41
0.0
 42
0.0
 43
0.0
 44
0.0
 45
0.0
 46
0.0
 47
0.0
 48
0.0
 49
0.0
140
0.0
141
0.0
142
1.0
143
1.0
 70
  1712
 72
     0
 73
     0
 74
     0
  7

 75
     0
147
1.0
148
0.0
149
0.0
100
AcDbLayout
  1
Model
 70
     1
 71
     0
 10
0.0
 20
0.0
 11
12.0
 21
9.0
 12
0.0
 22
0.0
 32
0.0
 14
0.0
 24
0.0
 34
0.0
 15
0.0
 25
0.0
 35
0.0
146
0.0
 13
0.0
 23
0.0
 33
0.0
 16
1.0
 26
0.0
 36
0.0
 17
0.0
 27
1.0
 37
0.0
 76
     0
330
2
  0
LAYOUT
  5
F
102
{ACAD_REACTORS
330
B
102
}
330
B
100
AcDbPlotSettings
  1

  2
C:\Program Files\AutoCAD 2000i\plotters\DWF Classic.pc3
  4

  6

 40
0.0
 41
0.0
 42
0.0
 43
0.0
 44
0.0
 45
0.0
 46
0.0
 47
0.0
 48
0.0
 49
0.0
140
0.0
141
0.0
142
1.0
143
1.0
 70
   688
 72
     0
 73
     0
 74
     5
  7

 75
    16
147
1.0
148
0.0
149
0.0
100
AcDbLayout
  1
ﾚｲｱｳﾄ1
 70
     1
 71
     1
 10
0.0
 20
0.0
 11
12.0
 21
9.0
 12
0.0
 22
0.0
 32
0.0
 14
1.000000000000000E+20
 24
1.000000000000000E+20
 34
1.000000000000000E+20
 15
-1.000000000000000E+20
 25
-1.000000000000000E+20
 35
-1.000000000000000E+20
146
0.0
 13
0.0
 23
0.0
 33
0.0
 16
1.0
 26
0.0
 36
0.0
 17
0.0
 27
1.0
 37
0.0
 76
     0
330
C
  0
MLINESTYLE
  5
22
102
{ACAD_REACTORS
330
20
102
}
330
20
100
AcDbMlineStyle
  2
STANDARD
 70
     0
  3

 62
   256
 51
90.0
 52
90.0
 71
     2
 49
0.5
 62
   256
  6
BYLAYER
 49
-0.5
 62
   256
  6
BYLAYER
  0
ACDBPLACEHOLDER
  5
5
102
{ACAD_REACTORS
330
6
102
}
330
6
  0
DICTIONARYVAR
  5
2C9
102
{ACAD_REACTORS
330
2C8
102
}
330
2C8
100
DictionaryVariables
280
     0
  1
1
  0
ENDSEC
  0
EOF
