  0
SECTION
  2
HEADER
  9
$ACADVER
  1
AC1015
  9
$ACADMAINTVER
 70
    13
  9
$DWGCODEPAGE
  3
ANSI_932
  9
$INSBASE
 10
0.0
 20
0.0
 30
0.0
  9
$EXTMIN
 10
-0.0273432673700427
 20
-0.0007282446921408
 30
-0.0000000349181948
  9
$EXTMAX
 10
210.0250476752914
 20
297.0203488244743
 30
0.0000000814935747
  9
$LIMMIN
 10
-189.175
 20
-3.174999999999998
  9
$LIMMAX
 10
3.174999999999998
 20
291.2585876465
  9
$ORTHOMODE
 70
     0
  9
$REGENMODE
 70
     1
  9
$FILLMODE
 70
     1
  9
$QTEXTMODE
 70
     0
  9
$MIRRTEXT
 70
     0
  9
$LTSCALE
 40
1.0
  9
$ATTMODE
 70
     1
  9
$TEXTSIZE
 40
2.999994039499997
  9
$TRACEWID
 40
0.05
  9
$TEXTSTYLE
  7
STANDARD
  9
$CLAYER
  8
0
  9
$CELTYPE
  6
ByLayer
  9
$CECOLOR
 62
   256
  9
$CELTSCALE
 40
1.0
  9
$DISPSILH
 70
     0
  9
$DIMSCALE
 40
1.0
  9
$DIMASZ
 40
1.9727878465
  9
$DIMEXO
 40
2.539999961899999
  9
$DIMDLI
 40
0.38
  9
$DIMRND
 40
0.0
  9
$DIMDLE
 40
0.0
  9
$DIMEXE
 40
3.809999942799997
  9
$DIMTP
 40
0.0
  9
$DIMTM
 40
0.0
  9
$DIMTXT
 40
2.999994039499997
  9
$DIMCEN
 40
0.09
  9
$DIMTSZ
 40
0.0
  9
$DIMTOL
 70
     0
  9
$DIMLIM
 70
     0
  9
$DIMTIH
 70
     0
  9
$DIMTOH
 70
     1
  9
$DIMSE1
 70
     0
  9
$DIMSE2
 70
     0
  9
$DIMTAD
 70
     0
  9
$DIMZIN
 70
     0
  9
$DIMBLK
  1

  9
$DIMASO
 70
     1
  9
$DIMSHO
 70
     0
  9
$DIMPOST
  1

  9
$DIMAPOST
  1

  9
$DIMALT
 70
     0
  9
$DIMALTD
 70
     2
  9
$DIMALTF
 40
25.4
  9
$DIMLFAC
 40
1.0
  9
$DIMTOFL
 70
     0
  9
$DIMTVP
 40
0.0
  9
$DIMTIX
 70
     0
  9
$DIMSOXD
 70
     0
  9
$DIMSAH
 70
     0
  9
$DIMBLK1
  1

  9
$DIMBLK2
  1

  9
$DIMSTYLE
  2
Standard
  9
$DIMCLRD
 70
     0
  9
$DIMCLRE
 70
     0
  9
$DIMCLRT
 70
     0
  9
$DIMTFAC
 40
1.0
  9
$DIMGAP
 40
0.09
  9
$DIMJUST
 70
     0
  9
$DIMSD1
 70
     0
  9
$DIMSD2
 70
     0
  9
$DIMTOLJ
 70
     1
  9
$DIMTZIN
 70
     0
  9
$DIMALTZ
 70
     0
  9
$DIMALTTZ
 70
     0
  9
$DIMUPT
 70
     0
  9
$DIMDEC
 70
     4
  9
$DIMTDEC
 70
     4
  9
$DIMALTU
 70
     2
  9
$DIMALTTD
 70
     2
  9
$DIMTXSTY
  7
STANDARD
  9
$DIMAUNIT
 70
     0
  9
$DIMADEC
 70
     0
  9
$DIMALTRND
 40
0.0
  9
$DIMAZIN
 70
     0
  9
$DIMDSEP
 70
    46
  9
$DIMATFIT
 70
     3
  9
$DIMFRAC
 70
     0
  9
$DIMLDRBLK
  1

  9
$DIMLUNIT
 70
     2
  9
$DIMLWD
 70
    -2
  9
$DIMLWE
 70
    -2
  9
$DIMTMOVE
 70
     0
  9
$LUNITS
 70
     2
  9
$LUPREC
 70
     3
  9
$SKETCHINC
 40
0.1
  9
$FILLETRAD
 40
0.0625
  9
$AUNITS
 70
     0
  9
$AUPREC
 70
     0
  9
$MENU
  1
ACAD
  9
$ELEVATION
 40
0.0
  9
$PELEVATION
 40
0.0
  9
$THICKNESS
 40
0.0
  9
$LIMCHECK
 70
     0
  9
$CHAMFERA
 40
0.0
  9
$CHAMFERB
 40
0.0
  9
$CHAMFERC
 40
0.0
  9
$CHAMFERD
 40
0.0
  9
$SKPOLY
 70
     0
  9
$TDCREATE
 40
2452383.613159722
  9
$TDUCREATE
 40
2452383.238159722
  9
$TDUPDATE
 40
2453376.729026504
  9
$TDUUPDATE
 40
2453376.354026505
  9
$TDINDWG
 40
0.0043142477
  9
$TDUSRTIMER
 40
0.0043138773
  9
$USRTIMER
 70
     1
  9
$ANGBASE
 50
0.0
  9
$ANGDIR
 70
     0
  9
$PDMODE
 70
     0
  9
$PDSIZE
 40
0.0
  9
$PLINEWID
 40
0.0
  9
$SPLFRAME
 70
     0
  9
$SPLINETYPE
 70
     6
  9
$SPLINESEGS
 70
     8
  9
$HANDSEED
  5
29B
  9
$SURFTAB1
 70
     6
  9
$SURFTAB2
 70
     6
  9
$SURFTYPE
 70
     6
  9
$SURFU
 70
     6
  9
$SURFV
 70
     6
  9
$UCSBASE
  2

  9
$UCSNAME
  2

  9
$UCSORG
 10
0.0
 20
0.0
 30
0.0
  9
$UCSXDIR
 10
1.0
 20
0.0
 30
0.0
  9
$UCSYDIR
 10
0.0
 20
1.0
 30
0.0
  9
$UCSORTHOREF
  2

  9
$UCSORTHOVIEW
 70
     0
  9
$UCSORGTOP
 10
0.0
 20
0.0
 30
0.0
  9
$UCSORGBOTTOM
 10
0.0
 20
0.0
 30
0.0
  9
$UCSORGLEFT
 10
0.0
 20
0.0
 30
0.0
  9
$UCSORGRIGHT
 10
0.0
 20
0.0
 30
0.0
  9
$UCSORGFRONT
 10
0.0
 20
0.0
 30
0.0
  9
$UCSORGBACK
 10
0.0
 20
0.0
 30
0.0
  9
$PUCSBASE
  2

  9
$PUCSNAME
  2

  9
$PUCSORG
 10
0.0
 20
0.0
 30
0.0
  9
$PUCSXDIR
 10
1.0
 20
0.0
 30
0.0
  9
$PUCSYDIR
 10
0.0
 20
1.0
 30
0.0
  9
$PUCSORTHOREF
  2

  9
$PUCSORTHOVIEW
 70
     0
  9
$PUCSORGTOP
 10
0.0
 20
0.0
 30
0.0
  9
$PUCSORGBOTTOM
 10
0.0
 20
0.0
 30
0.0
  9
$PUCSORGLEFT
 10
0.0
 20
0.0
 30
0.0
  9
$PUCSORGRIGHT
 10
0.0
 20
0.0
 30
0.0
  9
$PUCSORGFRONT
 10
0.0
 20
0.0
 30
0.0
  9
$PUCSORGBACK
 10
0.0
 20
0.0
 30
0.0
  9
$USERI1
 70
     8
  9
$USERI2
 70
     0
  9
$USERI3
 70
     0
  9
$USERI4
 70
     0
  9
$USERI5
 70
     0
  9
$USERR1
 40
0.0
  9
$USERR2
 40
0.0
  9
$USERR3
 40
0.0
  9
$USERR4
 40
0.0
  9
$USERR5
 40
0.0
  9
$WORLDVIEW
 70
     1
  9
$SHADEDGE
 70
     3
  9
$SHADEDIF
 70
    70
  9
$TILEMODE
 70
     1
  9
$MAXACTVP
 70
    64
  9
$PINSBASE
 10
0.0
 20
0.0
 30
0.0
  9
$PLIMCHECK
 70
     0
  9
$PEXTMIN
 10
1.000000000000000E+20
 20
1.000000000000000E+20
 30
1.000000000000000E+20
  9
$PEXTMAX
 10
-1.000000000000000E+20
 20
-1.000000000000000E+20
 30
-1.000000000000000E+20
  9
$PLIMMIN
 10
0.0
 20
0.0
  9
$PLIMMAX
 10
12.0
 20
9.0
  9
$UNITMODE
 70
     0
  9
$VISRETAIN
 70
     1
  9
$PLINEGEN
 70
     0
  9
$PSLTSCALE
 70
     1
  9
$TREEDEPTH
 70
  3020
  9
$CMLSTYLE
  2
Standard
  9
$CMLJUST
 70
     0
  9
$CMLSCALE
 40
1.0
  9
$PROXYGRAPHICS
 70
     1
  9
$MEASUREMENT
 70
     0
  9
$CELWEIGHT
370
    -1
  9
$ENDCAPS
280
     0
  9
$JOINSTYLE
280
     0
  9
$LWDISPLAY
290
     0
  9
$INSUNITS
 70
     0
  9
$HYPERLINKBASE
  1

  9
$STYLESHEET
  1

  9
$XEDIT
290
     1
  9
$CEPSNTYPE
380
     0
  9
$PSTYLEMODE
290
     1
  9
$FINGERPRINTGUID
  2
{7534CB1E-8A85-456A-87AC-31D08484E3CA}
  9
$VERSIONGUID
  2
{63133F45-FEF3-4AAF-8479-7F7CEE62D86B}
  9
$EXTNAMES
290
     1
  9
$PSVPSCALE
 40
0.0
  9
$OLESTARTUP
290
     0
  0
ENDSEC
  0
SECTION
  2
CLASSES
  0
CLASS
  1
ACDBDICTIONARYWDFLT
  2
AcDbDictionaryWithDefault
  3
AutoCAD 2000
 90
        0
280
     0
281
     0
  0
CLASS
  1
ACDBPLACEHOLDER
  2
AcDbPlaceHolder
  3
AutoCAD 2000
 90
        0
280
     0
281
     0
  0
CLASS
  1
LAYOUT
  2
AcDbLayout
  3
AutoCAD 2000
 90
        0
280
     0
281
     0
  0
CLASS
  1
DICTIONARYVAR
  2
AcDbDictionaryVar
  3
AutoCAD 2000
 90
        0
280
     0
281
     0
  0
ENDSEC
  0
SECTION
  2
TABLES
  0
TABLE
  2
VPORT
  5
19
330
0
100
AcDbSymbolTable
 70
     2
  0
VPORT
  5
29A
330
19
100
AcDbSymbolTableRecord
100
AcDbViewportTableRecord
  2
*Active
 70
     0
 10
0.0
 20
0.0
 11
1.0
 21
1.0
 12
104.9988522039607
 22
148.5098102898911
 13
0.0
 23
0.0
 14
1.0
 24
1.0
 15
0.0
 25
0.0
 16
0.0
 26
0.0
 36
1.0
 17
0.0
 27
0.0
 37
0.0
 40
301.8506880784213
 41
2.567934782608695
 42
50.0
 43
0.0
 44
0.0
 50
0.0
 51
0.0
 71
     0
 72
   100
 73
     1
 74
     1
 75
     0
 76
     0
 77
     0
 78
     0
281
     0
 65
     1
110
0.0
120
0.0
130
0.0
111
1.0
121
0.0
131
0.0
112
0.0
122
1.0
132
0.0
 79
     0
146
0.0
  0
ENDTAB
  0
TABLE
  2
LTYPE
  5
14
330
0
100
AcDbSymbolTable
 70
     3
  0
LTYPE
  5
15
330
14
100
AcDbSymbolTableRecord
100
AcDbLinetypeTableRecord
  2
ByBlock
 70
     0
  3

 72
    65
 73
     0
 40
0.0
  0
LTYPE
  5
16
330
14
100
AcDbSymbolTableRecord
100
AcDbLinetypeTableRecord
  2
ByLayer
 70
     0
  3

 72
    65
 73
     0
 40
0.0
  0
LTYPE
  5
8
330
14
100
AcDbSymbolTableRecord
100
AcDbLinetypeTableRecord
  2
Continuous
 70
     0
  3
Solid line
 72
    65
 73
     0
 40
0.0
  0
LTYPE
  5
40
330
14
100
AcDbSymbolTableRecord
100
AcDbLinetypeTableRecord
  2
CENTER
 70
     0
  3
Center
 72
    65
 73
     4
 40
9.100006759199999
 49
6.5000119209
 74
     0
 49
-0.7999984026000001
 74
     0
 49
0.9999980329999999
 74
     0
 49
-0.7999984026000001
 74
     0
  0
LTYPE
  5
27
330
14
100
AcDbSymbolTableRecord
100
AcDbLinetypeTableRecord
  2
PHANTOM
 70
     0
  3
Phantom
 72
    65
 73
     6
 40
9.499981462999999
 49
4.799990654
 74
     0
 49
-0.8999982475999999
 74
     0
 49
0.9999980329999999
 74
     0
 49
-0.8999982475999999
 74
     0
 49
0.9999980329999999
 74
     0
 49
-0.8999982475999999
 74
     0
  0
ENDTAB
  0
TABLE
  2
LAYER
  5
10
330
0
100
AcDbSymbolTable
 70
     1
  0
LAYER
  5
4
330
10
100
AcDbSymbolTableRecord
100
AcDbLayerTableRecord
  2
0
 70
     0
 62
     7
  6
Continuous
370
    -3
390
5
  0
ENDTAB
  0
TABLE
  2
STYLE
  5
11
330
0
100
AcDbSymbolTable
 70
     1
  0
STYLE
  5
12
330
11
100
AcDbSymbolTableRecord
100
AcDbTextStyleTableRecord
  2
STANDARD
 70
     0
 40
0.0
 41
1.0
 50
0.0
 71
     0
 42
2.999994039499997
  3
romans.shx
  4
bigfont.shx
  0
ENDTAB
  0
TABLE
  2
VIEW
  5
17
330
0
100
AcDbSymbolTable
 70
     0
  0
ENDTAB
  0
TABLE
  2
UCS
  5
18
330
0
100
AcDbSymbolTable
 70
     0
  0
ENDTAB
  0
TABLE
  2
APPID
  5
1B
330
0
100
AcDbSymbolTable
 70
     1
  0
APPID
  5
1C
330
1B
100
AcDbSymbolTableRecord
100
AcDbRegAppTableRecord
  2
ACAD
 70
     0
  0
ENDTAB
  0
TABLE
  2
DIMSTYLE
  5
1D
330
0
100
AcDbSymbolTable
 70
     1
100
AcDbDimStyleTable
 71
     0
  0
DIMSTYLE
105
23
330
1D
100
AcDbSymbolTableRecord
100
AcDbDimStyleTableRecord
  2
Standard
 70
     0
340
12
  0
ENDTAB
  0
TABLE
  2
BLOCK_RECORD
  5
1
330
0
100
AcDbSymbolTable
 70
     1
  0
BLOCK_RECORD
  5
2
330
1
100
AcDbSymbolTableRecord
100
AcDbBlockTableRecord
  2
*Model_Space
340
A
  0
BLOCK_RECORD
  5
C
330
1
100
AcDbSymbolTableRecord
100
AcDbBlockTableRecord
  2
*Paper_Space
340
F
  0
ENDTAB
  0
ENDSEC
  0
SECTION
  2
BLOCKS
  0
BLOCK
  5
3
330
2
100
AcDbEntity
  8
0
100
AcDbBlockBegin
  2
*Model_Space
 70
     0
 10
0.0
 20
0.0
 30
0.0
  3
*Model_Space
  1

  0
ENDBLK
  5
9
330
2
100
AcDbEntity
  8
0
100
AcDbBlockEnd
  0
BLOCK
  5
D
330
C
100
AcDbEntity
 67
     1
  8
0
100
AcDbBlockBegin
  2
*Paper_Space
 70
     0
 10
0.0
 20
0.0
 30
0.0
  3
*Paper_Space
  1

  0
ENDBLK
  5
E
330
C
100
AcDbEntity
 67
     1
  8
0
100
AcDbBlockEnd
  0
ENDSEC
  0
SECTION
  2
ENTITIES
  0
LINE
  5
24
330
2
100
AcDbEntity
  8
0
100
AcDbLine
 10
210.0
 20
0.0
 30
0.0
 11
210.0
 21
297.0
 31
0.0
  0
LINE
  5
25
330
2
100
AcDbEntity
  8
0
100
AcDbLine
 10
0.0
 20
297.0
 30
0.0
 11
0.0
 21
0.0
 31
0.0
  0
LINE
  5
26
330
2
100
AcDbEntity
  8
0
  6
PHANTOM
 62
     3
100
AcDbLine
 10
121.3917784048999
 20
141.4583928225
 30
0.0
 11
176.8917784048998
 21
141.4583928225
 31
0.0
  0
TEXT
  5
28
330
2
100
AcDbEntity
  8
0
 62
     5
100
AcDbText
 10
145.0
 20
10.0
 30
0.0
 40
5.0
  1
ＭＡ４－Ｐ０００７０
 41
0.8509350363988424
 72
     5
 11
194.0705870989999
 21
10.0
 31
0.0
100
AcDbText
  0
LINE
  5
29
330
2
100
AcDbEntity
  8
0
 62
     3
100
AcDbLine
 10
108.8917784048999
 20
136.4583928225
 30
0.0
 11
176.8917784048998
 21
136.4583928225
 31
0.0
  0
LINE
  5
2A
330
2
100
AcDbEntity
  8
0
100
AcDbLine
 10
0.0
 20
0.0
 30
0.0
 11
210.0
 21
0.0
 31
0.0
  0
LINE
  5
2B
330
2
100
AcDbEntity
  8
0
 62
     3
100
AcDbLine
 10
176.8917784048998
 20
109.4583928225
 30
0.0
 11
108.8917784048999
 21
109.4583928225
 31
0.0
  0
LINE
  5
2C
330
2
100
AcDbEntity
  8
0
 62
     3
100
AcDbLine
 10
119.6417784048999
 20
113.0583928225
 30
0.0
 11
114.1417784048999
 21
113.0583928225
 31
0.0
  0
LINE
  5
2D
330
2
100
AcDbEntity
  8
0
 62
     3
100
AcDbLine
 10
114.1417784048999
 20
114.8583928224999
 30
0.0
 11
119.6417784048999
 21
114.8583928224999
 31
0.0
  0
LINE
  5
2E
330
2
100
AcDbEntity
  8
0
 62
     3
100
AcDbLine
 10
119.6417784048999
 20
116.6583928225
 30
0.0
 11
114.1417784048999
 21
116.6583928225
 31
0.0
  0
LINE
  5
2F
330
2
100
AcDbEntity
  8
0
 62
     3
100
AcDbLine
 10
120.8917784048999
 20
111.2583928225
 30
0.0
 11
112.8917784048999
 21
111.2583928225
 31
0.0
  0
LINE
  5
30
330
2
100
AcDbEntity
  8
0
 62
     3
100
AcDbLine
 10
112.8917784048999
 20
110.2583928225
 30
0.0
 11
120.8917784048999
 21
110.2583928225
 31
0.0
  0
ARC
  5
31
330
2
100
AcDbEntity
  8
0
 62
     3
100
AcDbCircle
 10
97.19177840489999
 20
127.6583928224999
 30
0.0
 40
2.0
100
AcDbArc
 50
90.0
 51
180.0
  0
LINE
  5
32
330
2
100
AcDbEntity
  8
0
 62
     3
100
AcDbLine
 10
108.8917784048999
 20
109.4583928225
 30
0.0
 11
108.8917784048999
 21
136.4583928225
 31
0.0
  0
LINE
  5
33
330
2
100
AcDbEntity
  8
0
 62
     3
100
AcDbLine
 10
97.19177840489999
 20
114.6583928225
 30
0.0
 11
108.8917784048999
 21
114.6583928225
 31
0.0
  0
ARC
  5
34
330
2
100
AcDbEntity
  8
0
 62
     3
100
AcDbCircle
 10
97.19177840489999
 20
116.6583928225
 30
0.0
 40
2.0
100
AcDbArc
 50
180.0
 51
270.0
  0
LINE
  5
35
330
2
100
AcDbEntity
  8
0
 62
     3
100
AcDbLine
 10
97.79177840490001
 20
118.1583928225
 30
0.0
 11
97.79177840490001
 21
126.1583928225
 31
0.0
  0
LINE
  5
36
330
2
100
AcDbEntity
  8
0
 62
     3
100
AcDbLine
 10
96.79177840489996
 20
126.1583928225
 30
0.0
 11
96.79177840489996
 21
118.1583928225
 31
0.0
  0
LINE
  5
37
330
2
100
AcDbEntity
  8
0
 62
     3
100
AcDbLine
 10
95.1917784049
 20
127.6583928224999
 30
0.0
 11
95.1917784049
 21
116.6583928225
 31
0.0
  0
LINE
  5
38
330
2
100
AcDbEntity
  8
0
 62
     3
100
AcDbLine
 10
96.79177840489996
 20
118.1583928225
 30
0.0
 11
97.79177840490001
 21
118.1583928225
 31
0.0
  0
LINE
  5
39
330
2
100
AcDbEntity
  8
0
 62
     3
100
AcDbLine
 10
97.79177840490001
 20
126.1583928225
 30
0.0
 11
96.79177840489996
 21
126.1583928225
 31
0.0
  0
LINE
  5
3A
330
2
100
AcDbEntity
  8
0
 62
     3
100
AcDbLine
 10
115.3917784048999
 20
116.6583928225
 30
0.0
 11
115.3917784048999
 21
114.8583928224999
 31
0.0
  0
LINE
  5
3B
330
2
100
AcDbEntity
  8
0
 62
     3
100
AcDbLine
 10
114.1417784048999
 20
116.6583928225
 30
0.0
 11
114.1417784048999
 21
114.8583928224999
 31
0.0
  0
LINE
  5
3C
330
2
100
AcDbEntity
  8
0
 62
     3
100
AcDbLine
 10
112.8917784048999
 20
109.4583928225
 30
0.0
 11
112.8917784048999
 21
111.2583928225
 31
0.0
  0
LINE
  5
3D
330
2
100
AcDbEntity
  8
0
 62
     3
100
AcDbLine
 10
115.3917784048999
 20
113.0583928225
 30
0.0
 11
115.3917784048999
 21
111.2583928225
 31
0.0
  0
LINE
  5
3E
330
2
100
AcDbEntity
  8
0
 62
     3
100
AcDbLine
 10
114.1417784048999
 20
113.0583928225
 30
0.0
 11
114.1417784048999
 21
111.2583928225
 31
0.0
  0
LINE
  5
3F
330
2
100
AcDbEntity
  8
0
  6
CENTER
 62
     3
100
AcDbLine
 10
117.3667784048998
 20
123.4583928224999
 30
0.0
 11
112.4167784048997
 21
123.4583928224999
 31
0.0
  0
CIRCLE
  5
41
330
2
100
AcDbEntity
  8
0
 62
     3
100
AcDbCircle
 10
114.8917784048999
 20
123.4583928224999
 30
0.0
 40
2.25
  0
CIRCLE
  5
42
330
2
100
AcDbEntity
  8
0
  6
PHANTOM
 62
     3
100
AcDbCircle
 10
114.8917784048999
 20
123.4583928224999
 30
0.0
 40
1.5
  0
CIRCLE
  5
43
330
2
100
AcDbEntity
  8
0
 62
     3
100
AcDbCircle
 10
114.8917784048999
 20
123.4583928224999
 30
0.0
 40
1.199999999999999
  0
LINE
  5
44
330
2
100
AcDbEntity
  8
0
  6
CENTER
 62
     3
100
AcDbLine
 10
114.8917784048999
 20
125.9333928225
 30
0.0
 11
114.8917784048999
 21
120.9833928224999
 31
0.0
  0
LINE
  5
45
330
2
100
AcDbEntity
  8
0
 62
     3
100
AcDbLine
 10
108.8917784048999
 20
129.6583928225
 30
0.0
 11
97.19177840489999
 21
129.6583928225
 31
0.0
  0
LINE
  5
46
330
2
100
AcDbEntity
  8
0
  6
CENTER
 62
     3
100
AcDbLine
 10
115.3167784048999
 20
132.9583928225
 30
0.0
 11
111.4667784048998
 21
132.9583928225
 31
0.0
  0
CIRCLE
  5
47
330
2
100
AcDbEntity
  8
0
 62
     3
100
AcDbCircle
 10
113.3917784048999
 20
132.9583928225
 30
0.0
 40
1.75
  0
LINE
  5
48
330
2
100
AcDbEntity
  8
0
  6
CENTER
 62
     3
100
AcDbLine
 10
113.3917784048999
 20
134.8833928225
 30
0.0
 11
113.3917784048999
 21
131.0333928224999
 31
0.0
  0
LINE
  5
49
330
2
100
AcDbEntity
  8
0
 62
     3
100
AcDbLine
 10
119.6417784048999
 20
114.8583928224999
 30
0.0
 11
119.6417784048999
 21
116.6583928225
 31
0.0
  0
LINE
  5
4A
330
2
100
AcDbEntity
  8
0
 62
     3
100
AcDbLine
 10
118.3917784048999
 20
116.6583928225
 30
0.0
 11
118.3917784048999
 21
114.8583928224999
 31
0.0
  0
LINE
  5
4B
330
2
100
AcDbEntity
  8
0
 62
     3
100
AcDbLine
 10
120.8917784048999
 20
109.4583928225
 30
0.0
 11
120.8917784048999
 21
111.2583928225
 31
0.0
  0
LINE
  5
4C
330
2
100
AcDbEntity
  8
0
 62
     3
100
AcDbLine
 10
118.3917784048999
 20
113.0583928225
 30
0.0
 11
118.3917784048999
 21
111.2583928225
 31
0.0
  0
LINE
  5
4D
330
2
100
AcDbEntity
  8
0
 62
     3
100
AcDbLine
 10
119.6417784048999
 20
111.2583928225
 30
0.0
 11
119.6417784048999
 21
113.0583928225
 31
0.0
  0
CIRCLE
  5
4E
330
2
100
AcDbEntity
  8
0
 62
     3
100
AcDbCircle
 10
140.8917784048998
 20
123.4583928224999
 30
0.0
 40
1.199999999999999
  0
LINE
  5
4F
330
2
100
AcDbEntity
  8
0
  6
CENTER
 62
     3
100
AcDbLine
 10
143.3667784048997
 20
123.4583928224999
 30
0.0
 11
138.4167784048997
 21
123.4583928224999
 31
0.0
  0
CIRCLE
  5
50
330
2
100
AcDbEntity
  8
0
 62
     3
100
AcDbCircle
 10
140.8917784048998
 20
123.4583928224999
 30
0.0
 40
2.25
  0
CIRCLE
  5
51
330
2
100
AcDbEntity
  8
0
  6
PHANTOM
 62
     3
100
AcDbCircle
 10
140.8917784048998
 20
123.4583928224999
 30
0.0
 40
1.5
  0
LINE
  5
52
330
2
100
AcDbEntity
  8
0
  6
CENTER
 62
     3
100
AcDbLine
 10
140.8917784048998
 20
125.9333928225
 30
0.0
 11
140.8917784048998
 21
120.9833928224999
 31
0.0
  0
LINE
  5
53
330
2
100
AcDbEntity
  8
0
  6
PHANTOM
 62
     3
100
AcDbLine
 10
121.3917784048999
 20
141.4583928225
 30
0.0
 11
121.3917784048999
 21
136.4583928225
 31
0.0
  0
LINE
  5
54
330
2
100
AcDbEntity
  8
0
  6
PHANTOM
 62
     3
100
AcDbLine
 10
118.9879322510998
 20
136.4583928225
 30
0.0
 11
121.3917784048999
 21
141.4583928225
 31
0.0
  0
LINE
  5
55
330
2
100
AcDbEntity
  8
0
 62
     3
100
AcDbLine
 10
176.8917784048998
 20
136.4583928225
 30
0.0
 11
176.8917784048998
 21
126.2083928225
 31
0.0
  0
LINE
  5
56
330
2
100
AcDbEntity
  8
0
 62
     3
100
AcDbLine
 10
170.8917784048999
 20
111.2583928225
 30
0.0
 11
162.8917784048999
 21
111.2583928225
 31
0.0
  0
LINE
  5
57
330
2
100
AcDbEntity
  8
0
 62
     3
100
AcDbLine
 10
162.8917784048999
 20
110.2583928225
 30
0.0
 11
170.8917784048999
 21
110.2583928225
 31
0.0
  0
LINE
  5
58
330
2
100
AcDbEntity
  8
0
 62
     3
100
AcDbLine
 10
169.6417784048998
 20
114.8583928224999
 30
0.0
 11
169.6417784048998
 21
116.6583928225
 31
0.0
  0
LINE
  5
59
330
2
100
AcDbEntity
  8
0
 62
     3
100
AcDbLine
 10
168.3917784048998
 20
116.6583928225
 30
0.0
 11
168.3917784048998
 21
114.8583928224999
 31
0.0
  0
LINE
  5
5A
330
2
100
AcDbEntity
  8
0
 62
     3
100
AcDbLine
 10
164.1417784048998
 20
116.6583928225
 30
0.0
 11
164.1417784048998
 21
114.8583928224999
 31
0.0
  0
LINE
  5
5B
330
2
100
AcDbEntity
  8
0
 62
     3
100
AcDbLine
 10
165.3917784048998
 20
116.6583928225
 30
0.0
 11
165.3917784048998
 21
114.8583928224999
 31
0.0
  0
LINE
  5
5C
330
2
100
AcDbEntity
  8
0
 62
     3
100
AcDbLine
 10
169.6417784048998
 20
113.0583928225
 30
0.0
 11
164.1417784048998
 21
113.0583928225
 31
0.0
  0
LINE
  5
5D
330
2
100
AcDbEntity
  8
0
 62
     3
100
AcDbLine
 10
164.1417784048998
 20
114.8583928224999
 30
0.0
 11
169.6417784048998
 21
114.8583928224999
 31
0.0
  0
LINE
  5
5E
330
2
100
AcDbEntity
  8
0
 62
     3
100
AcDbLine
 10
162.8917784048999
 20
109.4583928225
 30
0.0
 11
162.8917784048999
 21
111.2583928225
 31
0.0
  0
LINE
  5
5F
330
2
100
AcDbEntity
  8
0
 62
     3
100
AcDbLine
 10
164.1417784048998
 20
113.0583928225
 30
0.0
 11
164.1417784048998
 21
111.2583928225
 31
0.0
  0
LINE
  5
60
330
2
100
AcDbEntity
  8
0
 62
     3
100
AcDbLine
 10
165.3917784048998
 20
113.0583928225
 30
0.0
 11
165.3917784048998
 21
111.2583928225
 31
0.0
  0
LINE
  5
61
330
2
100
AcDbEntity
  8
0
 62
     3
100
AcDbLine
 10
169.6417784048998
 20
111.2583928225
 30
0.0
 11
169.6417784048998
 21
113.0583928225
 31
0.0
  0
LINE
  5
62
330
2
100
AcDbEntity
  8
0
 62
     3
100
AcDbLine
 10
168.3917784048998
 20
113.0583928225
 30
0.0
 11
168.3917784048998
 21
111.2583928225
 31
0.0
  0
LINE
  5
63
330
2
100
AcDbEntity
  8
0
 62
     3
100
AcDbLine
 10
169.6417784048998
 20
116.6583928225
 30
0.0
 11
164.1417784048998
 21
116.6583928225
 31
0.0
  0
LINE
  5
64
330
2
100
AcDbEntity
  8
0
 62
     3
100
AcDbLine
 10
176.8917784048998
 20
120.7083928225
 30
0.0
 11
176.8917784048998
 21
109.4583928225
 31
0.0
  0
LINE
  5
65
330
2
100
AcDbEntity
  8
0
 62
     3
100
AcDbLine
 10
170.8917784048999
 20
109.4583928225
 30
0.0
 11
170.8917784048999
 21
111.2583928225
 31
0.0
  0
LINE
  5
66
330
2
100
AcDbEntity
  8
0
 62
     3
100
AcDbLine
 10
173.3917784048998
 20
125.2083928225
 30
0.0
 11
175.8917784048998
 21
125.2083928225
 31
0.0
  0
LINE
  5
67
330
2
100
AcDbEntity
  8
0
  6
CENTER
 62
     3
100
AcDbLine
 10
170.4838828953999
 20
123.4583928224999
 30
0.0
 11
175.8917784048998
 21
123.4583928224999
 31
0.0
  0
LINE
  5
68
330
2
100
AcDbEntity
  8
0
 62
     3
100
AcDbLine
 10
173.3917784048998
 20
121.7083928225
 30
0.0
 11
175.8917784048998
 21
121.7083928225
 31
0.0
  0
ARC
  5
69
330
2
100
AcDbEntity
  8
0
 62
     3
100
AcDbCircle
 10
173.3917784048998
 20
123.4583928224999
 30
0.0
 40
1.75
100
AcDbArc
 50
90.0
 51
270.0
  0
LINE
  5
6A
330
2
100
AcDbEntity
  8
0
  6
CENTER
 62
     3
100
AcDbLine
 10
173.3917784048998
 20
126.5601963858
 30
0.0
 11
173.3917784048998
 21
119.9690914926
 31
0.0
  0
ARC
  5
6B
330
2
100
AcDbEntity
  8
0
 62
     3
100
AcDbCircle
 10
175.8917784048998
 20
120.7083928225
 30
0.0
 40
1.0
100
AcDbArc
 50
0.0
 51
90.0
  0
ARC
  5
6C
330
2
100
AcDbEntity
  8
0
 62
     3
100
AcDbCircle
 10
175.8917784048998
 20
126.2083928225
 30
0.0
 40
1.0
100
AcDbArc
 50
270.0
 51
0.0
  0
LINE
  5
6D
330
2
100
AcDbEntity
  8
0
  6
PHANTOM
 62
     3
100
AcDbLine
 10
176.8917784048998
 20
141.4583928225
 30
0.0
 11
176.8917784048998
 21
136.4583928225
 31
0.0
  0
LINE
  5
6E
330
2
100
AcDbEntity
  8
0
 62
     3
100
AcDbLine
 10
142.7512781343999
 20
178.4583928224999
 30
0.0
 11
164.2667784048998
 21
178.4583928224999
 31
0.0
  0
LINE
  5
6F
330
2
100
AcDbEntity
  8
0
 62
     3
100
AcDbLine
 10
108.8917784048999
 20
247.4583928224999
 30
0.0
 11
176.8917784048998
 21
247.4583928224999
 31
0.0
  0
LINE
  5
70
330
2
100
AcDbEntity
  8
0
 62
     3
100
AcDbLine
 10
108.8917784048999
 20
178.2583928225
 30
0.0
 11
176.8917784048998
 21
178.2583928225
 31
0.0
  0
LINE
  5
71
330
2
100
AcDbEntity
  8
0
100
AcDbLine
 10
210.0
 20
297.0
 30
0.0
 11
0.0
 21
297.0
 31
0.0
  0
LINE
  5
75
330
2
100
AcDbEntity
  8
0
 62
     3
100
AcDbLine
 10
176.8917784048998
 20
177.4583928224999
 30
0.0
 11
108.8917784048999
 21
177.4583928224999
 31
0.0
  0
LINE
  5
76
330
2
100
AcDbEntity
  8
0
 62
     3
100
AcDbLine
 10
108.8917784048999
 20
246.9583928225
 30
0.0
 11
173.3917784048998
 21
246.9583928225
 31
0.0
  0
LINE
  5
7B
330
2
100
AcDbEntity
  8
0
 62
     3
100
AcDbLine
 10
34.99880686439999
 20
177.4583928224999
 30
0.0
 11
61.19880686439998
 21
177.4583928224999
 31
0.0
  0
LINE
  5
7C
330
2
100
AcDbEntity
  8
0
 62
     3
100
AcDbLine
 10
53.09880686439999
 20
178.7583928225
 30
0.0
 11
66.19880686439995
 21
178.7583928225
 31
0.0
  0
LINE
  5
7D
330
2
100
AcDbEntity
  8
0
 62
     3
100
AcDbLine
 10
66.19880686439995
 20
234.2083928224999
 30
0.0
 11
55.19880686439996
 21
234.2083928224999
 31
0.0
  0
LINE
  5
7E
330
2
100
AcDbEntity
  8
0
 62
     3
100
AcDbLine
 10
50.19880686439996
 20
236.2083928224999
 30
0.0
 11
66.19880686439995
 21
236.2083928224999
 31
0.0
  0
LINE
  5
7F
330
2
100
AcDbEntity
  8
0
  6
PHANTOM
 62
     3
100
AcDbLine
 10
37.7988068644
 20
247.4583928224999
 30
0.0
 11
66.19880686439995
 21
247.4583928224999
 31
0.0
  0
LINE
  5
80
330
2
100
AcDbEntity
  8
0
 62
     3
100
AcDbLine
 10
34.99880686439999
 20
178.2583928225
 30
0.0
 11
61.19880686439998
 21
178.2583928225
 31
0.0
  0
LINE
  5
81
330
2
100
AcDbEntity
  8
0
 62
     3
100
AcDbLine
 10
47.49880686439996
 20
220.4583928224999
 30
0.0
 11
47.49880686439996
 21
219.1583928224999
 31
0.0
  0
LINE
  5
82
330
2
100
AcDbEntity
  8
0
 62
     3
100
AcDbLine
 10
46.29880686439998
 20
219.1583928224999
 30
0.0
 11
46.29880686439998
 21
220.4583928224999
 31
0.0
  0
CIRCLE
  5
83
330
2
100
AcDbEntity
  8
0
 62
     3
100
AcDbCircle
 10
46.89880686439994
 20
217.9583928225
 30
0.0
 40
3.5
  0
LINE
  5
84
330
2
100
AcDbEntity
  8
0
 62
     3
100
AcDbLine
 10
42.39880686439997
 20
221.9583928225
 30
0.0
 11
42.39880686439997
 21
213.9583928224999
 31
0.0
  0
LINE
  5
85
330
2
100
AcDbEntity
  8
0
 62
     3
100
AcDbLine
 10
51.39880686439997
 20
213.9583928224999
 30
0.0
 11
51.39880686439997
 21
221.9583928225
 31
0.0
  0
LINE
  5
86
330
2
100
AcDbEntity
  8
0
 62
     3
100
AcDbLine
 10
41.39880686439997
 20
221.9583928225
 30
0.0
 11
41.39880686439997
 21
213.9583928224999
 31
0.0
  0
LINE
  5
87
330
2
100
AcDbEntity
  8
0
 62
     3
100
AcDbLine
 10
52.39880686439994
 20
221.9583928225
 30
0.0
 11
52.39880686439994
 21
213.9583928224999
 31
0.0
  0
LINE
  5
88
330
2
100
AcDbEntity
  8
0
 62
     3
100
AcDbLine
 10
54.39880686439995
 20
183.4583928225
 30
0.0
 11
54.39880686439995
 21
233.4583928225
 31
0.0
  0
LINE
  5
89
330
2
100
AcDbEntity
  8
0
  6
CENTER
 62
     3
100
AcDbLine
 10
46.89880686439994
 20
232.5867995029
 30
0.0
 11
46.89880686439994
 21
184.1075279569
 31
0.0
  0
LINE
  5
8A
330
2
100
AcDbEntity
  8
0
 62
     3
100
AcDbLine
 10
37.7988068644
 20
247.4583928224999
 30
0.0
 11
37.7988068644
 21
180.2583928225
 31
0.0
  0
LINE
  5
8B
330
2
100
AcDbEntity
  8
0
 62
     3
100
AcDbLine
 10
34.99880686439999
 20
239.4583928224999
 30
0.0
 11
34.99880686439999
 21
178.2583928225
 31
0.0
  0
LINE
  5
8C
330
2
100
AcDbEntity
  8
0
 62
     3
100
AcDbLine
 10
34.19880686439998
 20
178.2583928225
 30
0.0
 11
34.19880686439998
 21
247.4583928224999
 31
0.0
  0
LINE
  5
8D
330
2
100
AcDbEntity
  8
0
 62
     3
100
AcDbLine
 10
39.3988068644
 20
246.9583928225
 30
0.0
 11
39.3988068644
 21
178.2583928225
 31
0.0
  0
LINE
  5
8E
330
2
100
AcDbEntity
  8
0
 62
     3
100
AcDbLine
 10
54.39880686439995
 20
185.4583928225
 30
0.0
 11
39.3988068644
 21
185.4583928225
 31
0.0
  0
LINE
  5
8F
330
2
100
AcDbEntity
  8
0
 62
     3
100
AcDbLine
 10
54.39880686439995
 20
193.4583928225
 30
0.0
 11
39.3988068644
 21
193.4583928225
 31
0.0
  0
LINE
  5
90
330
2
100
AcDbEntity
  8
0
 62
     3
100
AcDbLine
 10
54.39880686439995
 20
194.9583928224999
 30
0.0
 11
39.3988068644
 21
194.9583928224999
 31
0.0
  0
LINE
  5
91
330
2
100
AcDbEntity
  8
0
 62
     3
100
AcDbLine
 10
54.39880686439995
 20
202.9583928225
 30
0.0
 11
39.3988068644
 21
202.9583928225
 31
0.0
  0
LINE
  5
92
330
2
100
AcDbEntity
  8
0
 62
     3
100
AcDbLine
 10
54.39880686439995
 20
204.4583928224999
 30
0.0
 11
39.3988068644
 21
204.4583928224999
 31
0.0
  0
LINE
  5
93
330
2
100
AcDbEntity
  8
0
 62
     3
100
AcDbLine
 10
54.39880686439995
 20
212.4583928224999
 30
0.0
 11
39.3988068644
 21
212.4583928224999
 31
0.0
  0
LINE
  5
94
330
2
100
AcDbEntity
  8
0
 62
     3
100
AcDbLine
 10
54.39880686439995
 20
213.9583928224999
 30
0.0
 11
39.3988068644
 21
213.9583928224999
 31
0.0
  0
LINE
  5
95
330
2
100
AcDbEntity
  8
0
 62
     3
100
AcDbLine
 10
39.3988068644
 20
183.4583928225
 30
0.0
 11
54.39880686439995
 21
183.4583928225
 31
0.0
  0
LINE
  5
96
330
2
100
AcDbEntity
  8
0
 62
     3
100
AcDbLine
 10
41.39880686439997
 20
202.9583928225
 30
0.0
 11
41.39880686439997
 21
194.9583928224999
 31
0.0
  0
ARC
  5
97
330
2
100
AcDbEntity
  8
0
 62
     3
100
AcDbCircle
 10
34.99880686439999
 20
178.2583928225
 30
0.0
 40
0.8
100
AcDbArc
 50
180.0
 51
270.0
  0
LINE
  5
98
330
2
100
AcDbEntity
  8
0
 62
     3
100
AcDbLine
 10
41.39880686439997
 20
193.4583928225
 30
0.0
 11
41.39880686439997
 21
185.4583928225
 31
0.0
  0
LINE
  5
99
330
2
100
AcDbEntity
  8
0
 62
     3
100
AcDbLine
 10
35.99880686439997
 20
178.2583928225
 30
0.0
 11
35.99880686439997
 21
180.2583928225
 31
0.0
  0
LINE
  5
9A
330
2
100
AcDbEntity
  8
0
 62
     3
100
AcDbLine
 10
37.7988068644
 20
180.2583928225
 30
0.0
 11
37.7988068644
 21
178.2583928225
 31
0.0
  0
LINE
  5
9B
330
2
100
AcDbEntity
  8
0
 62
     3
100
AcDbLine
 10
35.99880686439997
 20
180.2583928225
 30
0.0
 11
37.7988068644
 21
180.2583928225
 31
0.0
  0
LINE
  5
9C
330
2
100
AcDbEntity
  8
0
 62
     3
100
AcDbLine
 10
39.59880686439999
 20
178.2583928225
 30
0.0
 11
39.59880686439999
 21
180.2583928225
 31
0.0
  0
LINE
  5
9D
330
2
100
AcDbEntity
  8
0
 62
     3
100
AcDbLine
 10
41.39880686439997
 20
180.2583928225
 30
0.0
 11
41.39880686439997
 21
178.2583928225
 31
0.0
  0
LINE
  5
9E
330
2
100
AcDbEntity
  8
0
 62
     3
100
AcDbLine
 10
39.59880686439999
 20
180.2583928225
 30
0.0
 11
41.39880686439997
 21
180.2583928225
 31
0.0
  0
LINE
  5
9F
330
2
100
AcDbEntity
  8
0
 62
     3
100
AcDbLine
 10
41.39880686439997
 20
212.4583928224999
 30
0.0
 11
41.39880686439997
 21
204.4583928224999
 31
0.0
  0
LINE
  5
A0
330
2
100
AcDbEntity
  8
0
 62
     3
100
AcDbLine
 10
36.49880686439999
 20
215.4583928225
 30
0.0
 11
36.49880686439999
 21
212.4583928224999
 31
0.0
  0
LINE
  5
A1
330
2
100
AcDbEntity
  8
0
 62
     3
100
AcDbLine
 10
36.49880686439999
 20
212.4583928224999
 30
0.0
 11
35.99880686439997
 21
212.4583928224999
 31
0.0
  0
ARC
  5
A2
330
2
100
AcDbEntity
  8
0
 62
     3
100
AcDbCircle
 10
35.99880513479996
 20
211.4167284617999
 30
0.0
 40
1.0416643606
100
AcDbArc
 50
89.99990486969998
 51
163.739890422
  0
LINE
  5
A3
330
2
100
AcDbEntity
  8
0
 62
     3
100
AcDbLine
 10
35.99880686439997
 20
215.4583928225
 30
0.0
 11
36.49880686439999
 21
215.4583928225
 31
0.0
  0
ARC
  5
A4
330
2
100
AcDbEntity
  8
0
 62
     3
100
AcDbCircle
 10
35.96718171419999
 20
216.4578926223
 30
0.0
 40
1.0
100
AcDbArc
 50
194.4479149007
 51
271.8122898075999
  0
LINE
  5
A5
330
2
100
AcDbEntity
  8
0
 62
     3
100
AcDbLine
 10
51.39880686439997
 20
194.9583928224999
 30
0.0
 11
51.39880686439997
 21
202.9583928225
 31
0.0
  0
LINE
  5
A6
330
2
100
AcDbEntity
  8
0
 62
     3
100
AcDbLine
 10
52.39880686439994
 20
202.9583928225
 30
0.0
 11
52.39880686439994
 21
194.9583928224999
 31
0.0
  0
LINE
  5
A7
330
2
100
AcDbEntity
  8
0
 62
     3
100
AcDbLine
 10
47.49880686439996
 20
197.7583928225
 30
0.0
 11
47.49880686439996
 21
196.4583928225
 31
0.0
  0
LINE
  5
A8
330
2
100
AcDbEntity
  8
0
 62
     3
100
AcDbLine
 10
46.29880686439998
 20
196.4583928225
 30
0.0
 11
46.29880686439998
 21
197.7583928225
 31
0.0
  0
CIRCLE
  5
A9
330
2
100
AcDbEntity
  8
0
 62
     3
100
AcDbCircle
 10
46.89880686439994
 20
198.9583928224999
 30
0.0
 40
3.5
  0
LINE
  5
AA
330
2
100
AcDbEntity
  8
0
 62
     3
100
AcDbLine
 10
42.39880686439997
 20
202.9583928225
 30
0.0
 11
42.39880686439997
 21
194.9583928224999
 31
0.0
  0
LINE
  5
AB
330
2
100
AcDbEntity
  8
0
 62
     3
100
AcDbLine
 10
50.88608108739999
 20
196.6201311454
 30
0.0
 11
49.46378031479998
 21
195.4133304897999
 31
0.0
  0
LINE
  5
AC
330
2
100
AcDbEntity
  8
0
 62
     3
100
AcDbLine
 10
50.85916382969998
 20
191.7527970504998
 30
0.0
 11
49.43686305699998
 21
193.1750978231
 31
0.0
  0
ARC
  5
AD
330
2
100
AcDbEntity
  8
0
 62
     3
100
AcDbCircle
 10
50.6983066642
 20
179.2267676723999
 30
0.0
 40
1.0
100
AcDbArc
 50
178.1877101924
 51
255.5520850993
  0
LINE
  5
AE
330
2
100
AcDbEntity
  8
0
 62
     3
100
AcDbLine
 10
50.98846389989995
 20
187.227294592
 30
0.0
 11
49.5661631273
 21
186.0204939363998
 31
0.0
  0
CIRCLE
  5
AF
330
2
100
AcDbEntity
  8
0
 62
     3
100
AcDbCircle
 10
46.89880686439994
 20
189.4583928225
 30
0.0
 40
3.5
  0
LINE
  5
B0
330
2
100
AcDbEntity
  8
0
  6
CENTER
 62
     3
100
AcDbLine
 10
50.74880686439996
 20
189.4583928225
 30
0.0
 11
43.04880686439995
 21
189.4583928225
 31
0.0
  0
LINE
  5
B1
330
2
100
AcDbEntity
  8
0
 62
     3
100
AcDbLine
 10
47.89880686439994
 20
186.1042908562
 30
0.0
 11
47.89880686439994
 21
185.4583928225
 31
0.0
  0
LINE
  5
B2
330
2
100
AcDbEntity
  8
0
 62
     3
100
AcDbLine
 10
45.89880686439994
 20
186.1042908562
 30
0.0
 11
45.89880686439994
 21
185.4583928225
 31
0.0
  0
LINE
  5
B3
330
2
100
AcDbEntity
  8
0
 62
     3
100
AcDbLine
 10
42.39880686439997
 20
193.4583928225
 30
0.0
 11
42.39880686439997
 21
185.4583928225
 31
0.0
  0
ARC
  5
B4
330
2
100
AcDbEntity
  8
0
 62
     3
100
AcDbCircle
 10
45.65714231829997
 20
179.258391232
 30
0.0
 40
1.041664546
100
AcDbArc
 50
286.2601172263
 51
0.0000874819999641
  0
LINE
  5
B5
330
2
100
AcDbEntity
  8
0
 62
     3
100
AcDbLine
 10
46.69880686439998
 20
179.7583928225
 30
0.0
 11
49.69880686439998
 21
179.7583928225
 31
0.0
  0
LINE
  5
B6
330
2
100
AcDbEntity
  8
0
 62
     3
100
AcDbLine
 10
46.69880686439998
 20
179.2583928225
 30
0.0
 11
46.69880686439998
 21
179.7583928225
 31
0.0
  0
LINE
  5
B7
330
2
100
AcDbEntity
  8
0
 62
     3
100
AcDbLine
 10
49.69880686439998
 20
179.2583928225
 30
0.0
 11
49.69880686439998
 21
179.7583928225
 31
0.0
  0
ARC
  5
B8
330
2
100
AcDbEntity
  8
0
 62
     3
100
AcDbCircle
 10
45.69880686439995
 20
190.6583928224998
 30
0.0
 40
0.6
100
AcDbArc
 50
270.0
 51
0.0
  0
ARC
  5
B9
330
2
100
AcDbEntity
  8
0
 62
     3
100
AcDbCircle
 10
45.69880686439995
 20
188.2583928225
 30
0.0
 40
0.6
100
AcDbArc
 50
0.0
 51
90.0
  0
LINE
  5
BA
330
2
100
AcDbEntity
  8
0
 62
     3
100
AcDbLine
 10
43.01495956829998
 20
187.593644791
 30
0.0
 11
44.24331023559995
 21
186.0204939363998
 31
0.0
  0
LINE
  5
BB
330
2
100
AcDbEntity
  8
0
 62
     3
100
AcDbLine
 10
43.54470489809995
 20
188.4583928225
 30
0.0
 11
42.39880686439997
 21
188.4583928225
 31
0.0
  0
LINE
  5
BC
330
2
100
AcDbEntity
  8
0
 62
     3
100
AcDbLine
 10
43.54470489809995
 20
190.4583928225
 30
0.0
 11
42.39880686439997
 21
190.4583928225
 31
0.0
  0
LINE
  5
BD
330
2
100
AcDbEntity
  8
0
 62
     3
100
AcDbLine
 10
44.39880686439994
 20
188.8583928225
 30
0.0
 11
44.39880686439994
 21
190.0583928225
 31
0.0
  0
LINE
  5
BE
330
2
100
AcDbEntity
  8
0
 62
     3
100
AcDbLine
 10
45.69880686439995
 20
188.8583928225
 30
0.0
 11
44.39880686439994
 21
188.8583928225
 31
0.0
  0
LINE
  5
BF
330
2
100
AcDbEntity
  8
0
 62
     3
100
AcDbLine
 10
44.39880686439994
 20
190.0583928225
 30
0.0
 11
45.69880686439995
 21
190.0583928225
 31
0.0
  0
LINE
  5
C0
330
2
100
AcDbEntity
  8
0
 62
     3
100
AcDbLine
 10
44.39416031759995
 20
193.0673477645999
 30
0.0
 11
43.05805959169998
 21
192.0544972144
 31
0.0
  0
LINE
  5
C1
330
2
100
AcDbEntity
  8
0
 62
     3
100
AcDbLine
 10
42.91257675579998
 20
196.9864813443999
 30
0.0
 11
44.14092742309998
 21
195.4133304897999
 31
0.0
  0
LINE
  5
C2
330
2
100
AcDbEntity
  8
0
 62
     3
100
AcDbLine
 10
45.89880686439994
 20
193.4583928225
 30
0.0
 11
45.89880686439994
 21
192.8124947887
 31
0.0
  0
LINE
  5
C3
330
2
100
AcDbEntity
  8
0
 62
     3
100
AcDbLine
 10
45.89880686439994
 20
195.6042908562
 30
0.0
 11
45.89880686439994
 21
194.9583928224999
 31
0.0
  0
LINE
  5
C4
330
2
100
AcDbEntity
  8
0
 62
     3
100
AcDbLine
 10
46.29880686439998
 20
190.6583928224998
 30
0.0
 11
46.29880686439998
 21
191.9583928224999
 31
0.0
  0
LINE
  5
C5
330
2
100
AcDbEntity
  8
0
 62
     3
100
AcDbLine
 10
47.49880686439996
 20
191.9583928224999
 30
0.0
 11
47.49880686439996
 21
190.6583928224998
 31
0.0
  0
ARC
  5
C6
330
2
100
AcDbEntity
  8
0
 62
     3
100
AcDbCircle
 10
48.09880686439999
 20
190.6583928224998
 30
0.0
 40
0.6
100
AcDbArc
 50
180.0
 51
270.0
  0
ARC
  5
C7
330
2
100
AcDbEntity
  8
0
 62
     3
100
AcDbCircle
 10
48.09880686439999
 20
188.2583928225
 30
0.0
 40
0.6
100
AcDbArc
 50
90.0
 51
180.0
  0
LINE
  5
C8
330
2
100
AcDbEntity
  8
0
 62
     3
100
AcDbLine
 10
47.49880686439996
 20
188.2583928225
 30
0.0
 11
47.49880686439996
 21
186.9583928224999
 31
0.0
  0
LINE
  5
C9
330
2
100
AcDbEntity
  8
0
 62
     3
100
AcDbLine
 10
46.29880686439998
 20
186.9583928224999
 30
0.0
 11
46.29880686439998
 21
188.2583928225
 31
0.0
  0
LINE
  5
CA
330
2
100
AcDbEntity
  8
0
 62
     3
100
AcDbLine
 10
47.49880686439996
 20
186.9583928224999
 30
0.0
 11
46.29880686439998
 21
186.9583928224999
 31
0.0
  0
LINE
  5
CB
330
2
100
AcDbEntity
  8
0
 62
     3
100
AcDbLine
 10
49.39880686439995
 20
190.0583928225
 30
0.0
 11
49.39880686439995
 21
188.8583928225
 31
0.0
  0
LINE
  5
CC
330
2
100
AcDbEntity
  8
0
 62
     3
100
AcDbLine
 10
48.09880686439999
 20
190.0583928225
 30
0.0
 11
49.39880686439995
 21
190.0583928225
 31
0.0
  0
LINE
  5
CD
330
2
100
AcDbEntity
  8
0
 62
     3
100
AcDbLine
 10
49.39880686439995
 20
188.8583928225
 30
0.0
 11
48.09880686439999
 21
188.8583928225
 31
0.0
  0
LINE
  5
CE
330
2
100
AcDbEntity
  8
0
 62
     3
100
AcDbLine
 10
47.49880686439996
 20
196.4583928225
 30
0.0
 11
46.29880686439998
 21
196.4583928225
 31
0.0
  0
LINE
  5
CF
330
2
100
AcDbEntity
  8
0
 62
     3
100
AcDbLine
 10
46.29880686439998
 20
191.9583928224999
 30
0.0
 11
47.49880686439996
 21
191.9583928224999
 31
0.0
  0
LINE
  5
D0
330
2
100
AcDbEntity
  8
0
 62
     3
100
AcDbLine
 10
47.89880686439994
 20
193.4583928225
 30
0.0
 11
47.89880686439994
 21
192.8124947887
 31
0.0
  0
LINE
  5
D1
330
2
100
AcDbEntity
  8
0
 62
     3
100
AcDbLine
 10
47.89880686439994
 20
195.6042908562
 30
0.0
 11
47.89880686439994
 21
194.9583928224999
 31
0.0
  0
LINE
  5
D2
330
2
100
AcDbEntity
  8
0
 62
     3
100
AcDbLine
 10
51.39880686439997
 20
185.4583928225
 30
0.0
 11
51.39880686439997
 21
193.4583928225
 31
0.0
  0
LINE
  5
D3
330
2
100
AcDbEntity
  8
0
 62
     3
100
AcDbLine
 10
52.39880686439994
 20
193.4583928225
 30
0.0
 11
52.39880686439994
 21
185.4583928225
 31
0.0
  0
LINE
  5
D4
330
2
100
AcDbEntity
  8
0
  6
PHANTOM
 62
     3
100
AcDbLine
 10
53.09880686439999
 20
178.2583928225
 30
0.0
 11
53.09880686439999
 21
178.7583928225
 31
0.0
  0
LINE
  5
D5
330
2
100
AcDbEntity
  8
0
 62
     3
100
AcDbLine
 10
54.19880686440001
 20
179.7583928225
 30
0.0
 11
54.19880686440001
 21
183.4583928225
 31
0.0
  0
ARC
  5
D6
330
2
100
AcDbEntity
  8
0
 62
     3
100
AcDbCircle
 10
55.19880686439996
 20
179.7583928225
 30
0.0
 40
1.0
100
AcDbArc
 50
180.0
 51
270.0
  0
LINE
  5
D7
330
2
100
AcDbEntity
  8
0
 62
     3
100
AcDbLine
 10
51.39880686439997
 20
188.4583928225
 30
0.0
 11
50.25290883059998
 21
188.4583928225
 31
0.0
  0
LINE
  5
D8
330
2
100
AcDbEntity
  8
0
 62
     3
100
AcDbLine
 10
51.39880686439997
 20
190.4583928225
 30
0.0
 11
50.25290883059998
 21
190.4583928225
 31
0.0
  0
LINE
  5
D9
330
2
100
AcDbEntity
  8
0
 62
     3
100
AcDbLine
 10
50.95417406949997
 20
215.6270080779997
 30
0.0
 11
49.53187329679997
 21
214.4202074224
 31
0.0
  0
LINE
  5
DA
330
2
100
AcDbEntity
  8
0
  6
CENTER
 62
     3
100
AcDbLine
 10
50.74880686439996
 20
217.9583928225
 30
0.0
 11
43.04880686439995
 21
217.9583928225
 31
0.0
  0
LINE
  5
DB
330
2
100
AcDbEntity
  8
0
 62
     3
100
AcDbLine
 10
50.74105596459998
 20
210.629865454
 30
0.0
 11
49.31875519189998
 21
212.0521662266999
 31
0.0
  0
LINE
  5
DC
330
2
100
AcDbEntity
  8
0
 62
     3
100
AcDbLine
 10
50.87035603479995
 20
206.1043629954999
 30
0.0
 11
49.44805526219997
 21
204.8975623399
 31
0.0
  0
CIRCLE
  5
DD
330
2
100
AcDbEntity
  8
0
 62
     3
100
AcDbCircle
 10
46.89880686439994
 20
208.4583928225
 30
0.0
 40
3.5
  0
LINE
  5
DE
330
2
100
AcDbEntity
  8
0
 62
     3
100
AcDbLine
 10
50.75678101719995
 20
201.1456336039
 30
0.0
 11
49.33448024449996
 21
202.5679343764998
 31
0.0
  0
LINE
  5
DF
330
2
100
AcDbEntity
  8
0
  6
CENTER
 62
     3
100
AcDbLine
 10
50.74880686439996
 20
208.4583928225
 30
0.0
 11
43.04880686439995
 21
208.4583928225
 31
0.0
  0
LINE
  5
E0
330
2
100
AcDbEntity
  8
0
  6
CENTER
 62
     3
100
AcDbLine
 10
50.74880686439996
 20
198.9583928224999
 30
0.0
 11
43.04880686439995
 21
198.9583928224999
 31
0.0
  0
LINE
  5
E1
330
2
100
AcDbEntity
  8
0
 62
     3
100
AcDbLine
 10
49.39880686439995
 20
209.0583928224999
 30
0.0
 11
49.39880686439995
 21
207.8583928225
 31
0.0
  0
LINE
  5
E2
330
2
100
AcDbEntity
  8
0
 62
     3
100
AcDbLine
 10
44.39880686439994
 20
207.8583928225
 30
0.0
 11
44.39880686439994
 21
209.0583928224999
 31
0.0
  0
LINE
  5
E3
330
2
100
AcDbEntity
  8
0
 62
     3
100
AcDbLine
 10
42.39880686439997
 20
212.4583928224999
 30
0.0
 11
42.39880686439997
 21
204.4583928224999
 31
0.0
  0
ARC
  5
E4
330
2
100
AcDbEntity
  8
0
 62
     3
100
AcDbCircle
 10
45.69880686439995
 20
207.2583928225
 30
0.0
 40
0.6
100
AcDbArc
 50
0.0
 51
90.0
  0
ARC
  5
E5
330
2
100
AcDbEntity
  8
0
 62
     3
100
AcDbCircle
 10
45.69880686439995
 20
200.1583928225
 30
0.0
 40
0.6
100
AcDbArc
 50
270.0
 51
0.0
  0
ARC
  5
E6
330
2
100
AcDbEntity
  8
0
 62
     3
100
AcDbCircle
 10
45.69880686439995
 20
197.7583928225
 30
0.0
 40
0.6
100
AcDbArc
 50
0.0
 51
90.0
  0
LINE
  5
E7
330
2
100
AcDbEntity
  8
0
 62
     3
100
AcDbLine
 10
45.89880686439994
 20
202.9583928225
 30
0.0
 11
45.89880686439994
 21
202.3124947886999
 31
0.0
  0
LINE
  5
E8
330
2
100
AcDbEntity
  8
0
 62
     3
100
AcDbLine
 10
44.29177750509999
 20
202.4601843179997
 30
0.0
 11
42.95567677919999
 21
201.4473337677999
 31
0.0
  0
LINE
  5
E9
330
2
100
AcDbEntity
  8
0
 62
     3
100
AcDbLine
 10
43.54470489809995
 20
197.9583928225
 30
0.0
 11
42.39880686439997
 21
197.9583928225
 31
0.0
  0
LINE
  5
EA
330
2
100
AcDbEntity
  8
0
 62
     3
100
AcDbLine
 10
43.54470489809995
 20
199.9583928225
 30
0.0
 11
42.39880686439997
 21
199.9583928225
 31
0.0
  0
LINE
  5
EB
330
2
100
AcDbEntity
  8
0
 62
     3
100
AcDbLine
 10
44.39880686439994
 20
198.3583928225
 30
0.0
 11
44.39880686439994
 21
199.5583928225
 31
0.0
  0
LINE
  5
EC
330
2
100
AcDbEntity
  8
0
 62
     3
100
AcDbLine
 10
45.69880686439995
 20
198.3583928225
 30
0.0
 11
44.39880686439994
 21
198.3583928225
 31
0.0
  0
LINE
  5
ED
330
2
100
AcDbEntity
  8
0
 62
     3
100
AcDbLine
 10
44.39880686439994
 20
199.5583928225
 30
0.0
 11
45.69880686439995
 21
199.5583928225
 31
0.0
  0
LINE
  5
EE
330
2
100
AcDbEntity
  8
0
 62
     3
100
AcDbLine
 10
42.89685170319995
 20
206.4707131945
 30
0.0
 11
44.12520237049998
 21
204.8975623399
 31
0.0
  0
LINE
  5
EF
330
2
100
AcDbEntity
  8
0
 62
     3
100
AcDbLine
 10
43.54470489809995
 20
207.4583928224999
 30
0.0
 11
42.39880686439997
 21
207.4583928224999
 31
0.0
  0
LINE
  5
F0
330
2
100
AcDbEntity
  8
0
 62
     3
100
AcDbLine
 10
45.89880686439994
 20
205.1042908561999
 30
0.0
 11
45.89880686439994
 21
204.4583928224999
 31
0.0
  0
LINE
  5
F1
330
2
100
AcDbEntity
  8
0
 62
     3
100
AcDbLine
 10
45.69880686439995
 20
207.8583928225
 30
0.0
 11
44.39880686439994
 21
207.8583928225
 31
0.0
  0
LINE
  5
F2
330
2
100
AcDbEntity
  8
0
 62
     3
100
AcDbLine
 10
47.89880686439994
 20
202.9583928225
 30
0.0
 11
47.89880686439994
 21
202.3124947886999
 31
0.0
  0
ARC
  5
F3
330
2
100
AcDbEntity
  8
0
 62
     3
100
AcDbCircle
 10
48.09880686439999
 20
200.1583928225
 30
0.0
 40
0.6
100
AcDbArc
 50
180.0
 51
270.0
  0
ARC
  5
F4
330
2
100
AcDbEntity
  8
0
 62
     3
100
AcDbCircle
 10
48.09880686439999
 20
197.7583928225
 30
0.0
 40
0.6
100
AcDbArc
 50
90.0
 51
180.0
  0
LINE
  5
F5
330
2
100
AcDbEntity
  8
0
 62
     3
100
AcDbLine
 10
47.49880686439996
 20
201.4583928224999
 30
0.0
 11
47.49880686439996
 21
200.1583928225
 31
0.0
  0
LINE
  5
F6
330
2
100
AcDbEntity
  8
0
 62
     3
100
AcDbLine
 10
46.29880686439998
 20
200.1583928225
 30
0.0
 11
46.29880686439998
 21
201.4583928224999
 31
0.0
  0
LINE
  5
F7
330
2
100
AcDbEntity
  8
0
 62
     3
100
AcDbLine
 10
46.29880686439998
 20
201.4583928224999
 30
0.0
 11
47.49880686439996
 21
201.4583928224999
 31
0.0
  0
LINE
  5
F8
330
2
100
AcDbEntity
  8
0
 62
     3
100
AcDbLine
 10
49.39880686439995
 20
199.5583928225
 30
0.0
 11
49.39880686439995
 21
198.3583928225
 31
0.0
  0
LINE
  5
F9
330
2
100
AcDbEntity
  8
0
 62
     3
100
AcDbLine
 10
48.09880686439999
 20
199.5583928225
 30
0.0
 11
49.39880686439995
 21
199.5583928225
 31
0.0
  0
LINE
  5
FA
330
2
100
AcDbEntity
  8
0
 62
     3
100
AcDbLine
 10
49.39880686439995
 20
198.3583928225
 30
0.0
 11
48.09880686439999
 21
198.3583928225
 31
0.0
  0
ARC
  5
FB
330
2
100
AcDbEntity
  8
0
 62
     3
100
AcDbCircle
 10
48.09880686439999
 20
207.2583928225
 30
0.0
 40
0.6
100
AcDbArc
 50
90.0
 51
180.0
  0
LINE
  5
FC
330
2
100
AcDbEntity
  8
0
 62
     3
100
AcDbLine
 10
47.49880686439996
 20
207.2583928225
 30
0.0
 11
47.49880686439996
 21
205.9583928224999
 31
0.0
  0
LINE
  5
FD
330
2
100
AcDbEntity
  8
0
 62
     3
100
AcDbLine
 10
46.29880686439998
 20
205.9583928224999
 30
0.0
 11
46.29880686439998
 21
207.2583928225
 31
0.0
  0
LINE
  5
FE
330
2
100
AcDbEntity
  8
0
 62
     3
100
AcDbLine
 10
47.49880686439996
 20
205.9583928224999
 30
0.0
 11
46.29880686439998
 21
205.9583928224999
 31
0.0
  0
LINE
  5
FF
330
2
100
AcDbEntity
  8
0
 62
     3
100
AcDbLine
 10
47.89880686439994
 20
205.1042908561999
 30
0.0
 11
47.89880686439994
 21
204.4583928224999
 31
0.0
  0
LINE
  5
100
330
2
100
AcDbEntity
  8
0
 62
     3
100
AcDbLine
 10
49.39880686439995
 20
207.8583928225
 30
0.0
 11
48.09880686439999
 21
207.8583928225
 31
0.0
  0
ARC
  5
101
330
2
100
AcDbEntity
  8
0
 62
     3
100
AcDbCircle
 10
45.69880686439995
 20
216.7583928225
 30
0.0
 40
0.6
100
AcDbArc
 50
0.0
 51
90.0
  0
ARC
  5
102
330
2
100
AcDbEntity
  8
0
 62
     3
100
AcDbCircle
 10
45.69880686439995
 20
219.1583928224999
 30
0.0
 40
0.6
100
AcDbArc
 50
270.0
 51
0.0
  0
ARC
  5
103
330
2
100
AcDbEntity
  8
0
 62
     3
100
AcDbCircle
 10
45.69880686439995
 20
209.6583928224999
 30
0.0
 40
0.6
100
AcDbArc
 50
270.0
 51
0.0
  0
LINE
  5
104
330
2
100
AcDbEntity
  8
0
 62
     3
100
AcDbLine
 10
45.89880686439994
 20
214.6042908561999
 30
0.0
 11
45.89880686439994
 21
213.9583928224999
 31
0.0
  0
LINE
  5
105
330
2
100
AcDbEntity
  8
0
 62
     3
100
AcDbLine
 10
44.27605245249998
 20
211.9444161681
 30
0.0
 11
42.93995172659998
 21
210.9315656179
 31
0.0
  0
LINE
  5
106
330
2
100
AcDbEntity
  8
0
 62
     3
100
AcDbLine
 10
43.54470489809995
 20
209.4583928225
 30
0.0
 11
42.39880686439997
 21
209.4583928225
 31
0.0
  0
LINE
  5
107
330
2
100
AcDbEntity
  8
0
 62
     3
100
AcDbLine
 10
45.89880686439994
 20
212.4583928224999
 30
0.0
 11
45.89880686439994
 21
211.8124947886999
 31
0.0
  0
LINE
  5
108
330
2
100
AcDbEntity
  8
0
 62
     3
100
AcDbLine
 10
44.39880686439994
 20
209.0583928224999
 30
0.0
 11
45.69880686439995
 21
209.0583928224999
 31
0.0
  0
LINE
  5
109
330
2
100
AcDbEntity
  8
0
 62
     3
100
AcDbLine
 10
42.98066973779998
 20
215.9933582769999
 30
0.0
 11
44.20902040509997
 21
214.4202074224
 31
0.0
  0
LINE
  5
10A
330
2
100
AcDbEntity
  8
0
 62
     3
100
AcDbLine
 10
43.54470489809995
 20
216.9583928224999
 30
0.0
 11
42.39880686439997
 21
216.9583928224999
 31
0.0
  0
LINE
  5
10B
330
2
100
AcDbEntity
  8
0
 62
     3
100
AcDbLine
 10
43.54470489809995
 20
218.9583928224999
 30
0.0
 11
42.39880686439997
 21
218.9583928224999
 31
0.0
  0
LINE
  5
10C
330
2
100
AcDbEntity
  8
0
 62
     3
100
AcDbLine
 10
44.39880686439994
 20
217.3583928225
 30
0.0
 11
44.39880686439994
 21
218.5583928224999
 31
0.0
  0
LINE
  5
10D
330
2
100
AcDbEntity
  8
0
 62
     3
100
AcDbLine
 10
44.39880686439994
 20
218.5583928224999
 30
0.0
 11
45.69880686439995
 21
218.5583928224999
 31
0.0
  0
LINE
  5
10E
330
2
100
AcDbEntity
  8
0
 62
     3
100
AcDbLine
 10
45.69880686439995
 20
217.3583928225
 30
0.0
 11
44.39880686439994
 21
217.3583928225
 31
0.0
  0
LINE
  5
10F
330
2
100
AcDbEntity
  8
0
 62
     3
100
AcDbLine
 10
47.89880686439994
 20
214.6042908561999
 30
0.0
 11
47.89880686439994
 21
213.9583928224999
 31
0.0
  0
ARC
  5
110
330
2
100
AcDbEntity
  8
0
 62
     3
100
AcDbCircle
 10
48.09880686439999
 20
209.6583928224999
 30
0.0
 40
0.6
100
AcDbArc
 50
180.0
 51
270.0
  0
LINE
  5
111
330
2
100
AcDbEntity
  8
0
 62
     3
100
AcDbLine
 10
47.49880686439996
 20
210.9583928225
 30
0.0
 11
47.49880686439996
 21
209.6583928224999
 31
0.0
  0
LINE
  5
112
330
2
100
AcDbEntity
  8
0
 62
     3
100
AcDbLine
 10
46.29880686439998
 20
209.6583928224999
 30
0.0
 11
46.29880686439998
 21
210.9583928225
 31
0.0
  0
LINE
  5
113
330
2
100
AcDbEntity
  8
0
 62
     3
100
AcDbLine
 10
46.29880686439998
 20
210.9583928225
 30
0.0
 11
47.49880686439996
 21
210.9583928225
 31
0.0
  0
LINE
  5
114
330
2
100
AcDbEntity
  8
0
 62
     3
100
AcDbLine
 10
47.89880686439994
 20
212.4583928224999
 30
0.0
 11
47.89880686439994
 21
211.8124947886999
 31
0.0
  0
LINE
  5
115
330
2
100
AcDbEntity
  8
0
 62
     3
100
AcDbLine
 10
48.09880686439999
 20
209.0583928224999
 30
0.0
 11
49.39880686439995
 21
209.0583928224999
 31
0.0
  0
ARC
  5
116
330
2
100
AcDbEntity
  8
0
 62
     3
100
AcDbCircle
 10
48.09880686439999
 20
219.1583928224999
 30
0.0
 40
0.6
100
AcDbArc
 50
180.0
 51
270.0
  0
ARC
  5
117
330
2
100
AcDbEntity
  8
0
 62
     3
100
AcDbCircle
 10
48.09880686439999
 20
216.7583928225
 30
0.0
 40
0.6
100
AcDbArc
 50
90.0
 51
180.0
  0
LINE
  5
118
330
2
100
AcDbEntity
  8
0
 62
     3
100
AcDbLine
 10
47.49880686439996
 20
216.7583928225
 30
0.0
 11
47.49880686439996
 21
215.4583928225
 31
0.0
  0
LINE
  5
119
330
2
100
AcDbEntity
  8
0
 62
     3
100
AcDbLine
 10
46.29880686439998
 20
215.4583928225
 30
0.0
 11
46.29880686439998
 21
216.7583928225
 31
0.0
  0
LINE
  5
11A
330
2
100
AcDbEntity
  8
0
 62
     3
100
AcDbLine
 10
47.49880686439996
 20
215.4583928225
 30
0.0
 11
46.29880686439998
 21
215.4583928225
 31
0.0
  0
LINE
  5
11B
330
2
100
AcDbEntity
  8
0
 62
     3
100
AcDbLine
 10
49.39880686439995
 20
218.5583928224999
 30
0.0
 11
49.39880686439995
 21
217.3583928225
 31
0.0
  0
LINE
  5
11C
330
2
100
AcDbEntity
  8
0
 62
     3
100
AcDbLine
 10
48.09880686439999
 20
218.5583928224999
 30
0.0
 11
49.39880686439995
 21
218.5583928224999
 31
0.0
  0
LINE
  5
11D
330
2
100
AcDbEntity
  8
0
 62
     3
100
AcDbLine
 10
49.39880686439995
 20
217.3583928225
 30
0.0
 11
48.09880686439999
 21
217.3583928225
 31
0.0
  0
LINE
  5
11E
330
2
100
AcDbEntity
  8
0
 62
     3
100
AcDbLine
 10
51.39880686439997
 20
204.4583928224999
 30
0.0
 11
51.39880686439997
 21
212.4583928224999
 31
0.0
  0
LINE
  5
11F
330
2
100
AcDbEntity
  8
0
 62
     3
100
AcDbLine
 10
52.39880686439994
 20
212.4583928224999
 30
0.0
 11
52.39880686439994
 21
204.4583928224999
 31
0.0
  0
LINE
  5
120
330
2
100
AcDbEntity
  8
0
 62
     3
100
AcDbLine
 10
51.39880686439997
 20
197.9583928225
 30
0.0
 11
50.25290883059998
 21
197.9583928225
 31
0.0
  0
LINE
  5
121
330
2
100
AcDbEntity
  8
0
 62
     3
100
AcDbLine
 10
51.39880686439997
 20
199.9583928225
 30
0.0
 11
50.25290883059998
 21
199.9583928225
 31
0.0
  0
LINE
  5
122
330
2
100
AcDbEntity
  8
0
 62
     3
100
AcDbLine
 10
51.39880686439997
 20
207.4583928224999
 30
0.0
 11
50.25290883059998
 21
207.4583928224999
 31
0.0
  0
LINE
  5
123
330
2
100
AcDbEntity
  8
0
 62
     3
100
AcDbLine
 10
51.39880686439997
 20
209.4583928225
 30
0.0
 11
50.25290883059998
 21
209.4583928225
 31
0.0
  0
LINE
  5
124
330
2
100
AcDbEntity
  8
0
 62
     3
100
AcDbLine
 10
51.39880686439997
 20
216.9583928224999
 30
0.0
 11
50.25290883059998
 21
216.9583928224999
 31
0.0
  0
LINE
  5
125
330
2
100
AcDbEntity
  8
0
 62
     3
100
AcDbLine
 10
51.39880686439997
 20
218.9583928224999
 30
0.0
 11
50.25290883059998
 21
218.9583928224999
 31
0.0
  0
LINE
  5
126
330
2
100
AcDbEntity
  8
0
 62
     3
100
AcDbLine
 10
54.39880686439995
 20
221.9583928225
 30
0.0
 11
39.3988068644
 21
221.9583928225
 31
0.0
  0
LINE
  5
127
330
2
100
AcDbEntity
  8
0
 62
     3
100
AcDbLine
 10
54.39880686439995
 20
223.4583928225
 30
0.0
 11
39.3988068644
 21
223.4583928225
 31
0.0
  0
LINE
  5
128
330
2
100
AcDbEntity
  8
0
 62
     3
100
AcDbLine
 10
54.39880686439995
 20
231.4583928224999
 30
0.0
 11
39.3988068644
 21
231.4583928224999
 31
0.0
  0
LINE
  5
129
330
2
100
AcDbEntity
  8
0
 62
     3
100
AcDbLine
 10
54.39880686439995
 20
233.4583928225
 30
0.0
 11
39.3988068644
 21
233.4583928225
 31
0.0
  0
LINE
  5
12A
330
2
100
AcDbEntity
  8
0
 62
     3
100
AcDbLine
 10
39.3988068644
 20
234.5583928224999
 30
0.0
 11
46.19880686439995
 21
234.5583928224999
 31
0.0
  0
ARC
  5
12B
330
2
100
AcDbEntity
  8
0
 62
     3
100
AcDbCircle
 10
44.39880686439994
 20
237.9583928224999
 30
0.0
 40
3.399999999999999
100
AcDbArc
 50
8.968120927499997
 51
0.0
  0
LINE
  5
12C
330
2
100
AcDbEntity
  8
0
 62
     3
100
AcDbLine
 10
41.58012147229999
 20
241.3583928225
 30
0.0
 11
46.19880686439995
 21
241.3583928225
 31
0.0
  0
ARC
  5
12D
330
2
100
AcDbEntity
  8
0
 62
     3
100
AcDbCircle
 10
35.8363068644
 20
242.9583928225
 30
0.0
 40
5.9625
100
AcDbArc
 50
344.4342620337998
 51
31.89079180180002
  0
LINE
  5
12E
330
2
100
AcDbEntity
  8
0
 62
     3
100
AcDbLine
 10
39.89880686439997
 20
239.4583928224999
 30
0.0
 11
39.89880686439997
 21
247.4583928224999
 31
0.0
  0
LINE
  5
12F
330
2
100
AcDbEntity
  8
0
 62
     3
100
AcDbLine
 10
36.99880686439996
 20
247.4583928224999
 30
0.0
 11
36.99880686439996
 21
239.4583928224999
 31
0.0
  0
LINE
  5
130
330
2
100
AcDbEntity
  8
0
 62
     3
100
AcDbLine
 10
34.19880686439998
 20
237.9583928224999
 30
0.0
 11
34.99880686439999
 21
237.9583928224999
 31
0.0
  0
LINE
  5
131
330
2
100
AcDbEntity
  8
0
 62
     3
100
AcDbLine
 10
37.7988068644
 20
239.4583928224999
 30
0.0
 11
34.19880686439998
 21
239.4583928224999
 31
0.0
  0
LINE
  5
132
330
2
100
AcDbEntity
  8
0
 62
     3
100
AcDbLine
 10
41.39880686439997
 20
231.4583928224999
 30
0.0
 11
41.39880686439997
 21
223.4583928225
 31
0.0
  0
LINE
  5
133
330
2
100
AcDbEntity
  8
0
 62
     3
100
AcDbLine
 10
39.89880686439997
 20
239.8083928224999
 30
0.0
 11
40.89880686439997
 21
239.8083928224999
 31
0.0
  0
LINE
  5
134
330
2
100
AcDbEntity
  8
0
 62
     3
100
AcDbLine
 10
39.3988068644
 20
239.4583928224999
 30
0.0
 11
39.89880686439997
 21
239.4583928224999
 31
0.0
  0
ARC
  5
135
330
2
100
AcDbEntity
  8
0
 62
     3
100
AcDbCircle
 10
35.8363068644
 20
242.9583928225
 30
0.0
 40
5.9625
100
AcDbArc
 50
328.1092081981999
 51
344.4342620337998
  0
LINE
  5
136
330
2
100
AcDbEntity
  8
0
 62
     3
100
AcDbLine
 10
34.19880686439998
 20
247.4583928224999
 30
0.0
 11
37.7988068644
 21
247.4583928224999
 31
0.0
  0
LINE
  5
137
330
2
100
AcDbEntity
  8
0
 62
     3
100
AcDbLine
 10
37.7988068644
 20
246.9583928225
 30
0.0
 11
39.3988068644
 21
246.9583928225
 31
0.0
  0
LINE
  5
138
330
2
100
AcDbEntity
  8
0
 62
     3
100
AcDbLine
 10
39.89880686439997
 20
246.1083928225
 30
0.0
 11
40.89880686439997
 21
246.1083928225
 31
0.0
  0
LINE
  5
139
330
2
100
AcDbEntity
  8
0
 62
     3
100
AcDbLine
 10
49.19880686440001
 20
247.4583928224999
 30
0.0
 11
49.19880686440001
 21
237.2083928224999
 31
0.0
  0
LINE
  5
13A
330
2
100
AcDbEntity
  8
0
 62
     3
100
AcDbLine
 10
50.64323552159999
 20
229.6656227858
 30
0.0
 11
49.22093474899998
 21
231.0879235584999
 31
0.0
  0
LINE
  5
13B
330
2
100
AcDbEntity
  8
0
 62
     3
100
AcDbLine
 10
50.82487399919997
 20
220.1525105365
 30
0.0
 11
49.40257322649998
 21
221.5748113091999
 31
0.0
  0
LINE
  5
13C
330
2
100
AcDbEntity
  8
0
 62
     3
100
AcDbLine
 10
50.77253559189998
 20
225.1401203272999
 30
0.0
 11
49.35023481919995
 21
223.9333196716998
 31
0.0
  0
CIRCLE
  5
13D
330
2
100
AcDbEntity
  8
0
 62
     3
100
AcDbCircle
 10
46.89880686439994
 20
227.4583928225
 30
0.0
 40
3.5
  0
ARC
  5
13E
330
2
100
AcDbEntity
  8
0
 62
     3
100
AcDbCircle
 10
50.19880686439996
 20
237.2083928224999
 30
0.0
 40
1.0
100
AcDbArc
 50
180.0
 51
270.0
  0
LINE
  5
13F
330
2
100
AcDbEntity
  8
0
  6
CENTER
 62
     3
100
AcDbLine
 10
50.74880686439996
 20
227.4583928225
 30
0.0
 11
43.04880686439995
 21
227.4583928225
 31
0.0
  0
ARC
  5
140
330
2
100
AcDbEntity
  8
0
 62
     3
100
AcDbCircle
 10
45.69880686439995
 20
226.2583928225
 30
0.0
 40
0.6
100
AcDbArc
 50
0.0
 51
90.0
  0
ARC
  5
141
330
2
100
AcDbEntity
  8
0
 62
     3
100
AcDbCircle
 10
45.69880686439995
 20
228.6583928224999
 30
0.0
 40
0.6
100
AcDbArc
 50
270.0
 51
0.0
  0
LINE
  5
142
330
2
100
AcDbEntity
  8
0
 62
     3
100
AcDbLine
 10
42.39880686439997
 20
231.4583928224999
 30
0.0
 11
42.39880686439997
 21
223.4583928225
 31
0.0
  0
LINE
  5
143
330
2
100
AcDbEntity
  8
0
 62
     3
100
AcDbLine
 10
44.35987048709998
 20
221.4670612506
 30
0.0
 11
43.02376976129997
 21
220.4542107003998
 31
0.0
  0
LINE
  5
144
330
2
100
AcDbEntity
  8
0
 62
     3
100
AcDbLine
 10
42.79903126029998
 20
225.5064705262999
 30
0.0
 11
44.02738192759994
 21
223.9333196716998
 31
0.0
  0
LINE
  5
145
330
2
100
AcDbEntity
  8
0
 62
     3
100
AcDbLine
 10
45.89880686439994
 20
221.9583928225
 30
0.0
 11
45.89880686439994
 21
221.3124947886999
 31
0.0
  0
LINE
  5
146
330
2
100
AcDbEntity
  8
0
 62
     3
100
AcDbLine
 10
45.89880686439994
 20
224.1042908561999
 30
0.0
 11
45.89880686439994
 21
223.4583928225
 31
0.0
  0
LINE
  5
147
330
2
100
AcDbEntity
  8
0
 62
     3
100
AcDbLine
 10
44.17823200949999
 20
230.9801734999
 30
0.0
 11
42.84213128369998
 21
229.9673229497
 31
0.0
  0
LINE
  5
148
330
2
100
AcDbEntity
  8
0
 62
     3
100
AcDbLine
 10
43.54470489809995
 20
226.4583928224999
 30
0.0
 11
42.39880686439997
 21
226.4583928224999
 31
0.0
  0
LINE
  5
149
330
2
100
AcDbEntity
  8
0
 62
     3
100
AcDbLine
 10
43.54470489809995
 20
228.4583928224999
 30
0.0
 11
42.39880686439997
 21
228.4583928224999
 31
0.0
  0
LINE
  5
14A
330
2
100
AcDbEntity
  8
0
 62
     3
100
AcDbLine
 10
44.39880686439994
 20
226.8583928224999
 30
0.0
 11
44.39880686439994
 21
228.0583928225
 31
0.0
  0
LINE
  5
14B
330
2
100
AcDbEntity
  8
0
 62
     3
100
AcDbLine
 10
45.69880686439995
 20
226.8583928224999
 30
0.0
 11
44.39880686439994
 21
226.8583928224999
 31
0.0
  0
LINE
  5
14C
330
2
100
AcDbEntity
  8
0
 62
     3
100
AcDbLine
 10
44.39880686439994
 20
228.0583928225
 30
0.0
 11
45.69880686439995
 21
228.0583928225
 31
0.0
  0
LINE
  5
14D
330
2
100
AcDbEntity
  8
0
 62
     3
100
AcDbLine
 10
45.89880686439994
 20
230.8124947886999
 30
0.0
 11
45.89880686439994
 21
231.4583928224999
 31
0.0
  0
LINE
  5
14E
330
2
100
AcDbEntity
  8
0
 62
     3
100
AcDbLine
 10
47.49880686439996
 20
226.2583928225
 30
0.0
 11
47.49880686439996
 21
224.9583928224999
 31
0.0
  0
LINE
  5
14F
330
2
100
AcDbEntity
  8
0
 62
     3
100
AcDbLine
 10
46.29880686439998
 20
224.9583928224999
 30
0.0
 11
46.29880686439998
 21
226.2583928225
 31
0.0
  0
LINE
  5
150
330
2
100
AcDbEntity
  8
0
 62
     3
100
AcDbLine
 10
46.29880686439998
 20
220.4583928224999
 30
0.0
 11
47.49880686439996
 21
220.4583928224999
 31
0.0
  0
LINE
  5
151
330
2
100
AcDbEntity
  8
0
 62
     3
100
AcDbLine
 10
47.49880686439996
 20
224.9583928224999
 30
0.0
 11
46.29880686439998
 21
224.9583928224999
 31
0.0
  0
LINE
  5
152
330
2
100
AcDbEntity
  8
0
 62
     3
100
AcDbLine
 10
47.89880686439994
 20
221.9583928225
 30
0.0
 11
47.89880686439994
 21
221.3124947886999
 31
0.0
  0
LINE
  5
153
330
2
100
AcDbEntity
  8
0
 62
     3
100
AcDbLine
 10
47.89880686439994
 20
224.1042908561999
 30
0.0
 11
47.89880686439994
 21
223.4583928225
 31
0.0
  0
ARC
  5
154
330
2
100
AcDbEntity
  8
0
 62
     3
100
AcDbCircle
 10
48.09880686439999
 20
228.6583928224999
 30
0.0
 40
0.6
100
AcDbArc
 50
180.0
 51
270.0
  0
ARC
  5
155
330
2
100
AcDbEntity
  8
0
 62
     3
100
AcDbCircle
 10
48.09880686439999
 20
226.2583928225
 30
0.0
 40
0.6
100
AcDbArc
 50
90.0
 51
180.0
  0
LINE
  5
156
330
2
100
AcDbEntity
  8
0
 62
     3
100
AcDbLine
 10
47.49880686439996
 20
229.9583928225
 30
0.0
 11
47.49880686439996
 21
228.6583928224999
 31
0.0
  0
LINE
  5
157
330
2
100
AcDbEntity
  8
0
 62
     3
100
AcDbLine
 10
46.29880686439998
 20
228.6583928224999
 30
0.0
 11
46.29880686439998
 21
229.9583928225
 31
0.0
  0
LINE
  5
158
330
2
100
AcDbEntity
  8
0
 62
     3
100
AcDbLine
 10
46.29880686439998
 20
229.9583928225
 30
0.0
 11
47.49880686439996
 21
229.9583928225
 31
0.0
  0
LINE
  5
159
330
2
100
AcDbEntity
  8
0
 62
     3
100
AcDbLine
 10
49.39880686439995
 20
228.0583928225
 30
0.0
 11
49.39880686439995
 21
226.8583928224999
 31
0.0
  0
LINE
  5
15A
330
2
100
AcDbEntity
  8
0
 62
     3
100
AcDbLine
 10
48.09880686439999
 20
228.0583928225
 30
0.0
 11
49.39880686439995
 21
228.0583928225
 31
0.0
  0
LINE
  5
15B
330
2
100
AcDbEntity
  8
0
 62
     3
100
AcDbLine
 10
49.39880686439995
 20
226.8583928224999
 30
0.0
 11
48.09880686439999
 21
226.8583928224999
 31
0.0
  0
LINE
  5
15C
330
2
100
AcDbEntity
  8
0
 62
     3
100
AcDbLine
 10
47.89880686439994
 20
231.4583928224999
 30
0.0
 11
47.89880686439994
 21
230.8124947886999
 31
0.0
  0
LINE
  5
15D
330
2
100
AcDbEntity
  8
0
 62
     3
100
AcDbLine
 10
43.86879821719998
 20
234.5999570506
 30
0.0
 11
47.75724263619998
 21
238.4884014695999
 31
0.0
  0
CIRCLE
  5
15E
330
2
100
AcDbEntity
  8
0
 62
     3
100
AcDbCircle
 10
44.39880686439994
 20
237.9583928224999
 30
0.0
 40
1.85
  0
LINE
  5
15F
330
2
100
AcDbEntity
  8
0
 62
     3
100
AcDbLine
 10
44.96449228929995
 20
237.9583928224999
 30
0.0
 11
45.95885355429996
 21
236.9640315574999
 31
0.0
  0
LINE
  5
160
330
2
100
AcDbEntity
  8
0
 62
     3
100
AcDbLine
 10
45.39316812929996
 20
236.3983461325998
 30
0.0
 11
44.39880686439994
 21
237.3927073975
 31
0.0
  0
LINE
  5
161
330
2
100
AcDbEntity
  8
0
 62
     3
100
AcDbLine
 10
44.39880686439994
 20
237.3927073975
 30
0.0
 11
43.40885737069998
 21
236.4027579038999
 31
0.0
  0
LINE
  5
162
330
2
100
AcDbEntity
  8
0
 62
     3
100
AcDbLine
 10
43.83312143939997
 20
237.9583928224999
 30
0.0
 11
42.84317194569999
 21
236.9684433288
 31
0.0
  0
LINE
  5
163
330
2
100
AcDbEntity
  8
0
 62
     3
100
AcDbLine
 10
43.40444559939999
 20
239.5184395124
 30
0.0
 11
44.39880686439994
 21
238.5240782474
 31
0.0
  0
LINE
  5
164
330
2
100
AcDbEntity
  8
0
 62
     3
100
AcDbLine
 10
42.83876017439996
 20
238.9527540874
 30
0.0
 11
43.83312143939997
 21
237.9583928224999
 31
0.0
  0
LINE
  5
165
330
2
100
AcDbEntity
  8
0
 62
     3
100
AcDbLine
 10
44.39880686439994
 20
238.5240782474
 30
0.0
 11
45.39316812929996
 21
239.5184395124
 31
0.0
  0
LINE
  5
166
330
2
100
AcDbEntity
  8
0
 62
     3
100
AcDbLine
 10
45.95885355429996
 20
238.9527540874
 30
0.0
 11
44.96449228929995
 21
237.9583928224999
 31
0.0
  0
LINE
  5
167
330
2
100
AcDbEntity
  8
0
 62
     3
100
AcDbLine
 10
47.79880686439994
 20
239.7583928224999
 30
0.0
 11
47.79880686439994
 21
236.1583928224999
 31
0.0
  0
LINE
  5
168
330
2
100
AcDbEntity
  8
0
 62
     3
100
AcDbLine
 10
46.19880686439995
 20
234.5583928224999
 30
0.0
 11
47.79880686439994
 21
236.1583928224999
 31
0.0
  0
ARC
  5
169
330
2
100
AcDbEntity
  8
0
 62
     3
100
AcDbCircle
 10
44.39880686439994
 20
237.9583928224999
 30
0.0
 40
3.399999999999999
100
AcDbArc
 50
0.0
 51
8.968120927499997
  0
LINE
  5
16A
330
2
100
AcDbEntity
  8
0
 62
     3
100
AcDbLine
 10
46.19880686439995
 20
241.3583928225
 30
0.0
 11
47.79880686439994
 21
239.7583928224999
 31
0.0
  0
LINE
  5
16B
330
2
100
AcDbEntity
  8
0
 62
     3
100
AcDbLine
 10
51.39880686439997
 20
223.4583928225
 30
0.0
 11
51.39880686439997
 21
231.4583928224999
 31
0.0
  0
LINE
  5
16C
330
2
100
AcDbEntity
  8
0
 62
     3
100
AcDbLine
 10
52.39880686439994
 20
231.4583928224999
 30
0.0
 11
52.39880686439994
 21
223.4583928225
 31
0.0
  0
LINE
  5
16D
330
2
100
AcDbEntity
  8
0
 62
     3
100
AcDbLine
 10
51.39880686439997
 20
226.4583928224999
 30
0.0
 11
50.25290883059998
 21
226.4583928224999
 31
0.0
  0
LINE
  5
16E
330
2
100
AcDbEntity
  8
0
 62
     3
100
AcDbLine
 10
51.39880686439997
 20
228.4583928224999
 30
0.0
 11
50.25290883059998
 21
228.4583928224999
 31
0.0
  0
ARC
  5
16F
330
2
100
AcDbEntity
  8
0
 62
     3
100
AcDbCircle
 10
55.19880686439996
 20
233.2083928224999
 30
0.0
 40
1.0
100
AcDbArc
 50
90.0
 51
165.5224878141
  0
LINE
  5
170
330
2
100
AcDbEntity
  8
0
  6
PHANTOM
 62
     3
100
AcDbLine
 10
66.19880686439995
 20
247.4583928224999
 30
0.0
 11
66.19880686439995
 21
178.7583928225
 31
0.0
  0
LINE
  5
171
330
2
100
AcDbEntity
  8
0
  6
PHANTOM
 62
     3
100
AcDbLine
 10
61.19880686439998
 20
178.2583928225
 30
0.0
 11
65.69880686439995
 21
178.2583928225
 31
0.0
  0
LINE
  5
172
330
2
100
AcDbEntity
  8
0
 62
     3
100
AcDbLine
 10
61.19880686439998
 20
177.4583928224999
 30
0.0
 11
61.19880686439998
 21
178.2583928225
 31
0.0
  0
ARC
  5
173
330
2
100
AcDbEntity
  8
0
  6
PHANTOM
 62
     3
100
AcDbCircle
 10
65.69880686439995
 20
178.7583928225
 30
0.0
 40
0.5
100
AcDbArc
 50
270.0
 51
0.0
  0
LINE
  5
174
330
2
100
AcDbEntity
  8
0
 62
     3
100
AcDbLine
 10
65.69880686439995
 20
236.2083928224999
 30
0.0
 11
65.69880686439995
 21
234.2083928224999
 31
0.0
  0
LINE
  5
175
330
2
100
AcDbEntity
  8
0
 62
     3
100
AcDbLine
 10
115.9917784048998
 20
241.3583928225
 30
0.0
 11
118.3917784048999
 21
241.3583928225
 31
0.0
  0
LINE
  5
176
330
2
100
AcDbEntity
  8
0
 62
     3
100
AcDbLine
 10
118.3917784048999
 20
234.5583928224999
 30
0.0
 11
115.9917784048998
 21
234.5583928224999
 31
0.0
  0
LINE
  5
177
330
2
100
AcDbEntity
  8
0
 62
     3
100
AcDbLine
 10
115.3917784048999
 20
180.2583928225
 30
0.0
 11
118.3917784048999
 21
180.2583928225
 31
0.0
  0
LINE
  5
178
330
2
100
AcDbEntity
  8
0
 62
     3
100
AcDbLine
 10
116.3917784048999
 20
179.4583928224999
 30
0.0
 11
117.9483802916998
 21
179.4583928224999
 31
0.0
  0
LINE
  5
179
330
2
100
AcDbEntity
  8
0
 62
     3
100
AcDbLine
 10
116.7512781343999
 20
178.4583928224999
 30
0.0
 11
118.5733802916999
 21
178.4583928224999
 31
0.0
  0
LINE
  5
17A
330
2
100
AcDbEntity
  8
0
 62
     3
100
AcDbLine
 10
101.7917784048999
 20
221.4583928225
 30
0.0
 11
101.7917784048999
 21
214.4583928224999
 31
0.0
  0
ARC
  5
17B
330
2
100
AcDbEntity
  8
0
 62
     3
100
AcDbCircle
 10
103.8542784048999
 20
217.9583928225
 30
0.0
 40
4.0625
100
AcDbArc
 50
120.5102374060997
 51
239.4897625938999
  0
LINE
  5
17C
330
2
100
AcDbEntity
  8
0
 62
     3
100
AcDbLine
 10
110.7917784048999
 20
213.9583928224999
 30
0.0
 11
110.7917784048999
 21
221.9583928225
 31
0.0
  0
LINE
  5
17D
330
2
100
AcDbEntity
  8
0
 62
     3
100
AcDbLine
 10
112.7917784048999
 20
183.4583928225
 30
0.0
 11
112.7917784048999
 21
233.4583928225
 31
0.0
  0
LINE
  5
17E
330
2
100
AcDbEntity
  8
0
  6
PHANTOM
 62
     3
100
AcDbLine
 10
97.79177840490001
 20
185.4583928225
 30
0.0
 11
97.79177840490001
 21
231.4583928224999
 31
0.0
  0
LINE
  5
17F
330
2
100
AcDbEntity
  8
0
  6
PHANTOM
 62
     3
100
AcDbLine
 10
96.79177840489996
 20
185.4583928225
 30
0.0
 11
96.79177840489996
 21
231.4583928224999
 31
0.0
  0
LINE
  5
180
330
2
100
AcDbEntity
  8
0
 62
     3
100
AcDbLine
 10
106.7917784048999
 20
213.9583928224999
 30
0.0
 11
106.7917784048999
 21
221.9583928225
 31
0.0
  0
LINE
  5
181
330
2
100
AcDbEntity
  8
0
 62
     3
100
AcDbLine
 10
105.7917784048999
 20
221.9583928225
 30
0.0
 11
105.7917784048999
 21
213.9583928224999
 31
0.0
  0
LINE
  5
182
330
2
100
AcDbEntity
  8
0
 62
     3
100
AcDbLine
 10
104.7917784048999
 20
213.9583928224999
 30
0.0
 11
104.7917784048999
 21
221.9583928225
 31
0.0
  0
LINE
  5
183
330
2
100
AcDbEntity
  8
0
 62
     3
100
AcDbLine
 10
102.7917784048999
 20
213.9583928224999
 30
0.0
 11
102.7917784048999
 21
221.9583928225
 31
0.0
  0
LINE
  5
184
330
2
100
AcDbEntity
  8
0
 62
     3
100
AcDbLine
 10
101.7917784048999
 20
217.9583928225
 30
0.0
 11
102.7917784048999
 21
216.9583928224999
 31
0.0
  0
LINE
  5
185
330
2
100
AcDbEntity
  8
0
 62
     3
100
AcDbLine
 10
101.7917784048999
 20
218.9583928224999
 30
0.0
 11
102.7917784048999
 21
217.9583928225
 31
0.0
  0
LINE
  5
186
330
2
100
AcDbEntity
  8
0
 62
     3
100
AcDbLine
 10
101.7917784048999
 20
214.4583928224999
 30
0.0
 11
102.7917784048999
 21
214.4583928224999
 31
0.0
  0
LINE
  5
187
330
2
100
AcDbEntity
  8
0
 62
     3
100
AcDbLine
 10
101.7917784048999
 20
209.4583928225
 30
0.0
 11
102.7917784048999
 21
208.4583928225
 31
0.0
  0
LINE
  5
188
330
2
100
AcDbEntity
  8
0
 62
     3
100
AcDbLine
 10
101.7917784048999
 20
211.9583928224999
 30
0.0
 11
102.7917784048999
 21
211.9583928224999
 31
0.0
  0
LINE
  5
189
330
2
100
AcDbEntity
  8
0
 62
     3
100
AcDbLine
 10
101.7917784048999
 20
204.9583928225
 30
0.0
 11
102.7917784048999
 21
204.9583928225
 31
0.0
  0
LINE
  5
18A
330
2
100
AcDbEntity
  8
0
 62
     3
100
AcDbLine
 10
101.7917784048999
 20
208.4583928225
 30
0.0
 11
102.7917784048999
 21
207.4583928224999
 31
0.0
  0
LINE
  5
18B
330
2
100
AcDbEntity
  8
0
 62
     3
100
AcDbLine
 10
101.7917784048999
 20
198.9583928224999
 30
0.0
 11
102.7917784048999
 21
197.9583928225
 31
0.0
  0
LINE
  5
18C
330
2
100
AcDbEntity
  8
0
 62
     3
100
AcDbLine
 10
101.7917784048999
 20
199.9583928225
 30
0.0
 11
102.7917784048999
 21
198.9583928224999
 31
0.0
  0
LINE
  5
18D
330
2
100
AcDbEntity
  8
0
 62
     3
100
AcDbLine
 10
101.7917784048999
 20
202.4583928224999
 30
0.0
 11
102.7917784048999
 21
202.4583928224999
 31
0.0
  0
LINE
  5
18E
330
2
100
AcDbEntity
  8
0
 62
     3
100
AcDbLine
 10
101.7917784048999
 20
192.9583928225
 30
0.0
 11
102.7917784048999
 21
192.9583928225
 31
0.0
  0
LINE
  5
18F
330
2
100
AcDbEntity
  8
0
 62
     3
100
AcDbLine
 10
101.7917784048999
 20
195.4583928225
 30
0.0
 11
102.7917784048999
 21
195.4583928225
 31
0.0
  0
LINE
  5
190
330
2
100
AcDbEntity
  8
0
 62
     3
100
AcDbLine
 10
101.7917784048999
 20
189.4583928225
 30
0.0
 11
102.7917784048999
 21
188.4583928225
 31
0.0
  0
LINE
  5
191
330
2
100
AcDbEntity
  8
0
 62
     3
100
AcDbLine
 10
101.7917784048999
 20
190.4583928225
 30
0.0
 11
102.7917784048999
 21
189.4583928225
 31
0.0
  0
LINE
  5
192
330
2
100
AcDbEntity
  8
0
 62
     3
100
AcDbLine
 10
101.7917784048999
 20
185.9583928224999
 30
0.0
 11
102.7917784048999
 21
185.9583928224999
 31
0.0
  0
LINE
  5
193
330
2
100
AcDbEntity
  8
0
 62
     3
100
AcDbLine
 10
95.1917784049
 20
183.4583928225
 30
0.0
 11
112.7917784048999
 21
183.4583928225
 31
0.0
  0
LINE
  5
194
330
2
100
AcDbEntity
  8
0
 62
     3
100
AcDbLine
 10
95.1917784049
 20
185.4583928225
 30
0.0
 11
110.7917784048999
 21
185.4583928225
 31
0.0
  0
LINE
  5
195
330
2
100
AcDbEntity
  8
0
 62
     3
100
AcDbLine
 10
97.79177840490001
 20
193.4583928225
 30
0.0
 11
110.7917784048999
 21
193.4583928225
 31
0.0
  0
LINE
  5
196
330
2
100
AcDbEntity
  8
0
 62
     3
100
AcDbLine
 10
110.7917784048999
 20
194.9583928224999
 30
0.0
 11
97.79177840490001
 21
194.9583928224999
 31
0.0
  0
LINE
  5
197
330
2
100
AcDbEntity
  8
0
 62
     3
100
AcDbLine
 10
110.7917784048999
 20
202.9583928225
 30
0.0
 11
97.79177840490001
 21
202.9583928225
 31
0.0
  0
LINE
  5
198
330
2
100
AcDbEntity
  8
0
 62
     3
100
AcDbLine
 10
97.79177840490001
 20
204.4583928224999
 30
0.0
 11
110.7917784048999
 21
204.4583928224999
 31
0.0
  0
LINE
  5
199
330
2
100
AcDbEntity
  8
0
 62
     3
100
AcDbLine
 10
97.79177840490001
 20
212.4583928224999
 30
0.0
 11
110.7917784048999
 21
212.4583928224999
 31
0.0
  0
LINE
  5
19A
330
2
100
AcDbEntity
  8
0
 62
     3
100
AcDbLine
 10
97.79177840490001
 20
213.9583928224999
 30
0.0
 11
110.7917784048999
 21
213.9583928224999
 31
0.0
  0
LINE
  5
19B
330
2
100
AcDbEntity
  8
0
 62
     3
100
AcDbLine
 10
101.7917784048999
 20
195.4583928225
 30
0.0
 11
101.7917784048999
 21
202.4583928224999
 31
0.0
  0
ARC
  5
19C
330
2
100
AcDbEntity
  8
0
 62
     3
100
AcDbCircle
 10
103.8542784048999
 20
198.9583928224999
 30
0.0
 40
4.0625
100
AcDbArc
 50
120.5102374060997
 51
239.4897625938999
  0
LINE
  5
19D
330
2
100
AcDbEntity
  8
0
 62
     3
100
AcDbLine
 10
95.1917784049
 20
183.4583928225
 30
0.0
 11
95.1917784049
 21
185.4583928225
 31
0.0
  0
LINE
  5
19E
330
2
100
AcDbEntity
  8
0
 62
     3
100
AcDbLine
 10
97.79177840490001
 20
193.4583928225
 30
0.0
 11
97.79177840490001
 21
194.9583928224999
 31
0.0
  0
LINE
  5
19F
330
2
100
AcDbEntity
  8
0
 62
     3
100
AcDbLine
 10
101.7917784048999
 20
185.9583928224999
 30
0.0
 11
101.7917784048999
 21
192.9583928225
 31
0.0
  0
ARC
  5
1A0
330
2
100
AcDbEntity
  8
0
 62
     3
100
AcDbCircle
 10
103.8542784048999
 20
189.4583928225
 30
0.0
 40
4.0625
100
AcDbArc
 50
120.5102374060997
 51
239.4897625938999
  0
LINE
  5
1A1
330
2
100
AcDbEntity
  8
0
 62
     3
100
AcDbLine
 10
99.83633039009999
 20
190.0583928225
 30
0.0
 11
100.7917784048999
 21
190.0583928225
 31
0.0
  0
LINE
  5
1A2
330
2
100
AcDbEntity
  8
0
 62
     3
100
AcDbLine
 10
100.7917784048999
 20
188.8583928225
 30
0.0
 11
99.83633039009999
 21
188.8583928225
 31
0.0
  0
LINE
  5
1A3
330
2
100
AcDbEntity
  8
0
 62
     3
100
AcDbLine
 10
100.7917784048999
 20
190.0583928225
 30
0.0
 11
100.7917784048999
 21
188.8583928225
 31
0.0
  0
LINE
  5
1A4
330
2
100
AcDbEntity
  8
0
 62
     3
100
AcDbLine
 10
101.7917784048999
 20
211.9583928224999
 30
0.0
 11
101.7917784048999
 21
204.9583928225
 31
0.0
  0
LINE
  5
1A5
330
2
100
AcDbEntity
  8
0
 62
     3
100
AcDbLine
 10
100.7917784048999
 20
209.0583928224999
 30
0.0
 11
100.7917784048999
 21
207.8583928225
 31
0.0
  0
LINE
  5
1A6
330
2
100
AcDbEntity
  8
0
 62
     3
100
AcDbLine
 10
100.7917784048999
 20
209.0583928224999
 30
0.0
 11
100.7917784048999
 21
207.8583928225
 31
0.0
  0
ARC
  5
1A7
330
2
100
AcDbEntity
  8
0
 62
     3
100
AcDbCircle
 10
103.8542784048999
 20
208.4583928225
 30
0.0
 40
4.0625
100
AcDbArc
 50
120.5102374060997
 51
239.4897625938999
  0
LINE
  5
1A8
330
2
100
AcDbEntity
  8
0
 62
     3
100
AcDbLine
 10
97.79177840490001
 20
202.9583928225
 30
0.0
 11
97.79177840490001
 21
204.4583928224999
 31
0.0
  0
LINE
  5
1A9
330
2
100
AcDbEntity
  8
0
 62
     3
100
AcDbLine
 10
100.7917784048999
 20
198.3583928225
 30
0.0
 11
99.83633039009999
 21
198.3583928225
 31
0.0
  0
LINE
  5
1AA
330
2
100
AcDbEntity
  8
0
 62
     3
100
AcDbLine
 10
99.83633039009999
 20
199.5583928225
 30
0.0
 11
100.7917784048999
 21
199.5583928225
 31
0.0
  0
LINE
  5
1AB
330
2
100
AcDbEntity
  8
0
 62
     3
100
AcDbLine
 10
100.7917784048999
 20
199.5583928225
 30
0.0
 11
100.7917784048999
 21
198.3583928225
 31
0.0
  0
LINE
  5
1AC
330
2
100
AcDbEntity
  8
0
 62
     3
100
AcDbLine
 10
100.7917784048999
 20
207.8583928225
 30
0.0
 11
99.83633039009999
 21
207.8583928225
 31
0.0
  0
LINE
  5
1AD
330
2
100
AcDbEntity
  8
0
 62
     3
100
AcDbLine
 10
97.79177840490001
 20
212.4583928224999
 30
0.0
 11
97.79177840490001
 21
213.9583928224999
 31
0.0
  0
LINE
  5
1AE
330
2
100
AcDbEntity
  8
0
 62
     3
100
AcDbLine
 10
99.83633039009999
 20
209.0583928224999
 30
0.0
 11
100.7917784048999
 21
209.0583928224999
 31
0.0
  0
LINE
  5
1AF
330
2
100
AcDbEntity
  8
0
 62
     3
100
AcDbLine
 10
100.7917784048999
 20
217.3583928225
 30
0.0
 11
99.83633039009999
 21
217.3583928225
 31
0.0
  0
LINE
  5
1B0
330
2
100
AcDbEntity
  8
0
 62
     3
100
AcDbLine
 10
99.83633039009999
 20
218.5583928224999
 30
0.0
 11
100.7917784048999
 21
218.5583928224999
 31
0.0
  0
LINE
  5
1B1
330
2
100
AcDbEntity
  8
0
 62
     3
100
AcDbLine
 10
100.7917784048999
 20
218.5583928224999
 30
0.0
 11
100.7917784048999
 21
217.3583928225
 31
0.0
  0
LINE
  5
1B2
330
2
100
AcDbEntity
  8
0
 62
     3
100
AcDbLine
 10
100.7917784048999
 20
218.5583928224999
 30
0.0
 11
100.7917784048999
 21
217.3583928225
 31
0.0
  0
LINE
  5
1B3
330
2
100
AcDbEntity
  8
0
 62
     3
100
AcDbLine
 10
100.7917784048999
 20
218.5583928224999
 30
0.0
 11
100.7917784048999
 21
217.3583928225
 31
0.0
  0
LINE
  5
1B4
330
2
100
AcDbEntity
  8
0
 62
     3
100
AcDbLine
 10
100.7917784048999
 20
218.5583928224999
 30
0.0
 11
100.7917784048999
 21
217.3583928225
 31
0.0
  0
LINE
  5
1B5
330
2
100
AcDbEntity
  8
0
 62
     3
100
AcDbLine
 10
110.7917784048999
 20
194.9583928224999
 30
0.0
 11
110.7917784048999
 21
202.9583928225
 31
0.0
  0
LINE
  5
1B6
330
2
100
AcDbEntity
  8
0
 62
     3
100
AcDbLine
 10
104.7917784048999
 20
194.9583928224999
 30
0.0
 11
104.7917784048999
 21
202.9583928225
 31
0.0
  0
LINE
  5
1B7
330
2
100
AcDbEntity
  8
0
 62
     3
100
AcDbLine
 10
105.7917784048999
 20
194.9583928224999
 30
0.0
 11
105.7917784048999
 21
202.9583928225
 31
0.0
  0
LINE
  5
1B8
330
2
100
AcDbEntity
  8
0
 62
     3
100
AcDbLine
 10
106.7917784048999
 20
194.9583928224999
 30
0.0
 11
106.7917784048999
 21
202.9583928225
 31
0.0
  0
LINE
  5
1B9
330
2
100
AcDbEntity
  8
0
 62
     3
100
AcDbLine
 10
102.7917784048999
 20
194.9583928224999
 30
0.0
 11
102.7917784048999
 21
202.9583928225
 31
0.0
  0
LINE
  5
1BA
330
2
100
AcDbEntity
  8
0
 62
     3
100
AcDbLine
 10
108.8917784048999
 20
178.4583928224999
 30
0.0
 11
113.0172477068999
 21
178.4583928224999
 31
0.0
  0
LINE
  5
1BB
330
2
100
AcDbEntity
  8
0
 62
     3
100
AcDbLine
 10
106.7917784048999
 20
185.4583928225
 30
0.0
 11
106.7917784048999
 21
193.4583928225
 31
0.0
  0
LINE
  5
1BC
330
2
100
AcDbEntity
  8
0
 62
     3
100
AcDbLine
 10
105.7917784048999
 20
185.4583928225
 30
0.0
 11
105.7917784048999
 21
193.4583928225
 31
0.0
  0
LINE
  5
1BD
330
2
100
AcDbEntity
  8
0
 62
     3
100
AcDbLine
 10
104.7917784048999
 20
185.4583928225
 30
0.0
 11
104.7917784048999
 21
193.4583928225
 31
0.0
  0
LINE
  5
1BE
330
2
100
AcDbEntity
  8
0
 62
     3
100
AcDbLine
 10
102.7917784048999
 20
185.9583928224999
 30
0.0
 11
103.2917784048997
 21
185.4583928225
 31
0.0
  0
LINE
  5
1BF
330
2
100
AcDbEntity
  8
0
 62
     3
100
AcDbLine
 10
102.7917784048999
 20
185.4583928225
 30
0.0
 11
102.7917784048999
 21
193.4583928225
 31
0.0
  0
LINE
  5
1C0
330
2
100
AcDbEntity
  8
0
 62
     3
100
AcDbLine
 10
108.8917784048999
 20
177.4583928224999
 30
0.0
 11
108.8917784048999
 21
183.4583928225
 31
0.0
  0
LINE
  5
1C1
330
2
100
AcDbEntity
  8
0
 62
     3
100
AcDbLine
 10
104.2917784048997
 20
188.4583928225
 30
0.0
 11
104.7917784048999
 21
188.4583928225
 31
0.0
  0
LINE
  5
1C2
330
2
100
AcDbEntity
  8
0
 62
     3
100
AcDbLine
 10
104.2917784048997
 20
190.4583928225
 30
0.0
 11
104.7917784048999
 21
190.4583928225
 31
0.0
  0
LINE
  5
1C3
330
2
100
AcDbEntity
  8
0
 62
     3
100
AcDbLine
 10
104.2917784048997
 20
188.4583928225
 30
0.0
 11
104.7917784048999
 21
187.9583928225
 31
0.0
  0
LINE
  5
1C4
330
2
100
AcDbEntity
  8
0
 62
     3
100
AcDbLine
 10
104.2917784048997
 20
190.4583928225
 30
0.0
 11
104.7917784048999
 21
190.9583928224999
 31
0.0
  0
LINE
  5
1C5
330
2
100
AcDbEntity
  8
0
 62
     3
100
AcDbLine
 10
104.7917784048999
 20
186.9583928224999
 30
0.0
 11
105.7917784048999
 21
186.9583928224999
 31
0.0
  0
LINE
  5
1C6
330
2
100
AcDbEntity
  8
0
 62
     3
100
AcDbLine
 10
102.7917784048999
 20
192.9583928225
 30
0.0
 11
103.2917784048997
 21
193.4583928225
 31
0.0
  0
LINE
  5
1C7
330
2
100
AcDbEntity
  8
0
 62
     3
100
AcDbLine
 10
102.7917784048999
 20
195.4583928225
 30
0.0
 11
103.2917784048997
 21
194.9583928224999
 31
0.0
  0
LINE
  5
1C8
330
2
100
AcDbEntity
  8
0
 62
     3
100
AcDbLine
 10
104.7917784048999
 20
191.9583928224999
 30
0.0
 11
105.7917784048999
 21
191.9583928224999
 31
0.0
  0
LINE
  5
1C9
330
2
100
AcDbEntity
  8
0
 62
     3
100
AcDbLine
 10
104.7917784048999
 20
196.4583928225
 30
0.0
 11
105.7917784048999
 21
196.4583928225
 31
0.0
  0
LINE
  5
1CA
330
2
100
AcDbEntity
  8
0
 62
     3
100
AcDbLine
 10
110.7917784048999
 20
185.4583928225
 30
0.0
 11
110.7917784048999
 21
193.4583928225
 31
0.0
  0
LINE
  5
1CB
330
2
100
AcDbEntity
  8
0
 62
     3
100
AcDbLine
 10
113.3917784048999
 20
179.7583928225
 30
0.0
 11
116.3917784048999
 21
179.7583928225
 31
0.0
  0
ARC
  5
1CC
330
2
100
AcDbEntity
  8
0
 62
     3
100
AcDbCircle
 10
112.3501138588999
 20
179.258391232
 30
0.0
 40
1.041664546
100
AcDbArc
 50
286.2601172263
 51
0.0000874819999641
  0
LINE
  5
1CD
330
2
100
AcDbEntity
  8
0
 62
     3
100
AcDbLine
 10
113.3917784048999
 20
179.2583928225
 30
0.0
 11
113.3917784048999
 21
179.7583928225
 31
0.0
  0
LINE
  5
1CE
330
2
100
AcDbEntity
  8
0
 62
     3
100
AcDbLine
 10
115.0792784048997
 20
179.7583928225
 30
0.0
 11
115.3917784048999
 21
180.2583928225
 31
0.0
  0
ARC
  5
1CF
330
2
100
AcDbEntity
  8
0
 62
     3
100
AcDbCircle
 10
117.3912782046999
 20
179.2267676723999
 30
0.0
 40
1.0
100
AcDbArc
 50
178.1877101924
 51
255.5520850993
  0
LINE
  5
1D0
330
2
100
AcDbEntity
  8
0
 62
     3
100
AcDbLine
 10
116.3917784048999
 20
179.2583928225
 30
0.0
 11
116.3917784048999
 21
179.7583928225
 31
0.0
  0
LINE
  5
1D1
330
2
100
AcDbEntity
  8
0
 62
     3
100
AcDbLine
 10
117.2917784048999
 20
191.0583928224999
 30
0.0
 11
112.7917784048999
 21
191.0583928224999
 31
0.0
  0
LINE
  5
1D2
330
2
100
AcDbEntity
  8
0
 62
     3
100
AcDbLine
 10
117.2917784048999
 20
187.8583928225
 30
0.0
 11
112.7917784048999
 21
187.8583928225
 31
0.0
  0
LINE
  5
1D3
330
2
100
AcDbEntity
  8
0
 62
     3
100
AcDbLine
 10
117.2917784048999
 20
191.0583928224999
 30
0.0
 11
117.2917784048999
 21
187.8583928225
 31
0.0
  0
LINE
  5
1D4
330
2
100
AcDbEntity
  8
0
 62
     3
100
AcDbLine
 10
106.7917784048999
 20
204.4583928224999
 30
0.0
 11
106.7917784048999
 21
212.4583928224999
 31
0.0
  0
LINE
  5
1D5
330
2
100
AcDbEntity
  8
0
 62
     3
100
AcDbLine
 10
105.7917784048999
 20
212.4583928224999
 30
0.0
 11
105.7917784048999
 21
204.4583928224999
 31
0.0
  0
LINE
  5
1D6
330
2
100
AcDbEntity
  8
0
 62
     3
100
AcDbLine
 10
104.7917784048999
 20
204.4583928224999
 30
0.0
 11
104.7917784048999
 21
212.4583928224999
 31
0.0
  0
LINE
  5
1D7
330
2
100
AcDbEntity
  8
0
 62
     3
100
AcDbLine
 10
102.7917784048999
 20
204.4583928224999
 30
0.0
 11
102.7917784048999
 21
212.4583928224999
 31
0.0
  0
LINE
  5
1D8
330
2
100
AcDbEntity
  8
0
 62
     3
100
AcDbLine
 10
102.7917784048999
 20
202.4583928224999
 30
0.0
 11
103.2917784048997
 21
202.9583928225
 31
0.0
  0
LINE
  5
1D9
330
2
100
AcDbEntity
  8
0
 62
     3
100
AcDbLine
 10
104.2917784048997
 20
197.9583928225
 30
0.0
 11
104.7917784048999
 21
197.9583928225
 31
0.0
  0
LINE
  5
1DA
330
2
100
AcDbEntity
  8
0
 62
     3
100
AcDbLine
 10
104.2917784048997
 20
199.9583928225
 30
0.0
 11
104.7917784048999
 21
199.9583928225
 31
0.0
  0
LINE
  5
1DB
330
2
100
AcDbEntity
  8
0
 62
     3
100
AcDbLine
 10
104.2917784048997
 20
197.9583928225
 30
0.0
 11
104.7917784048999
 21
197.6144917048
 31
0.0
  0
LINE
  5
1DC
330
2
100
AcDbEntity
  8
0
 62
     3
100
AcDbLine
 10
104.2917784048997
 20
199.9583928225
 30
0.0
 11
104.7917784048999
 21
200.4583928225
 31
0.0
  0
LINE
  5
1DD
330
2
100
AcDbEntity
  8
0
 62
     3
100
AcDbLine
 10
104.7917784048999
 20
201.4583928224999
 30
0.0
 11
105.7917784048999
 21
201.4583928224999
 31
0.0
  0
LINE
  5
1DE
330
2
100
AcDbEntity
  8
0
 62
     3
100
AcDbLine
 10
102.7917784048999
 20
204.9583928225
 30
0.0
 11
103.2917784048997
 21
204.4583928224999
 31
0.0
  0
LINE
  5
1DF
330
2
100
AcDbEntity
  8
0
 62
     3
100
AcDbLine
 10
104.2917784048997
 20
207.4583928224999
 30
0.0
 11
104.7917784048999
 21
207.4583928224999
 31
0.0
  0
LINE
  5
1E0
330
2
100
AcDbEntity
  8
0
 62
     3
100
AcDbLine
 10
104.2917784048997
 20
207.4583928224999
 30
0.0
 11
104.7917784048999
 21
206.9583928225
 31
0.0
  0
LINE
  5
1E1
330
2
100
AcDbEntity
  8
0
 62
     3
100
AcDbLine
 10
104.7917784048999
 20
205.9583928224999
 30
0.0
 11
105.7917784048999
 21
205.9583928224999
 31
0.0
  0
LINE
  5
1E2
330
2
100
AcDbEntity
  8
0
 62
     3
100
AcDbLine
 10
102.7917784048999
 20
214.4583928224999
 30
0.0
 11
103.2917784048997
 21
213.9583928224999
 31
0.0
  0
LINE
  5
1E3
330
2
100
AcDbEntity
  8
0
 62
     3
100
AcDbLine
 10
102.7917784048999
 20
211.9583928224999
 30
0.0
 11
103.2917784048997
 21
212.4583928224999
 31
0.0
  0
LINE
  5
1E4
330
2
100
AcDbEntity
  8
0
 62
     3
100
AcDbLine
 10
104.2917784048997
 20
209.4583928225
 30
0.0
 11
104.7917784048999
 21
209.4583928225
 31
0.0
  0
LINE
  5
1E5
330
2
100
AcDbEntity
  8
0
 62
     3
100
AcDbLine
 10
104.2917784048997
 20
209.4583928225
 30
0.0
 11
104.7917784048999
 21
209.9583928224999
 31
0.0
  0
LINE
  5
1E6
330
2
100
AcDbEntity
  8
0
 62
     3
100
AcDbLine
 10
104.7917784048999
 20
210.9583928225
 30
0.0
 11
105.7917784048999
 21
210.9583928225
 31
0.0
  0
LINE
  5
1E7
330
2
100
AcDbEntity
  8
0
 62
     3
100
AcDbLine
 10
104.2917784048997
 20
216.9583928224999
 30
0.0
 11
104.7917784048999
 21
216.4583928224999
 31
0.0
  0
LINE
  5
1E8
330
2
100
AcDbEntity
  8
0
 62
     3
100
AcDbLine
 10
104.2917784048997
 20
218.9583928224999
 30
0.0
 11
104.7917784048999
 21
219.4583928225
 31
0.0
  0
LINE
  5
1E9
330
2
100
AcDbEntity
  8
0
 62
     3
100
AcDbLine
 10
104.2917784048997
 20
218.9583928224999
 30
0.0
 11
104.7917784048999
 21
218.9583928224999
 31
0.0
  0
LINE
  5
1EA
330
2
100
AcDbEntity
  8
0
 62
     3
100
AcDbLine
 10
104.2917784048997
 20
216.9583928224999
 30
0.0
 11
104.7917784048999
 21
216.9583928224999
 31
0.0
  0
LINE
  5
1EB
330
2
100
AcDbEntity
  8
0
 62
     3
100
AcDbLine
 10
104.7917784048999
 20
215.4583928225
 30
0.0
 11
105.7917784048999
 21
215.4583928225
 31
0.0
  0
LINE
  5
1EC
330
2
100
AcDbEntity
  8
0
 62
     3
100
AcDbLine
 10
117.2917784048999
 20
206.8583928225
 30
0.0
 11
117.2917784048999
 21
210.0583928224999
 31
0.0
  0
LINE
  5
1ED
330
2
100
AcDbEntity
  8
0
 62
     3
100
AcDbLine
 10
110.7917784048999
 20
204.4583928224999
 30
0.0
 11
110.7917784048999
 21
212.4583928224999
 31
0.0
  0
LINE
  5
1EE
330
2
100
AcDbEntity
  8
0
 62
     3
100
AcDbLine
 10
117.2917784048999
 20
206.8583928225
 30
0.0
 11
112.7917784048999
 21
206.8583928225
 31
0.0
  0
LINE
  5
1EF
330
2
100
AcDbEntity
  8
0
 62
     3
100
AcDbLine
 10
117.2917784048999
 20
200.5583928225
 30
0.0
 11
112.7917784048999
 21
200.5583928225
 31
0.0
  0
LINE
  5
1F0
330
2
100
AcDbEntity
  8
0
 62
     3
100
AcDbLine
 10
117.2917784048999
 20
197.3583928224998
 30
0.0
 11
112.7917784048999
 21
197.3583928224998
 31
0.0
  0
LINE
  5
1F1
330
2
100
AcDbEntity
  8
0
 62
     3
100
AcDbLine
 10
117.2917784048999
 20
197.3583928224998
 30
0.0
 11
117.2917784048999
 21
200.5583928225
 31
0.0
  0
LINE
  5
1F2
330
2
100
AcDbEntity
  8
0
 62
     3
100
AcDbLine
 10
117.2917784048999
 20
219.5583928225
 30
0.0
 11
112.7917784048999
 21
219.5583928225
 31
0.0
  0
LINE
  5
1F3
330
2
100
AcDbEntity
  8
0
 62
     3
100
AcDbLine
 10
117.2917784048999
 20
216.3583928225
 30
0.0
 11
112.7917784048999
 21
216.3583928225
 31
0.0
  0
LINE
  5
1F4
330
2
100
AcDbEntity
  8
0
 62
     3
100
AcDbLine
 10
117.2917784048999
 20
210.0583928224999
 30
0.0
 11
112.7917784048999
 21
210.0583928224999
 31
0.0
  0
LINE
  5
1F5
330
2
100
AcDbEntity
  8
0
 62
     3
100
AcDbLine
 10
117.2917784048999
 20
216.3583928225
 30
0.0
 11
117.2917784048999
 21
219.5583928225
 31
0.0
  0
LINE
  5
1F6
330
2
100
AcDbEntity
  8
0
 62
     3
100
AcDbLine
 10
101.7917784048999
 20
227.4583928225
 30
0.0
 11
102.7917784048999
 21
226.4583928224999
 31
0.0
  0
LINE
  5
1F7
330
2
100
AcDbEntity
  8
0
 62
     3
100
AcDbLine
 10
101.7917784048999
 20
228.4583928224999
 30
0.0
 11
102.7917784048999
 21
227.4583928225
 31
0.0
  0
LINE
  5
1F8
330
2
100
AcDbEntity
  8
0
 62
     3
100
AcDbLine
 10
101.7917784048999
 20
230.9583928224999
 30
0.0
 11
102.7917784048999
 21
230.9583928224999
 31
0.0
  0
LINE
  5
1F9
330
2
100
AcDbEntity
  8
0
 62
     3
100
AcDbLine
 10
101.7917784048999
 20
221.4583928225
 30
0.0
 11
102.7917784048999
 21
221.4583928225
 31
0.0
  0
LINE
  5
1FA
330
2
100
AcDbEntity
  8
0
 62
     3
100
AcDbLine
 10
101.7917784048999
 20
223.9583928224999
 30
0.0
 11
102.7917784048999
 21
223.9583928224999
 31
0.0
  0
LINE
  5
1FB
330
2
100
AcDbEntity
  8
0
 62
     3
100
AcDbLine
 10
95.1917784049
 20
233.4583928225
 30
0.0
 11
112.7917784048999
 21
233.4583928225
 31
0.0
  0
LINE
  5
1FC
330
2
100
AcDbEntity
  8
0
 62
     3
100
AcDbLine
 10
95.1917784049
 20
231.4583928224999
 30
0.0
 11
110.7917784048999
 21
231.4583928224999
 31
0.0
  0
LINE
  5
1FD
330
2
100
AcDbEntity
  8
0
 62
     3
100
AcDbLine
 10
97.79177840490001
 20
221.9583928225
 30
0.0
 11
110.7917784048999
 21
221.9583928225
 31
0.0
  0
LINE
  5
1FE
330
2
100
AcDbEntity
  8
0
 62
     3
100
AcDbLine
 10
97.79177840490001
 20
223.4583928225
 30
0.0
 11
110.7917784048999
 21
223.4583928225
 31
0.0
  0
LINE
  5
1FF
330
2
100
AcDbEntity
  8
0
 62
     3
100
AcDbLine
 10
95.1917784049
 20
231.4583928224999
 30
0.0
 11
95.1917784049
 21
233.4583928225
 31
0.0
  0
LINE
  5
200
330
2
100
AcDbEntity
  8
0
 62
     3
100
AcDbLine
 10
97.79177840490001
 20
221.9583928225
 30
0.0
 11
97.79177840490001
 21
223.4583928225
 31
0.0
  0
LINE
  5
201
330
2
100
AcDbEntity
  8
0
 62
     3
100
AcDbLine
 10
101.7917784048999
 20
230.9583928224999
 30
0.0
 11
101.7917784048999
 21
223.9583928224999
 31
0.0
  0
ARC
  5
202
330
2
100
AcDbEntity
  8
0
 62
     3
100
AcDbCircle
 10
103.8542784048999
 20
227.4583928225
 30
0.0
 40
4.0625
100
AcDbArc
 50
120.5102374060997
 51
239.4897625938999
  0
LINE
  5
203
330
2
100
AcDbEntity
  8
0
 62
     3
100
AcDbLine
 10
100.7917784048999
 20
226.8583928224999
 30
0.0
 11
99.83633039009999
 21
226.8583928224999
 31
0.0
  0
LINE
  5
204
330
2
100
AcDbEntity
  8
0
 62
     3
100
AcDbLine
 10
99.83633039009999
 20
228.0583928225
 30
0.0
 11
100.7917784048999
 21
228.0583928225
 31
0.0
  0
LINE
  5
205
330
2
100
AcDbEntity
  8
0
 62
     3
100
AcDbLine
 10
100.7917784048999
 20
228.0583928225
 30
0.0
 11
100.7917784048999
 21
226.8583928224999
 31
0.0
  0
LINE
  5
206
330
2
100
AcDbEntity
  8
0
 62
     3
100
AcDbLine
 10
100.7917784048999
 20
228.0583928225
 30
0.0
 11
100.7917784048999
 21
226.8583928224999
 31
0.0
  0
LINE
  5
207
330
2
100
AcDbEntity
  8
0
 62
     3
100
AcDbLine
 10
100.7917784048999
 20
228.0583928225
 30
0.0
 11
100.7917784048999
 21
226.8583928224999
 31
0.0
  0
LINE
  5
208
330
2
100
AcDbEntity
  8
0
 62
     3
100
AcDbLine
 10
100.7917784048999
 20
228.0583928225
 30
0.0
 11
100.7917784048999
 21
226.8583928224999
 31
0.0
  0
LINE
  5
209
330
2
100
AcDbEntity
  8
0
 62
     3
100
AcDbLine
 10
100.7917784048999
 20
228.0583928225
 30
0.0
 11
100.7917784048999
 21
226.8583928224999
 31
0.0
  0
LINE
  5
20A
330
2
100
AcDbEntity
  8
0
 62
     3
100
AcDbLine
 10
100.7917784048999
 20
228.0583928225
 30
0.0
 11
100.7917784048999
 21
226.8583928224999
 31
0.0
  0
LINE
  5
20B
330
2
100
AcDbEntity
  8
0
 62
     3
100
AcDbLine
 10
100.7917784048999
 20
228.0583928225
 30
0.0
 11
100.7917784048999
 21
226.8583928224999
 31
0.0
  0
LINE
  5
20C
330
2
100
AcDbEntity
  8
0
 62
     3
100
AcDbLine
 10
100.7917784048999
 20
228.0583928225
 30
0.0
 11
100.7917784048999
 21
226.8583928224999
 31
0.0
  0
LINE
  5
20D
330
2
100
AcDbEntity
  8
0
 62
     3
100
AcDbLine
 10
114.8917784048999
 20
242.4583928224999
 30
0.0
 11
114.8917784048999
 21
243.4583928224999
 31
0.0
  0
LINE
  5
20E
330
2
100
AcDbEntity
  8
0
 62
     3
100
AcDbLine
 10
110.8917784048997
 20
243.4583928224999
 30
0.0
 11
110.8917784048997
 21
242.4583928224999
 31
0.0
  0
CIRCLE
  5
20F
330
2
100
AcDbEntity
  8
0
 62
     3
100
AcDbCircle
 10
112.8917784048999
 20
242.9583928225
 30
0.0
 40
3.149999999999999
  0
LINE
  5
210
330
2
100
AcDbEntity
  8
0
 62
     3
100
AcDbLine
 10
108.8917784048999
 20
233.4583928225
 30
0.0
 11
108.8917784048999
 21
247.4583928224999
 31
0.0
  0
LINE
  5
211
330
2
100
AcDbEntity
  8
0
 62
     3
100
AcDbLine
 10
105.7917784048999
 20
231.4583928224999
 30
0.0
 11
105.7917784048999
 21
223.4583928225
 31
0.0
  0
LINE
  5
212
330
2
100
AcDbEntity
  8
0
 62
     3
100
AcDbLine
 10
104.7917784048999
 20
223.4583928225
 30
0.0
 11
104.7917784048999
 21
231.4583928224999
 31
0.0
  0
LINE
  5
213
330
2
100
AcDbEntity
  8
0
 62
     3
100
AcDbLine
 10
102.7917784048999
 20
223.4583928225
 30
0.0
 11
102.7917784048999
 21
231.4583928224999
 31
0.0
  0
LINE
  5
214
330
2
100
AcDbEntity
  8
0
 62
     3
100
AcDbLine
 10
102.7917784048999
 20
221.4583928225
 30
0.0
 11
103.2917784048997
 21
221.9583928225
 31
0.0
  0
LINE
  5
215
330
2
100
AcDbEntity
  8
0
 62
     3
100
AcDbLine
 10
102.7917784048999
 20
223.9583928224999
 30
0.0
 11
103.2917784048997
 21
223.4583928225
 31
0.0
  0
LINE
  5
216
330
2
100
AcDbEntity
  8
0
 62
     3
100
AcDbLine
 10
102.7917784048999
 20
223.9583928224999
 30
0.0
 11
103.2917784048997
 21
223.4583928225
 31
0.0
  0
LINE
  5
217
330
2
100
AcDbEntity
  8
0
 62
     3
100
AcDbLine
 10
104.7917784048999
 20
220.4583928224999
 30
0.0
 11
105.7917784048999
 21
220.4583928224999
 31
0.0
  0
LINE
  5
218
330
2
100
AcDbEntity
  8
0
 62
     3
100
AcDbLine
 10
104.7917784048999
 20
224.9583928224999
 30
0.0
 11
105.7917784048999
 21
224.9583928224999
 31
0.0
  0
LINE
  5
219
330
2
100
AcDbEntity
  8
0
 62
     3
100
AcDbLine
 10
102.7917784048999
 20
230.9583928224999
 30
0.0
 11
103.2917784048997
 21
231.4583928224999
 31
0.0
  0
LINE
  5
21A
330
2
100
AcDbEntity
  8
0
 62
     3
100
AcDbLine
 10
102.7917784048999
 20
230.9583928224999
 30
0.0
 11
103.2917784048997
 21
231.4583928224999
 31
0.0
  0
LINE
  5
21B
330
2
100
AcDbEntity
  8
0
 62
     3
100
AcDbLine
 10
104.2917784048997
 20
226.4583928224999
 30
0.0
 11
104.7917784048999
 21
225.9583928225
 31
0.0
  0
LINE
  5
21C
330
2
100
AcDbEntity
  8
0
 62
     3
100
AcDbLine
 10
104.2917784048997
 20
228.4583928224999
 30
0.0
 11
104.7917784048999
 21
228.9583928224999
 31
0.0
  0
LINE
  5
21D
330
2
100
AcDbEntity
  8
0
 62
     3
100
AcDbLine
 10
104.2917784048997
 20
228.4583928224999
 30
0.0
 11
104.7917784048999
 21
228.9583928224999
 31
0.0
  0
LINE
  5
21E
330
2
100
AcDbEntity
  8
0
 62
     3
100
AcDbLine
 10
104.2917784048997
 20
226.4583928224999
 30
0.0
 11
104.7917784048999
 21
226.4583928224999
 31
0.0
  0
LINE
  5
21F
330
2
100
AcDbEntity
  8
0
 62
     3
100
AcDbLine
 10
104.2917784048997
 20
228.4583928224999
 30
0.0
 11
104.7917784048999
 21
228.4583928224999
 31
0.0
  0
LINE
  5
220
330
2
100
AcDbEntity
  8
0
 62
     3
100
AcDbLine
 10
104.7917784048999
 20
229.9583928225
 30
0.0
 11
105.7917784048999
 21
229.9583928225
 31
0.0
  0
LINE
  5
221
330
2
100
AcDbEntity
  8
0
 62
     3
100
AcDbLine
 10
106.7917784048999
 20
223.4583928225
 30
0.0
 11
106.7917784048999
 21
231.4583928224999
 31
0.0
  0
LINE
  5
222
330
2
100
AcDbEntity
  8
0
 62
     3
100
AcDbLine
 10
117.2917784048999
 20
229.0583928224999
 30
0.0
 11
112.7917784048999
 21
229.0583928224999
 31
0.0
  0
LINE
  5
223
330
2
100
AcDbEntity
  8
0
 62
     3
100
AcDbLine
 10
117.2917784048999
 20
225.8583928225
 30
0.0
 11
112.7917784048999
 21
225.8583928225
 31
0.0
  0
LINE
  5
224
330
2
100
AcDbEntity
  8
0
 62
     3
100
AcDbLine
 10
110.7917784048999
 20
223.4583928225
 30
0.0
 11
110.7917784048999
 21
231.4583928224999
 31
0.0
  0
LINE
  5
225
330
2
100
AcDbEntity
  8
0
 62
     3
100
AcDbLine
 10
117.2917784048999
 20
225.8583928225
 30
0.0
 11
117.2917784048999
 21
229.0583928224999
 31
0.0
  0
ARC
  5
226
330
2
100
AcDbEntity
  8
0
 62
     3
100
AcDbCircle
 10
113.8917784048999
 20
241.9583928224999
 30
0.0
 40
0.5
100
AcDbArc
 50
90.0
 51
180.0
  0
LINE
  5
227
330
2
100
AcDbEntity
  8
0
 62
     3
100
AcDbLine
 10
110.8917784048997
 20
242.4583928224999
 30
0.0
 11
111.8917784048997
 21
242.4583928224999
 31
0.0
  0
LINE
  5
228
330
2
100
AcDbEntity
  8
0
 62
     3
100
AcDbLine
 10
113.3917784048999
 20
240.9583928225
 30
0.0
 11
113.3917784048999
 21
241.9583928224999
 31
0.0
  0
ARC
  5
229
330
2
100
AcDbEntity
  8
0
 62
     3
100
AcDbCircle
 10
111.8917784048997
 20
241.9583928224999
 30
0.0
 40
0.5
100
AcDbArc
 50
0.0
 51
90.0
  0
LINE
  5
22A
330
2
100
AcDbEntity
  8
0
 62
     3
100
AcDbLine
 10
112.3917784048999
 20
241.9583928224999
 30
0.0
 11
112.3917784048999
 21
240.9583928225
 31
0.0
  0
LINE
  5
22B
330
2
100
AcDbEntity
  8
0
 62
     3
100
AcDbLine
 10
112.3917784048999
 20
240.9583928225
 30
0.0
 11
113.3917784048999
 21
240.9583928225
 31
0.0
  0
LINE
  5
22C
330
2
100
AcDbEntity
  8
0
 62
     3
100
AcDbLine
 10
115.9917784048998
 20
234.5583928224999
 30
0.0
 11
115.9917784048998
 21
241.3583928225
 31
0.0
  0
LINE
  5
22D
330
2
100
AcDbEntity
  8
0
 62
     3
100
AcDbLine
 10
117.1917784049
 20
238.4884014695999
 30
0.0
 11
117.1917784049
 21
234.5583928224999
 31
0.0
  0
LINE
  5
22E
330
2
100
AcDbEntity
  8
0
 62
     3
100
AcDbLine
 10
113.8917784048999
 20
242.4583928224999
 30
0.0
 11
114.8917784048999
 21
242.4583928224999
 31
0.0
  0
LINE
  5
22F
330
2
100
AcDbEntity
  8
0
 62
     3
100
AcDbLine
 10
115.9917784048998
 20
238.4884014695999
 30
0.0
 11
117.1917784049
 21
238.4884014695999
 31
0.0
  0
ARC
  5
230
330
2
100
AcDbEntity
  8
0
 62
     3
100
AcDbCircle
 10
113.8917784048999
 20
243.9583928224999
 30
0.0
 40
0.5
100
AcDbArc
 50
180.0
 51
270.0
  0
LINE
  5
231
330
2
100
AcDbEntity
  8
0
 62
     3
100
AcDbLine
 10
111.8917784048997
 20
243.4583928224999
 30
0.0
 11
110.8917784048997
 21
243.4583928224999
 31
0.0
  0
LINE
  5
232
330
2
100
AcDbEntity
  8
0
 62
     3
100
AcDbLine
 10
113.3917784048999
 20
243.9583928224999
 30
0.0
 11
113.3917784048999
 21
244.9583928225
 31
0.0
  0
ARC
  5
233
330
2
100
AcDbEntity
  8
0
 62
     3
100
AcDbCircle
 10
111.8917784048997
 20
243.9583928224999
 30
0.0
 40
0.5
100
AcDbArc
 50
270.0
 51
0.0
  0
LINE
  5
234
330
2
100
AcDbEntity
  8
0
 62
     3
100
AcDbLine
 10
112.3917784048999
 20
244.9583928225
 30
0.0
 11
112.3917784048999
 21
243.9583928224999
 31
0.0
  0
LINE
  5
235
330
2
100
AcDbEntity
  8
0
 62
     3
100
AcDbLine
 10
113.3917784048999
 20
244.9583928225
 30
0.0
 11
112.3917784048999
 21
244.9583928225
 31
0.0
  0
LINE
  5
236
330
2
100
AcDbEntity
  8
0
 62
     3
100
AcDbLine
 10
114.8917784048999
 20
243.4583928224999
 30
0.0
 11
113.8917784048999
 21
243.4583928224999
 31
0.0
  0
LINE
  5
237
330
2
100
AcDbEntity
  8
0
  6
PHANTOM
 62
     3
100
AcDbLine
 10
121.3917784048999
 20
247.4583928224999
 30
0.0
 11
121.3917784048999
 21
178.2583928225
 31
0.0
  0
LINE
  5
238
330
2
100
AcDbEntity
  8
0
 62
     3
100
AcDbLine
 10
133.3917784048999
 20
179.9583928225
 30
0.0
 11
129.6238292124999
 21
179.9583928225
 31
0.0
  0
LINE
  5
239
330
2
100
AcDbEntity
  8
0
 62
     3
100
AcDbLine
 10
129.8917784048997
 20
178.9583928225
 30
0.0
 11
133.3917784048999
 21
178.9583928225
 31
0.0
  0
LINE
  5
23A
330
2
100
AcDbEntity
  8
0
 62
     3
100
AcDbLine
 10
129.0257530010999
 20
178.4583928224999
 30
0.0
 11
139.0172477068999
 21
178.4583928224999
 31
0.0
  0
LINE
  5
23B
330
2
100
AcDbEntity
  8
0
 62
     3
100
AcDbLine
 10
119.5167784048999
 20
178.4583928224999
 30
0.0
 11
127.0257530010999
 21
178.4583928224999
 31
0.0
  0
LINE
  5
23C
330
2
100
AcDbEntity
  8
0
 62
     3
100
AcDbLine
 10
118.3917784048999
 20
180.2583928225
 30
0.0
 11
119.6417784048999
 21
178.2583928225
 31
0.0
  0
LINE
  5
23D
330
2
100
AcDbEntity
  8
0
 62
     3
100
AcDbLine
 10
117.9483802916998
 20
179.4583928224999
 30
0.0
 11
118.6983802916999
 21
178.2583928225
 31
0.0
  0
LINE
  5
23E
330
2
100
AcDbEntity
  8
0
 62
     3
100
AcDbLine
 10
129.6238292124999
 20
179.9583928225
 30
0.0
 11
126.6793428395999
 21
178.2583928225
 31
0.0
  0
LINE
  5
23F
330
2
100
AcDbEntity
  8
0
 62
     3
100
AcDbLine
 10
128.6793428396
 20
178.2583928225
 30
0.0
 11
129.8917784048997
 21
178.9583928225
 31
0.0
  0
LINE
  5
240
330
2
100
AcDbEntity
  8
0
  6
CENTER
 62
     3
100
AcDbLine
 10
125.0417784048997
 20
213.9583928224999
 30
0.0
 11
121.7417784048999
 21
213.9583928224999
 31
0.0
  0
CIRCLE
  5
241
330
2
100
AcDbEntity
  8
0
  6
PHANTOM
 62
     3
100
AcDbCircle
 10
123.3917784048997
 20
213.9583928224999
 30
0.0
 40
1.5
  0
CIRCLE
  5
242
330
2
100
AcDbEntity
  8
0
 62
     3
100
AcDbCircle
 10
123.3917784048997
 20
213.9583928224999
 30
0.0
 40
1.199999999999999
  0
LINE
  5
243
330
2
100
AcDbEntity
  8
0
  6
CENTER
 62
     3
100
AcDbLine
 10
123.3917784048997
 20
215.6083928225
 30
0.0
 11
123.3917784048997
 21
212.3083928224999
 31
0.0
  0
LINE
  5
244
330
2
100
AcDbEntity
  8
0
 62
     3
100
AcDbLine
 10
139.3917784048997
 20
179.7583928225
 30
0.0
 11
142.3917784048998
 21
179.7583928225
 31
0.0
  0
LINE
  5
245
330
2
100
AcDbEntity
  8
0
 62
     3
100
AcDbLine
 10
133.3917784048999
 20
178.9583928225
 30
0.0
 11
133.3917784048999
 21
179.9583928225
 31
0.0
  0
ARC
  5
246
330
2
100
AcDbEntity
  8
0
 62
     3
100
AcDbCircle
 10
138.3501138588999
 20
179.258391232
 30
0.0
 40
1.041664546
100
AcDbArc
 50
286.2601172263
 51
0.0000874819999641
  0
LINE
  5
247
330
2
100
AcDbEntity
  8
0
 62
     3
100
AcDbLine
 10
139.3917784048997
 20
179.2583928225
 30
0.0
 11
139.3917784048997
 21
179.7583928225
 31
0.0
  0
ARC
  5
248
330
2
100
AcDbEntity
  8
0
 62
     3
100
AcDbCircle
 10
143.3912782046998
 20
179.2267676723999
 30
0.0
 40
1.0
100
AcDbArc
 50
178.1877101924
 51
255.5520850993
  0
LINE
  5
249
330
2
100
AcDbEntity
  8
0
 62
     3
100
AcDbLine
 10
142.3917784048998
 20
179.2583928225
 30
0.0
 11
142.3917784048998
 21
179.7583928225
 31
0.0
  0
LINE
  5
24A
330
2
100
AcDbEntity
  8
0
 62
     3
100
AcDbLine
 10
120.1267784049
 20
238.7583928225
 30
0.0
 11
121.8917784048999
 21
238.7583928225
 31
0.0
  0
LINE
  5
24B
330
2
100
AcDbEntity
  8
0
 62
     3
100
AcDbLine
 10
121.8917784048999
 20
237.1583928224999
 30
0.0
 11
120.1267784049
 21
237.1583928224999
 31
0.0
  0
LINE
  5
24C
330
2
100
AcDbEntity
  8
0
 62
     3
100
AcDbLine
 10
119.4917784048998
 20
241.3583928225
 30
0.0
 11
119.4917784048998
 21
234.5583928224999
 31
0.0
  0
LINE
  5
24D
330
2
100
AcDbEntity
  8
0
 62
     3
100
AcDbLine
 10
120.1267784049
 20
234.5583928224999
 30
0.0
 11
120.1267784049
 21
241.3583928225
 31
0.0
  0
LINE
  5
24E
330
2
100
AcDbEntity
  8
0
 62
     3
100
AcDbLine
 10
118.3917784048999
 20
241.3583928225
 30
0.0
 11
118.3917784048999
 21
234.5583928224999
 31
0.0
  0
LINE
  5
24F
330
2
100
AcDbEntity
  8
0
 62
     3
100
AcDbLine
 10
118.3917784048999
 20
235.2083928224999
 30
0.0
 11
119.4917784048998
 21
235.2083928224999
 31
0.0
  0
LINE
  5
250
330
2
100
AcDbEntity
  8
0
 62
     3
100
AcDbLine
 10
119.4917784048998
 20
234.5583928224999
 30
0.0
 11
120.1267784049
 21
234.5583928224999
 31
0.0
  0
LINE
  5
251
330
2
100
AcDbEntity
  8
0
 62
     3
100
AcDbLine
 10
119.4917784048998
 20
240.7083928225
 30
0.0
 11
118.3917784048999
 21
240.7083928225
 31
0.0
  0
LINE
  5
252
330
2
100
AcDbEntity
  8
0
 62
     3
100
AcDbLine
 10
120.1267784049
 20
241.3583928225
 30
0.0
 11
119.4917784048998
 21
241.3583928225
 31
0.0
  0
LINE
  5
253
330
2
100
AcDbEntity
  8
0
 62
     3
100
AcDbLine
 10
121.8917784048999
 20
238.7583928225
 30
0.0
 11
121.8917784048999
 21
237.1583928224999
 31
0.0
  0
LINE
  5
254
330
2
100
AcDbEntity
  8
0
 62
     3
100
AcDbLine
 10
176.3917784048999
 20
215.7083928225
 30
0.0
 11
176.3917784048999
 21
239.6583928224999
 31
0.0
  0
LINE
  5
255
330
2
100
AcDbEntity
  8
0
 62
     3
100
AcDbLine
 10
176.8917784048998
 20
247.4583928224999
 30
0.0
 11
176.8917784048998
 21
177.4583928224999
 31
0.0
  0
LINE
  5
256
330
2
100
AcDbEntity
  8
0
 62
     3
100
AcDbLine
 10
176.3917784048999
 20
212.2083928224999
 30
0.0
 11
176.3917784048999
 21
178.4583928224999
 31
0.0
  0
LINE
  5
257
330
2
100
AcDbEntity
  8
0
 62
     3
100
AcDbLine
 10
169.5167784048997
 20
178.4583928224999
 30
0.0
 11
176.3917784048999
 21
178.4583928224999
 31
0.0
  0
LINE
  5
258
330
2
100
AcDbEntity
  8
0
 62
     3
100
AcDbLine
 10
173.3917784048998
 20
179.9583928225
 30
0.0
 11
169.6238292124999
 21
179.9583928225
 31
0.0
  0
LINE
  5
259
330
2
100
AcDbEntity
  8
0
 62
     3
100
AcDbLine
 10
169.8917784048999
 20
178.9583928225
 30
0.0
 11
173.3917784048998
 21
178.9583928225
 31
0.0
  0
LINE
  5
25A
330
2
100
AcDbEntity
  8
0
 62
     3
100
AcDbLine
 10
165.3917784048998
 20
180.2583928225
 30
0.0
 11
168.3917784048998
 21
180.2583928225
 31
0.0
  0
LINE
  5
25B
330
2
100
AcDbEntity
  8
0
 62
     3
100
AcDbLine
 10
165.2101765180999
 20
178.4583928224999
 30
0.0
 11
167.0257530010998
 21
178.4583928224999
 31
0.0
  0
LINE
  5
25C
330
2
100
AcDbEntity
  8
0
 62
     3
100
AcDbLine
 10
165.8351765180999
 20
179.4583928224999
 30
0.0
 11
167.9483802916999
 21
179.4583928224999
 31
0.0
  0
LINE
  5
25D
330
2
100
AcDbEntity
  8
0
 62
     3
100
AcDbLine
 10
164.1417784048998
 20
178.2583928225
 30
0.0
 11
165.3917784048998
 21
180.2583928225
 31
0.0
  0
LINE
  5
25E
330
2
100
AcDbEntity
  8
0
 62
     3
100
AcDbLine
 10
165.0851765180999
 20
178.2583928225
 30
0.0
 11
165.8351765180999
 21
179.4583928224999
 31
0.0
  0
LINE
  5
25F
330
2
100
AcDbEntity
  8
0
 62
     3
100
AcDbLine
 10
168.3917784048998
 20
180.2583928225
 30
0.0
 11
168.8562534503999
 21
179.5152327495999
 31
0.0
  0
LINE
  5
260
330
2
100
AcDbEntity
  8
0
 62
     3
100
AcDbLine
 10
169.6238292124999
 20
179.9583928225
 30
0.0
 11
166.6793428395999
 21
178.2583928225
 31
0.0
  0
LINE
  5
261
330
2
100
AcDbEntity
  8
0
 62
     3
100
AcDbLine
 10
167.9483802916999
 20
179.4583928224999
 30
0.0
 11
168.1630085450999
 21
179.1149876169999
 31
0.0
  0
LINE
  5
262
330
2
100
AcDbEntity
  8
0
 62
     3
100
AcDbLine
 10
169.3865771905999
 20
178.6667147654
 30
0.0
 11
169.6417784048998
 21
178.2583928225
 31
0.0
  0
LINE
  5
263
330
2
100
AcDbEntity
  8
0
 62
     3
100
AcDbLine
 10
168.6793428396
 20
178.2583928225
 30
0.0
 11
169.8917784048999
 21
178.9583928225
 31
0.0
  0
LINE
  5
264
330
2
100
AcDbEntity
  8
0
 62
     3
100
AcDbLine
 10
173.3917784048998
 20
178.9583928225
 30
0.0
 11
173.3917784048998
 21
179.9583928225
 31
0.0
  0
LINE
  5
265
330
2
100
AcDbEntity
  8
0
 62
     3
100
AcDbLine
 10
173.3917784048998
 20
215.7083928225
 30
0.0
 11
176.3917784048999
 21
215.7083928225
 31
0.0
  0
LINE
  5
266
330
2
100
AcDbEntity
  8
0
  6
CENTER
 62
     3
100
AcDbLine
 10
175.0417784048998
 20
213.9583928224999
 30
0.0
 11
171.7417784048999
 21
213.9583928224999
 31
0.0
  0
LINE
  5
267
330
2
100
AcDbEntity
  8
0
 62
     3
100
AcDbLine
 10
173.3917784048998
 20
212.2083928224999
 30
0.0
 11
176.3917784048999
 21
212.2083928224999
 31
0.0
  0
CIRCLE
  5
268
330
2
100
AcDbEntity
  8
0
  6
PHANTOM
 62
     3
100
AcDbCircle
 10
173.3917784048998
 20
213.9583928224999
 30
0.0
 40
1.5
  0
CIRCLE
  5
269
330
2
100
AcDbEntity
  8
0
 62
     3
100
AcDbCircle
 10
173.3917784048998
 20
213.9583928224999
 30
0.0
 40
1.199999999999999
  0
ARC
  5
26A
330
2
100
AcDbEntity
  8
0
 62
     3
100
AcDbCircle
 10
173.3917784048998
 20
213.9583928224999
 30
0.0
 40
1.75
100
AcDbArc
 50
90.0
 51
270.0
  0
LINE
  5
26B
330
2
100
AcDbEntity
  8
0
  6
CENTER
 62
     3
100
AcDbLine
 10
173.3917784048998
 20
215.6083928225
 30
0.0
 11
173.3917784048998
 21
212.3083928224999
 31
0.0
  0
LINE
  5
26C
330
2
100
AcDbEntity
  8
0
 62
     3
100
AcDbLine
 10
173.3917784048998
 20
246.9583928225
 30
0.0
 11
173.3917784048998
 21
240.4583928224999
 31
0.0
  0
LINE
  5
26D
330
2
100
AcDbEntity
  8
0
 62
     3
100
AcDbLine
 10
171.3917784048998
 20
239.6583928224999
 30
0.0
 11
176.3917784048999
 21
239.6583928224999
 31
0.0
  0
LINE
  5
26E
330
2
100
AcDbEntity
  8
0
 62
     3
100
AcDbLine
 10
176.3917784048999
 20
240.4583928224999
 30
0.0
 11
171.3917784048998
 21
240.4583928224999
 31
0.0
  0
LINE
  5
26F
330
2
100
AcDbEntity
  8
0
 62
     3
100
AcDbLine
 10
171.3917784048998
 20
240.4583928224999
 30
0.0
 11
171.3917784048998
 21
239.6583928224999
 31
0.0
  0
LINE
  5
270
330
2
100
AcDbEntity
  8
0
 62
     3
100
AcDbLine
 10
176.3917784048999
 20
239.6583928224999
 30
0.0
 11
176.3917784048999
 21
240.4583928224999
 31
0.0
  0
TEXT
  5
28C
330
2
100
AcDbEntity
  8
0
 62
     7
100
AcDbText
 10
146.0000000000001
 20
60.00000295525
 30
0.0
 40
2.999994089499998
  1
PS3N-A12A2N
 11
146.0000000000001
 21
61.5
 31
0.0
100
AcDbText
 73
     2
  0
TEXT
  5
28D
330
2
100
AcDbEntity
  8
0
 62
     7
100
AcDbText
 10
146.0000000000001
 20
65.00000295525
 30
0.0
 40
2.999994089499998
  1
PS3N-A12A2CN
 11
146.0000000000001
 21
66.5
 31
0.0
100
AcDbText
 73
     2
  0
TEXT
  5
28E
330
2
100
AcDbEntity
  8
0
 62
     7
100
AcDbText
 10
146.0000000000001
 20
80.00000295525
 30
0.0
 40
2.999994089499998
  1
PS3N-A05A2N
 11
146.0000000000001
 21
81.5
 31
0.0
100
AcDbText
 73
     2
  0
TEXT
  5
28F
330
2
100
AcDbEntity
  8
0
 62
     7
100
AcDbText
 10
146.0000000000001
 20
75.00000295525
 30
0.0
 40
2.999994089499998
  1
PS3N-A12A1CN
 11
146.0000000000001
 21
76.5
 31
0.0
100
AcDbText
 73
     2
  0
TEXT
  5
290
330
2
100
AcDbEntity
  8
0
 62
     7
100
AcDbText
 10
146.0000000000001
 20
70.00000295525
 30
0.0
 40
2.999994089499998
  1
PS3N-A12A1N
 11
146.0000000000001
 21
71.5
 31
0.0
100
AcDbText
 73
     2
  0
TEXT
  5
291
330
2
100
AcDbEntity
  8
0
 62
     7
100
AcDbText
 10
146.0000000000001
 20
95.00000295525
 30
0.0
 40
2.999994089499998
  1
PS3N-A05A1CN
 11
146.0000000000001
 21
96.5
 31
0.0
100
AcDbText
 73
     2
  0
TEXT
  5
292
330
2
100
AcDbEntity
  8
0
 62
     7
100
AcDbText
 10
146.0000000000001
 20
90.00000295525
 30
0.0
 40
2.999994089499998
  1
PS3N-A05A1N
 11
146.0000000000001
 21
91.5
 31
0.0
100
AcDbText
 73
     2
  0
TEXT
  5
293
330
2
100
AcDbEntity
  8
0
 62
     7
100
AcDbText
 10
146.0000000000001
 20
85.00000295525
 30
0.0
 40
2.999994089499998
  1
PS3N-A05A2CN
 11
146.0000000000001
 21
86.5
 31
0.0
100
AcDbText
 73
     2
  0
TEXT
  5
294
330
2
100
AcDbEntity
  8
0
 62
     7
100
AcDbText
 10
146.0000000000001
 20
40.00000295525
 30
0.0
 40
2.999994089499998
  1
PS3N-A24A2N
 11
146.0000000000001
 21
41.5
 31
0.0
100
AcDbText
 73
     2
  0
TEXT
  5
295
330
2
100
AcDbEntity
  8
0
 62
     7
100
AcDbText
 10
146.0000000000001
 20
45.00000295525
 30
0.0
 40
2.999994089499998
  1
PS3N-A24A2CN
 11
146.0000000000001
 21
46.5
 31
0.0
100
AcDbText
 73
     2
  0
TEXT
  5
296
330
2
100
AcDbEntity
  8
0
 62
     7
100
AcDbText
 10
146.0000000000001
 20
50.00000295525
 30
0.0
 40
2.999994089499998
  1
PS3N-A24A1N
 11
146.0000000000001
 21
51.5
 31
0.0
100
AcDbText
 73
     2
  0
TEXT
  5
297
330
2
100
AcDbEntity
  8
0
 62
     7
100
AcDbText
 10
146.0000000000001
 20
55.00000295525
 30
0.0
 40
2.999994089499998
  1
PS3N-A24A1CN
 11
146.0000000000001
 21
56.5
 31
0.0
100
AcDbText
 73
     2
  0
ENDSEC
  0
SECTION
  2
OBJECTS
  0
DICTIONARY
  5
7
330
0
100
AcDbDictionary
281
     1
  3
ACAD_GROUP
350
1F
  3
ACAD_LAYOUT
350
B
  3
ACAD_MLINESTYLE
350
20
  3
ACAD_PLOTSETTINGS
350
21
  3
ACAD_PLOTSTYLENAME
350
6
  3
AcDbVariableDictionary
350
298
  0
DICTIONARY
  5
1F
102
{ACAD_REACTORS
330
7
102
}
330
7
100
AcDbDictionary
281
     1
  0
DICTIONARY
  5
B
102
{ACAD_REACTORS
330
7
102
}
330
7
100
AcDbDictionary
281
     1
  3
Model
350
A
  3
ﾚｲｱｳﾄ1
350
F
  0
DICTIONARY
  5
20
102
{ACAD_REACTORS
330
7
102
}
330
7
100
AcDbDictionary
281
     1
  3
Standard
350
22
  0
DICTIONARY
  5
21
102
{ACAD_REACTORS
330
7
102
}
330
7
100
AcDbDictionary
281
     1
  0
ACDBDICTIONARYWDFLT
  5
6
102
{ACAD_REACTORS
330
7
102
}
330
7
100
AcDbDictionary
281
     1
  3
Normal
350
5
100
AcDbDictionaryWithDefault
340
5
  0
DICTIONARY
  5
298
102
{ACAD_REACTORS
330
7
102
}
330
7
100
AcDbDictionary
281
     1
  3
DIMASSOC
350
299
  0
LAYOUT
  5
A
102
{ACAD_REACTORS
330
B
102
}
330
B
100
AcDbPlotSettings
  1

  2
C:\Program Files\AutoCAD 2000i\plotters\DWF Classic.pc3
  4

  6

 40
0.0
 41
0.0
 42
0.0
 43
0.0
 44
0.0
 45
0.0
 46
0.0
 47
0.0
 48
0.0
 49
0.0
140
0.0
141
0.0
142
1.0
143
1.0
 70
  1712
 72
     0
 73
     0
 74
     0
  7

 75
     0
147
1.0
148
0.0
149
0.0
100
AcDbLayout
  1
Model
 70
     1
 71
     0
 10
0.0
 20
0.0
 11
12.0
 21
9.0
 12
0.0
 22
0.0
 32
0.0
 14
0.0
 24
0.0
 34
0.0
 15
0.0
 25
0.0
 35
0.0
146
0.0
 13
0.0
 23
0.0
 33
0.0
 16
1.0
 26
0.0
 36
0.0
 17
0.0
 27
1.0
 37
0.0
 76
     0
330
2
  0
LAYOUT
  5
F
102
{ACAD_REACTORS
330
B
102
}
330
B
100
AcDbPlotSettings
  1

  2
C:\Program Files\AutoCAD 2000i\plotters\DWF Classic.pc3
  4

  6

 40
0.0
 41
0.0
 42
0.0
 43
0.0
 44
0.0
 45
0.0
 46
0.0
 47
0.0
 48
0.0
 49
0.0
140
0.0
141
0.0
142
1.0
143
1.0
 70
   688
 72
     0
 73
     0
 74
     5
  7

 75
    16
147
1.0
148
0.0
149
0.0
100
AcDbLayout
  1
ﾚｲｱｳﾄ1
 70
     1
 71
     1
 10
0.0
 20
0.0
 11
12.0
 21
9.0
 12
0.0
 22
0.0
 32
0.0
 14
1.000000000000000E+20
 24
1.000000000000000E+20
 34
1.000000000000000E+20
 15
-1.000000000000000E+20
 25
-1.000000000000000E+20
 35
-1.000000000000000E+20
146
0.0
 13
0.0
 23
0.0
 33
0.0
 16
1.0
 26
0.0
 36
0.0
 17
0.0
 27
1.0
 37
0.0
 76
     0
330
C
  0
MLINESTYLE
  5
22
102
{ACAD_REACTORS
330
20
102
}
330
20
100
AcDbMlineStyle
  2
STANDARD
 70
     0
  3

 62
   256
 51
90.0
 52
90.0
 71
     2
 49
0.5
 62
   256
  6
BYLAYER
 49
-0.5
 62
   256
  6
BYLAYER
  0
ACDBPLACEHOLDER
  5
5
102
{ACAD_REACTORS
330
6
102
}
330
6
  0
DICTIONARYVAR
  5
299
102
{ACAD_REACTORS
330
298
102
}
330
298
100
DictionaryVariables
280
     0
  1
1
  0
ENDSEC
  0
EOF
