  0
SECTION
  2
HEADER
  9
$ACADVER
  1
AC1004
  9
$ANGBASE
 50
0.0000000000
  9
$ANGDIR
 70
     0
  9
$ATTDIA
 70
     0
  9
$ATTMODE
 70
     1
  9
$ATTREQ
 70
     1
  9
$AUNITS
 70
     0
  9
$AUPREC
 70
     0
  9
$AXISMODE
 70
     0
  9
$AXISUNIT
 10
0.0000000000
 20
0.0000000000
  9
$BLIPMODE
 70
     1
  9
$CECOLOR
 62
   256
  9
$CELTYPE
  6
BYLAYER
  9
$CHAMFERA
 40
0.0000000000
  9
$CHAMFERB
 40
0.0000000000
  9
$CLAYER
  8
0
  9
$COORDS
 70
     0
  9
$DIMALT
 70
     0
  9
$DIMALTD
 70
     2
  9
$DIMALTF
 40
25.4000000000
  9
$DIMAPOST
  1

  9
$DIMASO
 70
     1
  9
$DIMASZ
 40
1.9727878465
  9
$DIMBLK
  1

  9
$DIMBLK1
  1

  9
$DIMBLK2
  1

  9
$DIMCEN
 40
9.0000000000E-02
  9
$DIMDLE
 40
0.0000000000
  9
$DIMDLI
 40
0.3800000000
  9
$DIMEXE
 40
3.8099999428
  9
$DIMEXO
 40
2.5399999619
  9
$DIMLFAC
 40
1.0000000000
  9
$DIMLIM
 70
     0
  9
$DIMPOST
  1

  9
$DIMRND
 40
0.0000000000
  9
$DIMSCALE
 40
1.0000000000
  9
$DIMSE1
 70
     0
  9
$DIMSE2
 70
     0
  9
$DIMSHO
 70
     0
  9
$DIMTAD
 70
     0
  9
$DIMTIH
 70
     0
  9
$DIMTM
 40
0.0000000000
  9
$DIMTOH
 70
     1
  9
$DIMTOL
 70
     0
  9
$DIMTP
 40
0.0000000000
  9
$DIMTSZ
 40
0.0000000000
  9
$DIMTXT
 40
3.1999998093
  9
$DIMZIN
 70
     0
  9
$DRAGMODE
 70
     1
  9
$ELEVATION
 40
0.0000000000
  9
$EXTMAX
 10
3.1750000000
 20
203.8019226074
 30
0.0000000000
  9
$EXTMIN
 10
-137.3135803223
 20
-3.1750000000
 30
0.0000000000
  9
$FASTZOOM
 70
     1
  9
$FILLETRAD
 40
6.2500000000E-02
  9
$FILLMODE
 70
     1
  9
$GRIDMODE
 70
     0
  9
$GRIDUNIT
 10
0.0000000000
 20
0.0000000000
  9
$INSBASE
 10
0.0000000000
 20
0.0000000000
 30
0.0000000000
  9
$LIMCHECK
 70
     0
  9
$LIMMAX
 10
3.1750000000
 20
203.8019226074
  9
$LIMMIN
 10
-137.3135803223
 20
-3.1750000000
  9
$LTSCALE
 40
1.0000000000
  9
$LUNITS
 70
     2
  9
$LUPREC
 70
     3
  9
$MEASUREMENT
 70
     0
  9
$MENU
  1
ACAD
  9
$MIRRTEXT
 70
     0
  9
$ORTHOMODE
 70
     0
  9
$OSMODE
 70
     0
  9
$PDMODE
 70
     0
  9
$PDSIZE
 40
0.0000000000
  9
$PLINEWID
 40
0.0000000000
  9
$PROXYGRAPHICS
 70
     0
  9
$QTEXTMODE
 70
     0
  9
$REGENMODE
 70
     1
  9
$SKETCHINC
 40
0.1000000000
  9
$SKPOLY
 70
     0
  9
$SNAPANG
 50
0.0000000000
  9
$SNAPBASE
 10
0.0000000000
 20
0.0000000000
  9
$SNAPISOPAIR
 70
     0
  9
$SNAPMODE
 70
     0
  9
$SNAPSTYLE
 70
     0
  9
$SNAPUNIT
 10
1.0000000000
 20
1.0000000000
  9
$SPLFRAME
 70
     0
  9
$SPLINESEGS
 70
     8
  9
$TDCREATE
 40
2454680.4075463009
  9
$TDINDWG
 40
0.0000000000
  9
$TDUPDATE
 40
2454680.4075463009
  9
$TDUSRTIMER
 40
0.0000000000
  9
$TEXTSIZE
 40
3.1999998093
  9
$TEXTSTYLE
  7
STANDARD
  9
$THICKNESS
 40
0.0000000000
  9
$TRACEWID
 40
5.0000000000E-02
  9
$USERI1
 70
     0
  9
$USERI2
 70
     0
  9
$USERI3
 70
     0
  9
$USERI4
 70
     0
  9
$USERI5
 70
     0
  9
$USERR1
 40
0.0000000000
  9
$USERR2
 40
0.0000000000
  9
$USERR3
 40
0.0000000000
  9
$USERR4
 40
0.0000000000
  9
$USERR5
 40
0.0000000000
  9
$USRTIMER
 70
     1
  9
$VIEWCTR
 10
-67.0692901611
 20
100.3134613037
  9
$VIEWDIR
 10
0.0000000000
 20
0.0000000000
 30
1.0000000000
  9
$VIEWSIZE
 40
206.9769226074
  0
ENDSEC
  0
SECTION
  2
TABLES
  0
TABLE
  2
LTYPE
 70
     2
  0
LTYPE
  2
SOLID
  3
Solid
 70
    64
 72
    65
 73
     0
 40
0.0000000000
  0
LTYPE
  2
CENTERLINE
  3
Centerline
 70
    64
 72
    65
 73
     4
 40
25.4000000000
 49
19.0500000000
 49
-1.5875000000
 49
3.1750000000
 49
-1.5875000000
  0
ENDTAB
  0
TABLE
  2
LAYER
 70
     4
  0
LAYER
  2
Layer1$C$L1
 70
     0
  6
SOLID
 62
     3
  0
LAYER
  2
Layer3$C$L3
 70
     0
  6
SOLID
 62
     3
  0
LAYER
  2
Layer6$C$L6
 70
     0
  6
SOLID
 62
     6
  0
LAYER
  2
Layer8$C$L8
 70
     0
  6
SOLID
 62
    32
  0
ENDTAB
  0
TABLE
  2
STYLE
 70
     1
  0
STYLE
  2
STANDARD
  3
txt
  4

 40
0.0000000000
 41
1.0000000000
 42
3.1999998093
 50
0.0000000000
 70
     0
 71
     0
  0
ENDTAB
  0
ENDSEC
  0
SECTION
  2
BLOCKS
  0
ENDSEC
  0
SECTION
  2
ENTITIES
  0
TEXT
  8
Layer8$C$L8
 62
     2
 10
-52.0371468214
 20
5.4135134230
 40
3.1999998753
  1
MA4-A03302
 72
     5
 11
-20.8928199184
 21
5.4135134230
  0
TEXT
  8
Layer8$C$L8
 10
-51.6317414160
 20
18.3864863960
 40
3.1999998753
  1
OCW-11#
 72
     5
 11
-30.0874141389
 21
18.3864863960
  0
CIRCLE
  8
Layer1$C$L1
 10
-115.1385803223
 20
181.6269226074
 40
14.2500000000
  0
CIRCLE
  8
Layer1$C$L1
 10
-115.1385803223
 20
181.6269226074
 40
11.6000003815
  0
LINE
  8
Layer1$C$L1
 10
-104.7385711670
 20
114.5398712158
 11
-104.7385711670
 21
110.9638366699
  0
LINE
  8
Layer1$C$L1
 10
-102.6385803223
 20
116.1377258301
 11
-102.6385803223
 21
110.9638366699
  0
LINE
  8
Layer1$C$L1
 10
-100.9385833740
 20
117.4312286377
 11
-100.9385833740
 21
110.9638366699
  0
LINE
  8
Layer1$C$L1
 10
-103.6385803223
 20
115.3768463135
 11
-103.6385803223
 21
110.9638366699
  0
LINE
  8
Layer1$C$L1
 10
-99.6385803223
 20
117.9638366699
 11
-99.6385803223
 21
110.9638366699
  0
LINE
  8
Layer1$C$L1
 10
-128.1385803223
 20
124.9428558350
 11
-102.3809967041
 21
124.9428558350
  0
LINE
  8
Layer1$C$L1
 10
-100.2385711670
 20
117.9638366699
 11
-100.2385711670
 21
110.9638366699
  0
LINE
  8
Layer1$C$L1
 10
-105.9385833740
 20
113.6268157959
 11
-105.9385833740
 21
110.9638366699
  0
LINE
  8
Layer1$C$L1
 10
-130.6385803223
 20
110.9638366699
 11
-130.6385803223
 21
117.9638366699
  0
ARC
  8
Layer1$C$L1
 10
-104.9385833740
 20
127.6638336182
 40
2.7999992371
 50
0.0000000000
 51
89.9999820139
  0
LINE
  8
Layer1$C$L1
 10
-130.0385742188
 20
110.9638366699
 11
-130.0385742188
 21
117.9638366699
  0
ARC
  8
Layer1$C$L1
 10
-100.6385803223
 20
126.4218750000
 40
1.5000000000
 50
180.0000359722
 51
260.4059517873
  0
LINE
  8
Layer1$C$L1
 10
-107.2985839844
 20
112.5920257568
 11
-107.2985839844
 21
110.9638366699
  0
ARC
  8
Layer1$C$L1
 10
-129.6385803223
 20
126.4218750000
 40
1.5000000000
 50
279.5940841849
 51
360.0000000000
  0
LINE
  8
Layer1$C$L1
 10
-129.3385772705
 20
111.4964599609
 11
-129.3385772705
 21
117.9638366699
  0
ARC
  8
Layer1$C$L1
 10
-125.3385772705
 20
127.6638336182
 40
2.7999992371
 50
89.9999820139
 51
179.9999640278
  0
LINE
  8
Layer1$C$L1
 10
-131.1385803223
 20
110.9638366699
 11
-99.1385803223
 21
110.9638366699
  0
LINE
  8
Layer1$C$L1
 10
-130.6385803223
 20
118.4638366699
 11
-99.6385803223
 21
118.4638366699
  0
LINE
  8
Layer1$C$L1
 10
-130.6385803223
 20
123.4638366699
 11
-130.6385803223
 21
118.4638366699
  0
LINE
  8
Layer1$C$L1
 10
-125.5385742188
 20
114.3878021240
 11
-125.5385742188
 21
117.9638366699
  0
LINE
  8
Layer1$C$L1
 10
-126.6385803223
 20
113.5508422852
 11
-126.6385803223
 21
117.9638366699
  0
LINE
  8
Layer1$C$L1
 10
-131.1385803223
 20
117.9638366699
 11
-99.1385803223
 21
117.9638366699
  0
LINE
  8
Layer1$C$L1
 10
-99.6385865639
 20
118.4638522867
 11
-99.1385860331
 21
117.9638517138
  0
LINE
  8
Layer1$C$L1
 10
-128.1385803223
 20
127.6638336182
 11
-128.1385803223
 21
126.4218750000
  0
LINE
  8
Layer1$C$L1
 10
-128.5385742188
 20
112.1051635742
 11
-128.5385742188
 21
117.9638366699
  0
LINE
  8
Layer1$C$L1
 10
-99.1385803223
 20
117.9638366699
 11
-99.1385803223
 21
109.4638366699
  0
LINE
  8
Layer1$C$L1
 10
-127.6385803223
 20
112.7899475098
 11
-127.6385803223
 21
117.9638366699
  0
LINE
  8
Layer1$C$L1
 10
-131.1385803223
 20
117.9638366699
 11
-131.1385803223
 21
109.4638366699
  0
LINE
  8
Layer1$C$L1
 10
-99.6385803223
 20
123.4638366699
 11
-99.6385803223
 21
118.4638366699
  0
LINE
  8
Layer1$C$L1
 10
-125.3385772705
 20
130.4638366699
 11
-104.9385833740
 21
130.4638366699
  0
LINE
  8
Layer1$C$L1
 10
-131.1385803223
 20
109.4638366699
 11
-99.1385803223
 21
109.4638366699
  0
LINE
  8
Layer1$C$L1
 10
-122.9785766602
 20
116.3356628418
 11
-122.9785766602
 21
117.9638366699
  0
ARC
  8
Layer1$C$L1
 10
-129.1385803223
 20
123.4638366699
 40
1.5000000000
 50
99.5940482127
 51
179.9999640278
  0
ARC
  8
Layer1$C$L1
 10
-101.1385803223
 20
123.4638366699
 40
1.5000000000
 50
0.0000000000
 51
80.4059158151
  0
LINE
  8
Layer1$C$L1
 10
-124.3385772705
 20
115.3008575439
 11
-124.3385772705
 21
117.9638366699
  0
LINE
  8
Layer1$C$L1
 10
-131.1385829148
 20
117.9638483420
 11
-130.6385830162
 21
118.4638481985
  0
LINE
  8
Layer3$C$L3
  6
CENTERLINE
 10
-115.1385803223
 20
133.4638366699
 11
-115.1385803223
 21
106.4638366699
  0
LINE
  8
Layer3$C$L3
  6
CENTERLINE
 10
-134.1385803223
 20
181.6269226074
 11
-96.1385803223
 21
181.6269226074
  0
CIRCLE
  8
Layer1$C$L1
 10
-115.1385803223
 20
181.6269226074
 40
15.5000000000
  0
CIRCLE
  8
Layer1$C$L1
 10
-115.1385803223
 20
181.6269226074
 40
13.0000000000
  0
CIRCLE
  8
Layer1$C$L1
 10
-115.1385803223
 20
181.6269226074
 40
16.0000000000
  0
LINE
  8
Layer1$C$L1
 10
-101.7385711670
 20
116.8225250244
 11
-101.7385711670
 21
110.9638366699
  0
LINE
  8
Layer3$C$L3
  6
CENTERLINE
 10
-115.1385803223
 20
200.6269226074
 11
-115.1385803223
 21
162.6269226074
  0
LINE
  8
Layer1$C$L1
 10
-102.1385803223
 20
127.6638336182
 11
-102.1385803223
 21
126.4218750000
  0
ENDSEC
  0
EOF
