  0
SECTION
  2
HEADER
  9
$ACADVER
  1
AC1015
  9
$ACADMAINTVER
 70
    20
  9
$DWGCODEPAGE
  3
ANSI_932
  9
$INSBASE
 10
0.0
 20
0.0
 30
0.0
  9
$EXTMIN
 10
-0.0124125174916117
 20
-0.0135605388070417
 30
-0.0000000000112498
  9
$EXTMAX
 10
210.0124135249497
 20
297.0135619513907
 30
0.0000000000002956
  9
$LIMMIN
 10
-3.174999999999999
 20
-3.174999999999999
  9
$LIMMAX
 10
213.175
 20
300.175
  9
$ORTHOMODE
 70
     0
  9
$REGENMODE
 70
     1
  9
$FILLMODE
 70
     1
  9
$QTEXTMODE
 70
     0
  9
$MIRRTEXT
 70
     0
  9
$LTSCALE
 40
1.0
  9
$ATTMODE
 70
     1
  9
$TEXTSIZE
 40
2.999994039499999
  9
$TRACEWID
 40
0.05
  9
$TEXTSTYLE
  7
STANDARD
  9
$CLAYER
  8
0
  9
$CELTYPE
  6
ByLayer
  9
$CECOLOR
 62
   256
  9
$CELTSCALE
 40
1.0
  9
$DISPSILH
 70
     0
  9
$DIMSCALE
 40
1.0
  9
$DIMASZ
 40
1.9727878411
  9
$DIMEXO
 40
2.539999961899999
  9
$DIMDLI
 40
0.38
  9
$DIMRND
 40
0.0
  9
$DIMDLE
 40
0.0
  9
$DIMEXE
 40
3.809999942799999
  9
$DIMTP
 40
0.0
  9
$DIMTM
 40
0.0
  9
$DIMTXT
 40
2.999994039499999
  9
$DIMCEN
 40
0.09
  9
$DIMTSZ
 40
0.0
  9
$DIMTOL
 70
     0
  9
$DIMLIM
 70
     0
  9
$DIMTIH
 70
     0
  9
$DIMTOH
 70
     1
  9
$DIMSE1
 70
     0
  9
$DIMSE2
 70
     0
  9
$DIMTAD
 70
     0
  9
$DIMZIN
 70
     0
  9
$DIMBLK
  1

  9
$DIMASO
 70
     1
  9
$DIMSHO
 70
     0
  9
$DIMPOST
  1

  9
$DIMAPOST
  1

  9
$DIMALT
 70
     0
  9
$DIMALTD
 70
     2
  9
$DIMALTF
 40
25.4
  9
$DIMLFAC
 40
1.0
  9
$DIMTOFL
 70
     0
  9
$DIMTVP
 40
0.0
  9
$DIMTIX
 70
     0
  9
$DIMSOXD
 70
     0
  9
$DIMSAH
 70
     0
  9
$DIMBLK1
  1

  9
$DIMBLK2
  1

  9
$DIMSTYLE
  2
Standard
  9
$DIMCLRD
 70
     0
  9
$DIMCLRE
 70
     0
  9
$DIMCLRT
 70
     0
  9
$DIMTFAC
 40
1.0
  9
$DIMGAP
 40
0.09
  9
$DIMJUST
 70
     0
  9
$DIMSD1
 70
     0
  9
$DIMSD2
 70
     0
  9
$DIMTOLJ
 70
     1
  9
$DIMTZIN
 70
     0
  9
$DIMALTZ
 70
     0
  9
$DIMALTTZ
 70
     0
  9
$DIMUPT
 70
     0
  9
$DIMDEC
 70
     4
  9
$DIMTDEC
 70
     4
  9
$DIMALTU
 70
     2
  9
$DIMALTTD
 70
     2
  9
$DIMTXSTY
  7
STANDARD
  9
$DIMAUNIT
 70
     0
  9
$DIMADEC
 70
     0
  9
$DIMALTRND
 40
0.0
  9
$DIMAZIN
 70
     0
  9
$DIMDSEP
 70
    46
  9
$DIMATFIT
 70
     3
  9
$DIMFRAC
 70
     0
  9
$DIMLDRBLK
  1

  9
$DIMLUNIT
 70
     2
  9
$DIMLWD
 70
    -2
  9
$DIMLWE
 70
    -2
  9
$DIMTMOVE
 70
     0
  9
$LUNITS
 70
     2
  9
$LUPREC
 70
     3
  9
$SKETCHINC
 40
0.1
  9
$FILLETRAD
 40
0.0625
  9
$AUNITS
 70
     0
  9
$AUPREC
 70
     0
  9
$MENU
  1
ACAD
  9
$ELEVATION
 40
0.0
  9
$PELEVATION
 40
0.0
  9
$THICKNESS
 40
0.0
  9
$LIMCHECK
 70
     0
  9
$CHAMFERA
 40
0.0
  9
$CHAMFERB
 40
0.0
  9
$CHAMFERC
 40
0.0
  9
$CHAMFERD
 40
0.0
  9
$SKPOLY
 70
     0
  9
$TDCREATE
 40
2453405.725775463
  9
$TDUCREATE
 40
2453405.350775463
  9
$TDUPDATE
 40
2453405.738443831
  9
$TDUUPDATE
 40
2453405.363443831
  9
$TDINDWG
 40
0.0002437731
  9
$TDUSRTIMER
 40
0.0002434144
  9
$USRTIMER
 70
     1
  9
$ANGBASE
 50
0.0
  9
$ANGDIR
 70
     0
  9
$PDMODE
 70
     0
  9
$PDSIZE
 40
0.0
  9
$PLINEWID
 40
0.0
  9
$SPLFRAME
 70
     0
  9
$SPLINETYPE
 70
     6
  9
$SPLINESEGS
 70
     8
  9
$HANDSEED
  5
18A
  9
$SURFTAB1
 70
     6
  9
$SURFTAB2
 70
     6
  9
$SURFTYPE
 70
     6
  9
$SURFU
 70
     6
  9
$SURFV
 70
     6
  9
$UCSBASE
  2

  9
$UCSNAME
  2

  9
$UCSORG
 10
0.0
 20
0.0
 30
0.0
  9
$UCSXDIR
 10
1.0
 20
0.0
 30
0.0
  9
$UCSYDIR
 10
0.0
 20
1.0
 30
0.0
  9
$UCSORTHOREF
  2

  9
$UCSORTHOVIEW
 70
     0
  9
$UCSORGTOP
 10
0.0
 20
0.0
 30
0.0
  9
$UCSORGBOTTOM
 10
0.0
 20
0.0
 30
0.0
  9
$UCSORGLEFT
 10
0.0
 20
0.0
 30
0.0
  9
$UCSORGRIGHT
 10
0.0
 20
0.0
 30
0.0
  9
$UCSORGFRONT
 10
0.0
 20
0.0
 30
0.0
  9
$UCSORGBACK
 10
0.0
 20
0.0
 30
0.0
  9
$PUCSBASE
  2

  9
$PUCSNAME
  2

  9
$PUCSORG
 10
0.0
 20
0.0
 30
0.0
  9
$PUCSXDIR
 10
1.0
 20
0.0
 30
0.0
  9
$PUCSYDIR
 10
0.0
 20
1.0
 30
0.0
  9
$PUCSORTHOREF
  2

  9
$PUCSORTHOVIEW
 70
     0
  9
$PUCSORGTOP
 10
0.0
 20
0.0
 30
0.0
  9
$PUCSORGBOTTOM
 10
0.0
 20
0.0
 30
0.0
  9
$PUCSORGLEFT
 10
0.0
 20
0.0
 30
0.0
  9
$PUCSORGRIGHT
 10
0.0
 20
0.0
 30
0.0
  9
$PUCSORGFRONT
 10
0.0
 20
0.0
 30
0.0
  9
$PUCSORGBACK
 10
0.0
 20
0.0
 30
0.0
  9
$USERI1
 70
     0
  9
$USERI2
 70
     0
  9
$USERI3
 70
     0
  9
$USERI4
 70
     0
  9
$USERI5
 70
     0
  9
$USERR1
 40
0.0
  9
$USERR2
 40
0.0
  9
$USERR3
 40
0.0
  9
$USERR4
 40
0.0
  9
$USERR5
 40
0.0
  9
$WORLDVIEW
 70
     1
  9
$SHADEDGE
 70
     3
  9
$SHADEDIF
 70
    70
  9
$TILEMODE
 70
     1
  9
$MAXACTVP
 70
    64
  9
$PINSBASE
 10
0.0
 20
0.0
 30
0.0
  9
$PLIMCHECK
 70
     0
  9
$PEXTMIN
 10
1.000000000000000E+20
 20
1.000000000000000E+20
 30
1.000000000000000E+20
  9
$PEXTMAX
 10
-1.000000000000000E+20
 20
-1.000000000000000E+20
 30
-1.000000000000000E+20
  9
$PLIMMIN
 10
0.0
 20
0.0
  9
$PLIMMAX
 10
12.0
 20
9.0
  9
$UNITMODE
 70
     0
  9
$VISRETAIN
 70
     1
  9
$PLINEGEN
 70
     0
  9
$PSLTSCALE
 70
     1
  9
$TREEDEPTH
 70
  3020
  9
$CMLSTYLE
  2
Standard
  9
$CMLJUST
 70
     0
  9
$CMLSCALE
 40
1.0
  9
$PROXYGRAPHICS
 70
     1
  9
$MEASUREMENT
 70
     0
  9
$CELWEIGHT
370
    -1
  9
$ENDCAPS
280
     0
  9
$JOINSTYLE
280
     0
  9
$LWDISPLAY
290
     0
  9
$INSUNITS
 70
     0
  9
$HYPERLINKBASE
  1

  9
$STYLESHEET
  1

  9
$XEDIT
290
     1
  9
$CEPSNTYPE
380
     0
  9
$PSTYLEMODE
290
     1
  9
$FINGERPRINTGUID
  2
{3492309A-F80C-433A-8CC4-8043CADB2DB4}
  9
$VERSIONGUID
  2
{E97F44FA-C141-4851-BD7A-BE922101D66F}
  9
$EXTNAMES
290
     1
  9
$PSVPSCALE
 40
0.0
  9
$OLESTARTUP
290
     0
  0
ENDSEC
  0
SECTION
  2
CLASSES
  0
CLASS
  1
ACDBDICTIONARYWDFLT
  2
AcDbDictionaryWithDefault
  3
ObjectDBX Classes
 90
        0
280
     0
281
     0
  0
CLASS
  1
TABLESTYLE
  2
AcDbTableStyle
  3
ObjectDBX Classes
 90
     2047
280
     0
281
     0
  0
CLASS
  1
DICTIONARYVAR
  2
AcDbDictionaryVar
  3
ObjectDBX Classes
 90
        0
280
     0
281
     0
  0
CLASS
  1
ACDBPLACEHOLDER
  2
AcDbPlaceHolder
  3
ObjectDBX Classes
 90
        0
280
     0
281
     0
  0
CLASS
  1
LAYOUT
  2
AcDbLayout
  3
ObjectDBX Classes
 90
        0
280
     0
281
     0
  0
ENDSEC
  0
SECTION
  2
TABLES
  0
TABLE
  2
VPORT
  5
8
330
0
100
AcDbSymbolTable
 70
     2
  0
VPORT
  5
184
330
8
100
AcDbSymbolTableRecord
100
AcDbViewportTableRecord
  2
*Active
 70
     0
 10
0.0
 20
0.0
 11
1.0
 21
1.0
 12
106.0636251457221
 22
151.2208471030763
 13
0.0
 23
0.0
 14
1.0
 24
1.0
 15
0.0
 25
0.0
 16
0.0
 26
0.0
 36
1.0
 17
0.0
 27
0.0
 37
0.0
 40
335.78184961996
 41
1.087939698492462
 42
50.0
 43
0.0
 44
0.0
 50
0.0
 51
0.0
 71
     0
 72
   100
 73
     1
 74
     1
 75
     0
 76
     0
 77
     0
 78
     0
281
     0
 65
     1
110
0.0
120
0.0
130
0.0
111
1.0
121
0.0
131
0.0
112
0.0
122
1.0
132
0.0
 79
     0
146
0.0
  0
ENDTAB
  0
TABLE
  2
LTYPE
  5
5
330
0
100
AcDbSymbolTable
 70
     4
  0
LTYPE
  5
13
330
5
100
AcDbSymbolTableRecord
100
AcDbLinetypeTableRecord
  2
ByBlock
 70
     0
  3

 72
    65
 73
     0
 40
0.0
  0
LTYPE
  5
14
330
5
100
AcDbSymbolTableRecord
100
AcDbLinetypeTableRecord
  2
ByLayer
 70
     0
  3

 72
    65
 73
     0
 40
0.0
  0
LTYPE
  5
15
330
5
100
AcDbSymbolTableRecord
100
AcDbLinetypeTableRecord
  2
Continuous
 70
     0
  3
Solid line
 72
    65
 73
     0
 40
0.0
  0
LTYPE
  5
26
330
5
100
AcDbSymbolTableRecord
100
AcDbLinetypeTableRecord
  2
SOLID
 70
     0
  3
Solid
 72
    65
 73
     0
 40
0.0
  0
LTYPE
  5
27
330
5
100
AcDbSymbolTableRecord
100
AcDbLinetypeTableRecord
  2
CENTERLINE
 70
     0
  3
Centerline
 72
    65
 73
     4
 40
25.4
 49
19.05
 74
     0
 49
-1.587499999999999
 74
     0
 49
3.174999999999999
 74
     0
 49
-1.587499999999999
 74
     0
  0
LTYPE
  5
28
330
5
100
AcDbSymbolTableRecord
100
AcDbLinetypeTableRecord
  2
PHANTOM
 70
     0
  3
Phantom
 72
    65
 73
     6
 40
30.1625
 49
19.05
 74
     0
 49
-1.587499999999999
 74
     0
 49
3.174999999999999
 74
     0
 49
-1.587499999999999
 74
     0
 49
3.174999999999999
 74
     0
 49
-1.587499999999999
 74
     0
  0
ENDTAB
  0
TABLE
  2
LAYER
  5
2
330
0
100
AcDbSymbolTable
 70
     3
  0
LAYER
  5
10
330
2
100
AcDbSymbolTableRecord
100
AcDbLayerTableRecord
  2
0
 70
     0
 62
     7
  6
Continuous
370
    -3
390
F
  0
LAYER
  5
29
330
2
100
AcDbSymbolTableRecord
100
AcDbLayerTableRecord
  2
0$C$L0
 70
     0
 62
   192
  6
SOLID
370
    -3
390
F
  0
LAYER
  5
2A
330
2
100
AcDbSymbolTableRecord
100
AcDbLayerTableRecord
  2
LAYER8$C$L8
 70
     0
 62
   192
  6
SOLID
370
    -3
390
F
  0
ENDTAB
  0
TABLE
  2
STYLE
  5
3
330
0
100
AcDbSymbolTable
 70
     1
  0
STYLE
  5
11
330
3
100
AcDbSymbolTableRecord
100
AcDbTextStyleTableRecord
  2
STANDARD
 70
     0
 40
0.0
 41
1.0
 50
0.0
 71
     0
 42
2.999994039499999
  3
txt
  4

  0
ENDTAB
  0
TABLE
  2
VIEW
  5
6
330
0
100
AcDbSymbolTable
 70
     0
  0
ENDTAB
  0
TABLE
  2
UCS
  5
7
330
0
100
AcDbSymbolTable
 70
     0
  0
ENDTAB
  0
TABLE
  2
APPID
  5
9
330
0
100
AcDbSymbolTable
 70
     1
  0
APPID
  5
12
330
9
100
AcDbSymbolTableRecord
100
AcDbRegAppTableRecord
  2
ACAD
 70
     0
  0
ENDTAB
  0
TABLE
  2
DIMSTYLE
  5
A
330
0
100
AcDbSymbolTable
 70
     1
100
AcDbDimStyleTable
 71
     0
  0
DIMSTYLE
105
17E
330
A
100
AcDbSymbolTableRecord
100
AcDbDimStyleTableRecord
  2
Standard
 70
     0
340
11
  0
ENDTAB
  0
TABLE
  2
BLOCK_RECORD
  5
1
330
0
100
AcDbSymbolTable
 70
     0
  0
BLOCK_RECORD
  5
22
330
1
100
AcDbSymbolTableRecord
100
AcDbBlockTableRecord
  2
*Model_Space
340
25
  0
BLOCK_RECORD
  5
1E
330
1
100
AcDbSymbolTableRecord
100
AcDbBlockTableRecord
  2
*Paper_Space
340
21
  0
ENDTAB
  0
ENDSEC
  0
SECTION
  2
BLOCKS
  0
BLOCK
  5
23
330
22
100
AcDbEntity
  8
0
100
AcDbBlockBegin
  2
*Model_Space
 70
     0
 10
0.0
 20
0.0
 30
0.0
  3
*Model_Space
  1

  0
ENDBLK
  5
24
330
22
100
AcDbEntity
  8
0
100
AcDbBlockEnd
  0
BLOCK
  5
1F
330
1E
100
AcDbEntity
 67
     1
  8
0
100
AcDbBlockBegin
  2
*Paper_Space
 70
     0
 10
0.0
 20
0.0
 30
0.0
  3
*Paper_Space
  1

  0
ENDBLK
  5
20
330
1E
100
AcDbEntity
 67
     1
  8
0
100
AcDbBlockEnd
  0
ENDSEC
  0
SECTION
  2
ENTITIES
  0
TEXT
  5
2D
330
22
100
AcDbEntity
  8
0$C$L0
 62
     5
100
AcDbText
 10
145.0
 20
10.0
 30
0.0
 40
5.0
  1
ＭＡ４－Ｃ００２５６
 41
1.225865421369999
 72
     5
 11
194.0346168548
 21
10.0
 31
0.0
100
AcDbText
  0
LINE
  5
2E
330
22
100
AcDbEntity
  8
0$C$L0
 62
     3
100
AcDbLine
 10
159.144339074
 20
225.2032024838
 30
0.0
 11
158.2443286097
 21
225.0445057971
 31
0.0
  0
LINE
  5
2F
330
22
100
AcDbEntity
  8
0$C$L0
 62
     3
100
AcDbLine
 10
158.2444095127
 20
225.8442739502
 30
0.0
 11
159.1444200859
 21
225.6855780261
 31
0.0
  0
LINE
  5
30
330
22
100
AcDbEntity
  8
0$C$L0
 62
     3
100
AcDbLine
 10
158.2444182336
 20
225.8443039858
 30
0.0
 11
158.2444182336
 21
225.0443161929
 31
0.0
  0
LINE
  5
31
330
22
100
AcDbEntity
  8
0$C$L0
 62
     3
100
AcDbLine
 10
159.1444200859
 20
225.6855780261
 30
0.0
 11
159.144339074
 21
225.2032024838
 31
0.0
  0
LINE
  5
32
330
22
100
AcDbEntity
  8
0$C$L0
 62
     3
100
AcDbLine
 10
152.6445863267
 20
220.0444225743
 30
0.0
 11
150.1445899185
 21
223.344421268
 31
0.0
  0
LINE
  5
33
330
22
100
AcDbEntity
  8
0$C$L0
 62
     3
100
AcDbLine
 10
150.1444121301
 20
225.8443039858
 30
0.0
 11
158.2444182336
 21
225.8443039858
 31
0.0
  0
LINE
  5
34
330
22
100
AcDbEntity
  8
0$C$L0
 62
     3
100
AcDbLine
 10
150.1444121301
 20
225.0442856753
 30
0.0
 11
158.2444182336
 21
225.0442856753
 31
0.0
  0
LINE
  5
35
330
22
100
AcDbEntity
  8
0$C$L0
 62
     3
100
AcDbLine
 10
159.1444221518
 20
197.8858786736
 30
0.0
 11
158.2444117421
 21
198.0445755236999
 31
0.0
  0
LINE
  5
36
330
22
100
AcDbEntity
  8
0$C$L0
 62
     3
100
AcDbLine
 10
158.2444409068
 20
197.244144369
 30
0.0
 11
159.1444515345
 21
197.4028401297
 31
0.0
  0
LINE
  5
37
330
22
100
AcDbEntity
  8
0$C$L0
 62
     3
100
AcDbLine
 10
158.2444182336
 20
197.2442978823
 30
0.0
 11
158.2444182336
 21
198.0443161929
 31
0.0
  0
LINE
  5
38
330
22
100
AcDbEntity
  8
0$C$L0
 62
     3
100
AcDbLine
 10
159.1444121301
 20
197.4030198061
 30
0.0
 11
159.1444121301
 21
197.8856247866
 31
0.0
  0
LINE
  5
39
330
22
100
AcDbEntity
  8
0$C$L0
 62
     3
100
AcDbLine
 10
150.1443092921
 20
199.7443462976
 30
0.0
 11
152.6443064406
 21
203.0443444978
 31
0.0
  0
LINE
  5
3A
330
22
100
AcDbEntity
  8
0$C$L0
 62
     3
100
AcDbLine
 10
150.1444121301
 20
197.2442978823
 30
0.0
 11
158.2444182336
 21
197.2442978823
 31
0.0
  0
LINE
  5
3B
330
22
100
AcDbEntity
  8
0$C$L0
 62
     3
100
AcDbLine
 10
150.1444121301
 20
198.0442856753
 30
0.0
 11
158.2444182336
 21
198.0442856753
 31
0.0
  0
LINE
  5
3C
330
22
100
AcDbEntity
  8
0$C$L0
 62
     3
100
AcDbLine
 10
150.1444121301
 20
194.2442978823
 30
0.0
 11
150.1444121301
 21
228.8443039858
 31
0.0
  0
LINE
  5
3D
330
22
100
AcDbEntity
  8
0$C$L0
 62
     3
100
AcDbLine
 10
152.6444121301
 20
203.0443161929
 30
0.0
 11
152.6444121301
 21
220.044652514
 31
0.0
  0
CIRCLE
  5
3E
330
22
100
AcDbEntity
  8
0$C$L0
 62
     3
100
AcDbCircle
 10
148.1444121301
 20
227.8443039858
 30
0.0
 40
0.1999999881
  0
LINE
  5
3F
330
22
100
AcDbEntity
  8
0$C$L0
  6
CENTERLINE
 62
     3
100
AcDbLine
 10
148.1444121301
 20
226.5943039858
 30
0.0
 11
148.1444121301
 21
229.0943039858
 31
0.0
  0
CIRCLE
  5
40
330
22
100
AcDbEntity
  8
0$C$L0
 62
     3
100
AcDbCircle
 10
148.1444121301
 20
227.8443039858
 30
0.0
 40
0.6999999881
  0
LINE
  5
41
330
22
100
AcDbEntity
  8
0$C$L0
  6
CENTERLINE
 62
     3
100
AcDbLine
 10
146.8944121301
 20
227.8443039858
 30
0.0
 11
149.3944121301
 21
227.8443039858
 31
0.0
  0
LINE
  5
42
330
22
100
AcDbEntity
  8
0$C$L0
  6
CENTERLINE
 62
     3
100
AcDbLine
 10
148.1444121301
 20
219.0943039858
 30
0.0
 11
148.1444121301
 21
223.5943039858
 31
0.0
  0
CIRCLE
  5
43
330
22
100
AcDbEntity
  8
0$C$L0
 62
     3
100
AcDbCircle
 10
148.1444121301
 20
221.3443039858
 30
0.0
 40
0.6499999762
  0
CIRCLE
  5
44
330
22
100
AcDbEntity
  8
0$C$L0
 62
     3
100
AcDbCircle
 10
148.1444121301
 20
221.3443039858
 30
0.0
 40
0.8999999761999999
  0
ARC
  5
45
330
22
100
AcDbEntity
  8
0$C$L0
 62
     3
100
AcDbCircle
 10
143.1444121301
 20
223.5443161929
 30
0.0
 40
2.0
100
AcDbArc
 50
0.0
 51
89.99998201389999
  0
ARC
  5
46
330
22
100
AcDbEntity
  8
0$C$L0
 62
     3
100
AcDbCircle
 10
143.1444121301
 20
199.5443161929
 30
0.0
 40
2.0
100
AcDbArc
 50
269.9999633446
 51
0.0
  0
CIRCLE
  5
47
330
22
100
AcDbEntity
  8
0$C$L0
 62
     3
100
AcDbCircle
 10
148.1444121301
 20
201.7443283999
 30
0.0
 40
0.6499999762
  0
CIRCLE
  5
48
330
22
100
AcDbEntity
  8
0$C$L0
 62
     3
100
AcDbCircle
 10
148.1444121301
 20
201.7443283999
 30
0.0
 40
0.8999999761999999
  0
LINE
  5
49
330
22
100
AcDbEntity
  8
0$C$L0
  6
CENTERLINE
 62
     3
100
AcDbLine
 10
148.1444121301
 20
199.4942978823
 30
0.0
 11
148.1444121301
 21
203.9942978823
 31
0.0
  0
LINE
  5
4A
330
22
100
AcDbEntity
  8
0$C$L0
 62
     3
100
AcDbLine
 10
145.1444121301
 20
199.5443161929
 30
0.0
 11
145.1444121301
 21
223.5443161929
 31
0.0
  0
ARC
  5
4B
330
22
100
AcDbEntity
  8
0$C$L0
 62
     3
100
AcDbCircle
 10
129.6444121301
 20
223.5443161929
 30
0.0
 40
2.0
100
AcDbArc
 50
89.99998201389999
 51
179.9999640278
  0
LINE
  5
4C
330
22
100
AcDbEntity
  8
0$C$L0
  6
CENTERLINE
 62
     3
100
AcDbLine
 10
123.1444121301
 20
226.3443039858
 30
0.0
 11
123.1444121301
 21
229.3443039858
 31
0.0
  0
LINE
  5
4D
330
22
100
AcDbEntity
  8
0$C$L0
 62
     3
100
AcDbLine
 10
124.9443999231
 20
229.8443039858
 30
0.0
 11
124.9443999231
 21
227.8443039858
 31
0.0
  0
LINE
  5
4E
330
22
100
AcDbEntity
  8
0$C$L0
 62
     3
100
AcDbLine
 10
121.3444243371
 20
228.5443161929
 30
0.0
 11
121.3444243371
 21
227.8443039858
 31
0.0
  0
LINE
  5
4F
330
22
100
AcDbEntity
  8
0$C$L0
 62
     3
100
AcDbLine
 10
119.6444121301
 20
229.1442917788
 30
0.0
 11
120.5444060266
 21
229.1442917788
 31
0.0
  0
LINE
  5
50
330
22
100
AcDbEntity
  8
0$C$L0
 62
     3
100
AcDbLine
 10
120.6444121301
 20
228.5443161929
 30
0.0
 11
120.6444121301
 21
228.8443039858
 31
0.0
  0
ARC
  5
51
330
22
100
AcDbEntity
  8
0$C$L0
 62
     3
100
AcDbCircle
 10
121.6444121301
 20
228.8443039858
 30
0.0
 40
1.0
100
AcDbArc
 50
89.99998201389999
 51
179.9999640278
  0
LINE
  5
52
330
22
100
AcDbEntity
  8
0$C$L0
 62
     3
100
AcDbLine
 10
119.6444121301
 20
228.5442856753
 30
0.0
 11
121.3444243371
 21
228.5442856753
 31
0.0
  0
LINE
  5
53
330
22
100
AcDbEntity
  8
0$C$L0
 62
     3
100
AcDbLine
 10
120.5444060266
 20
229.1442917788
 30
0.0
 11
120.5444060266
 21
233.5442856753
 31
0.0
  0
ARC
  5
54
330
22
100
AcDbEntity
  8
0$C$L0
 62
     3
100
AcDbCircle
 10
123.1444121301
 20
227.8443039858
 30
0.0
 40
1.799999237099999
100
AcDbArc
 50
179.9999640278
 51
359.9999826972001
  0
LINE
  5
55
330
22
100
AcDbEntity
  8
0$C$L0
  6
CENTERLINE
 62
     3
100
AcDbLine
 10
121.6444121301
 20
227.8443039858
 30
0.0
 11
124.6444121301
 21
227.8443039858
 31
0.0
  0
CIRCLE
  5
56
330
22
100
AcDbEntity
  8
0$C$L0
 62
     3
100
AcDbCircle
 10
123.1444121301
 20
227.8443039858
 30
0.0
 40
0.6499999762
  0
CIRCLE
  5
57
330
22
100
AcDbEntity
  8
0$C$L0
 62
     3
100
AcDbCircle
 10
123.1444121301
 20
227.8443039858
 30
0.0
 40
0.8999999761999999
  0
ARC
  5
58
330
22
100
AcDbEntity
  8
0$C$L0
 62
     3
100
AcDbCircle
 10
129.6444121301
 20
199.5443161929
 30
0.0
 40
2.0
100
AcDbArc
 50
179.9999640278
 51
269.9999460417
  0
CIRCLE
  5
59
330
22
100
AcDbEntity
  8
0$C$L0
 62
     3
100
AcDbCircle
 10
127.1444121301
 20
195.2443283999
 30
0.0
 40
0.1999999881
  0
LINE
  5
5A
330
22
100
AcDbEntity
  8
0$C$L0
  6
CENTERLINE
 62
     3
100
AcDbLine
 10
127.1444121301
 20
193.9942978823
 30
0.0
 11
127.1444121301
 21
196.4942978823
 31
0.0
  0
LINE
  5
5B
330
22
100
AcDbEntity
  8
0$C$L0
 62
     3
100
AcDbLine
 10
124.9443999231
 20
193.2442978823
 30
0.0
 11
124.9443999231
 21
195.2442978823
 31
0.0
  0
LINE
  5
5C
330
22
100
AcDbEntity
  8
0$C$L0
  6
CENTERLINE
 62
     3
100
AcDbLine
 10
123.1444121301
 20
193.7442978823
 30
0.0
 11
123.1444121301
 21
196.7442978823
 31
0.0
  0
LINE
  5
5D
330
22
100
AcDbEntity
  8
0$C$L0
 62
     3
100
AcDbLine
 10
121.3444243371
 20
194.5443161929
 30
0.0
 11
121.3444243371
 21
195.2442978823
 31
0.0
  0
LINE
  5
5E
330
22
100
AcDbEntity
  8
0$C$L0
 62
     3
100
AcDbLine
 10
119.6444121301
 20
193.9442795718
 30
0.0
 11
120.5444060266
 21
193.9442795718
 31
0.0
  0
LINE
  5
5F
330
22
100
AcDbEntity
  8
0$C$L0
 62
     3
100
AcDbLine
 10
120.6444121301
 20
194.2442978823
 30
0.0
 11
120.6444121301
 21
194.5443161929
 31
0.0
  0
ARC
  5
60
330
22
100
AcDbEntity
  8
0$C$L0
 62
     3
100
AcDbCircle
 10
121.6444121301
 20
194.2443283999
 30
0.0
 40
1.0
100
AcDbArc
 50
179.9999640278
 51
269.9999460417
  0
LINE
  5
61
330
22
100
AcDbEntity
  8
0$C$L0
 62
     3
100
AcDbLine
 10
119.6444121301
 20
194.5442856753
 30
0.0
 11
121.3444243371
 21
194.5442856753
 31
0.0
  0
ARC
  5
62
330
22
100
AcDbEntity
  8
0$C$L0
 62
     3
100
AcDbCircle
 10
123.1444121301
 20
195.2443283999
 30
0.0
 40
1.799999237099999
100
AcDbArc
 50
0.0
 51
179.9999640278
  0
LINE
  5
63
330
22
100
AcDbEntity
  8
0$C$L0
  6
CENTERLINE
 62
     3
100
AcDbLine
 10
121.6444121301
 20
195.2442978823
 30
0.0
 11
124.6444121301
 21
195.2442978823
 31
0.0
  0
CIRCLE
  5
64
330
22
100
AcDbEntity
  8
0$C$L0
 62
     3
100
AcDbCircle
 10
123.1444121301
 20
195.2443283999
 30
0.0
 40
0.6499999762
  0
CIRCLE
  5
65
330
22
100
AcDbEntity
  8
0$C$L0
 62
     3
100
AcDbCircle
 10
123.1444121301
 20
195.2443283999
 30
0.0
 40
0.8999999761999999
  0
CIRCLE
  5
66
330
22
100
AcDbEntity
  8
0$C$L0
 62
     3
100
AcDbCircle
 10
127.1444121301
 20
195.2443283999
 30
0.0
 40
0.6999999881
  0
LINE
  5
67
330
22
100
AcDbEntity
  8
0$C$L0
  6
CENTERLINE
 62
     3
100
AcDbLine
 10
125.8944121301
 20
195.2442978823
 30
0.0
 11
128.3944121301
 21
195.2442978823
 31
0.0
  0
LINE
  5
68
330
22
100
AcDbEntity
  8
0$C$L0
 62
     3
100
AcDbLine
 10
119.6444121301
 20
193.9442795718
 30
0.0
 11
119.6444121301
 21
229.1442917788
 31
0.0
  0
LINE
  5
69
330
22
100
AcDbEntity
  8
0$C$L0
 62
     3
100
AcDbLine
 10
127.6444121301
 20
199.5443161929
 30
0.0
 11
127.6444121301
 21
223.5443161929
 31
0.0
  0
LINE
  5
6A
330
22
100
AcDbEntity
  8
0$C$L0
 62
     3
100
AcDbLine
 10
121.6444121301
 20
229.8443039858
 30
0.0
 11
149.1444121301
 21
229.8443039858
 31
0.0
  0
LINE
  5
6B
330
22
100
AcDbEntity
  8
0$C$L0
 62
     3
100
AcDbLine
 10
121.6444121301
 20
193.2442978823
 30
0.0
 11
149.1444121301
 21
193.2442978823
 31
0.0
  0
LINE
  5
6C
330
22
100
AcDbEntity
  8
0$C$L0
 62
     3
100
AcDbLine
 10
129.6444121301
 20
197.5442856753
 30
0.0
 11
143.1444121301
 21
197.5442856753
 31
0.0
  0
LINE
  5
6D
330
22
100
AcDbEntity
  8
0$C$L0
 62
     3
100
AcDbLine
 10
129.6444121301
 20
225.5442856753
 30
0.0
 11
143.1444121301
 21
225.5442856753
 31
0.0
  0
LINE
  5
6E
330
22
100
AcDbEntity
  8
0$C$L0
 62
     3
100
AcDbLine
 10
120.5444060266
 20
189.5442856753
 30
0.0
 11
120.5444060266
 21
193.9442795718
 31
0.0
  0
ARC
  5
6F
330
22
100
AcDbEntity
  8
0$C$L0
 62
     3
100
AcDbCircle
 10
113.6444121301
 20
233.0442856753
 30
0.0
 40
0.5
100
AcDbArc
 50
89.99998201389999
 51
179.9999640278
  0
LINE
  5
70
330
22
100
AcDbEntity
  8
0$C$L0
  6
PHANTOM
 62
     3
100
AcDbLine
 10
110.9444151819
 20
233.1942795718
 30
0.0
 11
111.1444121301
 21
233.1942795718
 31
0.0
  0
ARC
  5
71
330
22
100
AcDbEntity
  8
0$C$L0
  6
PHANTOM
 62
     3
100
AcDbCircle
 10
110.9444151819
 20
231.6942795718
 30
0.0
 40
1.5
100
AcDbArc
 50
89.99998201389999
 51
179.9999640278
  0
LINE
  5
72
330
22
100
AcDbEntity
  8
0$C$L0
  6
PHANTOM
 62
     3
100
AcDbLine
 10
110.9444151819
 20
227.8942917788
 30
0.0
 11
111.1444121301
 21
227.8942917788
 31
0.0
  0
ARC
  5
73
330
22
100
AcDbEntity
  8
0$C$L0
  6
PHANTOM
 62
     3
100
AcDbCircle
 10
110.9444151819
 20
229.3942917788
 30
0.0
 40
1.5
100
AcDbArc
 50
179.9999640278
 51
270.0000006832
  0
LINE
  5
74
330
22
100
AcDbEntity
  8
0$C$L0
  6
PHANTOM
 62
     3
100
AcDbLine
 10
109.4444151819
 20
229.3942917788
 30
0.0
 11
109.4444151819
 21
231.6942795718
 31
0.0
  0
LINE
  5
75
330
22
100
AcDbEntity
  8
0$C$L0
 62
     3
100
AcDbLine
 10
110.1444003757
 20
223.5173287256
 30
0.0
 11
108.3202659455
 21
223.1708378916
 31
0.0
  0
LINE
  5
76
330
22
100
AcDbEntity
  8
0$C$L0
 62
     3
100
AcDbLine
 10
110.1444121301
 20
226.0442856753
 30
0.0
 11
113.1444121301
 21
226.0442856753
 31
0.0
  0
LINE
  5
77
330
22
100
AcDbEntity
  8
0$C$L0
  6
PHANTOM
 62
     3
100
AcDbLine
 10
110.9444151819
 20
195.1942795718
 30
0.0
 11
111.1444121301
 21
195.1942795718
 31
0.0
  0
LINE
  5
78
330
22
100
AcDbEntity
  8
0$C$L0
  6
PHANTOM
 62
     3
100
AcDbLine
 10
109.4444151819
 20
191.3942917788
 30
0.0
 11
109.4444151819
 21
193.6942795718
 31
0.0
  0
ARC
  5
79
330
22
100
AcDbEntity
  8
0$C$L0
  6
PHANTOM
 62
     3
100
AcDbCircle
 10
110.9444151819
 20
193.6942795718
 30
0.0
 40
1.5
100
AcDbArc
 50
89.99998201389999
 51
179.9999640278
  0
LINE
  5
7A
330
22
100
AcDbEntity
  8
0$C$L0
 62
     3
100
AcDbLine
 10
110.1444121301
 20
197.0442856753
 30
0.0
 11
113.1444121301
 21
197.0442856753
 31
0.0
  0
LINE
  5
7B
330
22
100
AcDbEntity
  8
0$C$L0
 62
     3
100
AcDbLine
 10
110.1444121301
 20
197.0442856753
 30
0.0
 11
110.1444121301
 21
226.0442856753
 31
0.0
  0
ARC
  5
7C
330
22
100
AcDbEntity
  8
0$C$L0
 62
     3
100
AcDbCircle
 10
104.136462301
 20
220.3549088442
 30
0.0
 40
0.5920573473
100
AcDbArc
 50
129.6739281099
 51
215.99997869
  0
LINE
  5
7D
330
22
100
AcDbEntity
  8
0$C$L0
 62
     3
100
AcDbLine
 10
110.1444002495
 20
211.0784104254
 30
0.0
 11
103.6574704183
 21
220.0069035812
 31
0.0
  0
ARC
  5
7E
330
22
100
AcDbEntity
  8
0$C$L0
 62
     3
100
AcDbCircle
 10
111.4443999231
 20
211.5443161929
 30
0.0
 40
12.0389995575
100
AcDbArc
 50
105.0404410569
 51
129.6739281099
  0
LINE
  5
7F
330
22
100
AcDbEntity
  8
0$C$L0
  6
PHANTOM
 62
     3
100
AcDbLine
 10
113.1444121301
 20
189.5442856753
 30
0.0
 11
113.1444121301
 21
184.5442856753
 31
0.0
  0
ARC
  5
80
330
22
100
AcDbEntity
  8
0$C$L0
 62
     3
100
AcDbCircle
 10
113.6444121301
 20
190.0442856753
 30
0.0
 40
0.5
100
AcDbArc
 50
179.9999640278
 51
270.0000006832
  0
LINE
  5
81
330
22
100
AcDbEntity
  8
0$C$L0
  6
PHANTOM
 62
     3
100
AcDbLine
 10
110.9444151819
 20
189.8942917788
 30
0.0
 11
111.1444121301
 21
189.8942917788
 31
0.0
  0
LINE
  5
82
330
22
100
AcDbEntity
  8
0$C$L0
 62
     3
100
AcDbLine
 10
113.1444121301
 20
190.0442856753
 30
0.0
 11
113.1444121301
 21
233.0442856753
 31
0.0
  0
ARC
  5
83
330
22
100
AcDbEntity
  8
0$C$L0
  6
PHANTOM
 62
     3
100
AcDbCircle
 10
110.9444151819
 20
191.3942917788
 30
0.0
 40
1.5
100
AcDbArc
 50
179.9999640278
 51
270.0000006832
  0
LINE
  5
84
330
22
100
AcDbEntity
  8
0$C$L0
  6
PHANTOM
 62
     3
100
AcDbLine
 10
111.1444121301
 20
184.5442856753
 30
0.0
 11
111.1444121301
 21
197.0442856753
 31
0.0
  0
LINE
  5
85
330
22
100
AcDbEntity
  8
0$C$L0
 62
     3
100
AcDbLine
 10
113.6444121301
 20
189.5442856753
 30
0.0
 11
120.5444060266
 21
189.5442856753
 31
0.0
  0
LINE
  5
86
330
22
100
AcDbEntity
  8
0$C$L0
 62
     3
100
AcDbLine
 10
113.6444121301
 20
233.5442856753
 30
0.0
 11
120.5444060266
 21
233.5442856753
 31
0.0
  0
LINE
  5
87
330
22
100
AcDbEntity
  8
0$C$L0
  6
PHANTOM
 62
     3
100
AcDbLine
 10
111.1444121301
 20
226.0442856753
 30
0.0
 11
111.1444121301
 21
238.5442856753
 31
0.0
  0
LINE
  5
88
330
22
100
AcDbEntity
  8
0$C$L0
  6
CENTERLINE
 62
     3
100
AcDbLine
 10
113.1444121301
 20
233.0442856753
 30
0.0
 11
113.1444121301
 21
238.5442856753
 31
0.0
  0
ARC
  5
89
330
22
100
AcDbEntity
  8
0$C$L0
  6
PHANTOM
 62
     3
100
AcDbCircle
 10
77.5179045898
 20
233.0442856753
 30
0.0
 40
0.5
100
AcDbArc
 50
0.0
 51
90.0
  0
LINE
  5
8A
330
22
100
AcDbEntity
  8
0$C$L0
 62
     3
100
AcDbLine
 10
66.2179045898
 20
231.5442856753
 30
0.0
 11
66.2179045898
 21
229.1442917788
 31
0.0
  0
ARC
  5
8B
330
22
100
AcDbEntity
  8
0$C$L0
 62
     3
100
AcDbCircle
 10
69.1178984863
 20
233.0442856753
 30
0.0
 40
0.5
100
AcDbArc
 50
0.0
 51
89.99998201389999
  0
LINE
  5
8C
330
22
100
AcDbEntity
  8
0$C$L0
 62
     3
100
AcDbLine
 10
64.7179045898
 20
231.5442856753
 30
0.0
 11
64.7179045898
 21
229.1442917788
 31
0.0
  0
CIRCLE
  5
8D
330
22
100
AcDbEntity
  8
0$C$L0
 62
     3
100
AcDbCircle
 10
61.21790458979999
 20
230.5442856753
 30
0.0
 40
1.359999656699999
  0
CIRCLE
  5
8E
330
22
100
AcDbEntity
  8
0$C$L0
 62
     3
100
AcDbCircle
 10
61.21790458979999
 20
230.5442856753
 30
0.0
 40
1.75
  0
LINE
  5
8F
330
22
100
AcDbEntity
  8
0$C$L0
  6
PHANTOM
 62
     3
100
AcDbLine
 10
64.61789848630001
 20
214.3284348452
 30
0.0
 11
64.61789848630001
 21
216.8284348452
 31
0.0
  0
ARC
  5
90
330
22
100
AcDbEntity
  8
0$C$L0
 62
     3
100
AcDbCircle
 10
61.21791984859999
 20
217.3925827944
 30
0.0
 40
0.5
100
AcDbArc
 50
0.0
 51
180.0
  0
ARC
  5
91
330
22
100
AcDbEntity
  8
0$C$L0
 62
     3
100
AcDbCircle
 10
61.21791984859999
 20
217.3925827944
 30
0.0
 40
0.5
100
AcDbArc
 50
180.0
 51
0.0
  0
LINE
  5
92
330
22
100
AcDbEntity
  8
0$C$L0
 62
     3
100
AcDbLine
 10
66.2179045898
 20
229.1442917788
 30
0.0
 11
64.7179045898
 21
229.1442917788
 31
0.0
  0
LINE
  5
93
330
22
100
AcDbEntity
  8
0$C$L0
 62
     3
100
AcDbLine
 10
66.2179045898
 20
231.5442856753
 30
0.0
 11
64.7179045898
 21
231.5442856753
 31
0.0
  0
LINE
  5
94
330
22
100
AcDbEntity
  8
0$C$L0
 62
     3
100
AcDbLine
 10
66.2179045898
 20
191.5442856753
 30
0.0
 11
66.2179045898
 21
193.9442795718
 31
0.0
  0
LINE
  5
95
330
22
100
AcDbEntity
  8
0$C$L0
 62
     3
100
AcDbLine
 10
64.7179045898
 20
191.5442856753
 30
0.0
 11
64.7179045898
 21
193.9442795718
 31
0.0
  0
CIRCLE
  5
96
330
22
100
AcDbEntity
  8
0$C$L0
 62
     3
100
AcDbCircle
 10
61.21790458979999
 20
192.5442856753
 30
0.0
 40
1.75
  0
CIRCLE
  5
97
330
22
100
AcDbEntity
  8
0$C$L0
 62
     3
100
AcDbCircle
 10
61.21790458979999
 20
192.5442856753
 30
0.0
 40
1.359999656699999
  0
CIRCLE
  5
98
330
22
100
AcDbEntity
  8
0$C$L0
  6
PHANTOM
 62
     3
100
AcDbCircle
 10
64.61789848630001
 20
206.5784348452
 30
0.0
 40
1.25
  0
LINE
  5
99
330
22
100
AcDbEntity
  8
0$C$L0
 62
     3
100
AcDbLine
 10
66.2179045898
 20
191.5442856753
 30
0.0
 11
64.7179045898
 21
191.5442856753
 31
0.0
  0
LINE
  5
9A
330
22
100
AcDbEntity
  8
0$C$L0
 62
     3
100
AcDbLine
 10
66.2179045898
 20
193.9442795718
 30
0.0
 11
64.7179045898
 21
193.9442795718
 31
0.0
  0
LINE
  5
9B
330
22
100
AcDbEntity
  8
0$C$L0
 62
     3
100
AcDbLine
 10
66.2179045898
 20
198.7942856753
 30
0.0
 11
66.2179045898
 21
224.2942856753
 31
0.0
  0
LINE
  5
9C
330
22
100
AcDbEntity
  8
0$C$L0
 62
     3
100
AcDbLine
 10
67.9679045898
 20
197.0443161929
 30
0.0
 11
67.9679045898
 21
226.0443161929
 31
0.0
  0
LINE
  5
9D
330
22
100
AcDbEntity
  8
0$C$L0
 62
     3
100
AcDbLine
 10
66.1178984863
 20
199.2930954897
 30
0.0
 11
66.1178984863
 21
223.7643174136
 31
0.0
  0
LINE
  5
9E
330
22
100
AcDbEntity
  8
0$C$L0
  6
PHANTOM
 62
     3
100
AcDbLine
 10
69.1178984863
 20
233.5442856753
 30
0.0
 11
77.5179045898
 21
233.5442856753
 31
0.0
  0
ARC
  5
9F
330
22
100
AcDbEntity
  8
0$C$L0
  6
PHANTOM
 62
     3
100
AcDbCircle
 10
77.5179045898
 20
190.0442856753
 30
0.0
 40
0.5
100
AcDbArc
 50
270.0
 51
0.0
  0
ARC
  5
A0
330
22
100
AcDbEntity
  8
0$C$L0
 62
     3
100
AcDbCircle
 10
77.51790306390001
 20
156.6962303622
 30
0.0
 40
0.5
100
AcDbArc
 50
0.0
 51
89.99998201389999
  0
LINE
  5
A1
330
22
100
AcDbEntity
  8
0$C$L0
 62
     3
100
AcDbLine
 10
76.6178939086
 20
155.6962303622
 30
0.0
 11
75.11790153799999
 21
155.6962303622
 31
0.0
  0
LINE
  5
A2
330
22
100
AcDbEntity
  8
0$C$L0
 62
     3
100
AcDbLine
 10
74.117901538
 20
157.1962303622
 30
0.0
 11
74.117901538
 21
153.4962181551
 31
0.0
  0
LINE
  5
A3
330
22
100
AcDbEntity
  8
0$C$L0
 62
     3
100
AcDbLine
 10
75.11790153799999
 20
155.6962303622
 30
0.0
 11
75.11790153799999
 21
153.4962181551
 31
0.0
  0
LINE
  5
A4
330
22
100
AcDbEntity
  8
0$C$L0
 62
     3
100
AcDbLine
 10
76.6178939086
 20
155.6962303622
 30
0.0
 11
76.6178939086
 21
153.4962181551
 31
0.0
  0
ARC
  5
A5
330
22
100
AcDbEntity
  8
0$C$L0
 62
     3
100
AcDbCircle
 10
69.1178984863
 20
190.0442856753
 30
0.0
 40
0.5
100
AcDbArc
 50
270.0000179861
 51
0.0
  0
LINE
  5
A6
330
22
100
AcDbEntity
  8
0$C$L0
 62
     3
100
AcDbLine
 10
73.117901538
 20
154.0962242586
 30
0.0
 11
72.867901538
 21
154.0962242586
 31
0.0
  0
LINE
  5
A7
330
22
100
AcDbEntity
  8
0$C$L0
 62
     3
100
AcDbLine
 10
73.117901538
 20
155.1962303622
 30
0.0
 11
73.117901538
 21
153.4962181551
 31
0.0
  0
LINE
  5
A8
330
22
100
AcDbEntity
  8
0$C$L0
 62
     3
100
AcDbLine
 10
71.91800061239999
 20
148.8554842701
 30
0.0
 11
72.81799610420001
 21
148.6967907234
 31
0.0
  0
LINE
  5
A9
330
22
100
AcDbEntity
  8
0$C$L0
 62
     3
100
AcDbLine
 10
72.8179137451
 20
149.4962486727
 30
0.0
 11
72.8179137451
 21
148.6962608797
 31
0.0
  0
LINE
  5
AA
330
22
100
AcDbEntity
  8
0$C$L0
 62
     3
100
AcDbLine
 10
71.91790458979999
 20
149.3375572665
 30
0.0
 11
71.91790458979999
 21
148.854952286
 31
0.0
  0
LINE
  5
AB
330
22
100
AcDbEntity
  8
0$C$L0
 62
     3
100
AcDbLine
 10
71.9179806083
 20
149.3372349349
 30
0.0
 11
72.81799134499999
 21
149.4959300419
 31
0.0
  0
LINE
  5
AC
330
22
100
AcDbEntity
  8
0$C$L0
 62
     3
100
AcDbLine
 10
66.117901538
 20
155.1962303622
 30
0.0
 11
66.117901538
 21
153.4962181551
 31
0.0
  0
LINE
  5
AD
330
22
100
AcDbEntity
  8
0$C$L0
 62
     3
100
AcDbLine
 10
66.117901538
 20
154.0962242586
 30
0.0
 11
66.36790153799999
 21
154.0962242586
 31
0.0
  0
LINE
  5
AE
330
22
100
AcDbEntity
  8
0$C$L0
 62
     3
100
AcDbLine
 10
66.41790458979999
 20
149.4962486727
 30
0.0
 11
66.41790458979999
 21
148.6962608797
 31
0.0
  0
LINE
  5
AF
330
22
100
AcDbEntity
  8
0$C$L0
 62
     3
100
AcDbLine
 10
67.3179137451
 20
149.3375572665
 30
0.0
 11
67.3179137451
 21
148.854952286
 31
0.0
  0
LINE
  5
B0
330
22
100
AcDbEntity
  8
0$C$L0
 62
     3
100
AcDbLine
 10
66.4180184997
 20
149.496787751
 30
0.0
 11
67.3180290185
 21
149.3380915545
 31
0.0
  0
LINE
  5
B1
330
22
100
AcDbEntity
  8
0$C$L0
 62
     3
100
AcDbLine
 10
66.41783726979999
 20
148.6966123099
 30
0.0
 11
67.31783254369999
 21
148.8553070006
 31
0.0
  0
LINE
  5
B2
330
22
100
AcDbEntity
  8
0$C$L0
 62
     3
100
AcDbLine
 10
66.41790458979999
 20
149.4962486727
 30
0.0
 11
72.8179137451
 21
149.4962486727
 31
0.0
  0
LINE
  5
B3
330
22
100
AcDbEntity
  8
0$C$L0
 62
     3
100
AcDbLine
 10
67.3179137451
 20
149.3375572665
 30
0.0
 11
71.91790458979999
 21
149.3375572665
 31
0.0
  0
LINE
  5
B4
330
22
100
AcDbEntity
  8
0$C$L0
 62
     3
100
AcDbLine
 10
67.3179137451
 20
148.8549217684
 30
0.0
 11
71.91790458979999
 21
148.8549217684
 31
0.0
  0
LINE
  5
B5
330
22
100
AcDbEntity
  8
0$C$L0
 62
     3
100
AcDbLine
 10
66.41790458979999
 20
148.6962303622
 30
0.0
 11
72.8179137451
 21
148.6962303622
 31
0.0
  0
ARC
  5
B6
330
22
100
AcDbEntity
  8
0$C$L0
 62
     3
100
AcDbCircle
 10
69.61790153799999
 20
154.1962303622
 30
0.0
 40
2.799999237099999
100
AcDbArc
 50
345.5221572994001
 51
194.4776701247
  0
ARC
  5
B7
330
22
100
AcDbEntity
  8
0$C$L0
 62
     3
100
AcDbCircle
 10
69.61790153799999
 20
154.1962303622
 30
0.0
 40
2.2999992371
100
AcDbArc
 50
342.2807134438
 51
197.7191139802
  0
LINE
  5
B8
330
22
100
AcDbEntity
  8
0$C$L0
 62
     3
100
AcDbLine
 10
66.36790153799999
 20
155.6962303622
 30
0.0
 11
66.36790153799999
 21
154.0962242586
 31
0.0
  0
ARC
  5
B9
330
22
100
AcDbEntity
  8
0$C$L0
 62
     3
100
AcDbCircle
 10
69.61790153799999
 20
154.1962303622
 30
0.0
 40
1.359999656699999
100
AcDbArc
 50
329.0214857741
 51
210.9783689707
  0
LINE
  5
BA
330
22
100
AcDbEntity
  8
0$C$L0
 62
     3
100
AcDbLine
 10
72.867901538
 20
155.6962303622
 30
0.0
 11
72.867901538
 21
154.0962242586
 31
0.0
  0
LINE
  5
BB
330
22
100
AcDbEntity
  8
0$C$L0
 62
     3
100
AcDbLine
 10
62.617901538
 20
155.6962303622
 30
0.0
 11
64.117901538
 21
155.6962303622
 31
0.0
  0
ARC
  5
BC
330
22
100
AcDbEntity
  8
0$C$L0
 62
     3
100
AcDbCircle
 10
61.7179076416
 20
156.6962303622
 30
0.0
 40
0.5
100
AcDbArc
 50
89.99998201389999
 51
179.9999640278
  0
ARC
  5
BD
330
22
100
AcDbEntity
  8
0$C$L0
  6
PHANTOM
 62
     3
100
AcDbCircle
 10
60.7179076416
 20
156.6962303622
 30
0.0
 40
0.5
100
AcDbArc
 50
0.000035972178686
 51
90.0000179861
  0
ARC
  5
BE
330
22
100
AcDbEntity
  8
0$C$L0
  6
PHANTOM
 62
     3
100
AcDbCircle
 10
61.2179076416
 20
154.1962303622
 30
0.0
 40
2.2999992371
100
AcDbArc
 50
89.99998201389999
 51
197.7191686217
  0
ARC
  5
BF
330
22
100
AcDbEntity
  8
0$C$L0
  6
PHANTOM
 62
     3
100
AcDbCircle
 10
61.2179076416
 20
154.1962303622
 30
0.0
 40
1.359999656699999
100
AcDbArc
 50
89.99998201389999
 51
210.9784236122
  0
LINE
  5
C0
330
22
100
AcDbEntity
  8
0$C$L0
 62
     3
100
AcDbLine
 10
62.617901538
 20
155.6962303622
 30
0.0
 11
62.617901538
 21
153.4962181551
 31
0.0
  0
LINE
  5
C1
330
22
100
AcDbEntity
  8
0$C$L0
 62
     3
100
AcDbLine
 10
65.11790153799999
 20
157.1962303622
 30
0.0
 11
65.11790153799999
 21
153.4962181551
 31
0.0
  0
LINE
  5
C2
330
22
100
AcDbEntity
  8
0$C$L0
 62
     3
100
AcDbLine
 10
64.117901538
 20
155.6962303622
 30
0.0
 11
64.117901538
 21
153.4962181551
 31
0.0
  0
LINE
  5
C3
330
22
100
AcDbEntity
  8
0$C$L0
 62
     3
100
AcDbLine
 10
65.11790153799999
 20
155.1962303622
 30
0.0
 11
66.117901538
 21
155.1962303622
 31
0.0
  0
LINE
  5
C4
330
22
100
AcDbEntity
  8
0$C$L0
 62
     3
100
AcDbLine
 10
65.11790153799999
 20
155.6962303622
 30
0.0
 11
66.36790153799999
 21
155.6962303622
 31
0.0
  0
LINE
  5
C5
330
22
100
AcDbEntity
  8
0$C$L0
 62
     3
100
AcDbLine
 10
61.2179076416
 20
153.4962486727
 30
0.0
 11
78.0179106933
 21
153.4962486727
 31
0.0
  0
LINE
  5
C6
330
22
100
AcDbEntity
  8
0$C$L0
 62
     3
100
AcDbLine
 10
61.2179076416
 20
146.9962486727
 30
0.0
 11
78.0179106933
 21
146.9962486727
 31
0.0
  0
LINE
  5
C7
330
22
100
AcDbEntity
  8
0$C$L0
 62
     3
100
AcDbLine
 10
61.7179076416
 20
157.1962303622
 30
0.0
 11
77.51790306390001
 21
157.1962303622
 31
0.0
  0
LINE
  5
C8
330
22
100
AcDbEntity
  8
0$C$L0
 62
     3
100
AcDbLine
 10
74.117901538
 20
155.1962303622
 30
0.0
 11
73.117901538
 21
155.1962303622
 31
0.0
  0
LINE
  5
C9
330
22
100
AcDbEntity
  8
0$C$L0
 62
     3
100
AcDbLine
 10
74.117901538
 20
155.6962303622
 30
0.0
 11
72.867901538
 21
155.6962303622
 31
0.0
  0
LINE
  5
CA
330
22
100
AcDbEntity
  8
0$C$L0
  6
PHANTOM
 62
     3
100
AcDbLine
 10
69.1178984863
 20
189.5442856753
 30
0.0
 11
77.5179045898
 21
189.5442856753
 31
0.0
  0
LINE
  5
CB
330
22
100
AcDbEntity
  8
0$C$L0
  6
CENTERLINE
 62
     3
100
AcDbLine
 10
78.0179045898
 20
190.0442856753
 30
0.0
 11
78.0179045898
 21
233.0442856753
 31
0.0
  0
LINE
  5
CC
330
22
100
AcDbEntity
  8
0$C$L0
 62
     3
100
AcDbLine
 10
69.61789848630001
 20
190.0442856753
 30
0.0
 11
69.61789848630001
 21
233.0442856753
 31
0.0
  0
LINE
  5
CD
330
22
100
AcDbEntity
  8
0$C$L0
  6
CENTERLINE
 62
     7
100
AcDbLine
 10
61.21790458979999
 20
186.5442856753
 30
0.0
 11
61.21790458979999
 21
236.0442856753
 31
0.0
  0
LINE
  5
CE
330
22
100
AcDbEntity
  8
0$C$L0
 62
     3
100
AcDbLine
 10
56.21790458979999
 20
231.5442856753
 30
0.0
 11
57.71790458979999
 21
231.5442856753
 31
0.0
  0
LINE
  5
CF
330
22
100
AcDbEntity
  8
0$C$L0
 62
     3
100
AcDbLine
 10
56.21790458979999
 20
229.1442917788
 30
0.0
 11
57.71790458979999
 21
229.1442917788
 31
0.0
  0
LINE
  5
D0
330
22
100
AcDbEntity
  8
0$C$L0
 62
     3
100
AcDbLine
 10
56.21790458979999
 20
231.5442856753
 30
0.0
 11
56.21790458979999
 21
229.1442917788
 31
0.0
  0
LINE
  5
D1
330
22
100
AcDbEntity
  8
0$C$L0
 62
     3
100
AcDbLine
 10
57.71790458979999
 20
231.5442856753
 30
0.0
 11
57.71790458979999
 21
229.1442917788
 31
0.0
  0
ARC
  5
D2
330
22
100
AcDbEntity
  8
0$C$L0
 62
     3
100
AcDbCircle
 10
53.3179106933
 20
233.0442856753
 30
0.0
 40
0.5
100
AcDbArc
 50
89.99998201389999
 51
179.9999640278
  0
ARC
  5
D3
330
22
100
AcDbEntity
  8
0$C$L0
  6
CENTERLINE
 62
     3
100
AcDbCircle
 10
44.91790458979999
 20
233.0442856753
 30
0.0
 40
0.5
100
AcDbArc
 50
90.0
 51
180.0
  0
LINE
  5
D4
330
22
100
AcDbEntity
  8
0$C$L0
  6
PHANTOM
 62
     3
100
AcDbLine
 10
44.91790458979999
 20
233.5442856753
 30
0.0
 11
53.3179106933
 21
233.5442856753
 31
0.0
  0
LINE
  5
D5
330
22
100
AcDbEntity
  8
0$C$L0
 62
     3
100
AcDbLine
 10
57.71790458979999
 20
191.5442856753
 30
0.0
 11
57.71790458979999
 21
193.9442795718
 31
0.0
  0
LINE
  5
D6
330
22
100
AcDbEntity
  8
0$C$L0
 62
     3
100
AcDbLine
 10
56.21790458979999
 20
191.5442856753
 30
0.0
 11
56.21790458979999
 21
193.9442795718
 31
0.0
  0
LINE
  5
D7
330
22
100
AcDbEntity
  8
0$C$L0
 62
     3
100
AcDbLine
 10
56.21790458979999
 20
191.5442856753
 30
0.0
 11
57.71790458979999
 21
191.5442856753
 31
0.0
  0
LINE
  5
D8
330
22
100
AcDbEntity
  8
0$C$L0
 62
     3
100
AcDbLine
 10
56.21790458979999
 20
193.9442795718
 30
0.0
 11
57.71790458979999
 21
193.9442795718
 31
0.0
  0
LINE
  5
D9
330
22
100
AcDbEntity
  8
0$C$L0
 62
     3
100
AcDbLine
 10
54.46790458979999
 20
197.0443161929
 30
0.0
 11
54.46790458979999
 21
226.0443161929
 31
0.0
  0
LINE
  5
DA
330
22
100
AcDbEntity
  8
0$C$L0
 62
     3
100
AcDbLine
 10
56.3179106933
 20
199.2930954897
 30
0.0
 11
56.3179106933
 21
223.7643174136
 31
0.0
  0
LINE
  5
DB
330
22
100
AcDbEntity
  8
0$C$L0
 62
     3
100
AcDbLine
 10
56.21790458979999
 20
198.7942856753
 30
0.0
 11
56.21790458979999
 21
224.2942856753
 31
0.0
  0
ARC
  5
DC
330
22
100
AcDbEntity
  8
0$C$L0
 62
     3
100
AcDbCircle
 10
53.3179106933
 20
190.0442856753
 30
0.0
 40
0.5
100
AcDbArc
 50
179.9999640278
 51
270.0000006832
  0
ARC
  5
DD
330
22
100
AcDbEntity
  8
0$C$L0
  6
CENTERLINE
 62
     3
100
AcDbCircle
 10
44.91790458979999
 20
190.0442856753
 30
0.0
 40
0.5
100
AcDbArc
 50
180.0
 51
270.0
  0
LINE
  5
DE
330
22
100
AcDbEntity
  8
0$C$L0
  6
PHANTOM
 62
     3
100
AcDbLine
 10
44.91790458979999
 20
189.5442856753
 30
0.0
 11
53.3179106933
 21
189.5442856753
 31
0.0
  0
LINE
  5
DF
330
22
100
AcDbEntity
  8
0$C$L0
  6
PHANTOM
 62
     3
100
AcDbLine
 10
56.7179076416
 20
155.6962303622
 30
0.0
 11
57.9679076416
 21
155.6962303622
 31
0.0
  0
LINE
  5
E0
330
22
100
AcDbEntity
  8
0$C$L0
  6
PHANTOM
 62
     3
100
AcDbLine
 10
57.7179076416
 20
154.0962242586
 30
0.0
 11
57.9679076416
 21
154.0962242586
 31
0.0
  0
LINE
  5
E1
330
22
100
AcDbEntity
  8
0$C$L0
  6
PHANTOM
 62
     3
100
AcDbLine
 10
57.7179686767
 20
155.1962303622
 30
0.0
 11
57.7179686767
 21
153.4962181551
 31
0.0
  0
LINE
  5
E2
330
22
100
AcDbEntity
  8
0$C$L0
  6
PHANTOM
 62
     3
100
AcDbLine
 10
56.7179076416
 20
155.1962303622
 30
0.0
 11
57.7179076416
 21
155.1962303622
 31
0.0
  0
LINE
  5
E3
330
22
100
AcDbEntity
  8
0$C$L0
  6
PHANTOM
 62
     3
100
AcDbLine
 10
55.1180012556
 20
148.8555701262
 30
0.0
 11
56.0179967474
 21
148.6968765794
 31
0.0
  0
LINE
  5
E4
330
22
100
AcDbEntity
  8
0$C$L0
  6
PHANTOM
 62
     3
100
AcDbLine
 10
55.1179961474
 20
149.3372031944
 30
0.0
 11
56.018006884
 21
149.4958983014
 31
0.0
  0
LINE
  5
E5
330
22
100
AcDbEntity
  8
0$C$L0
  6
PHANTOM
 62
     3
100
AcDbLine
 10
55.117901538
 20
149.3375572665
 30
0.0
 11
55.117901538
 21
148.854952286
 31
0.0
  0
LINE
  5
E6
330
22
100
AcDbEntity
  8
0$C$L0
  6
PHANTOM
 62
     3
100
AcDbLine
 10
56.01791069329999
 20
149.4962486727
 30
0.0
 11
56.01791069329999
 21
148.6962608797
 31
0.0
  0
LINE
  5
E7
330
22
100
AcDbEntity
  8
0$C$L0
  6
PHANTOM
 62
     3
100
AcDbLine
 10
50.5179106933
 20
149.3375572665
 30
0.0
 11
50.5179106933
 21
148.854952286
 31
0.0
  0
LINE
  5
E8
330
22
100
AcDbEntity
  8
0$C$L0
  6
PHANTOM
 62
     3
100
AcDbLine
 10
50.5179106933
 20
149.3375572665
 30
0.0
 11
55.117901538
 21
149.3375572665
 31
0.0
  0
LINE
  5
E9
330
22
100
AcDbEntity
  8
0$C$L0
  6
PHANTOM
 62
     3
100
AcDbLine
 10
50.5179106933
 20
148.8549217684
 30
0.0
 11
55.117901538
 21
148.8549217684
 31
0.0
  0
LINE
  5
EA
330
22
100
AcDbEntity
  8
0$C$L0
  6
PHANTOM
 62
     3
100
AcDbLine
 10
55.06548759760001
 20
153.4962181551
 30
0.0
 11
55.06548759760001
 21
155.6962303622
 31
0.0
  0
LINE
  5
EB
330
22
100
AcDbEntity
  8
0$C$L0
  6
PHANTOM
 62
     3
100
AcDbLine
 10
56.7179686767
 20
157.1962303622
 30
0.0
 11
56.7179686767
 21
153.4962181551
 31
0.0
  0
LINE
  5
EC
330
22
100
AcDbEntity
  8
0$C$L0
  6
PHANTOM
 62
     3
100
AcDbLine
 10
57.9679686767
 20
155.6962303622
 30
0.0
 11
57.9679686767
 21
154.0962242586
 31
0.0
  0
ARC
  5
ED
330
22
100
AcDbEntity
  8
0$C$L0
  6
PHANTOM
 62
     3
100
AcDbCircle
 10
44.91790458979999
 20
156.6962303622
 30
0.0
 40
0.5
100
AcDbArc
 50
89.99998201389999
 51
179.9999640278
  0
LINE
  5
EE
330
22
100
AcDbEntity
  8
0$C$L0
  6
PHANTOM
 62
     3
100
AcDbLine
 10
49.617901538
 20
149.4962486727
 30
0.0
 11
49.617901538
 21
148.6962608797
 31
0.0
  0
LINE
  5
EF
330
22
100
AcDbEntity
  8
0$C$L0
  6
PHANTOM
 62
     3
100
AcDbLine
 10
46.2179076416
 20
155.6962303622
 30
0.0
 11
46.2179076416
 21
153.4962181551
 31
0.0
  0
LINE
  5
F0
330
22
100
AcDbEntity
  8
0$C$L0
  6
PHANTOM
 62
     3
100
AcDbLine
 10
49.617901538
 20
149.4962486727
 30
0.0
 11
56.01791069329999
 21
149.4962486727
 31
0.0
  0
LINE
  5
F1
330
22
100
AcDbEntity
  8
0$C$L0
  6
PHANTOM
 62
     3
100
AcDbLine
 10
49.617901538
 20
148.6962303622
 30
0.0
 11
56.01791069329999
 21
148.6962303622
 31
0.0
  0
LINE
  5
F2
330
22
100
AcDbEntity
  8
0$C$L0
  6
PHANTOM
 62
     3
100
AcDbLine
 10
46.2179076416
 20
155.6962303622
 30
0.0
 11
55.06548759760001
 21
155.6962303622
 31
0.0
  0
LINE
  5
F3
330
22
100
AcDbEntity
  8
0$C$L0
  6
PHANTOM
 62
     3
100
AcDbLine
 10
49.61800676560001
 20
149.4968912837
 30
0.0
 11
50.5180172844
 21
149.3381950873
 31
0.0
  0
LINE
  5
F4
330
22
100
AcDbEntity
  8
0$C$L0
  6
PHANTOM
 62
     3
100
AcDbLine
 10
49.6178391136
 20
148.6966756452
 30
0.0
 11
50.5178343874
 21
148.8553703359
 31
0.0
  0
LINE
  5
F5
330
22
100
AcDbEntity
  8
0$C$L0
  6
CENTERLINE
 62
     3
100
AcDbLine
 10
44.41790458979999
 20
190.0442856753
 30
0.0
 11
44.41790458979999
 21
233.0442856753
 31
0.0
  0
LINE
  5
F6
330
22
100
AcDbEntity
  8
0$C$L0
 62
     3
100
AcDbLine
 10
52.8179106933
 20
190.0442856753
 30
0.0
 11
52.8179106933
 21
233.0442856753
 31
0.0
  0
LINE
  5
F7
330
22
100
AcDbEntity
  8
0$C$L0
  6
PHANTOM
 62
     3
100
AcDbLine
 10
44.41790458979999
 20
153.4962486727
 30
0.0
 11
61.2179076416
 21
153.4962486727
 31
0.0
  0
LINE
  5
F8
330
22
100
AcDbEntity
  8
0$C$L0
  6
PHANTOM
 62
     3
100
AcDbLine
 10
44.41790458979999
 20
146.9962486727
 30
0.0
 11
61.2179076416
 21
146.9962486727
 31
0.0
  0
LINE
  5
F9
330
22
100
AcDbEntity
  8
0$C$L0
  6
PHANTOM
 62
     3
100
AcDbLine
 10
44.91790458979999
 20
157.1962303622
 30
0.0
 11
60.7179076416
 21
157.1962303622
 31
0.0
  0
LINE
  5
FA
330
22
100
AcDbEntity
  8
0$C$L0
  6
CENTERLINE
 62
     3
100
AcDbLine
 10
55.0442595703
 20
192.5442856753
 30
0.0
 11
67.12381889640001
 21
192.5442856753
 31
0.0
  0
LINE
  5
FB
330
22
100
AcDbEntity
  8
0$C$L0
  6
CENTERLINE
 62
     3
100
AcDbLine
 10
54.7023864013
 20
230.5442856753
 30
0.0
 11
67.5796447021
 21
230.5442856753
 31
0.0
  0
LINE
  5
FC
330
22
100
AcDbEntity
  8
0$C$L0
 62
     3
100
AcDbLine
 10
53.3179106933
 20
233.5442856753
 30
0.0
 11
69.1178984863
 21
233.5442856753
 31
0.0
  0
LINE
  5
FD
330
22
100
AcDbEntity
  8
0$C$L0
 62
     3
100
AcDbLine
 10
53.3179106933
 20
189.5442856753
 30
0.0
 11
69.1178984863
 21
189.5442856753
 31
0.0
  0
LINE
  5
FE
330
22
100
AcDbEntity
  8
0$C$L0
 62
     3
100
AcDbLine
 10
54.46790458979999
 20
226.0442856753
 30
0.0
 11
67.9679045898
 21
226.0442856753
 31
0.0
  0
LINE
  5
FF
330
22
100
AcDbEntity
  8
0$C$L0
 62
     3
100
AcDbLine
 10
54.46790458979999
 20
197.0442856753
 30
0.0
 11
67.9679045898
 21
197.0442856753
 31
0.0
  0
LINE
  5
100
330
22
100
AcDbEntity
  8
0$C$L0
  6
CENTERLINE
 62
     7
100
AcDbLine
 10
41.23884014509999
 20
211.5442856753
 30
0.0
 11
80.2784354197
 21
211.5442856753
 31
0.0
  0
ARC
  5
101
330
22
100
AcDbEntity
  8
0$C$L0
  6
PHANTOM
 62
     3
100
AcDbCircle
 10
61.2179076416
 20
154.1962303622
 30
0.0
 40
2.799999237099999
100
AcDbArc
 50
92.02009989190001
 51
194.4777247662
  0
LINE
  5
102
330
22
100
AcDbEntity
  8
0$C$L0
 62
     3
100
AcDbLine
 10
56.21790458979999
 20
198.7942856753
 30
0.0
 11
66.2179045898
 21
198.7942856753
 31
0.0
  0
LINE
  5
103
330
22
100
AcDbEntity
  8
0$C$L0
 62
     3
100
AcDbLine
 10
56.3179106933
 20
199.2930649722
 30
0.0
 11
66.1178984863
 21
199.2930649722
 31
0.0
  0
LINE
  5
104
330
22
100
AcDbEntity
  8
0$C$L0
 62
     3
100
AcDbLine
 10
56.3179106933
 20
211.0784348452
 30
0.0
 11
66.1178984863
 21
211.0784348452
 31
0.0
  0
LINE
  5
105
330
22
100
AcDbEntity
  8
0$C$L0
 62
     3
100
AcDbLine
 10
56.21790458979999
 20
224.2942856753
 30
0.0
 11
66.2179045898
 21
224.2942856753
 31
0.0
  0
LINE
  5
106
330
22
100
AcDbEntity
  8
0$C$L0
 62
     3
100
AcDbLine
 10
56.3179106933
 20
223.764286896
 30
0.0
 11
66.1178984863
 21
223.764286896
 31
0.0
  0
LINE
  5
107
330
22
100
AcDbEntity
  8
0$C$L0
 62
     3
100
AcDbLine
 10
56.3179106933
 20
220.6286362612
 30
0.0
 11
66.1178984863
 21
220.6286362612
 31
0.0
  0
LINE
  5
108
330
22
100
AcDbEntity
  8
0$C$L0
  6
CENTERLINE
 62
     7
100
AcDbLine
 10
103.8067046106
 20
211.5442856753
 30
0.0
 11
161.1444121301
 21
211.5442856753
 31
0.0
  0
LINE
  5
109
330
22
100
AcDbEntity
  8
0$C$L0
100
AcDbLine
 10
210.0
 20
297.0
 30
0.0
 11
0.0
 21
297.0
 31
0.0
  0
CIRCLE
  5
10A
330
22
100
AcDbEntity
  8
0$C$L0
 62
     3
100
AcDbCircle
 10
148.1444121301
 20
201.7443283999
 30
0.0
 40
1.799999237099999
  0
CIRCLE
  5
10B
330
22
100
AcDbEntity
  8
0$C$L0
 62
     3
100
AcDbCircle
 10
148.1444121301
 20
221.3443039858
 30
0.0
 40
1.799999237099999
  0
LINE
  5
10C
330
22
100
AcDbEntity
  8
0$C$L0
  6
CENTERLINE
 62
     3
100
AcDbLine
 10
145.8944121301
 20
201.7442978823
 30
0.0
 11
150.3944121301
 21
201.7442978823
 31
0.0
  0
LINE
  5
10D
330
22
100
AcDbEntity
  8
0$C$L0
  6
CENTERLINE
 62
     3
100
AcDbLine
 10
145.8944121301
 20
221.3443039858
 30
0.0
 11
150.3944121301
 21
221.3443039858
 31
0.0
  0
ARC
  5
10E
330
22
100
AcDbEntity
  8
0$C$L0
 62
     3
100
AcDbCircle
 10
149.1444121301
 20
194.2443283999
 30
0.0
 40
1.0
100
AcDbArc
 50
269.9999633446
 51
0.0
  0
ARC
  5
10F
330
22
100
AcDbEntity
  8
0$C$L0
 62
     3
100
AcDbCircle
 10
149.1444121301
 20
228.8443039858
 30
0.0
 40
1.0
100
AcDbArc
 50
0.0
 51
89.99998201389999
  0
LINE
  5
110
330
22
100
AcDbEntity
  8
0$C$L0
 62
     3
100
AcDbLine
 10
78.0180307702
 20
123.3963291753
 30
0.0
 11
76.8180258111
 21
126.696331249
 31
0.0
  0
LINE
  5
111
330
22
100
AcDbEntity
  8
0$C$L0
 62
     3
100
AcDbLine
 10
74.117901538
 20
128.8562340243
 30
0.0
 11
74.117901538
 21
141.5362267
 31
0.0
  0
LINE
  5
112
330
22
100
AcDbEntity
  8
0$C$L0
 62
     3
100
AcDbLine
 10
76.8179061157
 20
126.6962608797
 30
0.0
 11
76.8179061157
 21
143.6962608797
 31
0.0
  0
ARC
  5
113
330
22
100
AcDbEntity
  8
0$C$L0
 62
     3
100
AcDbCircle
 10
77.51790306390001
 20
113.6962303622
 30
0.0
 40
0.5
100
AcDbArc
 50
270.0000179861
 51
0.0
  0
LINE
  5
114
330
22
100
AcDbEntity
  8
0$C$L0
 62
     3
100
AcDbLine
 10
76.6178939086
 20
114.6962303622
 30
0.0
 11
75.11790153799999
 21
114.6962303622
 31
0.0
  0
LINE
  5
115
330
22
100
AcDbEntity
  8
0$C$L0
 62
     3
100
AcDbLine
 10
74.117901538
 20
113.1962303622
 30
0.0
 11
74.117901538
 21
116.8962425692
 31
0.0
  0
LINE
  5
116
330
22
100
AcDbEntity
  8
0$C$L0
 62
     3
100
AcDbLine
 10
75.11790153799999
 20
114.6962303622
 30
0.0
 11
75.11790153799999
 21
116.8962425692
 31
0.0
  0
LINE
  5
117
330
22
100
AcDbEntity
  8
0$C$L0
 62
     3
100
AcDbLine
 10
76.6178939086
 20
114.6962303622
 30
0.0
 11
76.6178939086
 21
116.8962425692
 31
0.0
  0
LINE
  5
118
330
22
100
AcDbEntity
  8
0$C$L0
 62
     3
100
AcDbLine
 10
66.117901538
 20
142.5362267
 30
0.0
 11
73.117901538
 21
142.5362267
 31
0.0
  0
LINE
  5
119
330
22
100
AcDbEntity
  8
0$C$L0
 62
     3
100
AcDbLine
 10
71.91790458979999
 20
121.054964493
 30
0.0
 11
71.91790458979999
 21
121.5375694735
 31
0.0
  0
LINE
  5
11A
330
22
100
AcDbEntity
  8
0$C$L0
 62
     3
100
AcDbLine
 10
71.9178920293
 20
121.5378534125
 30
0.0
 11
72.8178874666
 21
121.6965474495
 31
0.0
  0
LINE
  5
11B
330
22
100
AcDbEntity
  8
0$C$L0
 62
     3
100
AcDbLine
 10
67.3179137451
 20
121.054964493
 30
0.0
 11
67.3179137451
 21
121.5375694735
 31
0.0
  0
LINE
  5
11C
330
22
100
AcDbEntity
  8
0$C$L0
 62
     3
100
AcDbLine
 10
66.41799461409999
 20
121.6966813106
 30
0.0
 11
67.317989997
 21
121.5379871102
 31
0.0
  0
LINE
  5
11D
330
22
100
AcDbEntity
  8
0$C$L0
 62
     3
100
AcDbLine
 10
66.117901538
 20
127.8562340243
 30
0.0
 11
73.117901538
 21
127.8562340243
 31
0.0
  0
LINE
  5
11E
330
22
100
AcDbEntity
  8
0$C$L0
 62
     3
100
AcDbLine
 10
67.3179137451
 20
121.0549339754
 30
0.0
 11
71.91790458979999
 21
121.0549339754
 31
0.0
  0
LINE
  5
11F
330
22
100
AcDbEntity
  8
0$C$L0
 62
     3
100
AcDbLine
 10
67.3179137451
 20
121.5375389559
 30
0.0
 11
71.91790458979999
 21
121.5375389559
 31
0.0
  0
LINE
  5
120
330
22
100
AcDbEntity
  8
0$C$L0
 62
     3
100
AcDbLine
 10
66.41790458979999
 20
121.6962303622
 30
0.0
 11
72.8179137451
 21
121.6962303622
 31
0.0
  0
LINE
  5
121
330
22
100
AcDbEntity
  8
0$C$L0
  6
PHANTOM
 62
     3
100
AcDbLine
 10
61.2180837346
 20
123.3963011429
 30
0.0
 11
60.0180787755
 21
126.6963032166
 31
0.0
  0
LINE
  5
122
330
22
100
AcDbEntity
  8
0$C$L0
 62
     3
100
AcDbLine
 10
61.2178455171
 20
123.3961622228
 30
0.0
 11
62.41784754600001
 21
126.696165343
 31
0.0
  0
LINE
  5
123
330
22
100
AcDbEntity
  8
0$C$L0
 62
     3
100
AcDbLine
 10
65.11790153799999
 20
128.8562340243
 30
0.0
 11
65.11790153799999
 21
141.5362267
 31
0.0
  0
LINE
  5
124
330
22
100
AcDbEntity
  8
0$C$L0
 62
     3
100
AcDbLine
 10
62.41790458979999
 20
126.6962608797
 30
0.0
 11
62.41790458979999
 21
143.6962608797
 31
0.0
  0
LINE
  5
125
330
22
100
AcDbEntity
  8
0$C$L0
  6
PHANTOM
 62
     3
100
AcDbLine
 10
60.0179106933
 20
126.6962608797
 30
0.0
 11
60.0179106933
 21
143.6962608797
 31
0.0
  0
ARC
  5
126
330
22
100
AcDbEntity
  8
0$C$L0
 62
     3
100
AcDbCircle
 10
66.117901538
 20
128.8562340243
 30
0.0
 40
1.0
100
AcDbArc
 50
179.9999640278
 51
270.0000006832
  0
ARC
  5
127
330
22
100
AcDbEntity
  8
0$C$L0
 62
     3
100
AcDbCircle
 10
66.117901538
 20
141.5362267
 30
0.0
 40
1.0
100
AcDbArc
 50
89.99998201389999
 51
179.9999640278
  0
LINE
  5
128
330
22
100
AcDbEntity
  8
0$C$L0
 62
     3
100
AcDbLine
 10
73.117901538
 20
116.2962364657
 30
0.0
 11
72.867901538
 21
116.2962364657
 31
0.0
  0
LINE
  5
129
330
22
100
AcDbEntity
  8
0$C$L0
 62
     3
100
AcDbLine
 10
72.867901538
 20
114.6962303622
 30
0.0
 11
72.867901538
 21
116.2962364657
 31
0.0
  0
LINE
  5
12A
330
22
100
AcDbEntity
  8
0$C$L0
 62
     3
100
AcDbLine
 10
73.117901538
 20
115.1962303622
 30
0.0
 11
73.117901538
 21
116.8962425692
 31
0.0
  0
LINE
  5
12B
330
22
100
AcDbEntity
  8
0$C$L0
 62
     3
100
AcDbLine
 10
66.117901538
 20
116.2962364657
 30
0.0
 11
66.36790153799999
 21
116.2962364657
 31
0.0
  0
LINE
  5
12C
330
22
100
AcDbEntity
  8
0$C$L0
 62
     3
100
AcDbLine
 10
66.36790153799999
 20
114.6962303622
 30
0.0
 11
66.36790153799999
 21
116.2962364657
 31
0.0
  0
LINE
  5
12D
330
22
100
AcDbEntity
  8
0$C$L0
 62
     3
100
AcDbLine
 10
66.117901538
 20
115.1962303622
 30
0.0
 11
66.117901538
 21
116.8962425692
 31
0.0
  0
LINE
  5
12E
330
22
100
AcDbEntity
  8
0$C$L0
 62
     3
100
AcDbLine
 10
66.41790458979999
 20
120.8962425692
 30
0.0
 11
72.8179137451
 21
120.8962425692
 31
0.0
  0
ARC
  5
12F
330
22
100
AcDbEntity
  8
0$C$L0
 62
     3
100
AcDbCircle
 10
69.61790153799999
 20
116.1962303622
 30
0.0
 40
2.2999992371
100
AcDbArc
 50
162.2807594339
 51
17.7191872911
  0
ARC
  5
130
330
22
100
AcDbEntity
  8
0$C$L0
 62
     3
100
AcDbCircle
 10
69.61790153799999
 20
116.1962303622
 30
0.0
 40
2.799999237099999
100
AcDbArc
 50
165.5222032894
 51
14.47774343550008
  0
ARC
  5
131
330
22
100
AcDbEntity
  8
0$C$L0
 62
     3
100
AcDbCircle
 10
69.61790153799999
 20
116.1962303622
 30
0.0
 40
1.359999656699999
100
AcDbArc
 50
149.0215044434
 51
30.97844228149997
  0
LINE
  5
132
330
22
100
AcDbEntity
  8
0$C$L0
 62
     3
100
AcDbLine
 10
62.617901538
 20
114.6962303622
 30
0.0
 11
64.117901538
 21
114.6962303622
 31
0.0
  0
LINE
  5
133
330
22
100
AcDbEntity
  8
0$C$L0
 62
     3
100
AcDbLine
 10
65.11790153799999
 20
113.1962303622
 30
0.0
 11
65.11790153799999
 21
116.8962425692
 31
0.0
  0
LINE
  5
134
330
22
100
AcDbEntity
  8
0$C$L0
 62
     3
100
AcDbLine
 10
62.617901538
 20
114.6962303622
 30
0.0
 11
62.617901538
 21
116.8962425692
 31
0.0
  0
LINE
  5
135
330
22
100
AcDbEntity
  8
0$C$L0
 62
     3
100
AcDbLine
 10
64.117901538
 20
114.6962303622
 30
0.0
 11
64.117901538
 21
116.8962425692
 31
0.0
  0
ARC
  5
136
330
22
100
AcDbEntity
  8
0$C$L0
 62
     3
100
AcDbCircle
 10
61.7179076416
 20
113.6962303622
 30
0.0
 40
0.5
100
AcDbArc
 50
179.9999640278
 51
270.0000006832
  0
ARC
  5
137
330
22
100
AcDbEntity
  8
0$C$L0
  6
PHANTOM
 62
     3
100
AcDbCircle
 10
60.7179076416
 20
113.6962303622
 30
0.0
 40
0.5
100
AcDbArc
 50
269.9999993168
 51
0.0000359722000187
  0
ARC
  5
138
330
22
100
AcDbEntity
  8
0$C$L0
  6
PHANTOM
 62
     3
100
AcDbCircle
 10
61.2179076416
 20
116.1962303622
 30
0.0
 40
1.359999656699999
100
AcDbArc
 50
149.0214498019
 51
270.0000006832
  0
ARC
  5
139
330
22
100
AcDbEntity
  8
0$C$L0
  6
PHANTOM
 62
     3
100
AcDbCircle
 10
61.2179076416
 20
116.1962303622
 30
0.0
 40
2.2999992371
100
AcDbArc
 50
162.2807047924
 51
270.0000006832
  0
LINE
  5
13A
330
22
100
AcDbEntity
  8
0$C$L0
 62
     3
100
AcDbLine
 10
65.11790153799999
 20
114.6962303622
 30
0.0
 11
66.36790153799999
 21
114.6962303622
 31
0.0
  0
LINE
  5
13B
330
22
100
AcDbEntity
  8
0$C$L0
 62
     3
100
AcDbLine
 10
65.11790153799999
 20
115.1962303622
 30
0.0
 11
66.117901538
 21
115.1962303622
 31
0.0
  0
LINE
  5
13C
330
22
100
AcDbEntity
  8
0$C$L0
 62
     3
100
AcDbLine
 10
66.41790458979999
 20
120.8962425692
 30
0.0
 11
66.41790458979999
 21
121.6962608797
 31
0.0
  0
LINE
  5
13D
330
22
100
AcDbEntity
  8
0$C$L0
 62
     3
100
AcDbLine
 10
66.41792416619999
 20
120.8959685633
 30
0.0
 11
67.31791976689999
 21
121.0546616743
 31
0.0
  0
LINE
  5
13E
330
22
100
AcDbEntity
  8
0$C$L0
 62
     3
100
AcDbLine
 10
72.8179137451
 20
120.8962425692
 30
0.0
 11
72.8179137451
 21
121.6962608797
 31
0.0
  0
LINE
  5
13F
330
22
100
AcDbEntity
  8
0$C$L0
 62
     3
100
AcDbLine
 10
71.91795549279999
 20
121.0549201524
 30
0.0
 11
72.817966066
 21
120.8962242283
 31
0.0
  0
LINE
  5
140
330
22
100
AcDbEntity
  8
0$C$L0
 62
     3
100
AcDbLine
 10
61.2179076416
 20
116.8962425692
 30
0.0
 11
78.0179106933
 21
116.8962425692
 31
0.0
  0
LINE
  5
141
330
22
100
AcDbEntity
  8
0$C$L0
 62
     3
100
AcDbLine
 10
62.41790458979999
 20
126.6962303622
 30
0.0
 11
76.8179137451
 21
126.6962303622
 31
0.0
  0
LINE
  5
142
330
22
100
AcDbEntity
  8
0$C$L0
 62
     3
100
AcDbLine
 10
61.2179076416
 20
123.3962425692
 30
0.0
 11
78.0179106933
 21
123.3962425692
 31
0.0
  0
LINE
  5
143
330
22
100
AcDbEntity
  8
0$C$L0
 62
     3
100
AcDbLine
 10
61.7179076416
 20
113.1962303622
 30
0.0
 11
77.51790306390001
 21
113.1962303622
 31
0.0
  0
LINE
  5
144
330
22
100
AcDbEntity
  8
0$C$L0
 62
     3
100
AcDbLine
 10
74.117901538
 20
114.6962303622
 30
0.0
 11
72.867901538
 21
114.6962303622
 31
0.0
  0
LINE
  5
145
330
22
100
AcDbEntity
  8
0$C$L0
 62
     3
100
AcDbLine
 10
74.117901538
 20
115.1962303622
 30
0.0
 11
73.117901538
 21
115.1962303622
 31
0.0
  0
ARC
  5
146
330
22
100
AcDbEntity
  8
0$C$L0
 62
     3
100
AcDbCircle
 10
73.117901538
 20
128.8562340243
 30
0.0
 40
1.0
100
AcDbArc
 50
270.0000179861
 51
0.0
  0
LINE
  5
147
330
22
100
AcDbEntity
  8
0$C$L0
 62
     3
100
AcDbLine
 10
62.41790458979999
 20
143.6962303622
 30
0.0
 11
76.8179137451
 21
143.6962303622
 31
0.0
  0
ARC
  5
148
330
22
100
AcDbEntity
  8
0$C$L0
 62
     3
100
AcDbCircle
 10
73.117901538
 20
141.5362267
 30
0.0
 40
1.0
100
AcDbArc
 50
0.0
 51
89.99998201389999
  0
LINE
  5
149
330
22
100
AcDbEntity
  8
0$C$L0
  6
PHANTOM
 62
     3
100
AcDbLine
 10
55.11788233449999
 20
121.537896234
 30
0.0
 11
56.0178777718
 21
121.696590271
 31
0.0
  0
LINE
  5
14A
330
22
100
AcDbEntity
  8
0$C$L0
  6
PHANTOM
 62
     3
100
AcDbLine
 10
55.117901538
 20
121.054964493
 30
0.0
 11
55.117901538
 21
121.5375694735
 31
0.0
  0
LINE
  5
14B
330
22
100
AcDbEntity
  8
0$C$L0
  6
PHANTOM
 62
     3
100
AcDbLine
 10
50.5179106933
 20
121.054964493
 30
0.0
 11
50.5179106933
 21
121.5375694735
 31
0.0
  0
LINE
  5
14C
330
22
100
AcDbEntity
  8
0$C$L0
  6
PHANTOM
 62
     3
100
AcDbLine
 10
50.5179106933
 20
121.0549339754
 30
0.0
 11
55.117901538
 21
121.0549339754
 31
0.0
  0
LINE
  5
14D
330
22
100
AcDbEntity
  8
0$C$L0
  6
PHANTOM
 62
     3
100
AcDbLine
 10
50.5179106933
 20
121.5375389559
 30
0.0
 11
55.117901538
 21
121.5375389559
 31
0.0
  0
LINE
  5
14E
330
22
100
AcDbEntity
  8
0$C$L0
  6
PHANTOM
 62
     3
100
AcDbLine
 10
57.3178984863
 20
127.8462547762
 30
0.0
 11
57.3178984863
 21
142.5462669832
 31
0.0
  0
LINE
  5
14F
330
22
100
AcDbEntity
  8
0$C$L0
  6
PHANTOM
 62
     3
100
AcDbLine
 10
44.41784511749999
 20
123.3961623328
 30
0.0
 11
45.6178471464
 21
126.696165453
 31
0.0
  0
LINE
  5
150
330
22
100
AcDbEntity
  8
0$C$L0
  6
PHANTOM
 62
     3
100
AcDbLine
 10
48.3178984863
 20
127.8462547762
 30
0.0
 11
48.3178984863
 21
142.5462669832
 31
0.0
  0
LINE
  5
151
330
22
100
AcDbEntity
  8
0$C$L0
  6
PHANTOM
 62
     3
100
AcDbLine
 10
45.617901538
 20
126.6962608797
 30
0.0
 11
45.617901538
 21
143.6962608797
 31
0.0
  0
LINE
  5
152
330
22
100
AcDbEntity
  8
0$C$L0
  6
PHANTOM
 62
     3
100
AcDbLine
 10
48.3178984863
 20
127.8462547762
 30
0.0
 11
57.3178984863
 21
127.8462547762
 31
0.0
  0
LINE
  5
153
330
22
100
AcDbEntity
  8
0$C$L0
  6
PHANTOM
 62
     3
100
AcDbLine
 10
49.617901538
 20
121.6962303622
 30
0.0
 11
56.01791069329999
 21
121.6962303622
 31
0.0
  0
LINE
  5
154
330
22
100
AcDbEntity
  8
0$C$L0
  6
PHANTOM
 62
     3
100
AcDbLine
 10
49.61797216709999
 20
121.696736917
 30
0.0
 11
50.5179675499
 21
121.5380427166
 31
0.0
  0
LINE
  5
155
330
22
100
AcDbEntity
  8
0$C$L0
  6
PHANTOM
 62
     3
100
AcDbLine
 10
48.3178984863
 20
142.5462364657
 30
0.0
 11
57.3178984863
 21
142.5462364657
 31
0.0
  0
LINE
  5
156
330
22
100
AcDbEntity
  8
0$C$L0
  6
PHANTOM
 62
     3
100
AcDbLine
 10
57.7179076416
 20
116.2962364657
 30
0.0
 11
57.9679076416
 21
116.2962364657
 31
0.0
  0
LINE
  5
157
330
22
100
AcDbEntity
  8
0$C$L0
  6
PHANTOM
 62
     3
100
AcDbLine
 10
56.7179076416
 20
114.6962303622
 30
0.0
 11
57.9679076416
 21
114.6962303622
 31
0.0
  0
LINE
  5
158
330
22
100
AcDbEntity
  8
0$C$L0
  6
PHANTOM
 62
     3
100
AcDbLine
 10
56.7179076416
 20
115.1962303622
 30
0.0
 11
57.7179076416
 21
115.1962303622
 31
0.0
  0
LINE
  5
159
330
22
100
AcDbEntity
  8
0$C$L0
  6
PHANTOM
 62
     3
100
AcDbLine
 10
55.06548759760001
 20
116.8962425692
 30
0.0
 11
55.06548759760001
 21
114.6962303622
 31
0.0
  0
LINE
  5
15A
330
22
100
AcDbEntity
  8
0$C$L0
  6
PHANTOM
 62
     3
100
AcDbLine
 10
56.7179686767
 20
113.1962303622
 30
0.0
 11
56.7179686767
 21
116.8962425692
 31
0.0
  0
LINE
  5
15B
330
22
100
AcDbEntity
  8
0$C$L0
  6
PHANTOM
 62
     3
100
AcDbLine
 10
57.9679686767
 20
114.6962303622
 30
0.0
 11
57.9679686767
 21
116.2962364657
 31
0.0
  0
LINE
  5
15C
330
22
100
AcDbEntity
  8
0$C$L0
  6
PHANTOM
 62
     3
100
AcDbLine
 10
57.7179686767
 20
115.1962303622
 30
0.0
 11
57.7179686767
 21
116.8962425692
 31
0.0
  0
ARC
  5
15D
330
22
100
AcDbEntity
  8
0$C$L0
  6
PHANTOM
 62
     3
100
AcDbCircle
 10
44.91790458979999
 20
113.6962303622
 30
0.0
 40
0.5
100
AcDbArc
 50
179.9999640278
 51
270.0000006832
  0
LINE
  5
15E
330
22
100
AcDbEntity
  8
0$C$L0
  6
PHANTOM
 62
     3
100
AcDbLine
 10
46.2179076416
 20
114.6962303622
 30
0.0
 11
46.2179076416
 21
116.8962425692
 31
0.0
  0
LINE
  5
15F
330
22
100
AcDbEntity
  8
0$C$L0
  6
PHANTOM
 62
     3
100
AcDbLine
 10
49.617901538
 20
120.8962425692
 30
0.0
 11
56.01791069329999
 21
120.8962425692
 31
0.0
  0
LINE
  5
160
330
22
100
AcDbEntity
  8
0$C$L0
  6
PHANTOM
 62
     3
100
AcDbLine
 10
46.2179076416
 20
114.6962303622
 30
0.0
 11
55.06548759760001
 21
114.6962303622
 31
0.0
  0
LINE
  5
161
330
22
100
AcDbEntity
  8
0$C$L0
  6
PHANTOM
 62
     3
100
AcDbLine
 10
55.1179303936
 20
121.0549434456
 30
0.0
 11
56.0179409668
 21
120.8962475215
 31
0.0
  0
LINE
  5
162
330
22
100
AcDbEntity
  8
0$C$L0
  6
PHANTOM
 62
     3
100
AcDbLine
 10
49.61790705520001
 20
120.8959498928
 30
0.0
 11
50.5179026559
 21
121.0546430038
 31
0.0
  0
LINE
  5
163
330
22
100
AcDbEntity
  8
0$C$L0
  6
PHANTOM
 62
     3
100
AcDbLine
 10
49.617901538
 20
120.8962425692
 30
0.0
 11
49.617901538
 21
121.6962608797
 31
0.0
  0
LINE
  5
164
330
22
100
AcDbEntity
  8
0$C$L0
  6
PHANTOM
 62
     3
100
AcDbLine
 10
56.01791069329999
 20
120.8962425692
 30
0.0
 11
56.01791069329999
 21
121.6962608797
 31
0.0
  0
LINE
  5
165
330
22
100
AcDbEntity
  8
0$C$L0
  6
PHANTOM
 62
     3
100
AcDbLine
 10
44.41790458979999
 20
116.8962425692
 30
0.0
 11
61.2179076416
 21
116.8962425692
 31
0.0
  0
LINE
  5
166
330
22
100
AcDbEntity
  8
0$C$L0
  6
PHANTOM
 62
     3
100
AcDbLine
 10
45.617901538
 20
126.6962303622
 30
0.0
 11
60.0179106933
 21
126.6962303622
 31
0.0
  0
LINE
  5
167
330
22
100
AcDbEntity
  8
0$C$L0
  6
PHANTOM
 62
     3
100
AcDbLine
 10
44.41790458979999
 20
123.3962425692
 30
0.0
 11
61.2179076416
 21
123.3962425692
 31
0.0
  0
LINE
  5
168
330
22
100
AcDbEntity
  8
0$C$L0
  6
PHANTOM
 62
     3
100
AcDbLine
 10
44.91790458979999
 20
113.1962303622
 30
0.0
 11
60.7179076416
 21
113.1962303622
 31
0.0
  0
LINE
  5
169
330
22
100
AcDbEntity
  8
0$C$L0
  6
CENTERLINE
 62
     7
100
AcDbLine
 10
41.9179045898
 20
135.1962303622
 30
0.0
 11
80.51790306390001
 21
135.1962303622
 31
0.0
  0
ARC
  5
16A
330
22
100
AcDbEntity
  8
0$C$L0
  6
PHANTOM
 62
     3
100
AcDbCircle
 10
61.2179076416
 20
116.1962303622
 30
0.0
 40
2.799999237099999
100
AcDbArc
 50
165.5221486479
 51
267.9799001081
  0
LINE
  5
16B
330
22
100
AcDbEntity
  8
0$C$L0
  6
PHANTOM
 62
     3
100
AcDbLine
 10
45.617901538
 20
143.6962303622
 30
0.0
 11
60.0179106933
 21
143.6962303622
 31
0.0
  0
LINE
  5
16C
330
22
100
AcDbEntity
  8
0$C$L0
100
AcDbLine
 10
0.0
 20
0.0
 30
0.0
 11
210.0
 21
0.0
 31
0.0
  0
LINE
  5
16D
330
22
100
AcDbEntity
  8
0$C$L0
  6
CENTERLINE
 62
     7
100
AcDbLine
 10
69.61790153799999
 20
110.6962303622
 30
0.0
 11
69.61790153799999
 21
159.6962303622
 31
0.0
  0
LINE
  5
16E
330
22
100
AcDbEntity
  8
0$C$L0
  6
CENTERLINE
 62
     7
100
AcDbLine
 10
52.8178984863
 20
110.6962303622
 30
0.0
 11
52.8178984863
 21
159.6962303622
 31
0.0
  0
LINE
  5
16F
330
22
100
AcDbEntity
  8
0$C$L0
 62
     3
100
AcDbLine
 10
61.2179076416
 20
113.6962303622
 30
0.0
 11
61.2179076416
 21
156.6962303622
 31
0.0
  0
LINE
  5
170
330
22
100
AcDbEntity
  8
0$C$L0
 62
     3
100
AcDbLine
 10
78.0179030639
 20
113.6962303622
 30
0.0
 11
78.0179030639
 21
156.6962303622
 31
0.0
  0
LINE
  5
171
330
22
100
AcDbEntity
  8
0$C$L0
  6
PHANTOM
 62
     3
100
AcDbLine
 10
44.41790458979999
 20
113.6962303622
 30
0.0
 11
44.41790458979999
 21
156.6962303622
 31
0.0
  0
LINE
  5
172
330
22
100
AcDbEntity
  8
0$C$L0
100
AcDbLine
 10
0.0
 20
297.0
 30
0.0
 11
0.0
 21
0.0
 31
0.0
  0
LINE
  5
173
330
22
100
AcDbEntity
  8
0$C$L0
  6
PHANTOM
 62
     3
100
AcDbLine
 10
45.6178000972
 20
143.6961753774
 30
0.0
 11
44.41779848689999
 21
146.9961787069
 31
0.0
  0
LINE
  5
174
330
22
100
AcDbEntity
  8
0$C$L0
 62
     3
100
AcDbLine
 10
62.417805968
 20
143.6961589229
 30
0.0
 11
61.2178043577
 21
146.9961622523999
 31
0.0
  0
LINE
  5
175
330
22
100
AcDbEntity
  8
0$C$L0
  6
PHANTOM
 62
     3
100
AcDbLine
 10
60.01779566189999
 20
143.6962686162
 30
0.0
 11
61.21780103959999
 21
146.9962704806
 31
0.0
  0
LINE
  5
176
330
22
100
AcDbEntity
  8
0$C$L0
 62
     3
100
AcDbLine
 10
76.81783369609999
 20
143.6962214119
 30
0.0
 11
78.0178286445
 21
146.9961945962
 31
0.0
  0
LINE
  5
177
330
22
100
AcDbEntity
  8
0$C$L0
100
AcDbLine
 10
210.0
 20
0.0
 30
0.0
 11
210.0
 21
297.0
 31
0.0
  0
TEXT
  5
178
330
22
100
AcDbEntity
  8
LAYER8$C$L8
 62
     7
100
AcDbText
 10
101.5803387044
 20
93.70406278430001
 30
0.0
 40
2.999994089499999
  1
NRLR1000
 41
0.9010961008851113
 72
     5
 11
120.0527723787
 21
93.70406278430001
 31
0.0
100
AcDbText
  0
TEXT
  5
179
330
22
100
AcDbEntity
  8
LAYER8$C$L8
 62
     7
100
AcDbText
 10
101.5803387143
 20
89.35577204270002
 30
0.0
 40
2.999994089499999
  1
NRLR1100
 41
0.9236235028922383
 72
     5
 11
120.0527723783
 21
89.35577204270002
 31
0.0
100
AcDbText
  0
TEXT
  5
17A
330
22
100
AcDbEntity
  8
LAYER8$C$L8
 62
     7
100
AcDbText
 10
101.5803387143
 20
84.77243870939998
 30
0.0
 40
2.999994089499999
  1
NRLR1100F
 41
0.9060641560669637
 72
     5
 11
122.4197732466
 21
84.77243870939998
 31
0.0
100
AcDbText
  0
TEXT
  5
17B
330
22
100
AcDbEntity
  8
LAYER8$C$L8
 62
     7
100
AcDbText
 10
132.3709370049
 20
93.70406264100001
 30
0.0
 40
2.999994089499999
  1
NRLR2000
 41
0.8591846538532454
 72
     5
 11
150.8433706689
 21
93.70406264100001
 31
0.0
100
AcDbText
  0
TEXT
  5
17C
330
22
100
AcDbEntity
  8
LAYER8$C$L8
 62
     7
100
AcDbText
 10
132.3709370049
 20
89.35577204270002
 30
0.0
 40
2.999994089499999
  1
NRLR2100
 41
0.8796414313259422
 72
     5
 11
150.8433706689
 21
89.35577204270002
 31
0.0
100
AcDbText
  0
TEXT
  5
17D
330
22
100
AcDbEntity
  8
LAYER8$C$L8
 62
     7
100
AcDbText
 10
132.3709370049
 20
84.77243870939998
 30
0.0
 40
2.999994089499999
  1
NRLR2100F
 41
0.8683114828975067
 72
     5
 11
153.2103715372
 21
84.77243870939998
 31
0.0
100
AcDbText
  0
ENDSEC
  0
SECTION
  2
OBJECTS
  0
DICTIONARY
  5
C
330
0
100
AcDbDictionary
281
     1
  3
ACAD_COLOR
350
1B
  3
ACAD_GROUP
350
D
  3
ACAD_LAYOUT
350
19
  3
ACAD_MATERIAL
350
1A
  3
ACAD_MLINESTYLE
350
16
  3
ACAD_PLOTSETTINGS
350
18
  3
ACAD_PLOTSTYLENAME
350
E
  3
ACAD_TABLESTYLE
350
1C
  3
ACDBHEADERROUNDTRIPXREC
350
185
  3
AcDbVariableDictionary
350
180
  0
DICTIONARY
  5
1B
102
{ACAD_REACTORS
330
C
102
}
330
C
100
AcDbDictionary
281
     1
  0
DICTIONARY
  5
D
102
{ACAD_REACTORS
330
C
102
}
330
C
100
AcDbDictionary
281
     1
  0
DICTIONARY
  5
19
102
{ACAD_REACTORS
330
C
102
}
330
C
100
AcDbDictionary
281
     1
  3
Model
350
25
  3
レイアウト1
350
21
  0
DICTIONARY
  5
1A
102
{ACAD_REACTORS
330
C
102
}
330
C
100
AcDbDictionary
281
     1
  0
DICTIONARY
  5
16
102
{ACAD_REACTORS
330
C
102
}
330
C
100
AcDbDictionary
281
     1
  3
Standard
350
17
  0
DICTIONARY
  5
18
102
{ACAD_REACTORS
330
C
102
}
330
C
100
AcDbDictionary
281
     1
  0
ACDBDICTIONARYWDFLT
  5
E
102
{ACAD_REACTORS
330
C
102
}
330
C
100
AcDbDictionary
281
     1
  3
Normal
350
F
100
AcDbDictionaryWithDefault
340
F
  0
DICTIONARY
  5
1C
102
{ACAD_REACTORS
330
C
102
}
330
C
100
AcDbDictionary
281
     1
  3
Standard
350
1D
  0
DICTIONARY
  5
185
102
{ACAD_REACTORS
330
C
102
}
330
C
100
AcDbDictionary
281
     1
  0
DICTIONARY
  5
180
102
{ACAD_REACTORS
330
C
102
}
330
C
100
AcDbDictionary
281
     1
  3
CTABLESTYLE
350
181
  3
DIMASSOC
350
182
  3
PROJECTNAME
350
183
  0
LAYOUT
  5
25
102
{ACAD_XDICTIONARY
360
188
102
}
102
{ACAD_REACTORS
330
19
102
}
330
19
100
AcDbPlotSettings
  1

  2
Fuji Xerox 4150 ART4
  4

  6

 40
0.0
 41
0.0
 42
0.0
 43
0.0
 44
0.0
 45
0.0
 46
0.0
 47
0.0
 48
0.0
 49
0.0
140
0.0
141
0.0
142
1.0
143
1.0
 70
  1712
 72
     0
 73
     0
 74
     0
  7

 75
     0
147
1.0
148
0.0
149
0.0
100
AcDbLayout
  1
Model
 70
     1
 71
     0
 10
0.0
 20
0.0
 11
12.0
 21
9.0
 12
0.0
 22
0.0
 32
0.0
 14
0.0
 24
0.0
 34
0.0
 15
0.0
 25
0.0
 35
0.0
146
0.0
 13
0.0
 23
0.0
 33
0.0
 16
1.0
 26
0.0
 36
0.0
 17
0.0
 27
1.0
 37
0.0
 76
     0
330
22
  0
LAYOUT
  5
21
102
{ACAD_XDICTIONARY
360
186
102
}
102
{ACAD_REACTORS
330
19
102
}
330
19
100
AcDbPlotSettings
  1

  2
Fuji Xerox 4150 ART4
  4

  6

 40
0.0
 41
0.0
 42
0.0
 43
0.0
 44
0.0
 45
0.0
 46
0.0
 47
0.0
 48
0.0
 49
0.0
140
0.0
141
0.0
142
1.0
143
1.0
 70
   688
 72
     0
 73
     0
 74
     5
  7

 75
    16
147
1.0
148
0.0
149
0.0
100
AcDbLayout
  1
レイアウト1
 70
     1
 71
     1
 10
0.0
 20
0.0
 11
12.0
 21
9.0
 12
0.0
 22
0.0
 32
0.0
 14
1.000000000000000E+20
 24
1.000000000000000E+20
 34
1.000000000000000E+20
 15
-1.000000000000000E+20
 25
-1.000000000000000E+20
 35
-1.000000000000000E+20
146
0.0
 13
0.0
 23
0.0
 33
0.0
 16
1.0
 26
0.0
 36
0.0
 17
0.0
 27
1.0
 37
0.0
 76
     0
330
1E
  0
MLINESTYLE
  5
17
102
{ACAD_REACTORS
330
16
102
}
330
16
100
AcDbMlineStyle
  2
STANDARD
 70
     0
  3

 62
   256
 51
90.0
 52
90.0
 71
     2
 49
0.5
 62
   256
  6
BYLAYER
 49
-0.5
 62
   256
  6
BYLAYER
  0
ACDBPLACEHOLDER
  5
F
102
{ACAD_REACTORS
330
E
102
}
330
E
  0
TABLESTYLE
  5
1D
102
{ACAD_REACTORS
330
1C
102
}
330
1C
100
AcDbTableStyle
  3
Standard
 70
     0
 71
     0
 40
0.06
 41
0.06
280
     0
281
     0
  7
STANDARD
140
0.18
170
     2
 62
     0
 63
     7
283
     0
274
    -2
284
     1
 64
     0
275
    -2
285
     1
 65
     0
276
    -2
286
     1
 66
     0
277
    -2
287
     1
 67
     0
278
    -2
288
     1
 68
     0
279
    -2
289
     1
 69
     0
  7
STANDARD
140
0.25
170
     5
 62
     0
 63
     7
283
     0
274
    -2
284
     1
 64
     0
275
    -2
285
     1
 65
     0
276
    -2
286
     1
 66
     0
277
    -2
287
     1
 67
     0
278
    -2
288
     1
 68
     0
279
    -2
289
     1
 69
     0
  7
STANDARD
140
0.18
170
     5
 62
     0
 63
     7
283
     0
274
    -2
284
     1
 64
     0
275
    -2
285
     1
 65
     0
276
    -2
286
     1
 66
     0
277
    -2
287
     1
 67
     0
278
    -2
288
     1
 68
     0
279
    -2
289
     1
 69
     0
  0
DICTIONARYVAR
  5
181
102
{ACAD_REACTORS
330
180
102
}
330
180
100
DictionaryVariables
280
     0
  1
STANDARD
  0
DICTIONARYVAR
  5
182
102
{ACAD_REACTORS
330
180
102
}
330
180
100
DictionaryVariables
280
     0
  1
1
  0
DICTIONARYVAR
  5
183
102
{ACAD_REACTORS
330
180
102
}
330
180
100
DictionaryVariables
280
     0
  1

  0
DICTIONARY
  5
188
330
25
100
AcDbDictionary
280
     1
281
     1
  3
ACAD_XREC_ROUNDTRIP
360
189
  0
DICTIONARY
  5
186
330
21
100
AcDbDictionary
280
     1
281
     1
  3
ACAD_XREC_ROUNDTRIP
360
187
  0
XRECORD
  5
189
102
{ACAD_REACTORS
330
188
102
}
330
188
100
AcDbXrecord
280
     1
102
SHADEPLOT
 70
     0
102
SHADEPLOTRESLEVEL
 70
     2
102
SHADEPLOTCUSTOMDPI
 70
   300
  0
XRECORD
  5
187
102
{ACAD_REACTORS
330
186
102
}
330
186
100
AcDbXrecord
280
     1
102
SHADEPLOT
 70
     0
102
SHADEPLOTRESLEVEL
 70
     2
102
SHADEPLOTCUSTOMDPI
 70
   300
  0
ENDSEC
  0
EOF
