  0
SECTION
  2
HEADER
  9
$ACADVER
  1
AC1015
  9
$ACADMAINTVER
 70
    13
  9
$DWGCODEPAGE
  3
ANSI_932
  9
$INSBASE
 10
0.0
 20
0.0
 30
0.0
  9
$EXTMIN
 10
-0.0040421468792147
 20
-0.0007598511402875
 30
-0.0000000349181948
  9
$EXTMAX
 10
210.0232548702178
 20
297.0173597581861
 30
0.0000000814935747
  9
$LIMMIN
 10
-185.6564605713
 20
-3.174999999999998
  9
$LIMMAX
 10
3.174999999999998
 20
291.2585876465
  9
$ORTHOMODE
 70
     0
  9
$REGENMODE
 70
     1
  9
$FILLMODE
 70
     1
  9
$QTEXTMODE
 70
     0
  9
$MIRRTEXT
 70
     0
  9
$LTSCALE
 40
1.0
  9
$ATTMODE
 70
     1
  9
$TEXTSIZE
 40
2.999994039499997
  9
$TRACEWID
 40
0.05
  9
$TEXTSTYLE
  7
STANDARD
  9
$CLAYER
  8
0
  9
$CELTYPE
  6
ByLayer
  9
$CECOLOR
 62
   256
  9
$CELTSCALE
 40
1.0
  9
$DISPSILH
 70
     0
  9
$DIMSCALE
 40
1.0
  9
$DIMASZ
 40
1.9727878465
  9
$DIMEXO
 40
2.539999961899999
  9
$DIMDLI
 40
0.38
  9
$DIMRND
 40
0.0
  9
$DIMDLE
 40
0.0
  9
$DIMEXE
 40
3.809999942799997
  9
$DIMTP
 40
0.0
  9
$DIMTM
 40
0.0
  9
$DIMTXT
 40
2.999994039499997
  9
$DIMCEN
 40
0.09
  9
$DIMTSZ
 40
0.0
  9
$DIMTOL
 70
     0
  9
$DIMLIM
 70
     0
  9
$DIMTIH
 70
     0
  9
$DIMTOH
 70
     1
  9
$DIMSE1
 70
     0
  9
$DIMSE2
 70
     0
  9
$DIMTAD
 70
     0
  9
$DIMZIN
 70
     0
  9
$DIMBLK
  1

  9
$DIMASO
 70
     1
  9
$DIMSHO
 70
     0
  9
$DIMPOST
  1

  9
$DIMAPOST
  1

  9
$DIMALT
 70
     0
  9
$DIMALTD
 70
     2
  9
$DIMALTF
 40
25.4
  9
$DIMLFAC
 40
1.0
  9
$DIMTOFL
 70
     0
  9
$DIMTVP
 40
0.0
  9
$DIMTIX
 70
     0
  9
$DIMSOXD
 70
     0
  9
$DIMSAH
 70
     0
  9
$DIMBLK1
  1

  9
$DIMBLK2
  1

  9
$DIMSTYLE
  2
Standard
  9
$DIMCLRD
 70
     0
  9
$DIMCLRE
 70
     0
  9
$DIMCLRT
 70
     0
  9
$DIMTFAC
 40
1.0
  9
$DIMGAP
 40
0.09
  9
$DIMJUST
 70
     0
  9
$DIMSD1
 70
     0
  9
$DIMSD2
 70
     0
  9
$DIMTOLJ
 70
     1
  9
$DIMTZIN
 70
     0
  9
$DIMALTZ
 70
     0
  9
$DIMALTTZ
 70
     0
  9
$DIMUPT
 70
     0
  9
$DIMDEC
 70
     4
  9
$DIMTDEC
 70
     4
  9
$DIMALTU
 70
     2
  9
$DIMALTTD
 70
     2
  9
$DIMTXSTY
  7
STANDARD
  9
$DIMAUNIT
 70
     0
  9
$DIMADEC
 70
     0
  9
$DIMALTRND
 40
0.0
  9
$DIMAZIN
 70
     0
  9
$DIMDSEP
 70
    46
  9
$DIMATFIT
 70
     3
  9
$DIMFRAC
 70
     0
  9
$DIMLDRBLK
  1

  9
$DIMLUNIT
 70
     2
  9
$DIMLWD
 70
    -2
  9
$DIMLWE
 70
    -2
  9
$DIMTMOVE
 70
     0
  9
$LUNITS
 70
     2
  9
$LUPREC
 70
     3
  9
$SKETCHINC
 40
0.1
  9
$FILLETRAD
 40
0.0625
  9
$AUNITS
 70
     0
  9
$AUPREC
 70
     0
  9
$MENU
  1
ACAD
  9
$ELEVATION
 40
0.0
  9
$PELEVATION
 40
0.0
  9
$THICKNESS
 40
0.0
  9
$LIMCHECK
 70
     0
  9
$CHAMFERA
 40
0.0
  9
$CHAMFERB
 40
0.0
  9
$CHAMFERC
 40
0.0
  9
$CHAMFERD
 40
0.0
  9
$SKPOLY
 70
     0
  9
$TDCREATE
 40
2452528.369548611
  9
$TDUCREATE
 40
2452527.994548611
  9
$TDUPDATE
 40
2453339.785528970
  9
$TDUUPDATE
 40
2453339.410528970
  9
$TDINDWG
 40
0.0029119560
  9
$TDUSRTIMER
 40
0.0029117708
  9
$USRTIMER
 70
     1
  9
$ANGBASE
 50
0.0
  9
$ANGDIR
 70
     0
  9
$PDMODE
 70
     0
  9
$PDSIZE
 40
0.0
  9
$PLINEWID
 40
0.0
  9
$SPLFRAME
 70
     0
  9
$SPLINETYPE
 70
     6
  9
$SPLINESEGS
 70
     8
  9
$HANDSEED
  5
218
  9
$SURFTAB1
 70
     6
  9
$SURFTAB2
 70
     6
  9
$SURFTYPE
 70
     6
  9
$SURFU
 70
     6
  9
$SURFV
 70
     6
  9
$UCSBASE
  2

  9
$UCSNAME
  2

  9
$UCSORG
 10
0.0
 20
0.0
 30
0.0
  9
$UCSXDIR
 10
1.0
 20
0.0
 30
0.0
  9
$UCSYDIR
 10
0.0
 20
1.0
 30
0.0
  9
$UCSORTHOREF
  2

  9
$UCSORTHOVIEW
 70
     0
  9
$UCSORGTOP
 10
0.0
 20
0.0
 30
0.0
  9
$UCSORGBOTTOM
 10
0.0
 20
0.0
 30
0.0
  9
$UCSORGLEFT
 10
0.0
 20
0.0
 30
0.0
  9
$UCSORGRIGHT
 10
0.0
 20
0.0
 30
0.0
  9
$UCSORGFRONT
 10
0.0
 20
0.0
 30
0.0
  9
$UCSORGBACK
 10
0.0
 20
0.0
 30
0.0
  9
$PUCSBASE
  2

  9
$PUCSNAME
  2

  9
$PUCSORG
 10
0.0
 20
0.0
 30
0.0
  9
$PUCSXDIR
 10
1.0
 20
0.0
 30
0.0
  9
$PUCSYDIR
 10
0.0
 20
1.0
 30
0.0
  9
$PUCSORTHOREF
  2

  9
$PUCSORTHOVIEW
 70
     0
  9
$PUCSORGTOP
 10
0.0
 20
0.0
 30
0.0
  9
$PUCSORGBOTTOM
 10
0.0
 20
0.0
 30
0.0
  9
$PUCSORGLEFT
 10
0.0
 20
0.0
 30
0.0
  9
$PUCSORGRIGHT
 10
0.0
 20
0.0
 30
0.0
  9
$PUCSORGFRONT
 10
0.0
 20
0.0
 30
0.0
  9
$PUCSORGBACK
 10
0.0
 20
0.0
 30
0.0
  9
$USERI1
 70
     8
  9
$USERI2
 70
     0
  9
$USERI3
 70
     0
  9
$USERI4
 70
     0
  9
$USERI5
 70
     0
  9
$USERR1
 40
0.0
  9
$USERR2
 40
0.0
  9
$USERR3
 40
0.0
  9
$USERR4
 40
0.0
  9
$USERR5
 40
0.0
  9
$WORLDVIEW
 70
     1
  9
$SHADEDGE
 70
     3
  9
$SHADEDIF
 70
    70
  9
$TILEMODE
 70
     1
  9
$MAXACTVP
 70
    64
  9
$PINSBASE
 10
0.0
 20
0.0
 30
0.0
  9
$PLIMCHECK
 70
     0
  9
$PEXTMIN
 10
1.000000000000000E+20
 20
1.000000000000000E+20
 30
1.000000000000000E+20
  9
$PEXTMAX
 10
-1.000000000000000E+20
 20
-1.000000000000000E+20
 30
-1.000000000000000E+20
  9
$PLIMMIN
 10
0.0
 20
0.0
  9
$PLIMMAX
 10
12.0
 20
9.0
  9
$UNITMODE
 70
     0
  9
$VISRETAIN
 70
     1
  9
$PLINEGEN
 70
     0
  9
$PSLTSCALE
 70
     1
  9
$TREEDEPTH
 70
  3020
  9
$CMLSTYLE
  2
Standard
  9
$CMLJUST
 70
     0
  9
$CMLSCALE
 40
1.0
  9
$PROXYGRAPHICS
 70
     1
  9
$MEASUREMENT
 70
     0
  9
$CELWEIGHT
370
    -1
  9
$ENDCAPS
280
     0
  9
$JOINSTYLE
280
     0
  9
$LWDISPLAY
290
     0
  9
$INSUNITS
 70
     0
  9
$HYPERLINKBASE
  1

  9
$STYLESHEET
  1

  9
$XEDIT
290
     1
  9
$CEPSNTYPE
380
     0
  9
$PSTYLEMODE
290
     1
  9
$FINGERPRINTGUID
  2
{EDFE941C-635A-445D-A47E-7D623089A5DB}
  9
$VERSIONGUID
  2
{5BE2F538-850B-413F-A5CF-B1803F19C9CF}
  9
$EXTNAMES
290
     1
  9
$PSVPSCALE
 40
0.0
  9
$OLESTARTUP
290
     0
  0
ENDSEC
  0
SECTION
  2
CLASSES
  0
CLASS
  1
ACDBDICTIONARYWDFLT
  2
AcDbDictionaryWithDefault
  3
AutoCAD 2000
 90
        0
280
     0
281
     0
  0
CLASS
  1
ACDBPLACEHOLDER
  2
AcDbPlaceHolder
  3
AutoCAD 2000
 90
        0
280
     0
281
     0
  0
CLASS
  1
LAYOUT
  2
AcDbLayout
  3
AutoCAD 2000
 90
        0
280
     0
281
     0
  0
CLASS
  1
DICTIONARYVAR
  2
AcDbDictionaryVar
  3
AutoCAD 2000
 90
        0
280
     0
281
     0
  0
ENDSEC
  0
SECTION
  2
TABLES
  0
TABLE
  2
VPORT
  5
19
330
0
100
AcDbSymbolTable
 70
     2
  0
VPORT
  5
217
330
19
100
AcDbSymbolTableRecord
100
AcDbViewportTableRecord
  2
*Active
 70
     0
 10
0.0
 20
0.0
 11
1.0
 21
1.0
 12
105.0096063616692
 22
148.5082999535229
 13
0.0
 23
0.0
 14
1.0
 24
1.0
 15
0.0
 25
0.0
 16
0.0
 26
0.0
 36
1.0
 17
0.0
 27
0.0
 37
0.0
 40
301.0138790659541
 41
2.253932584269663
 42
50.0
 43
0.0
 44
0.0
 50
0.0
 51
0.0
 71
     0
 72
   100
 73
     1
 74
     1
 75
     0
 76
     0
 77
     0
 78
     0
281
     0
 65
     1
110
0.0
120
0.0
130
0.0
111
1.0
121
0.0
131
0.0
112
0.0
122
1.0
132
0.0
 79
     0
146
0.0
  0
ENDTAB
  0
TABLE
  2
LTYPE
  5
14
330
0
100
AcDbSymbolTable
 70
     4
  0
LTYPE
  5
15
330
14
100
AcDbSymbolTableRecord
100
AcDbLinetypeTableRecord
  2
ByBlock
 70
     0
  3

 72
    65
 73
     0
 40
0.0
  0
LTYPE
  5
16
330
14
100
AcDbSymbolTableRecord
100
AcDbLinetypeTableRecord
  2
ByLayer
 70
     0
  3

 72
    65
 73
     0
 40
0.0
  0
LTYPE
  5
8
330
14
100
AcDbSymbolTableRecord
100
AcDbLinetypeTableRecord
  2
Continuous
 70
     0
  3
Solid line
 72
    65
 73
     0
 40
0.0
  0
LTYPE
  5
CD
330
14
100
AcDbSymbolTableRecord
100
AcDbLinetypeTableRecord
  2
DASH
 70
     0
  3
Dash
 72
    65
 73
     2
 40
1.9999960661
 49
0.9999980329999999
 74
     0
 49
-0.9999980329999999
 74
     0
  0
LTYPE
  5
27
330
14
100
AcDbSymbolTableRecord
100
AcDbLinetypeTableRecord
  2
CENTER
 70
     0
  3
Center
 72
    65
 73
     4
 40
9.100006759199999
 49
6.5000119209
 74
     0
 49
-0.7999984026000001
 74
     0
 49
0.9999980329999999
 74
     0
 49
-0.7999984026000001
 74
     0
  0
LTYPE
  5
145
330
14
100
AcDbSymbolTableRecord
100
AcDbLinetypeTableRecord
  2
PHANTOM
 70
     0
  3
Phantom
 72
    65
 73
     6
 40
9.499981462999999
 49
4.799990654
 74
     0
 49
-0.8999982475999999
 74
     0
 49
0.9999980329999999
 74
     0
 49
-0.8999982475999999
 74
     0
 49
0.9999980329999999
 74
     0
 49
-0.8999982475999999
 74
     0
  0
ENDTAB
  0
TABLE
  2
LAYER
  5
10
330
0
100
AcDbSymbolTable
 70
     1
  0
LAYER
  5
4
330
10
100
AcDbSymbolTableRecord
100
AcDbLayerTableRecord
  2
0
 70
     0
 62
     7
  6
Continuous
370
    -3
390
5
  0
ENDTAB
  0
TABLE
  2
STYLE
  5
11
330
0
100
AcDbSymbolTable
 70
     1
  0
STYLE
  5
12
330
11
100
AcDbSymbolTableRecord
100
AcDbTextStyleTableRecord
  2
STANDARD
 70
     0
 40
0.0
 41
1.0
 50
0.0
 71
     0
 42
2.999994039499997
  3
romans.shx
  4
bigfont.shx
  0
ENDTAB
  0
TABLE
  2
VIEW
  5
17
330
0
100
AcDbSymbolTable
 70
     0
  0
ENDTAB
  0
TABLE
  2
UCS
  5
18
330
0
100
AcDbSymbolTable
 70
     0
  0
ENDTAB
  0
TABLE
  2
APPID
  5
1B
330
0
100
AcDbSymbolTable
 70
     1
  0
APPID
  5
1C
330
1B
100
AcDbSymbolTableRecord
100
AcDbRegAppTableRecord
  2
ACAD
 70
     0
  0
ENDTAB
  0
TABLE
  2
DIMSTYLE
  5
1D
330
0
100
AcDbSymbolTable
 70
     1
100
AcDbDimStyleTable
 71
     0
  0
DIMSTYLE
105
23
330
1D
100
AcDbSymbolTableRecord
100
AcDbDimStyleTableRecord
  2
Standard
 70
     0
340
12
  0
ENDTAB
  0
TABLE
  2
BLOCK_RECORD
  5
1
330
0
100
AcDbSymbolTable
 70
     1
  0
BLOCK_RECORD
  5
2
330
1
100
AcDbSymbolTableRecord
100
AcDbBlockTableRecord
  2
*Model_Space
340
A
  0
BLOCK_RECORD
  5
C
330
1
100
AcDbSymbolTableRecord
100
AcDbBlockTableRecord
  2
*Paper_Space
340
F
  0
ENDTAB
  0
ENDSEC
  0
SECTION
  2
BLOCKS
  0
BLOCK
  5
3
330
2
100
AcDbEntity
  8
0
100
AcDbBlockBegin
  2
*Model_Space
 70
     2
 10
0.0
 20
0.0
 30
0.0
  3
*Model_Space
  1

  0
ENDBLK
  5
9
330
2
100
AcDbEntity
  8
0
100
AcDbBlockEnd
  0
BLOCK
  5
D
330
C
100
AcDbEntity
 67
     1
  8
0
100
AcDbBlockBegin
  2
*Paper_Space
 70
     0
 10
0.0
 20
0.0
 30
0.0
  3
*Paper_Space
  1

  0
ENDBLK
  5
E
330
C
100
AcDbEntity
 67
     1
  8
0
100
AcDbBlockEnd
  0
ENDSEC
  0
SECTION
  2
ENTITIES
  0
LINE
  5
24
330
2
100
AcDbEntity
  8
0
100
AcDbLine
 10
210.0
 20
0.0
 30
0.0
 11
210.0
 21
297.0
 31
0.0
  0
LINE
  5
25
330
2
100
AcDbEntity
  8
0
100
AcDbLine
 10
0.0
 20
297.0
 30
0.0
 11
0.0
 21
0.0
 31
0.0
  0
LINE
  5
26
330
2
100
AcDbEntity
  8
0
  6
CENTER
 62
     3
100
AcDbLine
 10
142.3165274901999
 20
168.5
 30
0.0
 11
167.3165274901999
 21
168.5
 31
0.0
  0
LINE
  5
28
330
2
100
AcDbEntity
  8
0
100
AcDbLine
 10
0.0
 20
0.0
 30
0.0
 11
210.0
 21
0.0
 31
0.0
  0
LINE
  5
29
330
2
100
AcDbEntity
  8
0
 62
     3
100
AcDbLine
 10
79.75512352359999
 20
168.8997077942
 30
0.0
 11
86.4503521003
 21
168.8997077942
 31
0.0
  0
LINE
  5
2A
330
2
100
AcDbEntity
  8
0
 62
     3
100
AcDbLine
 10
79.75512352359999
 20
168.100276947
 30
0.0
 11
86.4503521003
 21
168.100276947
 31
0.0
  0
LINE
  5
2B
330
2
100
AcDbEntity
  8
0
 62
     3
100
AcDbLine
 10
79.48308983219998
 20
176.2944374084
 30
0.0
 11
117.7558254278999
 21
176.2944374084
 31
0.0
  0
LINE
  5
2C
330
2
100
AcDbEntity
  8
0
 62
     3
100
AcDbLine
 10
79.48308983219998
 20
165.0177497864
 30
0.0
 11
117.7558254278999
 21
165.0177497864
 31
0.0
  0
LINE
  5
2D
330
2
100
AcDbEntity
  8
0
 62
     3
100
AcDbLine
 10
79.48308983219998
 20
171.9822349548
 30
0.0
 11
117.7558254278999
 21
171.9822349548
 31
0.0
  0
LINE
  5
2E
330
2
100
AcDbEntity
  8
0
 62
     3
100
AcDbLine
 10
79.48308983219998
 20
165.5021247864
 30
0.0
 11
95.47170677559995
 21
165.5021247864
 31
0.0
  0
LINE
  5
2F
330
2
100
AcDbEntity
  8
0
 62
     3
100
AcDbLine
 10
79.48308983219998
 20
171.4978599548
 30
0.0
 11
95.47170677559995
 21
171.4978599548
 31
0.0
  0
LINE
  5
30
330
2
100
AcDbEntity
  8
0
 62
     3
100
AcDbLine
 10
79.48308983219998
 20
160.7055397034
 30
0.0
 11
117.7558254278999
 21
160.7055397034
 31
0.0
  0
LINE
  5
31
330
2
100
AcDbEntity
  8
0
 62
     3
100
AcDbLine
 10
79.75512352359999
 20
170.9982109069999
 30
0.0
 11
91.44679680240001
 21
170.9982109069999
 31
0.0
  0
LINE
  5
32
330
2
100
AcDbEntity
  8
0
 62
     3
100
AcDbLine
 10
79.75512352359999
 20
166.0017738342
 30
0.0
 11
91.44679680240001
 21
166.0017738342
 31
0.0
  0
LINE
  5
33
330
2
100
AcDbEntity
  8
0
  6
CENTER
 62
     3
100
AcDbLine
 10
70.082964089
 20
168.5
 30
0.0
 11
125.6508311249999
 21
168.5
 31
0.0
  0
ARC
  5
34
330
2
100
AcDbEntity
  8
0
 62
     3
100
AcDbCircle
 10
44.92105522529999
 20
165.751953125
 30
0.0
 40
1.1991457939
100
AcDbArc
 50
269.9999820138998
 51
359.9999640277999
  0
ARC
  5
35
330
2
100
AcDbEntity
  8
0
 62
     3
100
AcDbCircle
 10
38.3257183112
 20
165.751953125
 30
0.0
 40
1.1991457939
100
AcDbArc
 50
180.0
 51
269.9999820138998
  0
ARC
  5
36
330
2
100
AcDbEntity
  8
0
 62
     3
100
AcDbCircle
 10
38.3257183112
 20
165.751953125
 30
0.0
 40
1.5488967896
100
AcDbArc
 50
180.0
 51
269.9999820138998
  0
ARC
  5
37
330
2
100
AcDbEntity
  8
0
 62
     3
100
AcDbCircle
 10
38.3257183112
 20
165.751953125
 30
0.0
 40
1.3490390778
100
AcDbArc
 50
180.0
 51
269.9999820138998
  0
ARC
  5
38
330
2
100
AcDbEntity
  8
0
 62
     3
100
AcDbCircle
 10
38.3257183112
 20
165.751953125
 30
0.0
 40
2.098505020099997
100
AcDbArc
 50
180.0
 51
269.9999820138998
  0
ARC
  5
39
330
2
100
AcDbEntity
  8
0
 62
     3
100
AcDbCircle
 10
38.3257183112
 20
165.751953125
 30
0.0
 40
2.798007011399999
100
AcDbArc
 50
180.0
 51
269.9999820138998
  0
ARC
  5
3A
330
2
100
AcDbEntity
  8
0
 62
     3
100
AcDbCircle
 10
44.92105522529999
 20
165.751953125
 30
0.0
 40
1.5488967896
100
AcDbArc
 50
269.9999820138998
 51
359.9999640277999
  0
ARC
  5
3B
330
2
100
AcDbEntity
  8
0
 62
     3
100
AcDbCircle
 10
44.92105522529999
 20
165.751953125
 30
0.0
 40
1.3490390778
100
AcDbArc
 50
269.9999820138998
 51
359.9999640277999
  0
ARC
  5
3C
330
2
100
AcDbEntity
  8
0
 62
     3
100
AcDbCircle
 10
44.92105522529999
 20
165.751953125
 30
0.0
 40
2.098505020099997
100
AcDbArc
 50
269.9999820138998
 51
359.9999640277999
  0
ARC
  5
3D
330
2
100
AcDbEntity
  8
0
 62
     3
100
AcDbCircle
 10
44.92105522529999
 20
165.751953125
 30
0.0
 40
2.798007011399999
100
AcDbArc
 50
269.9999820138998
 51
359.9999640277999
  0
CIRCLE
  5
3E
330
2
100
AcDbEntity
  8
0
 62
     3
100
AcDbCircle
 10
41.62344780339997
 20
168.5
 30
0.0
 40
9.593162536599999
  0
CIRCLE
  5
3F
330
2
100
AcDbEntity
  8
0
 62
     3
100
AcDbCircle
 10
41.62344780339997
 20
168.5
 30
0.0
 40
8.893661499
  0
LINE
  5
40
330
2
100
AcDbEntity
  8
0
  6
CENTER
 62
     3
100
AcDbLine
 10
41.62344780339997
 20
155.9068374634
 30
0.0
 11
41.62344780339997
 21
181.0931625365999
 31
0.0
  0
LINE
  5
41
330
2
100
AcDbEntity
  8
0
 62
     3
100
AcDbLine
 10
38.3257183112
 20
164.5528106689001
 30
0.0
 11
44.92105522529999
 21
164.5528106689001
 31
0.0
  0
LINE
  5
42
330
2
100
AcDbEntity
  8
0
 62
     3
100
AcDbLine
 10
38.3257183112
 20
164.2030639648
 30
0.0
 11
44.92105522529999
 21
164.2030639648
 31
0.0
  0
LINE
  5
43
330
2
100
AcDbEntity
  8
0
 62
     3
100
AcDbLine
 10
38.3257183112
 20
163.6534500122001
 30
0.0
 11
44.92105522529999
 21
163.6534500122001
 31
0.0
  0
LINE
  5
44
330
2
100
AcDbEntity
  8
0
 62
     3
100
AcDbLine
 10
38.3257183112
 20
164.4029159546001
 30
0.0
 11
44.92105522529999
 21
164.4029159546001
 31
0.0
  0
LINE
  5
45
330
2
100
AcDbEntity
  8
0
 62
     3
100
AcDbLine
 10
38.3257183112
 20
162.9539489746001
 30
0.0
 11
44.92105522529999
 21
162.9539489746001
 31
0.0
  0
LINE
  5
46
330
2
100
AcDbEntity
  8
0
 62
     3
100
AcDbLine
 10
44.87344780339998
 20
169.8999999999999
 30
0.0
 11
38.37344780339998
 21
169.8999999999999
 31
0.0
  0
LINE
  5
47
330
2
100
AcDbEntity
  8
0
 62
     3
100
AcDbLine
 10
44.87344780339998
 20
167.1
 30
0.0
 11
38.37344780339998
 21
167.1
 31
0.0
  0
LINE
  5
48
330
2
100
AcDbEntity
  8
0
 62
     3
100
AcDbLine
 10
38.3257183112
 20
172.447189331
 30
0.0
 11
44.92105522529999
 21
172.447189331
 31
0.0
  0
LINE
  5
49
330
2
100
AcDbEntity
  8
0
 62
     3
100
AcDbLine
 10
38.3257183112
 20
172.7969360351
 30
0.0
 11
44.92105522529999
 21
172.7969360351
 31
0.0
  0
LINE
  5
4A
330
2
100
AcDbEntity
  8
0
 62
     3
100
AcDbLine
 10
38.3257183112
 20
173.3465423584
 30
0.0
 11
44.92105522529999
 21
173.3465423584
 31
0.0
  0
LINE
  5
4B
330
2
100
AcDbEntity
  8
0
 62
     3
100
AcDbLine
 10
38.3257183112
 20
172.5970764160001
 30
0.0
 11
44.92105522529999
 21
172.5970764160001
 31
0.0
  0
LINE
  5
4C
330
2
100
AcDbEntity
  8
0
 62
     3
100
AcDbLine
 10
38.3257183112
 20
174.0460510254001
 30
0.0
 11
44.92105522529999
 21
174.0460510254001
 31
0.0
  0
LINE
  5
4D
330
2
100
AcDbEntity
  8
0
  6
CENTER
 62
     3
100
AcDbLine
 10
29.03028526679998
 20
168.5
 30
0.0
 11
54.21661033999999
 21
168.5
 31
0.0
  0
ARC
  5
4E
330
2
100
AcDbEntity
  8
0
 62
     3
100
AcDbCircle
 10
38.3257183112
 20
171.2480392456
 30
0.0
 40
1.1991457939
100
AcDbArc
 50
90.0000179861
 51
180.0
  0
ARC
  5
4F
330
2
100
AcDbEntity
  8
0
 62
     3
100
AcDbCircle
 10
38.3257183112
 20
171.2480392456
 30
0.0
 40
1.5488967896
100
AcDbArc
 50
90.0000179861
 51
180.0
  0
ARC
  5
50
330
2
100
AcDbEntity
  8
0
 62
     3
100
AcDbCircle
 10
38.3257183112
 20
171.2480392456
 30
0.0
 40
1.3490390778
100
AcDbArc
 50
90.0000179861
 51
180.0
  0
ARC
  5
51
330
2
100
AcDbEntity
  8
0
 62
     3
100
AcDbCircle
 10
38.3257183112
 20
171.2480392456
 30
0.0
 40
2.098505020099997
100
AcDbArc
 50
90.0000179861
 51
180.0
  0
ARC
  5
52
330
2
100
AcDbEntity
  8
0
 62
     3
100
AcDbCircle
 10
38.3257183112
 20
171.2480392456
 30
0.0
 40
2.798007011399999
100
AcDbArc
 50
90.0000179861
 51
180.0
  0
LINE
  5
53
330
2
100
AcDbEntity
  8
0
 62
     3
100
AcDbLine
 10
37.1266216315
 20
165.751953125
 30
0.0
 11
37.1266216315
 21
171.2480392456
 31
0.0
  0
LINE
  5
54
330
2
100
AcDbEntity
  8
0
 62
     3
100
AcDbLine
 10
36.7768901862
 20
165.751953125
 30
0.0
 11
36.7768901862
 21
171.2480392456
 31
0.0
  0
LINE
  5
55
330
2
100
AcDbEntity
  8
0
 62
     3
100
AcDbLine
 10
36.97671928779999
 20
165.751953125
 30
0.0
 11
36.97671928779999
 21
171.2480392456
 31
0.0
  0
LINE
  5
56
330
2
100
AcDbEntity
  8
0
 62
     3
100
AcDbLine
 10
36.227207569
 20
165.751953125
 30
0.0
 11
36.227207569
 21
171.2480392456
 31
0.0
  0
LINE
  5
57
330
2
100
AcDbEntity
  8
0
 62
     3
100
AcDbLine
 10
35.52774467839998
 20
165.751953125
 30
0.0
 11
35.52774467839998
 21
171.2480392456
 31
0.0
  0
LINE
  5
58
330
2
100
AcDbEntity
  8
0
 62
     3
100
AcDbLine
 10
38.37344780339998
 20
169.8999999999999
 30
0.0
 11
38.37344780339998
 21
167.1
 31
0.0
  0
ARC
  5
59
330
2
100
AcDbEntity
  8
0
 62
     3
100
AcDbCircle
 10
44.92105522529999
 20
171.2480392456
 30
0.0
 40
1.1991457939
100
AcDbArc
 50
0.000035972178686
 51
90.0000179861
  0
ARC
  5
5A
330
2
100
AcDbEntity
  8
0
 62
     3
100
AcDbCircle
 10
44.92105522529999
 20
171.2480392456
 30
0.0
 40
1.5488967896
100
AcDbArc
 50
0.000035972178686
 51
90.0000179861
  0
ARC
  5
5B
330
2
100
AcDbEntity
  8
0
 62
     3
100
AcDbCircle
 10
44.92105522529999
 20
171.2480392456
 30
0.0
 40
1.3490390778
100
AcDbArc
 50
0.000035972178686
 51
90.0000179861
  0
ARC
  5
5C
330
2
100
AcDbEntity
  8
0
 62
     3
100
AcDbCircle
 10
44.92105522529999
 20
171.2480392456
 30
0.0
 40
2.098505020099997
100
AcDbArc
 50
0.000035972178686
 51
90.0000179861
  0
ARC
  5
5D
330
2
100
AcDbEntity
  8
0
 62
     3
100
AcDbCircle
 10
44.92105522529999
 20
171.2480392456
 30
0.0
 40
2.798007011399999
100
AcDbArc
 50
0.000035972178686
 51
90.0000179861
  0
LINE
  5
5E
330
2
100
AcDbEntity
  8
0
 62
     3
100
AcDbLine
 10
44.87344780339998
 20
169.8999999999999
 30
0.0
 11
44.87344780339998
 21
167.1
 31
0.0
  0
LINE
  5
5F
330
2
100
AcDbEntity
  8
0
 62
     3
100
AcDbLine
 10
47.0195659675
 20
165.751953125
 30
0.0
 11
47.0195659675
 21
171.2480392456
 31
0.0
  0
LINE
  5
60
330
2
100
AcDbEntity
  8
0
 62
     3
100
AcDbLine
 10
47.71902885809999
 20
165.751953125
 30
0.0
 11
47.71902885809999
 21
171.2480392456
 31
0.0
  0
LINE
  5
61
330
2
100
AcDbEntity
  8
0
 62
     3
100
AcDbLine
 10
46.12027397529998
 20
165.751953125
 30
0.0
 11
46.12027397529998
 21
171.2480392456
 31
0.0
  0
LINE
  5
62
330
2
100
AcDbEntity
  8
0
 62
     3
100
AcDbLine
 10
46.47000542059998
 20
165.751953125
 30
0.0
 11
46.47000542059998
 21
171.2480392456
 31
0.0
  0
LINE
  5
63
330
2
100
AcDbEntity
  8
0
 62
     3
100
AcDbLine
 10
46.27005424869998
 20
165.751953125
 30
0.0
 11
46.27005424869998
 21
171.2480392456
 31
0.0
  0
LINE
  5
64
330
2
100
AcDbEntity
  8
0
 62
     3
100
AcDbLine
 10
77.35683098209998
 20
158.9068260193001
 30
0.0
 11
77.35683098209998
 21
178.0931587219001
 31
0.0
  0
LINE
  5
65
330
2
100
AcDbEntity
  8
0
 62
     3
100
AcDbLine
 10
76.65732231509998
 20
159.6063270569001
 30
0.0
 11
76.65732231509998
 21
177.3936500548999
 31
0.0
  0
LINE
  5
66
330
2
100
AcDbEntity
  8
0
 62
     3
100
AcDbLine
 10
79.4553340949
 20
158.9068260193001
 30
0.0
 11
79.4553340949
 21
178.0931587219001
 31
0.0
  0
LINE
  5
67
330
2
100
AcDbEntity
  8
0
 62
     3
100
AcDbLine
 10
72.46031608949997
 20
164.0669517517
 30
0.0
 11
72.46031608949997
 21
172.9330329895001
 31
0.0
  0
LINE
  5
68
330
2
100
AcDbEntity
  8
0
 62
     3
100
AcDbLine
 10
77.35683098209998
 20
158.9068260193001
 30
0.0
 11
79.4553340949
 21
158.9068260193001
 31
0.0
  0
LINE
  5
69
330
2
100
AcDbEntity
  8
0
 62
     3
100
AcDbLine
 10
76.65734046669998
 20
162.4043579533001
 30
0.0
 11
72.66228365009997
 21
163.7836037741
 31
0.0
  0
ARC
  5
6A
330
2
100
AcDbEntity
  8
0
 62
     3
100
AcDbCircle
 10
72.76010551819999
 20
164.0669517517
 30
0.0
 40
0.2997865081
100
AcDbArc
 50
179.9999820138999
 51
250.9533531498
  0
LINE
  5
6B
330
2
100
AcDbEntity
  8
0
 62
     3
100
AcDbLine
 10
77.35690041289998
 20
158.9068950003001
 30
0.0
 11
76.65739491209997
 21
159.6064005601
 31
0.0
  0
LINE
  5
6C
330
2
100
AcDbEntity
  8
0
 62
     3
100
AcDbLine
 10
77.35683098209998
 20
178.0931587219001
 30
0.0
 11
79.4553340949
 21
178.0931587219001
 31
0.0
  0
LINE
  5
6D
330
2
100
AcDbEntity
  8
0
 62
     3
100
AcDbLine
 10
72.6622701739
 20
173.2164039388001
 30
0.0
 11
76.6573269905
 21
174.5956497595001
 31
0.0
  0
ARC
  5
6E
330
2
100
AcDbEntity
  8
0
 62
     3
100
AcDbCircle
 10
72.76010551819999
 20
172.9330329895001
 30
0.0
 40
0.2997865081
100
AcDbArc
 50
109.0466177082
 51
179.9999820138999
  0
LINE
  5
6F
330
2
100
AcDbEntity
  8
0
 62
     3
100
AcDbLine
 10
76.65738048889996
 20
177.3937079749999
 30
0.0
 11
77.35683210069999
 21
178.0931595278
 31
0.0
  0
LINE
  5
70
330
2
100
AcDbEntity
  8
0
 62
     3
100
AcDbLine
 10
81.85362663639997
 20
168.8997077942
 30
0.0
 11
81.85362663639997
 21
170.9982109069999
 31
0.0
  0
LINE
  5
71
330
2
100
AcDbEntity
  8
0
 62
     3
100
AcDbLine
 10
81.55383720769998
 20
168.8997077942
 30
0.0
 11
81.55383720769998
 21
170.9982109069999
 31
0.0
  0
LINE
  5
72
330
2
100
AcDbEntity
  8
0
 62
     3
100
AcDbLine
 10
81.254047779
 20
168.8997077942
 30
0.0
 11
81.254047779
 21
170.9982109069999
 31
0.0
  0
LINE
  5
73
330
2
100
AcDbEntity
  8
0
 62
     3
100
AcDbLine
 10
80.95426597969998
 20
168.8997077942
 30
0.0
 11
80.95426597969998
 21
170.9982109069999
 31
0.0
  0
LINE
  5
74
330
2
100
AcDbEntity
  8
0
 62
     3
100
AcDbLine
 10
80.35469475159999
 20
168.8997077942
 30
0.0
 11
80.35469475159999
 21
170.9982109069999
 31
0.0
  0
LINE
  5
75
330
2
100
AcDbEntity
  8
0
 62
     3
100
AcDbLine
 10
80.75440636049998
 20
168.8997077942
 30
0.0
 11
80.75440636049998
 21
170.9982109069999
 31
0.0
  0
ARC
  5
76
330
2
100
AcDbEntity
  8
0
 62
     3
100
AcDbCircle
 10
79.75512352359999
 20
168.4000587463
 30
0.0
 40
0.2997865081
100
AcDbArc
 50
179.9999820138999
 51
269.9999640277999
  0
ARC
  5
77
330
2
100
AcDbEntity
  8
0
 62
     3
100
AcDbCircle
 10
79.75512352359999
 20
168.5999183655001
 30
0.0
 40
0.2997865081
100
AcDbArc
 50
90.0
 51
179.9999820138999
  0
ARC
  5
78
330
2
100
AcDbEntity
  8
0
 62
     3
100
AcDbCircle
 10
79.75512352359999
 20
165.7019844055001
 30
0.0
 40
0.2997865081
100
AcDbArc
 50
90.0
 51
179.9999820138999
  0
LINE
  5
79
330
2
100
AcDbEntity
  8
0
 62
     3
100
AcDbLine
 10
81.85362663639997
 20
166.0017738342
 30
0.0
 11
81.85362663639997
 21
168.100276947
 31
0.0
  0
LINE
  5
7A
330
2
100
AcDbEntity
  8
0
 62
     3
100
AcDbLine
 10
81.55383720769998
 20
166.0017738342
 30
0.0
 11
81.55383720769998
 21
168.100276947
 31
0.0
  0
LINE
  5
7B
330
2
100
AcDbEntity
  8
0
 62
     3
100
AcDbLine
 10
81.254047779
 20
166.0017738342
 30
0.0
 11
81.254047779
 21
168.100276947
 31
0.0
  0
LINE
  5
7C
330
2
100
AcDbEntity
  8
0
 62
     3
100
AcDbLine
 10
80.95426597969998
 20
166.0017738342
 30
0.0
 11
80.95426597969998
 21
168.100276947
 31
0.0
  0
LINE
  5
7D
330
2
100
AcDbEntity
  8
0
 62
     3
100
AcDbLine
 10
80.75440636049998
 20
166.0017738342
 30
0.0
 11
80.75440636049998
 21
168.100276947
 31
0.0
  0
LINE
  5
7E
330
2
100
AcDbEntity
  8
0
 62
     3
100
AcDbLine
 10
80.35469475159999
 20
166.0017738342
 30
0.0
 11
80.35469475159999
 21
168.100276947
 31
0.0
  0
ARC
  5
7F
330
2
100
AcDbEntity
  8
0
 62
     3
100
AcDbCircle
 10
79.75512352359999
 20
171.2980003357001
 30
0.0
 40
0.2997865081
100
AcDbArc
 50
179.9999820138999
 51
269.9999640277999
  0
LINE
  5
80
330
2
100
AcDbEntity
  8
0
 62
     3
100
AcDbLine
 10
82.45319786439997
 20
168.8997077942
 30
0.0
 11
82.45319786439997
 21
170.9982109069999
 31
0.0
  0
LINE
  5
81
330
2
100
AcDbEntity
  8
0
 62
     3
100
AcDbLine
 10
82.1534160651
 20
168.8997077942
 30
0.0
 11
82.1534160651
 21
170.9982109069999
 31
0.0
  0
LINE
  5
82
330
2
100
AcDbEntity
  8
0
 62
     3
100
AcDbLine
 10
82.1534160651
 20
166.0017738342
 30
0.0
 11
82.1534160651
 21
168.100276947
 31
0.0
  0
LINE
  5
83
330
2
100
AcDbEntity
  8
0
 62
     3
100
AcDbLine
 10
82.45319786439997
 20
166.0017738342
 30
0.0
 11
82.45319786439997
 21
168.100276947
 31
0.0
  0
LINE
  5
84
330
2
100
AcDbEntity
  8
0
 62
     3
100
AcDbLine
 10
110.6608852423997
 20
165.9018440246001
 30
0.0
 11
118.4553417242999
 21
165.9018440246001
 31
0.0
  0
LINE
  5
85
330
2
100
AcDbEntity
  8
0
 62
     3
100
AcDbLine
 10
110.6608852423997
 20
171.0981407164999
 30
0.0
 11
118.4553417242999
 21
171.0981407164999
 31
0.0
  0
LINE
  5
86
330
2
100
AcDbEntity
  8
0
 62
     3
100
AcDbLine
 10
95.47170677559995
 20
165.3
 30
0.0
 11
106.4717067755998
 21
165.3
 31
0.0
  0
LINE
  5
87
330
2
100
AcDbEntity
  8
0
 62
     3
100
AcDbLine
 10
95.47170677559995
 20
171.7
 30
0.0
 11
106.4717067755998
 21
171.7
 31
0.0
  0
LINE
  5
88
330
2
100
AcDbEntity
  8
0
 62
     3
100
AcDbLine
 10
87.47739067449998
 20
175.7948112488
 30
0.0
 11
95.47170677559995
 21
175.7948112488
 31
0.0
  0
LINE
  5
89
330
2
100
AcDbEntity
  8
0
 62
     3
100
AcDbLine
 10
87.47739067449998
 20
174.4957313537
 30
0.0
 11
93.4731258429
 21
174.4957313537
 31
0.0
  0
LINE
  5
8A
330
2
100
AcDbEntity
  8
0
 62
     3
100
AcDbLine
 10
90.02422844139999
 20
170.7822353134
 30
0.0
 11
89.39100892749998
 21
170.5210997855
 31
0.0
  0
LINE
  5
8B
330
2
100
AcDbEntity
  8
0
 62
     3
100
AcDbLine
 10
89.39101070399997
 20
166.4788916632001
 30
0.0
 11
90.02423044739996
 21
166.2177564192001
 31
0.0
  0
LINE
  5
8C
330
2
100
AcDbEntity
  8
0
 62
     3
100
AcDbLine
 10
86.4503521003
 20
168.100276947
 30
0.0
 11
86.4503521003
 21
168.8997077942
 31
0.0
  0
LINE
  5
8D
330
2
100
AcDbEntity
  8
0
 62
     3
100
AcDbLine
 10
88.84763717259998
 20
170.1716323671001
 30
0.0
 11
88.41786112059997
 21
169.7491064553
 31
0.0
  0
LINE
  5
8E
330
2
100
AcDbEntity
  8
0
 62
     3
100
AcDbLine
 10
88.41786112059997
 20
169.7491064553
 30
0.0
 11
88.12046403949997
 21
169.2719884525
 31
0.0
  0
LINE
  5
8F
330
2
100
AcDbEntity
  8
0
 62
     3
100
AcDbLine
 10
88.12046403949997
 20
169.2719884525
 30
0.0
 11
87.96844360379997
 21
168.7611306966001
 31
0.0
  0
LINE
  5
90
330
2
100
AcDbEntity
  8
0
 62
     3
100
AcDbLine
 10
87.96844360379997
 20
168.7611306966001
 30
0.0
 11
87.96844383329998
 21
168.2388601141
 31
0.0
  0
LINE
  5
91
330
2
100
AcDbEntity
  8
0
 62
     3
100
AcDbLine
 10
87.96844383329998
 20
168.2388601141
 30
0.0
 11
88.120464718
 21
167.7280024264001
 31
0.0
  0
LINE
  5
92
330
2
100
AcDbEntity
  8
0
 62
     3
100
AcDbLine
 10
88.120464718
 20
167.7280024264001
 30
0.0
 11
88.41786221849998
 21
167.2508845570001
 31
0.0
  0
LINE
  5
93
330
2
100
AcDbEntity
  8
0
 62
     3
100
AcDbLine
 10
88.41786221849998
 20
167.2508845570001
 30
0.0
 11
88.84763864199999
 21
166.8283588379001
 31
0.0
  0
LINE
  5
94
330
2
100
AcDbEntity
  8
0
 62
     3
100
AcDbLine
 10
88.84763864199999
 20
166.8283588379001
 30
0.0
 11
89.39101070399997
 21
166.4788916632001
 31
0.0
  0
LINE
  5
95
330
2
100
AcDbEntity
  8
0
 62
     3
100
AcDbLine
 10
89.39100892749998
 20
170.5210997855
 30
0.0
 11
88.84763717259998
 21
170.1716323671001
 31
0.0
  0
LINE
  5
96
330
2
100
AcDbEntity
  8
0
 62
     3
100
AcDbLine
 10
87.47739067449998
 20
174.4957313537
 30
0.0
 11
87.47739067449998
 21
175.7948112488
 31
0.0
  0
LINE
  5
97
330
2
100
AcDbEntity
  8
0
 62
     3
100
AcDbLine
 10
91.44679680240001
 20
170.9982109069999
 30
0.0
 11
91.44679680240001
 21
166.0017738342
 31
0.0
  0
LINE
  5
98
330
2
100
AcDbEntity
  8
0
 62
     3
100
AcDbLine
 10
90.71962314209995
 20
166.0563659647
 30
0.0
 11
91.44679680240001
 21
166.0017738342
 31
0.0
  0
LINE
  5
99
330
2
100
AcDbEntity
  8
0
 62
     3
100
AcDbLine
 10
90.02423044739996
 20
166.2177564192001
 30
0.0
 11
90.71962314209995
 21
166.0563659647
 31
0.0
  0
LINE
  5
9A
330
2
100
AcDbEntity
  8
0
 62
     3
100
AcDbLine
 10
91.44679460659999
 20
170.9982185364
 30
0.0
 11
90.7196209942
 21
170.9436260797001
 31
0.0
  0
LINE
  5
9B
330
2
100
AcDbEntity
  8
0
 62
     3
100
AcDbLine
 10
90.7196209942
 20
170.9436260797001
 30
0.0
 11
90.02422844139999
 21
170.7822353134
 31
0.0
  0
LINE
  5
9C
330
2
100
AcDbEntity
  8
0
 62
     3
100
AcDbLine
 10
95.47170677559995
 20
165.3
 30
0.0
 11
95.47170677559995
 21
171.7
 31
0.0
  0
LINE
  5
9D
330
2
100
AcDbEntity
  8
0
 62
     3
100
AcDbLine
 10
93.97276726139995
 20
165.5021247864
 30
0.0
 11
93.97276726139995
 21
171.4978599548
 31
0.0
  0
LINE
  5
9E
330
2
100
AcDbEntity
  8
0
 62
     3
100
AcDbLine
 10
95.47174146919999
 20
175.7947515658
 30
0.0
 11
93.47316487519998
 21
174.4956768508
 31
0.0
  0
LINE
  5
9F
330
2
100
AcDbEntity
  8
0
 62
     3
100
AcDbLine
 10
106.4638790167999
 20
170.9982109069999
 30
0.0
 11
108.4624599493999
 21
170.9982109069999
 31
0.0
  0
LINE
  5
A0
330
2
100
AcDbEntity
  8
0
 62
     3
100
AcDbLine
 10
106.4638790167999
 20
166.0017738342
 30
0.0
 11
108.4624599493999
 21
166.0017738342
 31
0.0
  0
LINE
  5
A1
330
2
100
AcDbEntity
  8
0
 62
     3
100
AcDbLine
 10
106.4717067755998
 20
165.3
 30
0.0
 11
106.4717067755998
 21
171.7
 31
0.0
  0
LINE
  5
A2
330
2
100
AcDbEntity
  8
0
 62
     3
100
AcDbLine
 10
106.4638790167999
 20
166.0017738342
 30
0.0
 11
106.4638790167999
 21
170.9982109069999
 31
0.0
  0
LINE
  5
A3
330
2
100
AcDbEntity
  8
0
 62
     3
100
AcDbLine
 10
110.6608852423997
 20
165.9018440246001
 30
0.0
 11
110.6608852423997
 21
171.0981407164999
 31
0.0
  0
LINE
  5
A4
330
2
100
AcDbEntity
  8
0
 62
     3
100
AcDbLine
 10
108.4624599493999
 20
166.0017738342
 30
0.0
 11
108.4624599493999
 21
170.9982109069999
 31
0.0
  0
LINE
  5
A5
330
2
100
AcDbEntity
  8
0
 62
     3
100
AcDbLine
 10
117.7558254278999
 20
160.7055397034
 30
0.0
 11
117.7558254278999
 21
165.0177497864
 31
0.0
  0
LINE
  5
A6
330
2
100
AcDbEntity
  8
0
 62
     3
100
AcDbLine
 10
118.4553417242999
 20
161.4050407410001
 30
0.0
 11
118.4553417242999
 21
165.8988364185
 31
0.0
  0
LINE
  5
A7
330
2
100
AcDbEntity
  8
0
 62
     3
100
AcDbLine
 10
118.4553417242999
 20
164.2999839783
 30
0.0
 11
126.7494319952999
 21
164.2999839783
 31
0.0
  0
LINE
  5
A8
330
2
100
AcDbEntity
  8
0
 62
     3
100
AcDbLine
 10
118.4553417242999
 20
163.5005531311001
 30
0.0
 11
126.7494319952999
 21
163.5005531311001
 31
0.0
  0
LINE
  5
A9
330
2
100
AcDbEntity
  8
0
 62
     3
100
AcDbLine
 10
118.4553306795999
 20
161.4050456122001
 30
0.0
 11
117.7558305145999
 21
160.7055455062001
 31
0.0
  0
LINE
  5
AA
330
2
100
AcDbEntity
  8
0
 62
     3
100
AcDbLine
 10
127.7487224615997
 20
163.6767616272001
 30
0.0
 11
127.7487224615997
 21
164.1237907410001
 31
0.0
  0
LINE
  5
AB
330
2
100
AcDbEntity
  8
0
 62
     3
100
AcDbLine
 10
126.7494319952999
 20
163.5005531311001
 30
0.0
 11
126.7494319952999
 21
164.2999839783
 31
0.0
  0
LINE
  5
AC
330
2
100
AcDbEntity
  8
0
 62
     3
100
AcDbLine
 10
126.7494285930998
 20
163.5005578912001
 30
0.0
 11
127.7487223252
 21
163.6767603429
 31
0.0
  0
LINE
  5
AD
330
2
100
AcDbEntity
  8
0
 62
     3
100
AcDbLine
 10
126.7494323552999
 20
164.2999920575
 30
0.0
 11
127.7487185738997
 21
164.1237909306
 31
0.0
  0
LINE
  5
AE
330
2
100
AcDbEntity
  8
0
 62
     3
100
AcDbLine
 10
118.4553417242999
 20
173.4994163513001
 30
0.0
 11
126.7494319952999
 21
173.4994163513001
 31
0.0
  0
LINE
  5
AF
330
2
100
AcDbEntity
  8
0
 62
     3
100
AcDbLine
 10
118.4553417242999
 20
172.6999855040999
 30
0.0
 11
126.7494319952999
 21
172.6999855040999
 31
0.0
  0
LINE
  5
B0
330
2
100
AcDbEntity
  8
0
 62
     3
100
AcDbLine
 10
118.2553417242999
 20
165.9018440246001
 30
0.0
 11
118.2553417242999
 21
171.106046846
 31
0.0
  0
LINE
  5
B1
330
2
100
AcDbEntity
  8
0
 62
     3
100
AcDbLine
 10
118.4553335339999
 20
165.9018470103001
 30
0.0
 11
117.7558324047998
 21
165.0177565961
 31
0.0
  0
LINE
  5
B2
330
2
100
AcDbEntity
  8
0
 62
     3
100
AcDbLine
 10
118.4553417242999
 20
171.0947513787
 30
0.0
 11
118.4553417242999
 21
175.5949440002
 31
0.0
  0
LINE
  5
B3
330
2
100
AcDbEntity
  8
0
 62
     3
100
AcDbLine
 10
118.4553301746998
 20
171.0981467305001
 30
0.0
 11
117.7558290454999
 21
171.9822371448
 31
0.0
  0
LINE
  5
B4
330
2
100
AcDbEntity
  8
0
 62
     3
100
AcDbLine
 10
117.7558254278999
 20
171.9822349548
 30
0.0
 11
117.7558254278999
 21
176.2944374084
 31
0.0
  0
LINE
  5
B5
330
2
100
AcDbEntity
  8
0
 62
     3
100
AcDbLine
 10
117.7558257768999
 20
176.2944418905
 30
0.0
 11
118.4553258828999
 21
175.5949417255999
 31
0.0
  0
LINE
  5
B6
330
2
100
AcDbEntity
  8
0
 62
     3
100
AcDbLine
 10
127.7487224615997
 20
172.8761863707999
 30
0.0
 11
127.7487224615997
 21
173.3232154846001
 31
0.0
  0
LINE
  5
B7
330
2
100
AcDbEntity
  8
0
 62
     3
100
AcDbLine
 10
126.7494319952999
 20
172.6999855040999
 30
0.0
 11
126.7494319952999
 21
173.4994163513001
 31
0.0
  0
LINE
  5
B8
330
2
100
AcDbEntity
  8
0
 62
     3
100
AcDbLine
 10
126.7494285493
 20
172.6999949287
 30
0.0
 11
127.7487222813998
 21
172.8761973804
 31
0.0
  0
LINE
  5
B9
330
2
100
AcDbEntity
  8
0
 62
     3
100
AcDbLine
 10
126.7494310742999
 20
173.4994215816
 30
0.0
 11
127.7487248064
 21
173.3232191299001
 31
0.0
  0
TEXT
  5
BA
330
2
100
AcDbEntity
  8
0
 62
     5
100
AcDbText
 10
145.0
 20
10.0
 30
0.0
 40
5.0
  1
ＭＡ４－Ｃ００２４０
 41
0.8509350363988426
 72
     5
 11
194.0705870989999
 21
10.0
 31
0.0
100
AcDbText
  0
LINE
  5
BB
330
2
100
AcDbEntity
  8
0
 62
     3
100
AcDbLine
 10
161.6165152832
 20
164.6789855957
 30
0.0
 11
161.6165152832
 21
172.3209838867001
 31
0.0
  0
LINE
  5
BC
330
2
100
AcDbEntity
  8
0
  6
CENTER
 62
     3
100
AcDbLine
 10
154.8165274901999
 20
156.0
 30
0.0
 11
154.8165274901999
 21
181.0
 31
0.0
  0
LINE
  5
BD
330
2
100
AcDbEntity
  8
0
 62
     3
100
AcDbLine
 10
148.0165244384999
 20
164.6789855957
 30
0.0
 11
148.0165244384999
 21
172.3209838867001
 31
0.0
  0
CIRCLE
  5
BE
330
2
100
AcDbEntity
  8
0
 62
     3
100
AcDbCircle
 10
154.8165274901999
 20
168.5
 30
0.0
 40
9.5
  0
ARC
  5
BF
330
2
100
AcDbEntity
  8
0
 62
     3
100
AcDbCircle
 10
154.8165274901999
 20
168.5
 30
0.0
 40
8.5500001907
100
AcDbArc
 50
279.7582272909999
 51
310.0364832024
  0
ARC
  5
C0
330
2
100
AcDbEntity
  8
0
 62
     3
100
AcDbCircle
 10
154.8165274901999
 20
168.5
 30
0.0
 40
8.3999996185
100
AcDbArc
 50
220.8914496273
 51
319.1086956279
  0
ARC
  5
C1
330
2
100
AcDbEntity
  8
0
 62
     3
100
AcDbCircle
 10
154.8165274901999
 20
168.5
 30
0.0
 40
7.8000001907
100
AcDbArc
 50
209.332146759
 51
330.6678345716998
  0
LINE
  5
C2
330
2
100
AcDbEntity
  8
0
 62
     3
100
AcDbLine
 10
151.6665335936998
 20
164.2999877930001
 30
0.0
 11
157.9665366454999
 21
164.2999877930001
 31
0.0
  0
LINE
  5
C3
330
2
100
AcDbEntity
  8
0
 62
     3
100
AcDbLine
 10
151.6665335936998
 20
163.5
 30
0.0
 11
157.9665366454999
 21
163.5
 31
0.0
  0
ARC
  5
C4
330
2
100
AcDbEntity
  8
0
 62
     3
100
AcDbCircle
 10
154.8165274901999
 20
168.5
 30
0.0
 40
8.5500001907
100
AcDbArc
 50
229.9636347319997
 51
259.8958732600999
  0
ARC
  5
C5
330
2
100
AcDbEntity
  8
0
 62
     3
100
AcDbCircle
 10
154.8165274901999
 20
168.5
 30
0.0
 40
8.8000001907
100
AcDbArc
 50
223.8141148938999
 51
231.3179246405999
  0
ARC
  5
C6
330
2
100
AcDbEntity
  8
0
 62
     3
100
AcDbCircle
 10
154.8165274901999
 20
168.5
 30
0.0
 40
8.850000381499999
100
AcDbArc
 50
224.1504334087
 51
231.5765429234
  0
LINE
  5
C7
330
2
100
AcDbEntity
  8
0
 62
     3
100
AcDbLine
 10
148.4665366454999
 20
162.335571289
 30
0.0
 11
148.4665366454999
 21
163.9703674316
 31
0.0
  0
LINE
  5
C8
330
2
100
AcDbEntity
  8
0
 62
     3
100
AcDbLine
 10
149.3165274901999
 20
161.5665588379001
 30
0.0
 11
149.3165274901999
 21
161.9538269043001
 31
0.0
  0
LINE
  5
C9
330
2
100
AcDbEntity
  8
0
 62
     3
100
AcDbLine
 10
151.6665183348998
 20
163.5
 30
0.0
 11
151.6665183348998
 21
164.2999877930001
 31
0.0
  0
ARC
  5
CA
330
2
100
AcDbEntity
  8
0
 62
     3
100
AcDbCircle
 10
154.8165274901999
 20
168.5
 30
0.0
 40
8.850000381499999
100
AcDbArc
 50
260.2417540395999
 51
279.7582819325
  0
LINE
  5
CB
330
2
100
AcDbEntity
  8
0
 62
     3
100
AcDbLine
 10
152.7665244384999
 20
163.4499816894001
 30
0.0
 11
156.8665305419999
 21
163.4499816894001
 31
0.0
  0
LINE
  5
CC
330
2
100
AcDbEntity
  8
0
  6
DASH
 62
     3
100
AcDbLine
 10
152.8165274901999
 20
163.5
 30
0.0
 11
152.8165274901999
 21
164.2999877930001
 31
0.0
  0
LINE
  5
CE
330
2
100
AcDbEntity
  8
0
 62
     3
100
AcDbLine
 10
152.7665244384999
 20
163.4499816894001
 30
0.0
 11
152.7665244384999
 21
163.5
 31
0.0
  0
LINE
  5
CF
330
2
100
AcDbEntity
  8
0
 62
     3
100
AcDbLine
 10
152.6665183348999
 20
163.5
 30
0.0
 11
152.6665183348999
 21
164.2999877930001
 31
0.0
  0
LINE
  5
D0
330
2
100
AcDbEntity
  8
0
 62
     3
100
AcDbLine
 10
153.3165274901999
 20
159.7780456543001
 30
0.0
 11
153.3165274901999
 21
160.082611084
 31
0.0
  0
LINE
  5
D1
330
2
100
AcDbEntity
  8
0
  6
DASH
 62
     3
100
AcDbLine
 10
156.8165274901999
 20
163.5
 30
0.0
 11
156.8165274901999
 21
164.2999877930001
 31
0.0
  0
LINE
  5
D2
330
2
100
AcDbEntity
  8
0
 62
     3
100
AcDbLine
 10
156.8665152831998
 20
163.4499816894001
 30
0.0
 11
156.8665152831998
 21
163.5
 31
0.0
  0
LINE
  5
D3
330
2
100
AcDbEntity
  8
0
 62
     3
100
AcDbLine
 10
156.9665213866999
 20
163.5
 30
0.0
 11
156.9665213866999
 21
164.2999877930001
 31
0.0
  0
LINE
  5
D4
330
2
100
AcDbEntity
  8
0
 62
     3
100
AcDbLine
 10
156.3165274901999
 20
159.7780456543001
 30
0.0
 11
156.3165274901999
 21
160.082611084
 31
0.0
  0
LINE
  5
D5
330
2
100
AcDbEntity
  8
0
 62
     3
100
AcDbLine
 10
157.9665213866999
 20
163.5
 30
0.0
 11
157.9665213866999
 21
164.2999877930001
 31
0.0
  0
LINE
  5
D6
330
2
100
AcDbEntity
  8
0
 62
     3
100
AcDbLine
 10
161.1665335936999
 20
162.335571289
 30
0.0
 11
161.1665335936999
 21
163.9703674316
 31
0.0
  0
LINE
  5
D7
330
2
100
AcDbEntity
  8
0
 62
     3
100
AcDbLine
 10
160.3165274901999
 20
161.5665588379001
 30
0.0
 11
160.3165274901999
 21
161.9538269043001
 31
0.0
  0
ARC
  5
D8
330
2
100
AcDbEntity
  8
0
 62
     3
100
AcDbCircle
 10
154.8165274901999
 20
168.5
 30
0.0
 40
8.850000381499999
100
AcDbArc
 50
308.4235067091998
 51
315.849657205
  0
ARC
  5
D9
330
2
100
AcDbEntity
  8
0
 62
     3
100
AcDbCircle
 10
154.8165274901999
 20
168.5
 30
0.0
 40
8.8000001907
100
AcDbArc
 50
308.4233974261998
 51
316.1860030405
  0
ARC
  5
DA
330
2
100
AcDbEntity
  8
0
 62
     3
100
AcDbCircle
 10
154.8165274901999
 20
168.5
 30
0.0
 40
8.5500001907
100
AcDbArc
 50
49.96348606169997
 51
79.89578264640001
  0
LINE
  5
DB
330
2
100
AcDbEntity
  8
0
 62
     3
100
AcDbLine
 10
148.0165244384999
 20
171.1000061035
 30
0.0
 11
161.6165305419999
 21
171.1000061035
 31
0.0
  0
LINE
  5
DC
330
2
100
AcDbEntity
  8
0
 62
     3
100
AcDbLine
 10
148.0165244384999
 20
165.8999938965
 30
0.0
 11
161.6165305419999
 21
165.8999938965
 31
0.0
  0
ARC
  5
DD
330
2
100
AcDbEntity
  8
0
 62
     3
100
AcDbCircle
 10
154.8165274901999
 20
168.5
 30
0.0
 40
8.3999996185
100
AcDbArc
 50
40.89128729659999
 51
139.1085503727
  0
ARC
  5
DE
330
2
100
AcDbEntity
  8
0
 62
     3
100
AcDbCircle
 10
154.8165274901999
 20
168.5
 30
0.0
 40
7.8000001907
100
AcDbArc
 50
29.33211078679999
 51
150.667853241
  0
LINE
  5
DF
330
2
100
AcDbEntity
  8
0
 62
     3
100
AcDbLine
 10
148.2165366454998
 20
165.9499816894
 30
0.0
 11
161.4165335936999
 21
165.9499816894
 31
0.0
  0
LINE
  5
E0
330
2
100
AcDbEntity
  8
0
 62
     3
100
AcDbLine
 10
148.2165366454998
 20
171.049987793
 30
0.0
 11
161.4165335936999
 21
171.049987793
 31
0.0
  0
LINE
  5
E1
330
2
100
AcDbEntity
  8
0
 62
     3
100
AcDbLine
 10
151.6665335936998
 20
172.7000122070001
 30
0.0
 11
157.9665366454999
 21
172.7000122070001
 31
0.0
  0
LINE
  5
E2
330
2
100
AcDbEntity
  8
0
 62
     3
100
AcDbLine
 10
151.6665335936998
 20
173.5000000000001
 30
0.0
 11
157.9665366454999
 21
173.5000000000001
 31
0.0
  0
ARC
  5
E3
330
2
100
AcDbEntity
  8
0
 62
     3
100
AcDbCircle
 10
154.8165274901999
 20
168.5
 30
0.0
 40
8.5500001907
100
AcDbArc
 50
100.1041267399
 51
130.0363652679997
  0
ARC
  5
E4
330
2
100
AcDbEntity
  8
0
 62
     3
100
AcDbCircle
 10
154.8165274901999
 20
168.5
 30
0.0
 40
8.850000381499999
100
AcDbArc
 50
128.4234570766
 51
135.8496212329
  0
ARC
  5
E5
330
2
100
AcDbEntity
  8
0
 62
     3
100
AcDbCircle
 10
154.8165274901999
 20
168.5
 30
0.0
 40
8.8000001907
100
AcDbArc
 50
128.6821300009
 51
136.1858851061
  0
ARC
  5
E6
330
2
100
AcDbEntity
  8
0
 62
     3
100
AcDbCircle
 10
149.9250174803998
 20
168.5
 30
0.0
 40
3.391505241399998
100
AcDbArc
 50
124.2446380594
 51
235.7553446378
  0
ARC
  5
E7
330
2
100
AcDbEntity
  8
0
 62
     3
100
AcDbCircle
 10
153.3165274901999
 20
168.5
 30
0.0
 40
7.5
100
AcDbArc
 50
157.252702016
 51
176.9427167138
  0
LINE
  5
E8
330
2
100
AcDbEntity
  8
0
 62
     3
100
AcDbLine
 10
148.2165213866998
 20
165.9499816894
 30
0.0
 11
148.2165213866998
 21
171.049987793
 31
0.0
  0
LINE
  5
E9
330
2
100
AcDbEntity
  8
0
 62
     3
100
AcDbLine
 10
148.0165396971998
 20
165.6000061035001
 30
0.0
 11
146.3999015135998
 21
165.6000061035001
 31
0.0
  0
LINE
  5
EA
330
2
100
AcDbEntity
  8
0
 62
     3
100
AcDbLine
 10
146.5572043700998
 20
168.8999938965
 30
0.0
 11
145.8272086425999
 21
168.8999938965
 31
0.0
  0
LINE
  5
EB
330
2
100
AcDbEntity
  8
0
 62
     3
100
AcDbLine
 10
146.5572043700998
 20
168.1000061035
 30
0.0
 11
145.8272086425999
 21
168.1000061035
 31
0.0
  0
ARC
  5
EC
330
2
100
AcDbEntity
  8
0
 62
     3
100
AcDbCircle
 10
153.3165274901999
 20
168.5
 30
0.0
 40
7.5
100
AcDbArc
 50
183.0572832861999
 51
202.747297984
  0
LINE
  5
ED
330
2
100
AcDbEntity
  8
0
 62
     3
100
AcDbLine
 10
148.0165396971998
 20
171.3999938965
 30
0.0
 11
146.3999015135998
 21
171.3999938965
 31
0.0
  0
LINE
  5
EE
330
2
100
AcDbEntity
  8
0
 62
     3
100
AcDbLine
 10
148.4665366454999
 20
173.0296325682999
 30
0.0
 11
148.4665366454999
 21
174.6643981932999
 31
0.0
  0
LINE
  5
EF
330
2
100
AcDbEntity
  8
0
 62
     3
100
AcDbLine
 10
149.3165274901999
 20
175.0461730957001
 30
0.0
 11
149.3165274901999
 21
175.4334411621
 31
0.0
  0
LINE
  5
F0
330
2
100
AcDbEntity
  8
0
 62
     3
100
AcDbLine
 10
151.6665183348998
 20
172.7000122070001
 30
0.0
 11
151.6665183348998
 21
173.5000000000001
 31
0.0
  0
LINE
  5
F1
330
2
100
AcDbEntity
  8
0
 62
     3
100
AcDbLine
 10
152.7665244384999
 20
173.5499877930001
 30
0.0
 11
156.8665305419999
 21
173.5499877930001
 31
0.0
  0
LINE
  5
F2
330
2
100
AcDbEntity
  8
0
  6
DASH
 62
     3
100
AcDbLine
 10
152.8165274901999
 20
172.7000122070001
 30
0.0
 11
152.8165274901999
 21
173.5000000000001
 31
0.0
  0
LINE
  5
F3
330
2
100
AcDbEntity
  8
0
 62
     3
100
AcDbLine
 10
152.7665244384999
 20
173.5000000000001
 30
0.0
 11
152.7665244384999
 21
173.5499877930001
 31
0.0
  0
LINE
  5
F4
330
2
100
AcDbEntity
  8
0
 62
     3
100
AcDbLine
 10
152.6665183348999
 20
172.7000122070001
 30
0.0
 11
152.6665183348999
 21
173.5000000000001
 31
0.0
  0
LINE
  5
F5
330
2
100
AcDbEntity
  8
0
 62
     3
100
AcDbLine
 10
156.8665152831998
 20
173.5000000000001
 30
0.0
 11
156.8665152831998
 21
173.5499877930001
 31
0.0
  0
LINE
  5
F6
330
2
100
AcDbEntity
  8
0
  6
DASH
 62
     3
100
AcDbLine
 10
156.8165274901999
 20
172.7000122070001
 30
0.0
 11
156.8165274901999
 21
173.5000000000001
 31
0.0
  0
LINE
  5
F7
330
2
100
AcDbEntity
  8
0
 62
     3
100
AcDbLine
 10
156.9665213866999
 20
172.7000122070001
 30
0.0
 11
156.9665213866999
 21
173.5000000000001
 31
0.0
  0
LINE
  5
F8
330
2
100
AcDbEntity
  8
0
 62
     3
100
AcDbLine
 10
157.9665213866999
 20
172.7000122070001
 30
0.0
 11
157.9665213866999
 21
173.5000000000001
 31
0.0
  0
ARC
  5
F9
330
2
100
AcDbEntity
  8
0
 62
     3
100
AcDbCircle
 10
154.8165274901999
 20
168.5
 30
0.0
 40
8.850000381499999
100
AcDbArc
 50
80.2417180675
 51
99.7582459604
  0
LINE
  5
FA
330
2
100
AcDbEntity
  8
0
 62
     3
100
AcDbLine
 10
153.3165274901999
 20
176.9173889160001
 30
0.0
 11
153.3165274901999
 21
177.2219543457
 31
0.0
  0
LINE
  5
FB
330
2
100
AcDbEntity
  8
0
 62
     3
100
AcDbLine
 10
156.3165274901999
 20
176.9173889160001
 30
0.0
 11
156.3165274901999
 21
177.2219543457
 31
0.0
  0
LINE
  5
FC
330
2
100
AcDbEntity
  8
0
 62
     3
100
AcDbLine
 10
163.807646875
 20
168.8999938965
 30
0.0
 11
163.0758811278999
 21
168.8999938965
 31
0.0
  0
LINE
  5
FD
330
2
100
AcDbEntity
  8
0
 62
     3
100
AcDbLine
 10
163.807646875
 20
168.1000061035
 30
0.0
 11
163.0758811278999
 21
168.1000061035
 31
0.0
  0
ARC
  5
FE
330
2
100
AcDbEntity
  8
0
 62
     3
100
AcDbCircle
 10
156.3165274901999
 20
168.5
 30
0.0
 40
7.5
100
AcDbArc
 50
337.2527516486
 51
356.9427936671
  0
ARC
  5
FF
330
2
100
AcDbEntity
  8
0
 62
     3
100
AcDbCircle
 10
156.3165274901999
 20
168.5
 30
0.0
 40
7.5
100
AcDbArc
 50
3.0572063329
 51
22.7472346911
  0
ARC
  5
100
330
2
100
AcDbEntity
  8
0
 62
     3
100
AcDbCircle
 10
159.7080374999999
 20
168.5
 30
0.0
 40
3.391505241399998
100
AcDbArc
 50
304.2443871635998
 51
55.75557868539995
  0
LINE
  5
101
330
2
100
AcDbEntity
  8
0
 62
     3
100
AcDbLine
 10
161.4165183348999
 20
165.9499816894
 30
0.0
 11
161.4165183348999
 21
171.049987793
 31
0.0
  0
LINE
  5
102
330
2
100
AcDbEntity
  8
0
 62
     3
100
AcDbLine
 10
163.2331839844
 20
165.6000061035001
 30
0.0
 11
161.6165305419999
 21
165.6000061035001
 31
0.0
  0
LINE
  5
103
330
2
100
AcDbEntity
  8
0
 62
     3
100
AcDbLine
 10
161.1665335936999
 20
173.0296020507999
 30
0.0
 11
161.1665335936999
 21
174.6643981932999
 31
0.0
  0
LINE
  5
104
330
2
100
AcDbEntity
  8
0
 62
     3
100
AcDbLine
 10
160.3165274901999
 20
175.0461730957001
 30
0.0
 11
160.3165274901999
 21
175.4334411621
 31
0.0
  0
ARC
  5
105
330
2
100
AcDbEntity
  8
0
 62
     3
100
AcDbCircle
 10
154.8165274901999
 20
168.5
 30
0.0
 40
8.8000001907
100
AcDbArc
 50
43.8139696387
 51
51.31776230999999
  0
ARC
  5
106
330
2
100
AcDbEntity
  8
0
 62
     3
100
AcDbCircle
 10
154.8165274901999
 20
168.5
 30
0.0
 40
8.850000381499999
100
AcDbArc
 50
44.150342795
 51
51.57646255499999
  0
LINE
  5
107
330
2
100
AcDbEntity
  8
0
 62
     3
100
AcDbLine
 10
163.2331839844
 20
171.3999938965
 30
0.0
 11
161.6165305419999
 21
171.3999938965
 31
0.0
  0
LINE
  5
113
330
2
100
AcDbEntity
  8
0
100
AcDbLine
 10
210.0
 20
297.0
 30
0.0
 11
0.0
 21
297.0
 31
0.0
  0
LINE
  5
117
330
2
100
AcDbEntity
  8
0
 62
     3
100
AcDbLine
 10
79.75512352359999
 20
266.5120962635999
 30
0.0
 11
86.4503521003
 21
266.5120962635999
 31
0.0
  0
LINE
  5
118
330
2
100
AcDbEntity
  8
0
 62
     3
100
AcDbLine
 10
79.75512352359999
 20
265.7126654165001
 30
0.0
 11
86.4503521003
 21
265.7126654165001
 31
0.0
  0
LINE
  5
119
330
2
100
AcDbEntity
  8
0
 62
     3
100
AcDbLine
 10
85.15868774819997
 20
236.3695262792
 30
0.0
 11
87.94930229489997
 21
235.7927992763001
 31
0.0
  0
LINE
  5
11A
330
2
100
AcDbEntity
  8
0
 62
     3
100
AcDbLine
 10
83.95213165969998
 20
235.3943202064999
 30
0.0
 11
89.27092414399998
 21
234.2951030996001
 31
0.0
  0
LINE
  5
11B
330
2
100
AcDbEntity
  8
0
 62
     3
100
AcDbLine
 10
85.15864709579998
 20
218.6305388034
 30
0.0
 11
87.94926911399997
 21
219.2072673505001
 31
0.0
  0
LINE
  5
11C
330
2
100
AcDbEntity
  8
0
 62
     3
100
AcDbLine
 10
83.95212318459998
 20
219.6056268762
 30
0.0
 11
89.27091566889998
 21
220.7048439830999
 31
0.0
  0
LINE
  5
11D
330
2
100
AcDbEntity
  8
0
 62
     3
100
AcDbLine
 10
79.75512352359999
 20
268.6105993764001
 30
0.0
 11
91.44679680240001
 21
268.6105993764001
 31
0.0
  0
LINE
  5
11E
330
2
100
AcDbEntity
  8
0
 62
     3
100
AcDbLine
 10
79.75512352359999
 20
263.6141623037001
 30
0.0
 11
91.44679680240001
 21
263.6141623037001
 31
0.0
  0
LINE
  5
11F
330
2
100
AcDbEntity
  8
0
 62
     3
100
AcDbLine
 10
118.4553417242999
 20
227.4999732971
 30
0.0
 11
79.4553340949
 21
227.4999732971
 31
0.0
  0
LINE
  5
120
330
2
100
AcDbEntity
  8
0
 62
     3
100
AcDbLine
 10
79.48308983219998
 20
220.7048072814999
 30
0.0
 11
118.4553417242999
 21
220.7048072814999
 31
0.0
  0
LINE
  5
121
330
2
100
AcDbEntity
  8
0
 62
     3
100
AcDbLine
 10
79.48308983219998
 20
234.2951393127
 30
0.0
 11
118.4553417242999
 21
234.2951393127
 31
0.0
  0
LINE
  5
122
330
2
100
AcDbEntity
  8
0
 62
     3
100
AcDbLine
 10
79.4553340949
 20
273.9068258779
 30
0.0
 11
117.7280696905999
 21
273.9068258779
 31
0.0
  0
LINE
  5
123
330
2
100
AcDbEntity
  8
0
 62
     3
100
AcDbLine
 10
79.4553340949
 20
262.6301382558001
 30
0.0
 11
117.7280696905999
 21
262.6301382558001
 31
0.0
  0
LINE
  5
124
330
2
100
AcDbEntity
  8
0
 62
     3
100
AcDbLine
 10
79.4553340949
 20
269.5946234243001
 30
0.0
 11
117.7280696905999
 21
269.5946234243001
 31
0.0
  0
LINE
  5
125
330
2
100
AcDbEntity
  8
0
 62
     3
100
AcDbLine
 10
79.4553340949
 20
263.1145132558
 30
0.0
 11
95.44395103829998
 21
263.1145132558
 31
0.0
  0
LINE
  5
126
330
2
100
AcDbEntity
  8
0
 62
     3
100
AcDbLine
 10
79.4553340949
 20
269.1102484243001
 30
0.0
 11
95.44395103829998
 21
269.1102484243001
 31
0.0
  0
LINE
  5
127
330
2
100
AcDbEntity
  8
0
 62
     3
100
AcDbLine
 10
79.4553340949
 20
258.3179281727999
 30
0.0
 11
117.7280696905999
 21
258.3179281727999
 31
0.0
  0
LINE
  5
128
330
2
100
AcDbEntity
  8
0
 62
     3
100
AcDbLine
 10
77.35683077249998
 20
256.5192187311
 30
0.0
 11
76.65732527169997
 21
257.2187242908
 31
0.0
  0
LINE
  5
129
330
2
100
AcDbEntity
  8
0
 62
     3
100
AcDbLine
 10
77.35683098209998
 20
256.5192144887
 30
0.0
 11
77.35683098209998
 21
275.7055471914001
 31
0.0
  0
LINE
  5
12A
330
2
100
AcDbEntity
  8
0
 62
     3
100
AcDbLine
 10
79.4553340949
 20
256.5192144887
 30
0.0
 11
79.4553340949
 21
275.7055471914001
 31
0.0
  0
LINE
  5
12B
330
2
100
AcDbEntity
  8
0
  6
CENTER
 62
     3
100
AcDbLine
 10
64.96564903629999
 20
231.4971656799
 30
0.0
 11
72.46031608949997
 21
231.4971656799
 31
0.0
  0
LINE
  5
12C
330
2
100
AcDbEntity
  8
0
  6
CENTER
 62
     3
100
AcDbLine
 10
64.96564903629999
 20
223.5029029846
 30
0.0
 11
72.46031608949997
 21
223.5029029846
 31
0.0
  0
LINE
  5
12D
330
2
100
AcDbEntity
  8
0
  6
CENTER
 62
     3
100
AcDbLine
 10
65.96493950259996
 20
231.4971656799
 30
0.0
 11
65.96493950259996
 21
223.5029029846
 31
0.0
  0
LINE
  5
12E
330
2
100
AcDbEntity
  8
0
  6
CENTER
 62
     3
100
AcDbLine
 10
64.96564903629999
 20
231.4971656799
 30
0.0
 11
64.96564903629999
 21
223.5029029846
 31
0.0
  0
LINE
  5
12F
330
2
100
AcDbEntity
  8
0
 62
     3
100
AcDbLine
 10
77.35683098209998
 20
237.0931129455001
 30
0.0
 11
77.35683098209998
 21
217.9068336487
 31
0.0
  0
LINE
  5
130
330
2
100
AcDbEntity
  8
0
 62
     3
100
AcDbLine
 10
76.65732231509998
 20
236.3936500549
 30
0.0
 11
76.65732231509998
 21
218.6062965393001
 31
0.0
  0
LINE
  5
131
330
2
100
AcDbEntity
  8
0
 62
     3
100
AcDbLine
 10
79.4553340949
 20
237.0931129455001
 30
0.0
 11
79.4553340949
 21
217.9068336487
 31
0.0
  0
LINE
  5
132
330
2
100
AcDbEntity
  8
0
 62
     3
100
AcDbLine
 10
77.35683098209998
 20
217.9068336487
 30
0.0
 11
79.4553340949
 21
217.9068336487
 31
0.0
  0
LINE
  5
133
330
2
100
AcDbEntity
  8
0
 62
     3
100
AcDbLine
 10
72.66230710759998
 20
222.7836192847
 30
0.0
 11
76.65736392419998
 21
221.404373464
 31
0.0
  0
LINE
  5
134
330
2
100
AcDbEntity
  8
0
 62
     3
100
AcDbLine
 10
76.65739113699999
 20
218.6063423035001
 30
0.0
 11
77.35689669679995
 21
217.9068368027
 31
0.0
  0
LINE
  5
135
330
2
100
AcDbEntity
  8
0
 62
     3
100
AcDbLine
 10
76.65741694569999
 20
233.5956640681999
 30
0.0
 11
72.66236012909999
 21
232.2164182475
 31
0.0
  0
LINE
  5
136
330
2
100
AcDbEntity
  8
0
 62
     3
100
AcDbLine
 10
72.46031608949997
 20
231.9330787659001
 30
0.0
 11
72.46031608949997
 21
223.0669898987
 31
0.0
  0
ARC
  5
137
330
2
100
AcDbEntity
  8
0
 62
     3
100
AcDbCircle
 10
72.76010551819999
 20
223.0669898987
 30
0.0
 40
0.2997865081
100
AcDbArc
 50
179.9999820138999
 51
250.9533531498
  0
ARC
  5
138
330
2
100
AcDbEntity
  8
0
 62
     3
100
AcDbCircle
 10
72.76010551819999
 20
231.9330787659001
 30
0.0
 40
0.2997865081
100
AcDbArc
 50
109.0466177082
 51
179.9999820138999
  0
ARC
  5
139
330
2
100
AcDbEntity
  8
0
 62
     3
100
AcDbCircle
 10
83.94519462959998
 20
224.5021705627
 30
0.0
 40
5.9957299232
100
AcDbArc
 50
250.5363291199
 51
281.6766915082999
  0
LINE
  5
13A
330
2
100
AcDbEntity
  8
0
 62
     3
100
AcDbLine
 10
80.76086982159997
 20
220.7047905884
 30
0.0
 11
83.95213995959997
 21
219.6055753387001
 31
0.0
  0
LINE
  5
13B
330
2
100
AcDbEntity
  8
0
 62
     3
100
AcDbLine
 10
79.8550432008
 20
219.5884883106999
 30
0.0
 11
81.9473938736
 21
218.8490409381
 31
0.0
  0
ARC
  5
13C
330
2
100
AcDbEntity
  8
0
 62
     3
100
AcDbCircle
 10
79.75512352359999
 20
219.3058815002
 30
0.0
 40
0.2997865081
100
AcDbArc
 50
70.5363343562
 51
179.9999820138999
  0
LINE
  5
13D
330
2
100
AcDbEntity
  8
0
 62
     3
100
AcDbLine
 10
77.35683098209998
 20
256.5192144887
 30
0.0
 11
79.4553340949
 21
256.5192144887
 31
0.0
  0
LINE
  5
13E
330
2
100
AcDbEntity
  8
0
 62
     3
100
AcDbLine
 10
77.35683098209998
 20
237.0931129455001
 30
0.0
 11
79.4553340949
 21
237.0931129455001
 31
0.0
  0
LINE
  5
13F
330
2
100
AcDbEntity
  8
0
 62
     3
100
AcDbLine
 10
77.35687970369998
 20
237.0931670792999
 30
0.0
 11
76.65736880809999
 21
236.3936561247
 31
0.0
  0
ARC
  5
140
330
2
100
AcDbEntity
  8
0
 62
     3
100
AcDbCircle
 10
83.94519462959998
 20
230.4978981018001
 30
0.0
 40
5.9957299232
100
AcDbArc
 50
78.32326910439999
 51
109.4636690588999
  0
LINE
  5
141
330
2
100
AcDbEntity
  8
0
 62
     3
100
AcDbLine
 10
80.7608691449
 20
234.2951583443
 30
0.0
 11
83.95211042889998
 21
235.3943636553001
 31
0.0
  0
LINE
  5
142
330
2
100
AcDbEntity
  8
0
 62
     3
100
AcDbLine
 10
79.85503487149998
 20
235.4115296394001
 30
0.0
 11
81.94733519049998
 21
236.1509592167001
 31
0.0
  0
ARC
  5
143
330
2
100
AcDbEntity
  8
0
 62
     3
100
AcDbCircle
 10
79.75512352359999
 20
235.6941871643001
 30
0.0
 40
0.2997865081
100
AcDbArc
 50
179.9999820138999
 51
289.4636535773
  0
LINE
  5
144
330
2
100
AcDbEntity
  8
0
  6
PHANTOM
 62
     3
100
AcDbLine
 10
81.75533409489998
 20
238.0800261341
 30
0.0
 11
81.75533409489998
 21
234.2951393127
 31
0.0
  0
LINE
  5
146
330
2
100
AcDbEntity
  8
0
 62
     3
100
AcDbLine
 10
77.35683098209998
 20
275.7055471914001
 30
0.0
 11
79.4553340949
 21
275.7055471914001
 31
0.0
  0
LINE
  5
147
330
2
100
AcDbEntity
  8
0
 62
     3
100
AcDbLine
 10
76.65732231509998
 20
257.2187155263
 30
0.0
 11
76.65732231509998
 21
275.0060385244
 31
0.0
  0
LINE
  5
148
330
2
100
AcDbEntity
  8
0
 62
     3
100
AcDbLine
 10
72.46031608949997
 20
261.6793402212
 30
0.0
 11
72.46031608949997
 21
270.545421459
 31
0.0
  0
LINE
  5
149
330
2
100
AcDbEntity
  8
0
 62
     3
100
AcDbLine
 10
76.65737351029995
 20
260.0168382003
 30
0.0
 11
72.66230948199998
 21
261.3960865108001
 31
0.0
  0
ARC
  5
14A
330
2
100
AcDbEntity
  8
0
 62
     3
100
AcDbCircle
 10
72.76010551819999
 20
261.6793402212
 30
0.0
 40
0.2997865081
100
AcDbArc
 50
179.9999820138999
 51
250.9533531498
  0
LINE
  5
14B
330
2
100
AcDbEntity
  8
0
 62
     3
100
AcDbLine
 10
72.66227085059998
 20
270.8287943830001
 30
0.0
 11
76.65732766729998
 21
272.2080402037
 31
0.0
  0
ARC
  5
14C
330
2
100
AcDbEntity
  8
0
 62
     3
100
AcDbCircle
 10
72.76010551819999
 20
270.545421459
 30
0.0
 40
0.2997865081
100
AcDbArc
 50
109.0466177082
 51
179.9999820138999
  0
LINE
  5
14D
330
2
100
AcDbEntity
  8
0
 62
     3
100
AcDbLine
 10
76.65739885109997
 20
275.0061163366001
 30
0.0
 11
77.35682888369997
 21
275.7055463102999
 31
0.0
  0
LINE
  5
14E
330
2
100
AcDbEntity
  8
0
 62
     3
100
AcDbLine
 10
82.45319786439997
 20
266.5120962635999
 30
0.0
 11
82.45319786439997
 21
268.6105993764001
 31
0.0
  0
LINE
  5
14F
330
2
100
AcDbEntity
  8
0
 62
     3
100
AcDbLine
 10
82.1534160651
 20
266.5120962635999
 30
0.0
 11
82.1534160651
 21
268.6105993764001
 31
0.0
  0
LINE
  5
150
330
2
100
AcDbEntity
  8
0
 62
     3
100
AcDbLine
 10
81.85362663639997
 20
266.5120962635999
 30
0.0
 11
81.85362663639997
 21
268.6105993764001
 31
0.0
  0
LINE
  5
151
330
2
100
AcDbEntity
  8
0
 62
     3
100
AcDbLine
 10
81.55383720769998
 20
266.5120962635999
 30
0.0
 11
81.55383720769998
 21
268.6105993764001
 31
0.0
  0
LINE
  5
152
330
2
100
AcDbEntity
  8
0
 62
     3
100
AcDbLine
 10
81.254047779
 20
266.5120962635999
 30
0.0
 11
81.254047779
 21
268.6105993764001
 31
0.0
  0
LINE
  5
153
330
2
100
AcDbEntity
  8
0
 62
     3
100
AcDbLine
 10
80.95426597969998
 20
266.5120962635999
 30
0.0
 11
80.95426597969998
 21
268.6105993764001
 31
0.0
  0
LINE
  5
154
330
2
100
AcDbEntity
  8
0
 62
     3
100
AcDbLine
 10
80.35469475159999
 20
266.5120962635999
 30
0.0
 11
80.35469475159999
 21
268.6105993764001
 31
0.0
  0
LINE
  5
155
330
2
100
AcDbEntity
  8
0
 62
     3
100
AcDbLine
 10
80.75440636049998
 20
266.5120962635999
 30
0.0
 11
80.75440636049998
 21
268.6105993764001
 31
0.0
  0
ARC
  5
156
330
2
100
AcDbEntity
  8
0
 62
     3
100
AcDbCircle
 10
79.75512352359999
 20
266.0124472158
 30
0.0
 40
0.2997865081
100
AcDbArc
 50
179.9999820138999
 51
269.9999640277999
  0
ARC
  5
157
330
2
100
AcDbEntity
  8
0
 62
     3
100
AcDbCircle
 10
79.75512352359999
 20
266.2123068349
 30
0.0
 40
0.2997865081
100
AcDbArc
 50
90.0
 51
179.9999820138999
  0
ARC
  5
158
330
2
100
AcDbEntity
  8
0
 62
     3
100
AcDbCircle
 10
79.75512352359999
 20
263.3143728750001
 30
0.0
 40
0.2997865081
100
AcDbArc
 50
90.0
 51
179.9999820138999
  0
LINE
  5
159
330
2
100
AcDbEntity
  8
0
 62
     3
100
AcDbLine
 10
81.85362663639997
 20
263.6141623037001
 30
0.0
 11
81.85362663639997
 21
265.7126654165001
 31
0.0
  0
LINE
  5
15A
330
2
100
AcDbEntity
  8
0
 62
     3
100
AcDbLine
 10
81.55383720769998
 20
263.6141623037001
 30
0.0
 11
81.55383720769998
 21
265.7126654165001
 31
0.0
  0
LINE
  5
15B
330
2
100
AcDbEntity
  8
0
 62
     3
100
AcDbLine
 10
81.254047779
 20
263.6141623037001
 30
0.0
 11
81.254047779
 21
265.7126654165001
 31
0.0
  0
LINE
  5
15C
330
2
100
AcDbEntity
  8
0
 62
     3
100
AcDbLine
 10
80.95426597969998
 20
263.6141623037001
 30
0.0
 11
80.95426597969998
 21
265.7126654165001
 31
0.0
  0
LINE
  5
15D
330
2
100
AcDbEntity
  8
0
 62
     3
100
AcDbLine
 10
80.75440636049998
 20
263.6141623037001
 30
0.0
 11
80.75440636049998
 21
265.7126654165001
 31
0.0
  0
LINE
  5
15E
330
2
100
AcDbEntity
  8
0
 62
     3
100
AcDbLine
 10
80.35469475159999
 20
263.6141623037001
 30
0.0
 11
80.35469475159999
 21
265.7126654165001
 31
0.0
  0
LINE
  5
15F
330
2
100
AcDbEntity
  8
0
 62
     3
100
AcDbLine
 10
82.45319786439997
 20
263.6141623037001
 30
0.0
 11
82.45319786439997
 21
265.7126654165001
 31
0.0
  0
LINE
  5
160
330
2
100
AcDbEntity
  8
0
 62
     3
100
AcDbLine
 10
82.1534160651
 20
263.6141623037001
 30
0.0
 11
82.1534160651
 21
265.7126654165001
 31
0.0
  0
ARC
  5
161
330
2
100
AcDbEntity
  8
0
 62
     3
100
AcDbCircle
 10
79.75512352359999
 20
268.9103888051
 30
0.0
 40
0.2997865081
100
AcDbArc
 50
179.9999820138999
 51
269.9999640277999
  0
LINE
  5
162
330
2
100
AcDbEntity
  8
0
 62
     3
100
AcDbLine
 10
110.6331295050999
 20
263.5142324941
 30
0.0
 11
118.4275859869999
 21
263.5142324941
 31
0.0
  0
LINE
  5
163
330
2
100
AcDbEntity
  8
0
 62
     3
100
AcDbLine
 10
110.6331295050999
 20
268.710529186
 30
0.0
 11
118.4275859869999
 21
268.710529186
 31
0.0
  0
LINE
  5
164
330
2
100
AcDbEntity
  8
0
 62
     3
100
AcDbLine
 10
87.47739067449998
 20
233.0014381409
 30
0.0
 11
93.4731258429
 21
233.0014381409
 31
0.0
  0
LINE
  5
165
330
2
100
AcDbEntity
  8
0
 62
     3
100
AcDbLine
 10
87.47739067449998
 20
228.9262428284001
 30
0.0
 11
95.47170677559995
 21
228.9262428284001
 31
0.0
  0
LINE
  5
166
330
2
100
AcDbEntity
  8
0
 62
     3
100
AcDbLine
 10
87.47739067449998
 20
221.9986305237
 30
0.0
 11
93.4731258429
 21
221.9986305237
 31
0.0
  0
LINE
  5
167
330
2
100
AcDbEntity
  8
0
 62
     3
100
AcDbLine
 10
87.47739067449998
 20
226.0737037659001
 30
0.0
 11
95.47170677559995
 21
226.0737037659001
 31
0.0
  0
LINE
  5
168
330
2
100
AcDbEntity
  8
0
 62
     3
100
AcDbLine
 10
87.47739067449998
 20
226.0737037659001
 30
0.0
 11
87.47739067449998
 21
221.9986305237
 31
0.0
  0
LINE
  5
169
330
2
100
AcDbEntity
  8
0
 62
     3
100
AcDbLine
 10
87.94937644639999
 20
219.2072236739
 30
0.0
 11
91.12859292369998
 21
220.7048089454
 31
0.0
  0
LINE
  5
16A
330
2
100
AcDbEntity
  8
0
 62
     3
100
AcDbLine
 10
87.47739067449998
 20
230.3262428284
 30
0.0
 11
90.27312584290001
 21
230.3262428284
 31
0.0
  0
LINE
  5
16B
330
2
100
AcDbEntity
  8
0
 62
     3
100
AcDbLine
 10
87.47739067449998
 20
224.6737037659
 30
0.0
 11
90.27312584290001
 21
224.6737037659
 31
0.0
  0
LINE
  5
16C
330
2
100
AcDbEntity
  8
0
 62
     3
100
AcDbLine
 10
87.47739067449998
 20
228.9262428284001
 30
0.0
 11
87.47739067449998
 21
233.0014381409
 31
0.0
  0
LINE
  5
16D
330
2
100
AcDbEntity
  8
0
 62
     3
100
AcDbLine
 10
90.27312584290001
 20
224.8737037659001
 30
0.0
 11
92.27312584290002
 21
224.8737037659001
 31
0.0
  0
LINE
  5
16E
330
2
100
AcDbEntity
  8
0
 62
     3
100
AcDbLine
 10
90.27312584290001
 20
225.8737037659001
 30
0.0
 11
92.27312584290002
 21
225.8737037659001
 31
0.0
  0
LINE
  5
16F
330
2
100
AcDbEntity
  8
0
 62
     3
100
AcDbLine
 10
90.27312584290001
 20
225.8737037659001
 30
0.0
 11
90.27312584290001
 21
226.0737037659001
 31
0.0
  0
LINE
  5
170
330
2
100
AcDbEntity
  8
0
 62
     3
100
AcDbLine
 10
90.27312584290001
 20
224.8737037659001
 30
0.0
 11
90.27312584290001
 21
224.6737037659
 31
0.0
  0
LINE
  5
171
330
2
100
AcDbEntity
  8
0
 62
     3
100
AcDbLine
 10
92.97312584290001
 20
224.6737037659
 30
0.0
 11
92.97312584290001
 21
226.0737037659001
 31
0.0
  0
LINE
  5
172
330
2
100
AcDbEntity
  8
0
 62
     3
100
AcDbLine
 10
92.27312584290002
 20
224.6737037659
 30
0.0
 11
92.27312584290002
 21
224.8737037659001
 31
0.0
  0
LINE
  5
173
330
2
100
AcDbEntity
  8
0
 62
     3
100
AcDbLine
 10
92.27312584290002
 20
225.8737037659001
 30
0.0
 11
92.27312584290002
 21
226.0737037659001
 31
0.0
  0
LINE
  5
174
330
2
100
AcDbEntity
  8
0
 62
     3
100
AcDbLine
 10
92.27312584290002
 20
224.6737037659
 30
0.0
 11
92.97312584290001
 21
224.6737037659
 31
0.0
  0
LINE
  5
175
330
2
100
AcDbEntity
  8
0
 62
     3
100
AcDbLine
 10
90.27312584290001
 20
230.1262428284
 30
0.0
 11
92.27312584290002
 21
230.1262428284
 31
0.0
  0
LINE
  5
176
330
2
100
AcDbEntity
  8
0
 62
     3
100
AcDbLine
 10
90.27312584290001
 20
229.1262428283999
 30
0.0
 11
92.27312584290002
 21
229.1262428283999
 31
0.0
  0
LINE
  5
177
330
2
100
AcDbEntity
  8
0
 62
     3
100
AcDbLine
 10
90.27312584290001
 20
229.1262428283999
 30
0.0
 11
90.27312584290001
 21
228.9262428284001
 31
0.0
  0
LINE
  5
178
330
2
100
AcDbEntity
  8
0
 62
     3
100
AcDbLine
 10
90.27312584290001
 20
230.1262428284
 30
0.0
 11
90.27312584290001
 21
230.3262428284
 31
0.0
  0
LINE
  5
179
330
2
100
AcDbEntity
  8
0
 62
     3
100
AcDbLine
 10
92.97312584290001
 20
228.9262428284001
 30
0.0
 11
92.97312584290001
 21
230.3262428284
 31
0.0
  0
LINE
  5
17A
330
2
100
AcDbEntity
  8
0
 62
     3
100
AcDbLine
 10
92.27312584290002
 20
230.1262428284
 30
0.0
 11
92.27312584290002
 21
230.3262428284
 31
0.0
  0
LINE
  5
17B
330
2
100
AcDbEntity
  8
0
 62
     3
100
AcDbLine
 10
92.27312584290002
 20
228.9262428284001
 30
0.0
 11
92.27312584290002
 21
229.1262428283999
 31
0.0
  0
LINE
  5
17C
330
2
100
AcDbEntity
  8
0
 62
     3
100
AcDbLine
 10
92.27312584290002
 20
230.3262428284
 30
0.0
 11
92.97312584290001
 21
230.3262428284
 31
0.0
  0
LINE
  5
17D
330
2
100
AcDbEntity
  8
0
 62
     3
100
AcDbLine
 10
93.94517186669999
 20
222.4187241692
 30
0.0
 11
93.71415921979998
 21
222.2018906589001
 31
0.0
  0
LINE
  5
17E
330
2
100
AcDbEntity
  8
0
 62
     3
100
AcDbLine
 10
93.4731258429
 20
226.0737037659001
 30
0.0
 11
93.4731258429
 21
221.9986305237
 31
0.0
  0
LINE
  5
17F
330
2
100
AcDbEntity
  8
0
 62
     3
100
AcDbLine
 10
93.71415921979998
 20
222.2018906589001
 30
0.0
 11
93.4731258429
 21
221.9986305237
 31
0.0
  0
LINE
  5
180
330
2
100
AcDbEntity
  8
0
 62
     3
100
AcDbLine
 10
95.03651085269998
 20
223.9682350159
 30
0.0
 11
94.8972356728
 21
223.6836604144
 31
0.0
  0
LINE
  5
181
330
2
100
AcDbEntity
  8
0
 62
     3
100
AcDbLine
 10
94.8972356728
 20
223.6836604144
 30
0.0
 11
94.73890745229999
 21
223.4087451425999
 31
0.0
  0
LINE
  5
182
330
2
100
AcDbEntity
  8
0
 62
     3
100
AcDbLine
 10
94.73890745229999
 20
223.4087451425999
 30
0.0
 11
94.56303157639998
 21
223.1441415412001
 31
0.0
  0
LINE
  5
183
330
2
100
AcDbEntity
  8
0
 62
     3
100
AcDbLine
 10
94.37111343009998
 20
222.8905019512001
 30
0.0
 11
94.16465839849998
 21
222.6484787136
 31
0.0
  0
LINE
  5
184
330
2
100
AcDbEntity
  8
0
 62
     3
100
AcDbLine
 10
94.16465839849998
 20
222.6484787136
 30
0.0
 11
93.94517186669999
 21
222.4187241692
 31
0.0
  0
LINE
  5
185
330
2
100
AcDbEntity
  8
0
 62
     3
100
AcDbLine
 10
94.56303157639998
 20
223.1441415412001
 30
0.0
 11
94.37111343009998
 21
222.8905019512001
 31
0.0
  0
LINE
  5
186
330
2
100
AcDbEntity
  8
0
 62
     3
100
AcDbLine
 10
95.47170677559995
 20
226.0737037659001
 30
0.0
 11
95.46332974929994
 21
225.8045236883
 31
0.0
  0
LINE
  5
187
330
2
100
AcDbEntity
  8
0
 62
     3
100
AcDbLine
 10
95.46332974929994
 20
225.8045236883
 30
0.0
 11
95.4425546557
 21
225.53511025
 31
0.0
  0
LINE
  5
188
330
2
100
AcDbEntity
  8
0
 62
     3
100
AcDbLine
 10
95.4425546557
 20
225.53511025
 30
0.0
 11
95.40900589069996
 21
225.2664367719
 31
0.0
  0
LINE
  5
189
330
2
100
AcDbEntity
  8
0
 62
     3
100
AcDbLine
 10
95.40900589069996
 20
225.2664367719
 30
0.0
 11
95.36230785029998
 21
224.9994765748001
 31
0.0
  0
LINE
  5
18A
330
2
100
AcDbEntity
  8
0
 62
     3
100
AcDbLine
 10
95.36230785029998
 20
224.9994765748001
 30
0.0
 11
95.30208493039998
 21
224.7352029797
 31
0.0
  0
LINE
  5
18B
330
2
100
AcDbEntity
  8
0
 62
     3
100
AcDbLine
 10
95.30208493039998
 20
224.7352029797
 30
0.0
 11
95.22796152689995
 21
224.4745893074999
 31
0.0
  0
LINE
  5
18C
330
2
100
AcDbEntity
  8
0
 62
     3
100
AcDbLine
 10
95.22796152689995
 20
224.4745893074999
 30
0.0
 11
95.1395620357
 21
224.2186088793001
 31
0.0
  0
LINE
  5
18D
330
2
100
AcDbEntity
  8
0
 62
     3
100
AcDbLine
 10
95.1395620357
 20
224.2186088793001
 30
0.0
 11
95.03651085269998
 21
223.9682350159
 31
0.0
  0
LINE
  5
18E
330
2
100
AcDbEntity
  8
0
 62
     3
100
AcDbLine
 10
95.03651085269998
 20
231.0318336487
 30
0.0
 11
94.8972356728
 21
231.3164082501
 31
0.0
  0
LINE
  5
18F
330
2
100
AcDbEntity
  8
0
 62
     3
100
AcDbLine
 10
94.8972356728
 20
231.3164082501
 30
0.0
 11
94.73890745229999
 21
231.5913235219001
 31
0.0
  0
LINE
  5
190
330
2
100
AcDbEntity
  8
0
 62
     3
100
AcDbLine
 10
94.73890745229999
 20
231.5913235219001
 30
0.0
 11
94.56303157639998
 21
231.8559271233
 31
0.0
  0
LINE
  5
191
330
2
100
AcDbEntity
  8
0
 62
     3
100
AcDbLine
 10
94.37111343009998
 20
232.1095667133
 30
0.0
 11
94.16465839849998
 21
232.3515899509001
 31
0.0
  0
LINE
  5
192
330
2
100
AcDbEntity
  8
0
 62
     3
100
AcDbLine
 10
94.16465839849998
 20
232.3515899509001
 30
0.0
 11
93.94517186669999
 21
232.5813444953001
 31
0.0
  0
LINE
  5
193
330
2
100
AcDbEntity
  8
0
 62
     3
100
AcDbLine
 10
93.94517186669999
 20
232.5813444953001
 30
0.0
 11
93.71415921979998
 21
232.7981780056
 31
0.0
  0
LINE
  5
194
330
2
100
AcDbEntity
  8
0
 62
     3
100
AcDbLine
 10
93.71415921979998
 20
232.7981780056
 30
0.0
 11
93.4731258429
 21
233.0014381409
 31
0.0
  0
LINE
  5
195
330
2
100
AcDbEntity
  8
0
 62
     3
100
AcDbLine
 10
93.4731258429
 20
228.9262428284001
 30
0.0
 11
93.4731258429
 21
233.0014381409
 31
0.0
  0
LINE
  5
196
330
2
100
AcDbEntity
  8
0
 62
     3
100
AcDbLine
 10
94.56303157639998
 20
231.8559271233
 30
0.0
 11
94.37111343009998
 21
232.1095667133
 31
0.0
  0
LINE
  5
197
330
2
100
AcDbEntity
  8
0
 62
     3
100
AcDbLine
 10
95.47170677559995
 20
228.9262428284001
 30
0.0
 11
95.46332974929994
 21
229.1954281511
 31
0.0
  0
LINE
  5
198
330
2
100
AcDbEntity
  8
0
 62
     3
100
AcDbLine
 10
95.46332974929994
 20
229.1954281511
 30
0.0
 11
95.4425546557
 21
229.4648554177001
 31
0.0
  0
LINE
  5
199
330
2
100
AcDbEntity
  8
0
 62
     3
100
AcDbLine
 10
95.4425546557
 20
229.4648554177001
 30
0.0
 11
95.40900589069996
 21
229.7335484461
 31
0.0
  0
LINE
  5
19A
330
2
100
AcDbEntity
  8
0
 62
     3
100
AcDbLine
 10
95.40900589069996
 20
229.7335484461
 30
0.0
 11
95.36230785029998
 21
230.0005310546
 31
0.0
  0
LINE
  5
19B
330
2
100
AcDbEntity
  8
0
 62
     3
100
AcDbLine
 10
95.36230785029998
 20
230.0005310546
 30
0.0
 11
95.30208493039998
 21
230.264827061
 31
0.0
  0
LINE
  5
19C
330
2
100
AcDbEntity
  8
0
 62
     3
100
AcDbLine
 10
95.30208493039998
 20
230.264827061
 30
0.0
 11
95.22796152689995
 21
230.5254602834999
 31
0.0
  0
LINE
  5
19D
330
2
100
AcDbEntity
  8
0
 62
     3
100
AcDbLine
 10
95.22796152689995
 20
230.5254602834999
 30
0.0
 11
95.1395620357
 21
230.78145454
 31
0.0
  0
LINE
  5
19E
330
2
100
AcDbEntity
  8
0
 62
     3
100
AcDbLine
 10
95.1395620357
 20
230.78145454
 30
0.0
 11
95.03651085269998
 21
231.0318336487
 31
0.0
  0
LINE
  5
19F
330
2
100
AcDbEntity
  8
0
 62
     3
100
AcDbLine
 10
87.94929457629999
 20
235.7927429801998
 30
0.0
 11
91.12859775969999
 21
234.2951168653
 31
0.0
  0
LINE
  5
1A0
330
2
100
AcDbEntity
  8
0
 62
     3
100
AcDbLine
 10
87.44963493719998
 20
258.8175772207001
 30
0.0
 11
95.44395103829998
 21
258.8175772207001
 31
0.0
  0
LINE
  5
1A1
330
2
100
AcDbEntity
  8
0
 62
     3
100
AcDbLine
 10
87.44963493719998
 20
260.1166571157001
 30
0.0
 11
93.44537010559999
 21
260.1166571157001
 31
0.0
  0
LINE
  5
1A2
330
2
100
AcDbEntity
  8
0
 62
     3
100
AcDbLine
 10
91.44679680240001
 20
268.6105993764001
 30
0.0
 11
91.44679680240001
 21
263.6141623037001
 31
0.0
  0
LINE
  5
1A3
330
2
100
AcDbEntity
  8
0
 62
     3
100
AcDbLine
 10
90.7196209942
 20
268.5560145492
 30
0.0
 11
90.02422844139999
 21
268.3946237829
 31
0.0
  0
LINE
  5
1A4
330
2
100
AcDbEntity
  8
0
 62
     3
100
AcDbLine
 10
89.39101070399997
 20
264.0912801326001
 30
0.0
 11
90.02423044739996
 21
263.8301448886999
 31
0.0
  0
LINE
  5
1A5
330
2
100
AcDbEntity
  8
0
 62
     3
100
AcDbLine
 10
90.02422844139999
 20
268.3946237829
 30
0.0
 11
89.39100892749998
 21
268.133488255
 31
0.0
  0
LINE
  5
1A6
330
2
100
AcDbEntity
  8
0
 62
     3
100
AcDbLine
 10
87.44963493719998
 20
260.1166571157001
 30
0.0
 11
87.44963493719998
 21
258.8175772207001
 31
0.0
  0
LINE
  5
1A7
330
2
100
AcDbEntity
  8
0
 62
     3
100
AcDbLine
 10
86.4503521003
 20
265.7126654165001
 30
0.0
 11
86.4503521003
 21
266.5120962635999
 31
0.0
  0
LINE
  5
1A8
330
2
100
AcDbEntity
  8
0
 62
     3
100
AcDbLine
 10
88.84763717259998
 20
267.7840208366001
 30
0.0
 11
88.41786112059997
 21
267.3614949246999
 31
0.0
  0
LINE
  5
1A9
330
2
100
AcDbEntity
  8
0
 62
     3
100
AcDbLine
 10
88.41786112059997
 20
267.3614949246999
 30
0.0
 11
88.12046403949997
 21
266.8843769219
 31
0.0
  0
LINE
  5
1AA
330
2
100
AcDbEntity
  8
0
 62
     3
100
AcDbLine
 10
88.12046403949997
 20
266.8843769219
 30
0.0
 11
87.96844360379997
 21
266.3735191660999
 31
0.0
  0
LINE
  5
1AB
330
2
100
AcDbEntity
  8
0
 62
     3
100
AcDbLine
 10
87.96844360379997
 20
266.3735191660999
 30
0.0
 11
87.96844383329998
 21
265.8512485836
 31
0.0
  0
LINE
  5
1AC
330
2
100
AcDbEntity
  8
0
 62
     3
100
AcDbLine
 10
87.96844383329998
 20
265.8512485836
 30
0.0
 11
88.120464718
 21
265.3403908959
 31
0.0
  0
LINE
  5
1AD
330
2
100
AcDbEntity
  8
0
 62
     3
100
AcDbLine
 10
88.120464718
 20
265.3403908959
 30
0.0
 11
88.41786221849998
 21
264.8632730263999
 31
0.0
  0
LINE
  5
1AE
330
2
100
AcDbEntity
  8
0
 62
     3
100
AcDbLine
 10
88.41786221849998
 20
264.8632730263999
 30
0.0
 11
88.84763864199999
 21
264.4407473073001
 31
0.0
  0
LINE
  5
1AF
330
2
100
AcDbEntity
  8
0
 62
     3
100
AcDbLine
 10
89.39100892749998
 20
268.133488255
 30
0.0
 11
88.84763717259998
 21
267.7840208366001
 31
0.0
  0
LINE
  5
1B0
330
2
100
AcDbEntity
  8
0
 62
     3
100
AcDbLine
 10
88.84763864199999
 20
264.4407473073001
 30
0.0
 11
89.39101070399997
 21
264.0912801326001
 31
0.0
  0
LINE
  5
1B1
330
2
100
AcDbEntity
  8
0
 62
     3
100
AcDbLine
 10
90.71962314209995
 20
263.6687544342
 30
0.0
 11
91.44679680240001
 21
263.6141623037001
 31
0.0
  0
LINE
  5
1B2
330
2
100
AcDbEntity
  8
0
 62
     3
100
AcDbLine
 10
90.02423044739996
 20
263.8301448886999
 30
0.0
 11
90.71962314209995
 21
263.6687544342
 31
0.0
  0
LINE
  5
1B3
330
2
100
AcDbEntity
  8
0
 62
     3
100
AcDbLine
 10
91.44679460659999
 20
268.6106070058
 30
0.0
 11
90.7196209942
 21
268.5560145492
 31
0.0
  0
LINE
  5
1B4
330
2
100
AcDbEntity
  8
0
 62
     3
100
AcDbLine
 10
95.44395103829998
 20
263.1145132558
 30
0.0
 11
95.44395103829998
 21
269.1102484243001
 31
0.0
  0
LINE
  5
1B5
330
2
100
AcDbEntity
  8
0
 62
     3
100
AcDbLine
 10
93.94501152409999
 20
263.1145132558
 30
0.0
 11
93.94501152409999
 21
269.1102484243001
 31
0.0
  0
LINE
  5
1B6
330
2
100
AcDbEntity
  8
0
 62
     3
100
AcDbLine
 10
95.44398573189999
 20
258.8176369036
 30
0.0
 11
93.44540913789998
 21
260.1167116186999
 31
0.0
  0
LINE
  5
1B7
330
2
100
AcDbEntity
  8
0
 62
     3
100
AcDbLine
 10
106.4361232794999
 20
268.6105993764001
 30
0.0
 11
108.4347042120999
 21
268.6105993764001
 31
0.0
  0
LINE
  5
1B8
330
2
100
AcDbEntity
  8
0
 62
     3
100
AcDbLine
 10
106.4361232794999
 20
263.6141623037001
 30
0.0
 11
108.4347042120999
 21
263.6141623037001
 31
0.0
  0
LINE
  5
1B9
330
2
100
AcDbEntity
  8
0
 62
     3
100
AcDbLine
 10
106.4361232794999
 20
263.6141623037001
 30
0.0
 11
106.4361232794999
 21
268.6105993764001
 31
0.0
  0
LINE
  5
1BA
330
2
100
AcDbEntity
  8
0
 62
     3
100
AcDbLine
 10
110.6331295050999
 20
263.5142324941
 30
0.0
 11
110.6331295050999
 21
268.710529186
 31
0.0
  0
LINE
  5
1BB
330
2
100
AcDbEntity
  8
0
 62
     3
100
AcDbLine
 10
108.4347042120999
 20
263.6141623037001
 30
0.0
 11
108.4347042120999
 21
268.6105993764001
 31
0.0
  0
LINE
  5
1BC
330
2
100
AcDbEntity
  8
0
 62
     3
100
AcDbLine
 10
117.7558254278999
 20
234.2951393127
 30
0.0
 11
117.7558254278999
 21
220.7048072814999
 31
0.0
  0
LINE
  5
1BD
330
2
100
AcDbEntity
  8
0
 62
     3
100
AcDbLine
 10
118.4553417242999
 20
234.2951393127
 30
0.0
 11
118.4553417242999
 21
220.7048072814999
 31
0.0
  0
LINE
  5
1BE
330
2
100
AcDbEntity
  8
0
  6
CENTER
 62
     3
100
AcDbLine
 10
121.1296580916999
 20
227.4999732971
 30
0.0
 11
125.3931429909999
 21
227.4999732971
 31
0.0
  0
CIRCLE
  5
1BF
330
2
100
AcDbEntity
  8
0
 62
     3
100
AcDbCircle
 10
123.2519268072999
 20
227.4999732971
 30
0.0
 40
0.9493236542
  0
LINE
  5
1C0
330
2
100
AcDbEntity
  8
0
 62
     3
100
AcDbLine
 10
118.4553417242999
 20
230.6977272034
 30
0.0
 11
126.7494319952999
 21
230.6977272034
 31
0.0
  0
LINE
  5
1C1
330
2
100
AcDbEntity
  8
0
 62
     3
100
AcDbLine
 10
118.4553417242999
 20
224.3022193909
 30
0.0
 11
126.7494319952999
 21
224.3022193909
 31
0.0
  0
LINE
  5
1C2
330
2
100
AcDbEntity
  8
0
  6
CENTER
 62
     3
100
AcDbLine
 10
123.2519268072999
 20
224.7173926255001
 30
0.0
 11
123.2519268072999
 21
230.1875241943001
 31
0.0
  0
LINE
  5
1C3
330
2
100
AcDbEntity
  8
0
 62
     3
100
AcDbLine
 10
126.7494319952999
 20
230.6977272034
 30
0.0
 11
126.7494319952999
 21
224.3022193909
 31
0.0
  0
LINE
  5
1C4
330
2
100
AcDbEntity
  8
0
 62
     3
100
AcDbLine
 10
127.7487224615997
 20
229.6984596252
 30
0.0
 11
127.7487224615997
 21
225.3016090393001
 31
0.0
  0
LINE
  5
1C5
330
2
100
AcDbEntity
  8
0
 62
     3
100
AcDbLine
 10
126.7494219734997
 20
224.3022085811001
 30
0.0
 11
127.7487109218999
 21
225.3014976138
 31
0.0
  0
LINE
  5
1C6
330
2
100
AcDbEntity
  8
0
 62
     3
100
AcDbLine
 10
127.7487538949999
 20
229.698429594
 30
0.0
 11
126.7494648622998
 21
230.6977185424999
 31
0.0
  0
LINE
  5
1C7
330
2
100
AcDbEntity
  8
0
 62
     3
100
AcDbLine
 10
118.4275859869999
 20
271.1088217275
 30
0.0
 11
126.7216762579999
 21
271.1088217275
 31
0.0
  0
LINE
  5
1C8
330
2
100
AcDbEntity
  8
0
 62
     3
100
AcDbLine
 10
118.4275859869999
 20
270.3093908803001
 30
0.0
 11
126.7216762579999
 21
270.3093908803001
 31
0.0
  0
LINE
  5
1C9
330
2
100
AcDbEntity
  8
0
 62
     3
100
AcDbLine
 10
118.4275859869999
 20
261.9153707998001
 30
0.0
 11
126.7216762579999
 21
261.9153707998001
 31
0.0
  0
LINE
  5
1CA
330
2
100
AcDbEntity
  8
0
 62
     3
100
AcDbLine
 10
118.4275859869999
 20
261.1159399526
 30
0.0
 11
126.7216762579999
 21
261.1159399526
 31
0.0
  0
LINE
  5
1CB
330
2
100
AcDbEntity
  8
0
 62
     3
100
AcDbLine
 10
118.4275859869999
 20
259.0174292104001
 30
0.0
 11
118.4275859869999
 21
273.2073324697
 31
0.0
  0
LINE
  5
1CC
330
2
100
AcDbEntity
  8
0
 62
     3
100
AcDbLine
 10
118.4275777966999
 20
263.5142354798001
 30
0.0
 11
117.7280766675
 21
262.6301450656001
 31
0.0
  0
LINE
  5
1CD
330
2
100
AcDbEntity
  8
0
 62
     3
100
AcDbLine
 10
118.4275749422998
 20
259.0174340817001
 30
0.0
 11
117.7280747773
 21
258.3179339757001
 31
0.0
  0
LINE
  5
1CE
330
2
100
AcDbEntity
  8
0
 62
     3
100
AcDbLine
 10
117.7280696905999
 20
258.3179281727999
 30
0.0
 11
117.7280696905999
 21
262.6301382558001
 31
0.0
  0
LINE
  5
1CF
330
2
100
AcDbEntity
  8
0
 62
     3
100
AcDbLine
 10
118.4275744373999
 20
268.7105352000001
 30
0.0
 11
117.7280733081998
 21
269.5946256142
 31
0.0
  0
LINE
  5
1D0
330
2
100
AcDbEntity
  8
0
 62
     3
100
AcDbLine
 10
117.7280696905999
 20
269.5946234243001
 30
0.0
 11
117.7280696905999
 21
273.9068258779
 31
0.0
  0
LINE
  5
1D1
330
2
100
AcDbEntity
  8
0
 62
     3
100
AcDbLine
 10
117.7280700395999
 20
273.90683036
 30
0.0
 11
118.4275701455999
 21
273.2073301950001
 31
0.0
  0
LINE
  5
1D2
330
2
100
AcDbEntity
  8
0
 62
     3
100
AcDbLine
 10
127.7209667242999
 20
261.2921484487001
 30
0.0
 11
127.7209667242999
 21
261.7391775625001
 31
0.0
  0
LINE
  5
1D3
330
2
100
AcDbEntity
  8
0
 62
     3
100
AcDbLine
 10
126.7216762579999
 20
261.1159399526
 30
0.0
 11
126.7216762579999
 21
261.9153707998001
 31
0.0
  0
LINE
  5
1D4
330
2
100
AcDbEntity
  8
0
 62
     3
100
AcDbLine
 10
126.7216710634999
 20
261.1159441684001
 30
0.0
 11
127.7209647955998
 21
261.2921466202
 31
0.0
  0
LINE
  5
1D5
330
2
100
AcDbEntity
  8
0
 62
     3
100
AcDbLine
 10
126.7216708967999
 20
261.9153796596999
 30
0.0
 11
127.7209646288999
 21
261.7391772079
 31
0.0
  0
LINE
  5
1D6
330
2
100
AcDbEntity
  8
0
 62
     3
100
AcDbLine
 10
127.7209667242999
 20
270.485591747
 30
0.0
 11
127.7209667242999
 21
270.9326208607998
 31
0.0
  0
LINE
  5
1D7
330
2
100
AcDbEntity
  8
0
 62
     3
100
AcDbLine
 10
126.7216762579999
 20
270.3093908803001
 30
0.0
 11
126.7216762579999
 21
271.1088217275
 31
0.0
  0
LINE
  5
1D8
330
2
100
AcDbEntity
  8
0
 62
     3
100
AcDbLine
 10
126.7216761942999
 20
271.1088272701999
 30
0.0
 11
127.7209624128999
 21
270.9326261433001
 31
0.0
  0
LINE
  5
1D9
330
2
100
AcDbEntity
  8
0
 62
     3
100
AcDbLine
 10
126.7216719545999
 20
270.3094006173
 30
0.0
 11
127.7209656866999
 21
270.485603069
 31
0.0
  0
TEXT
  5
203
330
2
100
AcDbEntity
  8
0
 62
     7
100
AcDbText
 10
108.0
 20
75.0000029552499
 30
0.0
 40
2.999994089499998
  1
NRF111*-15A
 11
108.0
 21
76.4999999999999
 31
0.0
100
AcDbText
 73
     2
  0
TEXT
  5
204
330
2
100
AcDbEntity
  8
0
 62
     7
100
AcDbText
 10
108.0
 20
80.00000295524989
 30
0.0
 40
2.999994089499998
  1
NRF111*-10A
 11
108.0
 21
81.49999999999989
 31
0.0
100
AcDbText
 73
     2
  0
TEXT
  5
205
330
2
100
AcDbEntity
  8
0
 62
     7
100
AcDbText
 10
108.0
 20
85.00000295524989
 30
0.0
 40
2.999994089499998
  1
NRF111*-8A
 11
108.0
 21
86.49999999999989
 31
0.0
100
AcDbText
 73
     2
  0
TEXT
  5
206
330
2
100
AcDbEntity
  8
0
 62
     7
100
AcDbText
 10
108.0
 20
90.00000295524989
 30
0.0
 40
2.999994089499998
  1
NRF111*-5A
 11
108.0
 21
91.49999999999989
 31
0.0
100
AcDbText
 73
     2
  0
TEXT
  5
207
330
2
100
AcDbEntity
  8
0
 62
     7
100
AcDbText
 10
108.0
 20
95.00000295525
 30
0.0
 40
2.999994089499998
  1
NRF111*-3A
 11
108.0
 21
96.5
 31
0.0
100
AcDbText
 73
     2
  0
TEXT
  5
208
330
2
100
AcDbEntity
  8
0
 62
     7
100
AcDbText
 10
108.0
 20
100.0000029552498
 30
0.0
 40
2.999994089499998
  1
NRF111*-2A
 11
108.0
 21
101.4999999999999
 31
0.0
100
AcDbText
 73
     2
  0
TEXT
  5
209
330
2
100
AcDbEntity
  8
0
 62
     7
100
AcDbText
 10
108.0
 20
105.0000029552498
 30
0.0
 40
2.999994089499998
  1
NRF111*-1A
 11
108.0
 21
106.4999999999999
 31
0.0
100
AcDbText
 73
     2
  0
TEXT
  5
20A
330
2
100
AcDbEntity
  8
0
 62
     7
100
AcDbText
 10
108.0
 20
110.0000029552498
 30
0.0
 40
2.999994089499998
  1
NRF111*-0.5A
 11
108.0
 21
111.4999999999999
 31
0.0
100
AcDbText
 73
     2
  0
TEXT
  5
20B
330
2
100
AcDbEntity
  8
0
 62
     7
100
AcDbText
 10
146.0
 20
100.0000029552498
 30
0.0
 40
2.999994089499998
  1
NRF211*-2A
 11
146.0
 21
101.4999999999999
 31
0.0
100
AcDbText
 73
     2
  0
TEXT
  5
20C
330
2
100
AcDbEntity
  8
0
 62
     7
100
AcDbText
 10
146.0
 20
75.0000029552499
 30
0.0
 40
2.999994089499998
  1
NRF211*-15A
 11
146.0
 21
76.4999999999999
 31
0.0
100
AcDbText
 73
     2
  0
TEXT
  5
20D
330
2
100
AcDbEntity
  8
0
 62
     7
100
AcDbText
 10
146.0
 20
80.00000295524989
 30
0.0
 40
2.999994089499998
  1
NRF211*-10A
 11
146.0
 21
81.49999999999989
 31
0.0
100
AcDbText
 73
     2
  0
TEXT
  5
20E
330
2
100
AcDbEntity
  8
0
 62
     7
100
AcDbText
 10
146.0
 20
85.00000295524989
 30
0.0
 40
2.999994089499998
  1
NRF211*-8A
 11
146.0
 21
86.49999999999989
 31
0.0
100
AcDbText
 73
     2
  0
TEXT
  5
20F
330
2
100
AcDbEntity
  8
0
 62
     7
100
AcDbText
 10
146.0
 20
90.00000295524989
 30
0.0
 40
2.999994089499998
  1
NRF211*-5A
 11
146.0
 21
91.49999999999989
 31
0.0
100
AcDbText
 73
     2
  0
TEXT
  5
210
330
2
100
AcDbEntity
  8
0
 62
     7
100
AcDbText
 10
146.0
 20
95.00000295525
 30
0.0
 40
2.999994089499998
  1
NRF211*-3A
 11
146.0
 21
96.5
 31
0.0
100
AcDbText
 73
     2
  0
TEXT
  5
211
330
2
100
AcDbEntity
  8
0
 62
     7
100
AcDbText
 10
146.0
 20
105.0000029552498
 30
0.0
 40
2.999994089499998
  1
NRF211*-1A
 11
146.0
 21
106.4999999999999
 31
0.0
100
AcDbText
 73
     2
  0
TEXT
  5
212
330
2
100
AcDbEntity
  8
0
 62
     7
100
AcDbText
 10
146.0
 20
110.0000029552498
 30
0.0
 40
2.999994089499998
  1
NRF211*-0.5A
 11
146.0
 21
111.4999999999999
 31
0.0
100
AcDbText
 73
     2
  0
TEXT
  5
213
330
2
100
AcDbEntity
  8
0
 62
     7
100
AcDbText
 10
108.0
 20
115.0000029552499
 30
0.0
 40
2.999994089499998
  1
NRF111*-0.3A
 11
108.0
 21
116.5
 31
0.0
100
AcDbText
 73
     2
  0
TEXT
  5
214
330
2
100
AcDbEntity
  8
0
 62
     7
100
AcDbText
 10
146.0
 20
115.0000029552499
 30
0.0
 40
2.999994089499998
  1
NRF211*-0.3A
 11
146.0
 21
116.5
 31
0.0
100
AcDbText
 73
     2
  0
ENDSEC
  0
SECTION
  2
OBJECTS
  0
DICTIONARY
  5
7
330
0
100
AcDbDictionary
281
     1
  3
ACAD_GROUP
350
1F
  3
ACAD_LAYOUT
350
B
  3
ACAD_MLINESTYLE
350
20
  3
ACAD_PLOTSETTINGS
350
21
  3
ACAD_PLOTSTYLENAME
350
6
  3
AcDbVariableDictionary
350
215
  0
DICTIONARY
  5
1F
102
{ACAD_REACTORS
330
7
102
}
330
7
100
AcDbDictionary
281
     1
  0
DICTIONARY
  5
B
102
{ACAD_REACTORS
330
7
102
}
330
7
100
AcDbDictionary
281
     1
  3
Model
350
A
  3
ﾚｲｱｳﾄ1
350
F
  0
DICTIONARY
  5
20
102
{ACAD_REACTORS
330
7
102
}
330
7
100
AcDbDictionary
281
     1
  3
Standard
350
22
  0
DICTIONARY
  5
21
102
{ACAD_REACTORS
330
7
102
}
330
7
100
AcDbDictionary
281
     1
  0
ACDBDICTIONARYWDFLT
  5
6
102
{ACAD_REACTORS
330
7
102
}
330
7
100
AcDbDictionary
281
     1
  3
Normal
350
5
100
AcDbDictionaryWithDefault
340
5
  0
DICTIONARY
  5
215
102
{ACAD_REACTORS
330
7
102
}
330
7
100
AcDbDictionary
281
     1
  3
DIMASSOC
350
216
  0
LAYOUT
  5
A
102
{ACAD_REACTORS
330
B
102
}
330
B
100
AcDbPlotSettings
  1

  2
C:\Program Files\AutoCAD 2000i\plotters\DWF Classic.pc3
  4

  6

 40
0.0
 41
0.0
 42
0.0
 43
0.0
 44
0.0
 45
0.0
 46
0.0
 47
0.0
 48
0.0
 49
0.0
140
0.0
141
0.0
142
1.0
143
1.0
 70
  1712
 72
     0
 73
     0
 74
     0
  7

 75
     0
147
1.0
148
0.0
149
0.0
100
AcDbLayout
  1
Model
 70
     1
 71
     0
 10
0.0
 20
0.0
 11
12.0
 21
9.0
 12
0.0
 22
0.0
 32
0.0
 14
0.0
 24
0.0
 34
0.0
 15
0.0
 25
0.0
 35
0.0
146
0.0
 13
0.0
 23
0.0
 33
0.0
 16
1.0
 26
0.0
 36
0.0
 17
0.0
 27
1.0
 37
0.0
 76
     0
330
2
  0
LAYOUT
  5
F
102
{ACAD_REACTORS
330
B
102
}
330
B
100
AcDbPlotSettings
  1

  2
C:\Program Files\AutoCAD 2000i\plotters\DWF Classic.pc3
  4

  6

 40
0.0
 41
0.0
 42
0.0
 43
0.0
 44
0.0
 45
0.0
 46
0.0
 47
0.0
 48
0.0
 49
0.0
140
0.0
141
0.0
142
1.0
143
1.0
 70
   688
 72
     0
 73
     0
 74
     5
  7

 75
    16
147
1.0
148
0.0
149
0.0
100
AcDbLayout
  1
ﾚｲｱｳﾄ1
 70
     1
 71
     1
 10
0.0
 20
0.0
 11
12.0
 21
9.0
 12
0.0
 22
0.0
 32
0.0
 14
1.000000000000000E+20
 24
1.000000000000000E+20
 34
1.000000000000000E+20
 15
-1.000000000000000E+20
 25
-1.000000000000000E+20
 35
-1.000000000000000E+20
146
0.0
 13
0.0
 23
0.0
 33
0.0
 16
1.0
 26
0.0
 36
0.0
 17
0.0
 27
1.0
 37
0.0
 76
     0
330
C
  0
MLINESTYLE
  5
22
102
{ACAD_REACTORS
330
20
102
}
330
20
100
AcDbMlineStyle
  2
STANDARD
 70
     0
  3

 62
   256
 51
90.0
 52
90.0
 71
     2
 49
0.5
 62
   256
  6
BYLAYER
 49
-0.5
 62
   256
  6
BYLAYER
  0
ACDBPLACEHOLDER
  5
5
102
{ACAD_REACTORS
330
6
102
}
330
6
  0
DICTIONARYVAR
  5
216
102
{ACAD_REACTORS
330
215
102
}
330
215
100
DictionaryVariables
280
     0
  1
1
  0
ENDSEC
  0
EOF
