  0
SECTION
  2
HEADER
  9
$ACADVER
  1
AC1015
  9
$ACADMAINTVER
 70
    13
  9
$DWGCODEPAGE
  3
ANSI_932
  9
$INSBASE
 10
0.0
 20
0.0
 30
0.0
  9
$EXTMIN
 10
-0.0081980618502939
 20
-0.0006537740625845
 30
-0.0000000000112498
  9
$EXTMAX
 10
210.0174448513848
 20
297.0044886908847
 30
0.0000000000002956
  9
$LIMMIN
 10
-187.517880249
 20
-3.174999999999998
  9
$LIMMAX
 10
3.174999999999998
 20
291.2585876465
  9
$ORTHOMODE
 70
     0
  9
$REGENMODE
 70
     1
  9
$FILLMODE
 70
     1
  9
$QTEXTMODE
 70
     0
  9
$MIRRTEXT
 70
     0
  9
$LTSCALE
 40
1.0
  9
$ATTMODE
 70
     1
  9
$TEXTSIZE
 40
2.999994039499998
  9
$TRACEWID
 40
0.05
  9
$TEXTSTYLE
  7
STANDARD
  9
$CLAYER
  8
0
  9
$CELTYPE
  6
ByLayer
  9
$CECOLOR
 62
   256
  9
$CELTSCALE
 40
1.0
  9
$DISPSILH
 70
     0
  9
$DIMSCALE
 40
1.0
  9
$DIMASZ
 40
1.9727878465
  9
$DIMEXO
 40
2.539999961899999
  9
$DIMDLI
 40
0.38
  9
$DIMRND
 40
0.0
  9
$DIMDLE
 40
0.0
  9
$DIMEXE
 40
3.809999942799998
  9
$DIMTP
 40
0.0
  9
$DIMTM
 40
0.0
  9
$DIMTXT
 40
2.999994039499998
  9
$DIMCEN
 40
0.09
  9
$DIMTSZ
 40
0.0
  9
$DIMTOL
 70
     0
  9
$DIMLIM
 70
     0
  9
$DIMTIH
 70
     0
  9
$DIMTOH
 70
     1
  9
$DIMSE1
 70
     0
  9
$DIMSE2
 70
     0
  9
$DIMTAD
 70
     0
  9
$DIMZIN
 70
     0
  9
$DIMBLK
  1

  9
$DIMASO
 70
     1
  9
$DIMSHO
 70
     0
  9
$DIMPOST
  1

  9
$DIMAPOST
  1

  9
$DIMALT
 70
     0
  9
$DIMALTD
 70
     2
  9
$DIMALTF
 40
25.4
  9
$DIMLFAC
 40
1.0
  9
$DIMTOFL
 70
     0
  9
$DIMTVP
 40
0.0
  9
$DIMTIX
 70
     0
  9
$DIMSOXD
 70
     0
  9
$DIMSAH
 70
     0
  9
$DIMBLK1
  1

  9
$DIMBLK2
  1

  9
$DIMSTYLE
  2
Standard
  9
$DIMCLRD
 70
     0
  9
$DIMCLRE
 70
     0
  9
$DIMCLRT
 70
     0
  9
$DIMTFAC
 40
1.0
  9
$DIMGAP
 40
0.09
  9
$DIMJUST
 70
     0
  9
$DIMSD1
 70
     0
  9
$DIMSD2
 70
     0
  9
$DIMTOLJ
 70
     1
  9
$DIMTZIN
 70
     0
  9
$DIMALTZ
 70
     0
  9
$DIMALTTZ
 70
     0
  9
$DIMUPT
 70
     0
  9
$DIMDEC
 70
     4
  9
$DIMTDEC
 70
     4
  9
$DIMALTU
 70
     2
  9
$DIMALTTD
 70
     2
  9
$DIMTXSTY
  7
STANDARD
  9
$DIMAUNIT
 70
     0
  9
$DIMADEC
 70
     0
  9
$DIMALTRND
 40
0.0
  9
$DIMAZIN
 70
     0
  9
$DIMDSEP
 70
    46
  9
$DIMATFIT
 70
     3
  9
$DIMFRAC
 70
     0
  9
$DIMLDRBLK
  1

  9
$DIMLUNIT
 70
     2
  9
$DIMLWD
 70
    -2
  9
$DIMLWE
 70
    -2
  9
$DIMTMOVE
 70
     0
  9
$LUNITS
 70
     2
  9
$LUPREC
 70
     3
  9
$SKETCHINC
 40
0.1
  9
$FILLETRAD
 40
0.0625
  9
$AUNITS
 70
     0
  9
$AUPREC
 70
     0
  9
$MENU
  1
ACAD
  9
$ELEVATION
 40
0.0
  9
$PELEVATION
 40
0.0
  9
$THICKNESS
 40
0.0
  9
$LIMCHECK
 70
     0
  9
$CHAMFERA
 40
0.0
  9
$CHAMFERB
 40
0.0
  9
$CHAMFERC
 40
0.0
  9
$CHAMFERD
 40
0.0
  9
$SKPOLY
 70
     0
  9
$TDCREATE
 40
2452527.781284722
  9
$TDUCREATE
 40
2452527.406284722
  9
$TDUPDATE
 40
2453339.779380787
  9
$TDUUPDATE
 40
2453339.404380787
  9
$TDINDWG
 40
0.0017900116
  9
$TDUSRTIMER
 40
0.0017898380
  9
$USRTIMER
 70
     1
  9
$ANGBASE
 50
0.0
  9
$ANGDIR
 70
     0
  9
$PDMODE
 70
     0
  9
$PDSIZE
 40
0.0
  9
$PLINEWID
 40
0.0
  9
$SPLFRAME
 70
     0
  9
$SPLINETYPE
 70
     6
  9
$SPLINESEGS
 70
     8
  9
$HANDSEED
  5
3A0
  9
$SURFTAB1
 70
     6
  9
$SURFTAB2
 70
     6
  9
$SURFTYPE
 70
     6
  9
$SURFU
 70
     6
  9
$SURFV
 70
     6
  9
$UCSBASE
  2

  9
$UCSNAME
  2

  9
$UCSORG
 10
0.0
 20
0.0
 30
0.0
  9
$UCSXDIR
 10
1.0
 20
0.0
 30
0.0
  9
$UCSYDIR
 10
0.0
 20
1.0
 30
0.0
  9
$UCSORTHOREF
  2

  9
$UCSORTHOVIEW
 70
     0
  9
$UCSORGTOP
 10
0.0
 20
0.0
 30
0.0
  9
$UCSORGBOTTOM
 10
0.0
 20
0.0
 30
0.0
  9
$UCSORGLEFT
 10
0.0
 20
0.0
 30
0.0
  9
$UCSORGRIGHT
 10
0.0
 20
0.0
 30
0.0
  9
$UCSORGFRONT
 10
0.0
 20
0.0
 30
0.0
  9
$UCSORGBACK
 10
0.0
 20
0.0
 30
0.0
  9
$PUCSBASE
  2

  9
$PUCSNAME
  2

  9
$PUCSORG
 10
0.0
 20
0.0
 30
0.0
  9
$PUCSXDIR
 10
1.0
 20
0.0
 30
0.0
  9
$PUCSYDIR
 10
0.0
 20
1.0
 30
0.0
  9
$PUCSORTHOREF
  2

  9
$PUCSORTHOVIEW
 70
     0
  9
$PUCSORGTOP
 10
0.0
 20
0.0
 30
0.0
  9
$PUCSORGBOTTOM
 10
0.0
 20
0.0
 30
0.0
  9
$PUCSORGLEFT
 10
0.0
 20
0.0
 30
0.0
  9
$PUCSORGRIGHT
 10
0.0
 20
0.0
 30
0.0
  9
$PUCSORGFRONT
 10
0.0
 20
0.0
 30
0.0
  9
$PUCSORGBACK
 10
0.0
 20
0.0
 30
0.0
  9
$USERI1
 70
     8
  9
$USERI2
 70
     0
  9
$USERI3
 70
     0
  9
$USERI4
 70
     0
  9
$USERI5
 70
     0
  9
$USERR1
 40
0.0
  9
$USERR2
 40
0.0
  9
$USERR3
 40
0.0
  9
$USERR4
 40
0.0
  9
$USERR5
 40
0.0
  9
$WORLDVIEW
 70
     1
  9
$SHADEDGE
 70
     3
  9
$SHADEDIF
 70
    70
  9
$TILEMODE
 70
     1
  9
$MAXACTVP
 70
    64
  9
$PINSBASE
 10
0.0
 20
0.0
 30
0.0
  9
$PLIMCHECK
 70
     0
  9
$PEXTMIN
 10
1.000000000000000E+20
 20
1.000000000000000E+20
 30
1.000000000000000E+20
  9
$PEXTMAX
 10
-1.000000000000000E+20
 20
-1.000000000000000E+20
 30
-1.000000000000000E+20
  9
$PLIMMIN
 10
0.0
 20
0.0
  9
$PLIMMAX
 10
12.0
 20
9.0
  9
$UNITMODE
 70
     0
  9
$VISRETAIN
 70
     1
  9
$PLINEGEN
 70
     0
  9
$PSLTSCALE
 70
     1
  9
$TREEDEPTH
 70
  3020
  9
$CMLSTYLE
  2
Standard
  9
$CMLJUST
 70
     0
  9
$CMLSCALE
 40
1.0
  9
$PROXYGRAPHICS
 70
     1
  9
$MEASUREMENT
 70
     0
  9
$CELWEIGHT
370
    -1
  9
$ENDCAPS
280
     0
  9
$JOINSTYLE
280
     0
  9
$LWDISPLAY
290
     0
  9
$INSUNITS
 70
     0
  9
$HYPERLINKBASE
  1

  9
$STYLESHEET
  1

  9
$XEDIT
290
     1
  9
$CEPSNTYPE
380
     0
  9
$PSTYLEMODE
290
     1
  9
$FINGERPRINTGUID
  2
{78B462BA-04D6-45E4-9B6F-22BEC7634277}
  9
$VERSIONGUID
  2
{0F808038-ABEB-4369-8A8F-87D40BC2F7FA}
  9
$EXTNAMES
290
     1
  9
$PSVPSCALE
 40
0.0
  9
$OLESTARTUP
290
     0
  0
ENDSEC
  0
SECTION
  2
CLASSES
  0
CLASS
  1
ACDBDICTIONARYWDFLT
  2
AcDbDictionaryWithDefault
  3
AutoCAD 2000
 90
        0
280
     0
281
     0
  0
CLASS
  1
ACDBPLACEHOLDER
  2
AcDbPlaceHolder
  3
AutoCAD 2000
 90
        0
280
     0
281
     0
  0
CLASS
  1
LAYOUT
  2
AcDbLayout
  3
AutoCAD 2000
 90
        0
280
     0
281
     0
  0
CLASS
  1
DICTIONARYVAR
  2
AcDbDictionaryVar
  3
AutoCAD 2000
 90
        0
280
     0
281
     0
  0
ENDSEC
  0
SECTION
  2
TABLES
  0
TABLE
  2
VPORT
  5
8
330
0
100
AcDbSymbolTable
 70
     2
  0
VPORT
  5
39F
330
8
100
AcDbSymbolTableRecord
100
AcDbViewportTableRecord
  2
*Active
 70
     0
 10
0.0
 20
0.0
 11
1.0
 21
1.0
 12
105.0046233947673
 22
148.501917458411
 13
0.0
 23
0.0
 14
1.0
 24
1.0
 15
0.0
 25
0.0
 16
0.0
 26
0.0
 36
1.0
 17
0.0
 27
0.0
 37
0.0
 40
301.0007273411573
 41
2.253932584269663
 42
50.0
 43
0.0
 44
0.0
 50
0.0
 51
0.0
 71
     0
 72
   100
 73
     1
 74
     1
 75
     0
 76
     0
 77
     0
 78
     0
281
     0
 65
     1
110
0.0
120
0.0
130
0.0
111
1.0
121
0.0
131
0.0
112
0.0
122
1.0
132
0.0
 79
     0
146
0.0
  0
ENDTAB
  0
TABLE
  2
LTYPE
  5
5
330
0
100
AcDbSymbolTable
 70
     3
  0
LTYPE
  5
13
330
5
100
AcDbSymbolTableRecord
100
AcDbLinetypeTableRecord
  2
ByBlock
 70
     0
  3

 72
    65
 73
     0
 40
0.0
  0
LTYPE
  5
14
330
5
100
AcDbSymbolTableRecord
100
AcDbLinetypeTableRecord
  2
ByLayer
 70
     0
  3

 72
    65
 73
     0
 40
0.0
  0
LTYPE
  5
15
330
5
100
AcDbSymbolTableRecord
100
AcDbLinetypeTableRecord
  2
Continuous
 70
     0
  3
Solid line
 72
    65
 73
     0
 40
0.0
  0
LTYPE
  5
25
330
5
100
AcDbSymbolTableRecord
100
AcDbLinetypeTableRecord
  2
CENTER
 70
     0
  3
Center
 72
    65
 73
     4
 40
9.100006759199999
 49
6.5000119209
 74
     0
 49
-0.7999984026000001
 74
     0
 49
0.9999980329999999
 74
     0
 49
-0.7999984026000001
 74
     0
  0
LTYPE
  5
26
330
5
100
AcDbSymbolTableRecord
100
AcDbLinetypeTableRecord
  2
PHANTOM
 70
     0
  3
Phantom
 72
    65
 73
     6
 40
9.499981462999999
 49
4.799990654
 74
     0
 49
-0.8999982475999999
 74
     0
 49
0.9999980329999999
 74
     0
 49
-0.8999982475999999
 74
     0
 49
0.9999980329999999
 74
     0
 49
-0.8999982475999999
 74
     0
  0
ENDTAB
  0
TABLE
  2
LAYER
  5
2
330
0
100
AcDbSymbolTable
 70
     1
  0
LAYER
  5
10
330
2
100
AcDbSymbolTableRecord
100
AcDbLayerTableRecord
  2
0
 70
     0
 62
     7
  6
Continuous
370
    -3
390
F
  0
ENDTAB
  0
TABLE
  2
STYLE
  5
3
330
0
100
AcDbSymbolTable
 70
     1
  0
STYLE
  5
11
330
3
100
AcDbSymbolTableRecord
100
AcDbTextStyleTableRecord
  2
STANDARD
 70
     0
 40
0.0
 41
1.0
 50
0.0
 71
     0
 42
2.999994039499998
  3
romans.shx
  4
bigfont.shx
  0
ENDTAB
  0
TABLE
  2
VIEW
  5
6
330
0
100
AcDbSymbolTable
 70
     0
  0
ENDTAB
  0
TABLE
  2
UCS
  5
7
330
0
100
AcDbSymbolTable
 70
     0
  0
ENDTAB
  0
TABLE
  2
APPID
  5
9
330
0
100
AcDbSymbolTable
 70
     1
  0
APPID
  5
12
330
9
100
AcDbSymbolTableRecord
100
AcDbRegAppTableRecord
  2
ACAD
 70
     0
  0
ENDTAB
  0
TABLE
  2
DIMSTYLE
  5
A
330
0
100
AcDbSymbolTable
 70
     1
100
AcDbDimStyleTable
 71
     0
  0
DIMSTYLE
105
37D
330
A
100
AcDbSymbolTableRecord
100
AcDbDimStyleTableRecord
  2
Standard
 70
     0
340
11
  0
ENDTAB
  0
TABLE
  2
BLOCK_RECORD
  5
1
330
0
100
AcDbSymbolTable
 70
     1
  0
BLOCK_RECORD
  5
1E
330
1
100
AcDbSymbolTableRecord
100
AcDbBlockTableRecord
  2
*Model_Space
340
21
  0
BLOCK_RECORD
  5
1A
330
1
100
AcDbSymbolTableRecord
100
AcDbBlockTableRecord
  2
*Paper_Space
340
1D
  0
ENDTAB
  0
ENDSEC
  0
SECTION
  2
BLOCKS
  0
BLOCK
  5
1F
330
1E
100
AcDbEntity
  8
0
100
AcDbBlockBegin
  2
*Model_Space
 70
     0
 10
0.0
 20
0.0
 30
0.0
  3
*Model_Space
  1

  0
ENDBLK
  5
20
330
1E
100
AcDbEntity
  8
0
100
AcDbBlockEnd
  0
BLOCK
  5
1B
330
1A
100
AcDbEntity
 67
     1
  8
0
100
AcDbBlockBegin
  2
*Paper_Space
 70
     0
 10
0.0
 20
0.0
 30
0.0
  3
*Paper_Space
  1

  0
ENDBLK
  5
1C
330
1A
100
AcDbEntity
 67
     1
  8
0
100
AcDbBlockEnd
  0
ENDSEC
  0
SECTION
  2
ENTITIES
  0
LINE
  5
138
330
1E
100
AcDbEntity
  8
0
  6
CENTER
 62
     3
100
AcDbLine
 10
107.0349965704999
 20
236.2399344871
 30
0.0
 11
95.63237816229998
 21
236.2399344871
 31
0.0
  0
LINE
  5
139
330
1E
100
AcDbEntity
  8
0
  6
CENTER
 62
     3
100
AcDbLine
 10
54.73496300109997
 20
236.2399039696
 30
0.0
 11
43.33234459289997
 21
236.2399039696
 31
0.0
  0
LINE
  5
13B
330
1E
100
AcDbEntity
  8
0
  6
CENTER
 62
     3
100
AcDbLine
 10
78.86885887519999
 20
177.8960471579999
 30
0.0
 11
78.86885887519999
 21
98.49986795879999
 31
0.0
  0
LINE
  5
13D
330
1E
100
AcDbEntity
  8
0
 62
     3
100
AcDbLine
 10
73.37593895329998
 20
239.2399344870999
 30
0.0
 11
73.37593895329998
 21
233.2271476218999
 31
0.0
  0
LINE
  5
13E
330
1E
100
AcDbEntity
  8
0
 62
     3
100
AcDbLine
 10
78.86885887519999
 20
239.2725882956999
 30
0.0
 11
78.86885887519999
 21
233.2271476218999
 31
0.0
  0
LINE
  5
142
330
1E
100
AcDbEntity
  8
0
 62
     3
100
AcDbLine
 10
77.70136088769999
 20
157.3684361902
 30
0.0
 11
73.37601001199999
 21
165.8574160613999
 31
0.0
  0
LINE
  5
143
330
1E
100
AcDbEntity
  8
0
 62
     3
100
AcDbLine
 10
72.49610593519999
 20
169.2746820020999
 30
0.0
 11
73.37599328969997
 21
165.8573940644999
 31
0.0
  0
LINE
  5
144
330
1E
100
AcDbEntity
  8
0
 62
     3
100
AcDbLine
 10
71.79048449359999
 20
157.2949584645
 30
0.0
 11
68.6655389698
 21
163.4280099585
 31
0.0
  0
LINE
  5
145
330
1E
100
AcDbEntity
  8
0
 62
     3
100
AcDbLine
 10
66.40622652289997
 20
166.1717442336
 30
0.0
 11
68.6536898233
 21
163.4512919762
 31
0.0
  0
LINE
  5
146
330
1E
100
AcDbEntity
  8
0
 62
     3
100
AcDbLine
 10
99.61888939269998
 20
236.2399344871
 30
0.0
 11
84.32267052069999
 21
236.2399344871
 31
0.0
  0
LINE
  5
147
330
1E
100
AcDbEntity
  8
0
 62
     3
100
AcDbLine
 10
102.7688527715999
 20
94.2399497459
 30
0.0
 11
102.7688527715999
 21
90.7399497459
 31
0.0
  0
LINE
  5
148
330
1E
100
AcDbEntity
  8
0
 62
     3
100
AcDbLine
 10
97.76885277159999
 20
94.2399497459
 30
0.0
 11
97.76885277159999
 21
90.7399497459
 31
0.0
  0
LINE
  5
149
330
1E
100
AcDbEntity
  8
0
 62
     3
100
AcDbLine
 10
53.56885582339997
 20
94.2399497459
 30
0.0
 11
53.56885582339997
 21
90.7399497459
 31
0.0
  0
LINE
  5
14A
330
1E
100
AcDbEntity
  8
0
 62
     3
100
AcDbLine
 10
48.56885582339997
 20
94.2399497459
 30
0.0
 11
48.56885582339997
 21
90.7399497459
 31
0.0
  0
LINE
  5
14B
330
1E
100
AcDbEntity
  8
0
 62
     3
100
AcDbLine
 10
102.2688527716
 20
90.23994974590001
 30
0.0
 11
98.2688527716
 21
90.23994974590001
 31
0.0
  0
LINE
  5
14C
330
1E
100
AcDbEntity
  8
0
 62
     3
100
AcDbLine
 10
102.2688979928999
 20
90.23997700009999
 30
0.0
 11
102.7688877341
 21
90.73996678350001
 31
0.0
  0
LINE
  5
14D
330
1E
100
AcDbEntity
  8
0
 62
     3
100
AcDbLine
 10
98.2688975141
 20
90.23997872829999
 30
0.0
 11
97.76890777290001
 21
90.7399685116
 31
0.0
  0
LINE
  5
14E
330
1E
100
AcDbEntity
  8
0
 62
     3
100
AcDbLine
 10
102.7688527715999
 20
90.7399497459
 30
0.0
 11
97.76885277159999
 21
90.7399497459
 31
0.0
  0
LINE
  5
14F
330
1E
100
AcDbEntity
  8
0
 62
     3
100
AcDbLine
 10
102.2688527716
 20
94.2399497459
 30
0.0
 11
102.2688527716
 21
90.23994974590001
 31
0.0
  0
LINE
  5
151
330
1E
100
AcDbEntity
  8
0
 62
     3
100
AcDbLine
 10
98.2688527716
 20
94.2399497459
 30
0.0
 11
98.2688527716
 21
90.23994974590001
 31
0.0
  0
CIRCLE
  5
152
330
1E
100
AcDbEntity
  8
0
 62
     3
100
AcDbCircle
 10
101.8189015997998
 20
236.2399344871
 30
0.0
 40
1.25
  0
LINE
  5
153
330
1E
100
AcDbEntity
  8
0
 62
     3
100
AcDbLine
 10
105.2688527716
 20
99.7399497459
 30
0.0
 11
95.26885277159999
 21
99.7399497459
 31
0.0
  0
LINE
  5
154
330
1E
100
AcDbEntity
  8
0
 62
     3
100
AcDbLine
 10
104.8688588751998
 20
98.73994974590001
 30
0.0
 11
104.8688588751998
 21
97.43994669420001
 31
0.0
  0
LINE
  5
156
330
1E
100
AcDbEntity
  8
0
 62
     3
100
AcDbLine
 10
95.66887718569999
 20
98.73994974590001
 30
0.0
 11
95.66887718569999
 21
97.43994669420001
 31
0.0
  0
LINE
  5
157
330
1E
100
AcDbEntity
  8
0
 62
     3
100
AcDbLine
 10
104.8688588751998
 20
97.43994669420001
 30
0.0
 11
95.66887718569999
 21
97.43994669420001
 31
0.0
  0
LINE
  5
158
330
1E
100
AcDbEntity
  8
0
 62
     3
100
AcDbLine
 10
101.6260028397999
 20
98.73996325610001
 30
0.0
 11
100.3260079334999
 21
97.4399683498
 31
0.0
  0
LINE
  5
159
330
1E
100
AcDbEntity
  8
0
 62
     3
100
AcDbLine
 10
100.2117893017
 20
98.73996325610001
 30
0.0
 11
98.91179439530001
 21
97.4399683498
 31
0.0
  0
LINE
  5
15A
330
1E
100
AcDbEntity
  8
0
 62
     3
100
AcDbLine
 10
103.8688588751998
 20
94.2399497459
 30
0.0
 11
96.9594655646
 21
94.2399497459
 31
0.0
  0
LINE
  5
15B
330
1E
100
AcDbEntity
  8
0
 62
     3
100
AcDbLine
 10
95.66887718569999
 20
96.86259989239999
 30
0.0
 11
95.66887718569999
 21
94.81729654770001
 31
0.0
  0
LINE
  5
15C
330
1E
100
AcDbEntity
  8
0
 62
     3
100
AcDbLine
 10
104.8688588751998
 20
96.86259989239999
 30
0.0
 11
104.8688588751998
 21
94.81729654770001
 31
0.0
  0
LINE
  5
15D
330
1E
100
AcDbEntity
  8
0
 62
     3
100
AcDbLine
 10
97.9594655646
 20
96.86259989239999
 30
0.0
 11
97.9594655646
 21
94.81729654770001
 31
0.0
  0
CIRCLE
  5
15E
330
1E
100
AcDbEntity
  8
0
 62
     3
100
AcDbCircle
 10
101.8189015997998
 20
236.2399344871
 30
0.0
 40
1.5
  0
CIRCLE
  5
15F
330
1E
100
AcDbEntity
  8
0
 62
     3
100
AcDbCircle
 10
51.06885582339997
 20
74.5902457664
 30
0.0
 40
2.0
  0
CIRCLE
  5
160
330
1E
100
AcDbEntity
  8
0
 62
     3
100
AcDbCircle
 10
100.2688527716
 20
74.5902457664
 30
0.0
 40
2.0
  0
CIRCLE
  5
161
330
1E
100
AcDbEntity
  8
0
 62
     3
100
AcDbCircle
 10
51.06885582339997
 20
74.5902457664
 30
0.0
 40
2.5
  0
CIRCLE
  5
162
330
1E
100
AcDbEntity
  8
0
 62
     3
100
AcDbCircle
 10
100.2688527716
 20
74.5902457664
 30
0.0
 40
2.5
  0
CIRCLE
  5
163
330
1E
100
AcDbEntity
  8
0
 62
     3
100
AcDbCircle
 10
100.2688527716
 20
74.5902457664
 30
0.0
 40
5.0
  0
CIRCLE
  5
164
330
1E
100
AcDbEntity
  8
0
 62
     3
100
AcDbCircle
 10
100.2688527716
 20
74.5902457664
 30
0.0
 40
4.5625
  0
CIRCLE
  5
165
330
1E
100
AcDbEntity
  8
0
 62
     3
100
AcDbCircle
 10
51.06885582339997
 20
74.5902457664
 30
0.0
 40
5.0
  0
CIRCLE
  5
166
330
1E
100
AcDbEntity
  8
0
 62
     3
100
AcDbCircle
 10
51.06885582339997
 20
74.5902457664
 30
0.0
 40
4.5625
  0
ARC
  5
167
330
1E
100
AcDbEntity
  8
0
 62
     3
100
AcDbCircle
 10
64.66889244449999
 20
146.9399466941998
 30
0.0
 40
0.5
100
AcDbArc
 50
180.0000179861
 51
270.0
  0
ARC
  5
168
330
1E
100
AcDbEntity
  8
0
 62
     3
100
AcDbCircle
 10
95.2188954963
 20
108.5399222801
 30
0.0
 40
0.5
100
AcDbArc
 50
180.0000179861
 51
270.0
  0
CIRCLE
  5
169
330
1E
100
AcDbEntity
  8
0
 62
     3
100
AcDbCircle
 10
49.51888328919999
 20
148.0399222801
 30
0.0
 40
1.1999998093
  0
CIRCLE
  5
16A
330
1E
100
AcDbEntity
  8
0
 62
     3
100
AcDbCircle
 10
49.51888328919999
 20
148.0399222801
 30
0.0
 40
2.0499992371
  0
ARC
  5
16B
330
1E
100
AcDbEntity
  8
0
 62
     3
100
AcDbCircle
 10
93.66887718569998
 20
134.2399344870998
 30
0.0
 40
2.0
100
AcDbArc
 50
359.9999820138998
 51
89.99996402779997
  0
ARC
  5
16C
330
1E
100
AcDbEntity
  8
0
 62
     3
100
AcDbCircle
 10
68.86888939269997
 20
151.0399222801
 30
0.0
 40
0.5
100
AcDbArc
 50
359.9999820138998
 51
89.99996402779997
  0
CIRCLE
  5
16D
330
1E
100
AcDbEntity
  8
0
 62
     3
100
AcDbCircle
 10
104.7688832891999
 20
142.2399344870999
 30
0.0
 40
1.0
  0
CIRCLE
  5
16E
330
1E
100
AcDbEntity
  8
0
 62
     3
100
AcDbCircle
 10
58.66889244449999
 20
109.2399344870999
 30
0.0
 40
1.1999998093
  0
ARC
  5
16F
330
1E
100
AcDbEntity
  8
0
 62
     3
100
AcDbCircle
 10
57.66889244449998
 20
134.2399344870998
 30
0.0
 40
2.0
100
AcDbArc
 50
89.9999640278
 51
180.0000006832
  0
ARC
  5
170
330
1E
100
AcDbEntity
  8
0
 62
     3
100
AcDbCircle
 10
90.11888939269999
 20
108.5399222801
 30
0.0
 40
0.5
100
AcDbArc
 50
270.0
 51
359.9999820138998
  0
ARC
  5
171
330
1E
100
AcDbEntity
  8
0
 62
     3
100
AcDbCircle
 10
57.66889244449998
 20
117.2399344870999
 30
0.0
 40
2.0
100
AcDbArc
 50
180.0000179861
 51
270.0
  0
CIRCLE
  5
172
330
1E
100
AcDbEntity
  8
0
 62
     3
100
AcDbCircle
 10
92.66887718569998
 20
109.2399344870999
 30
0.0
 40
1.1999998093
  0
ARC
  5
173
330
1E
100
AcDbEntity
  8
0
 62
     3
100
AcDbCircle
 10
56.11888939269997
 20
108.5399222801
 30
0.0
 40
0.5
100
AcDbArc
 50
270.0
 51
359.9999820138998
  0
ARC
  5
174
330
1E
100
AcDbEntity
  8
0
 62
     3
100
AcDbCircle
 10
93.66887718569998
 20
117.2399344870999
 30
0.0
 40
2.0
100
AcDbArc
 50
270.0
 51
359.9999820138998
  0
ARC
  5
175
330
1E
100
AcDbEntity
  8
0
 62
     3
100
AcDbCircle
 10
64.66889244449999
 20
151.0399222801
 30
0.0
 40
0.5
100
AcDbArc
 50
89.9999640278
 51
180.0000006832
  0
ARC
  5
176
330
1E
100
AcDbEntity
  8
0
 62
     3
100
AcDbCircle
 10
106.8688893926999
 20
115.1399283836
 30
0.0
 40
0.3000000119
100
AcDbArc
 50
270.0
 51
359.9999820138998
  0
ARC
  5
177
330
1E
100
AcDbEntity
  8
0
 62
     3
100
AcDbCircle
 10
106.6688771856999
 20
106.7399344870999
 30
0.0
 40
0.5
100
AcDbArc
 50
270.0
 51
359.9999820138998
  0
ARC
  5
178
330
1E
100
AcDbEntity
  8
0
 62
     3
100
AcDbCircle
 10
92.66887718569998
 20
109.2399344870999
 30
0.0
 40
2.0499992371
100
AcDbArc
 50
359.9999820138998
 51
180.0000006832
  0
CIRCLE
  5
179
330
1E
100
AcDbEntity
  8
0
 62
     3
100
AcDbCircle
 10
101.8188710822
 20
148.0399222801
 30
0.0
 40
1.1999998093
  0
ARC
  5
17A
330
1E
100
AcDbEntity
  8
0
 62
     3
100
AcDbCircle
 10
58.66889244449999
 20
109.2399344870999
 30
0.0
 40
2.0499992371
100
AcDbArc
 50
359.9999820138998
 51
180.0000006832
  0
ARC
  5
17B
330
1E
100
AcDbEntity
  8
0
 62
     3
100
AcDbCircle
 10
61.21889549629997
 20
108.5399222801
 30
0.0
 40
0.5
100
AcDbArc
 50
180.0000179861
 51
270.0
  0
CIRCLE
  5
17C
330
1E
100
AcDbEntity
  8
0
 62
     3
100
AcDbCircle
 10
101.8188710822
 20
148.0399222801
 30
0.0
 40
2.0499992371
  0
CIRCLE
  5
17D
330
1E
100
AcDbEntity
  8
0
 62
     3
100
AcDbCircle
 10
104.7688832891999
 20
142.2399344870999
 30
0.0
 40
0.6999999881
  0
CIRCLE
  5
17E
330
1E
100
AcDbEntity
  8
0
 62
     3
100
AcDbCircle
 10
53.86888939269997
 20
110.2399344870999
 30
0.0
 40
1.0
  0
CIRCLE
  5
17F
330
1E
100
AcDbEntity
  8
0
 62
     3
100
AcDbCircle
 10
53.86888939269997
 20
110.2399344870999
 30
0.0
 40
0.6999999881
  0
ARC
  5
180
330
1E
100
AcDbEntity
  8
0
 62
     3
100
AcDbCircle
 10
68.86888939269997
 20
146.9399466941998
 30
0.0
 40
0.5
100
AcDbArc
 50
270.0
 51
359.9999820138998
  0
ARC
  5
181
330
1E
100
AcDbEntity
  8
0
 62
     3
100
AcDbCircle
 10
44.66889244449999
 20
106.7399344870999
 30
0.0
 40
0.5
100
AcDbArc
 50
180.0000179861
 51
270.0
  0
ARC
  5
182
330
1E
100
AcDbEntity
  8
0
 62
     3
100
AcDbCircle
 10
106.8688893926999
 20
110.5399222801
 30
0.0
 40
0.3000000119
100
AcDbArc
 50
359.9999820138998
 51
89.99996402779997
  0
ARC
  5
183
330
1E
100
AcDbEntity
  8
0
 62
     3
100
AcDbCircle
 10
95.86888939269998
 20
156.7399344871
 30
0.0
 40
0.5
100
AcDbArc
 50
359.9999820138998
 51
89.99996402779997
  0
ARC
  5
184
330
1E
100
AcDbEntity
  8
0
 62
     3
100
AcDbCircle
 10
44.46889549629997
 20
108.3399405907
 30
0.0
 40
0.3000000119
100
AcDbArc
 50
180.0000179861
 51
270.0
  0
ARC
  5
185
330
1E
100
AcDbEntity
  8
0
 62
     3
100
AcDbCircle
 10
44.46889549629997
 20
115.1399283836
 30
0.0
 40
0.3000000119
100
AcDbArc
 50
180.0000179861
 51
270.0
  0
ARC
  5
186
330
1E
100
AcDbEntity
  8
0
 62
     3
100
AcDbCircle
 10
44.46889549629997
 20
110.5399222801
 30
0.0
 40
0.3000000119
100
AcDbArc
 50
90.00003597219999
 51
180.0000179861
  0
ARC
  5
187
330
1E
100
AcDbEntity
  8
0
 62
     3
100
AcDbCircle
 10
106.6688771856999
 20
153.2399344870999
 30
0.0
 40
0.5
100
AcDbArc
 50
359.9999820138998
 51
89.99996402779997
  0
ARC
  5
188
330
1E
100
AcDbEntity
  8
0
 62
     3
100
AcDbCircle
 10
44.66889244449999
 20
153.2399344870999
 30
0.0
 40
0.5
100
AcDbArc
 50
90.00003597219999
 51
180.0000179861
  0
ARC
  5
189
330
1E
100
AcDbEntity
  8
0
 62
     3
100
AcDbCircle
 10
106.8688893926999
 20
108.3399405907
 30
0.0
 40
0.3000000119
100
AcDbArc
 50
270.0
 51
359.9999820138998
  0
ARC
  5
18A
330
1E
100
AcDbEntity
  8
0
 62
     3
100
AcDbCircle
 10
61.86888939269997
 20
156.7399344871
 30
0.0
 40
0.5
100
AcDbArc
 50
90.00003597219999
 51
180.0000179861
  0
ARC
  5
18B
330
1E
100
AcDbEntity
  8
0
  6
PHANTOM
 62
     3
100
AcDbCircle
 10
103.1631093633999
 20
155.5525870749999
 30
0.0
 40
0.9166666864999999
100
AcDbArc
 50
2.999965021899999
 51
74.1328335292
  0
ARC
  5
18C
330
1E
100
AcDbEntity
  8
0
  6
PHANTOM
 62
     3
100
AcDbCircle
 10
101.8188710822
 20
150.8232474753999
 30
0.0
 40
5.8333330154
100
AcDbArc
 50
74.1328335292
 51
105.8670945263999
  0
ARC
  5
18D
330
1E
100
AcDbEntity
  8
0
  6
PHANTOM
 62
     3
100
AcDbCircle
 10
48.17462974919999
 20
155.5525870749999
 30
0.0
 40
0.9166666864999999
100
AcDbArc
 50
105.8671664708
 51
177.0000349781
  0
ARC
  5
18E
330
1E
100
AcDbEntity
  8
0
  6
PHANTOM
 62
     3
100
AcDbCircle
 10
49.51888328919999
 20
150.8232474753999
 30
0.0
 40
5.8333330154
100
AcDbArc
 50
74.1328335292
 51
105.8670945263999
  0
ARC
  5
18F
330
1E
100
AcDbEntity
  8
0
  6
PHANTOM
 62
     3
100
AcDbCircle
 10
50.86313682929997
 20
155.5525870749999
 30
0.0
 40
0.9166666864999999
100
AcDbArc
 50
2.999965021899999
 51
74.1328335292
  0
ARC
  5
190
330
1E
100
AcDbEntity
  8
0
  6
PHANTOM
 62
     3
100
AcDbCircle
 10
100.4746022833999
 20
155.5525870749999
 30
0.0
 40
0.9166666864999999
100
AcDbArc
 50
105.8671664708
 51
177.0000349781
  0
ARC
  5
191
330
1E
100
AcDbEntity
  8
0
  6
CENTER
 62
     3
100
AcDbCircle
 10
78.86884361639999
 20
149.2399802635
 30
0.0
 40
25.0
100
AcDbArc
 50
62.9999530312
 51
116.9999203829
  0
LINE
  5
195
330
1E
100
AcDbEntity
  8
0
 62
     3
100
AcDbLine
 10
102.5782704962999
 20
96.86259989239999
 30
0.0
 11
102.5782704962999
 21
94.81729654770001
 31
0.0
  0
LINE
  5
196
330
1E
100
AcDbEntity
  8
0
 62
     3
100
AcDbLine
 10
103.8689011898999
 20
97.43994076799999
 30
0.0
 11
104.8688687370999
 21
96.86260922510001
 31
0.0
  0
LINE
  5
197
330
1E
100
AcDbEntity
  8
0
 62
     3
100
AcDbLine
 10
96.66885406629999
 20
97.4399415521
 30
0.0
 11
95.66886009009994
 21
96.86259475040001
 31
0.0
  0
LINE
  5
198
330
1E
100
AcDbEntity
  8
0
 62
     3
100
AcDbLine
 10
96.6689094824
 20
94.239941244
 30
0.0
 11
95.6688890771
 21
94.8173033045
 31
0.0
  0
LINE
  5
199
330
1E
100
AcDbEntity
  8
0
 62
     3
100
AcDbLine
 10
103.8688534032
 20
94.2399288136
 30
0.0
 11
104.8688473794999
 21
94.8172756153
 31
0.0
  0
LINE
  5
19A
330
1E
100
AcDbEntity
  8
0
 62
     3
100
AcDbLine
 10
105.2688527716
 20
98.73994974590001
 30
0.0
 11
95.26885277159999
 21
98.73994974590001
 31
0.0
  0
LINE
  5
19B
330
1E
100
AcDbEntity
  8
0
 62
     3
100
AcDbLine
 10
95.26885277159999
 20
100.7399497459
 30
0.0
 11
95.26885277159999
 21
98.73994974590001
 31
0.0
  0
LINE
  5
19C
330
1E
100
AcDbEntity
  8
0
 62
     3
100
AcDbLine
 10
105.2688527716
 20
100.7399497459
 30
0.0
 11
105.2688527716
 21
98.73994974590001
 31
0.0
  0
LINE
  5
19D
330
1E
100
AcDbEntity
  8
0
 62
     3
100
AcDbLine
 10
95.66887718569999
 20
105.2399650047
 30
0.0
 11
95.66887718569999
 21
103.9399619529999
 31
0.0
  0
LINE
  5
19E
330
1E
100
AcDbEntity
  8
0
 62
     3
100
AcDbLine
 10
95.26885277159999
 20
106.2399650046998
 30
0.0
 11
95.26885277159999
 21
105.2399650047
 31
0.0
  0
LINE
  5
19F
330
1E
100
AcDbEntity
  8
0
 62
     3
100
AcDbLine
 10
105.2688527716
 20
105.2399650047
 30
0.0
 11
95.26885277159999
 21
105.2399650047
 31
0.0
  0
LINE
  5
1A0
330
1E
100
AcDbEntity
  8
0
 62
     3
100
AcDbLine
 10
104.8688588751998
 20
103.9399619529999
 30
0.0
 11
95.66887718569999
 21
103.9399619529999
 31
0.0
  0
LINE
  5
1A1
330
1E
100
AcDbEntity
  8
0
 62
     3
100
AcDbLine
 10
100.2117893017
 20
105.2399593669
 30
0.0
 11
98.91179439530001
 21
103.9399644605998
 31
0.0
  0
LINE
  5
1A2
330
1E
100
AcDbEntity
  8
0
 62
     3
100
AcDbLine
 10
101.6260028397999
 20
105.2399593669
 30
0.0
 11
100.3260079334999
 21
103.9399644605998
 31
0.0
  0
LINE
  5
1A3
330
1E
100
AcDbEntity
  8
0
 62
     3
100
AcDbLine
 10
104.8688588751998
 20
105.2399650047
 30
0.0
 11
104.8688588751998
 21
103.9399619529999
 31
0.0
  0
LINE
  5
1A4
330
1E
100
AcDbEntity
  8
0
 62
     3
100
AcDbLine
 10
105.2688527716
 20
106.2399650046998
 30
0.0
 11
105.2688527716
 21
105.2399650047
 31
0.0
  0
LINE
  5
1A5
330
1E
100
AcDbEntity
  8
0
 62
     3
100
AcDbLine
 10
103.8689091321999
 20
103.9399543495
 30
0.0
 11
104.8689031084999
 21
103.3626075478
 31
0.0
  0
LINE
  5
1A6
330
1E
100
AcDbEntity
  8
0
 62
     3
100
AcDbLine
 10
96.66885375339994
 20
103.9399419190999
 30
0.0
 11
95.66885977709999
 21
103.3625951174
 31
0.0
  0
LINE
  5
1A7
330
1E
100
AcDbEntity
  8
0
 62
     3
100
AcDbLine
 10
95.66887718569999
 20
103.3625998923999
 30
0.0
 11
95.66887718569999
 21
101.3173118065
 31
0.0
  0
LINE
  5
1A8
330
1E
100
AcDbEntity
  8
0
 62
     3
100
AcDbLine
 10
96.66891742469999
 20
100.7399548254998
 30
0.0
 11
95.66889701939995
 21
101.317316886
 31
0.0
  0
LINE
  5
1A9
330
1E
100
AcDbEntity
  8
0
 62
     3
100
AcDbLine
 10
97.9594655646
 20
103.3625998923999
 30
0.0
 11
97.9594655646
 21
101.3173118065
 31
0.0
  0
LINE
  5
1AA
330
1E
100
AcDbEntity
  8
0
 62
     3
100
AcDbLine
 10
102.5782704962999
 20
103.3625998923999
 30
0.0
 11
102.5782704962999
 21
101.3173118065
 31
0.0
  0
LINE
  5
1AB
330
1E
100
AcDbEntity
  8
0
 62
     3
100
AcDbLine
 10
103.8688454608999
 20
100.7399423951
 30
0.0
 11
104.8688394371998
 21
101.3172891968
 31
0.0
  0
LINE
  5
1AC
330
1E
100
AcDbEntity
  8
0
 62
     3
100
AcDbLine
 10
104.8688588751998
 20
103.3625998923999
 30
0.0
 11
104.8688588751998
 21
101.3173118065
 31
0.0
  0
LINE
  5
1AD
330
1E
100
AcDbEntity
  8
0
 62
     3
100
AcDbLine
 10
105.2688527716
 20
100.7399497459
 30
0.0
 11
95.26885277159999
 21
100.7399497459
 31
0.0
  0
LINE
  5
1AE
330
1E
100
AcDbEntity
  8
0
 62
     3
100
AcDbLine
 10
49.06885582339999
 20
90.23994974590001
 30
0.0
 11
53.06885582339997
 21
90.23994974590001
 31
0.0
  0
LINE
  5
1AF
330
1E
100
AcDbEntity
  8
0
 62
     3
100
AcDbLine
 10
49.06891226369999
 20
90.23998080190001
 30
0.0
 11
48.56890094329997
 21
90.7399921644
 31
0.0
  0
LINE
  5
1B0
330
1E
100
AcDbEntity
  8
0
 62
     3
100
AcDbLine
 10
53.06889116329998
 20
90.23999650569999
 30
0.0
 11
53.56888090449999
 21
90.739986289
 31
0.0
  0
LINE
  5
1B1
330
1E
100
AcDbEntity
  8
0
 62
     3
100
AcDbLine
 10
48.56885582339997
 20
90.7399497459
 30
0.0
 11
53.56885582339997
 21
90.7399497459
 31
0.0
  0
LINE
  5
1B2
330
1E
100
AcDbEntity
  8
0
 62
     3
100
AcDbLine
 10
49.06885582339999
 20
94.2399497459
 30
0.0
 11
49.06885582339999
 21
90.23994974590001
 31
0.0
  0
LINE
  5
1B3
330
1E
100
AcDbEntity
  8
0
 62
     3
100
AcDbLine
 10
53.06885582339997
 20
94.2399497459
 30
0.0
 11
53.06885582339997
 21
90.23994974590001
 31
0.0
  0
LINE
  5
1B4
330
1E
100
AcDbEntity
  8
0
 62
     3
100
AcDbLine
 10
46.06885582339997
 20
99.7399497459
 30
0.0
 11
56.06885582339997
 21
99.7399497459
 31
0.0
  0
LINE
  5
1B5
330
1E
100
AcDbEntity
  8
0
 62
     3
100
AcDbLine
 10
46.46884971989998
 20
98.73994974590001
 30
0.0
 11
46.46884971989998
 21
97.43994669420001
 31
0.0
  0
LINE
  5
1B6
330
1E
100
AcDbEntity
  8
0
 62
     3
100
AcDbLine
 10
55.66884666809997
 20
98.73994974590001
 30
0.0
 11
55.66884666809997
 21
97.43994669420001
 31
0.0
  0
LINE
  5
1B7
330
1E
100
AcDbEntity
  8
0
 62
     3
100
AcDbLine
 10
46.46884971989998
 20
97.43994669420001
 30
0.0
 11
55.66884666809997
 21
97.43994669420001
 31
0.0
  0
LINE
  5
1B8
330
1E
100
AcDbEntity
  8
0
 62
     3
100
AcDbLine
 10
49.7117788498
 20
98.73997404569999
 30
0.0
 11
51.01178454569997
 21
97.4399683498
 31
0.0
  0
LINE
  5
1B9
330
1E
100
AcDbEntity
  8
0
 62
     3
100
AcDbLine
 10
51.12599238789997
 20
98.73997404569999
 30
0.0
 11
52.42598729419999
 21
97.43997913940001
 31
0.0
  0
LINE
  5
1BA
330
1E
100
AcDbEntity
  8
0
 62
     3
100
AcDbLine
 10
47.46884971989998
 20
94.2399497459
 30
0.0
 11
54.37824303039997
 21
94.2399497459
 31
0.0
  0
LINE
  5
1BB
330
1E
100
AcDbEntity
  8
0
 62
     3
100
AcDbLine
 10
55.66884666809997
 20
96.86259989239999
 30
0.0
 11
55.66884666809997
 21
94.81729654770001
 31
0.0
  0
LINE
  5
1BC
330
1E
100
AcDbEntity
  8
0
 62
     3
100
AcDbLine
 10
46.46884971989998
 20
96.86259989239999
 30
0.0
 11
46.46884971989998
 21
94.81729654770001
 31
0.0
  0
LINE
  5
1BD
330
1E
100
AcDbEntity
  8
0
 62
     3
100
AcDbLine
 10
53.37824303039997
 20
96.86259989239999
 30
0.0
 11
53.37824303039997
 21
94.81729654770001
 31
0.0
  0
LINE
  5
1BE
330
1E
100
AcDbEntity
  8
0
 62
     3
100
AcDbLine
 10
48.75945335759997
 20
96.86259989239999
 30
0.0
 11
48.75945335759997
 21
94.81729654770001
 31
0.0
  0
LINE
  5
1BF
330
1E
100
AcDbEntity
  8
0
 62
     3
100
AcDbLine
 10
47.46884335739999
 20
97.43994165229999
 30
0.0
 11
46.46884938109996
 21
96.86259485059999
 31
0.0
  0
LINE
  5
1C0
330
1E
100
AcDbEntity
  8
0
 62
     3
100
AcDbLine
 10
54.66890573969999
 20
97.43996709680001
 30
0.0
 11
55.66889971599996
 21
96.8626202951
 31
0.0
  0
LINE
  5
1C1
330
1E
100
AcDbEntity
  8
0
 62
     3
100
AcDbLine
 10
54.6688691233
 20
94.23994417260001
 30
0.0
 11
55.66886309959997
 21
94.81729097430001
 31
0.0
  0
LINE
  5
1C2
330
1E
100
AcDbEntity
  8
0
 62
     3
100
AcDbLine
 10
47.46889877349996
 20
94.23994114379999
 30
0.0
 11
46.46887836819999
 21
94.81730320430001
 31
0.0
  0
LINE
  5
1C3
330
1E
100
AcDbEntity
  8
0
 62
     3
100
AcDbLine
 10
46.06885582339997
 20
98.73994974590001
 30
0.0
 11
56.06885582339997
 21
98.73994974590001
 31
0.0
  0
LINE
  5
1C4
330
1E
100
AcDbEntity
  8
0
 62
     3
100
AcDbLine
 10
56.06885582339997
 20
100.7399497459
 30
0.0
 11
56.06885582339997
 21
98.73994974590001
 31
0.0
  0
LINE
  5
1C5
330
1E
100
AcDbEntity
  8
0
 62
     3
100
AcDbLine
 10
46.06885582339997
 20
100.7399497459
 30
0.0
 11
46.06885582339997
 21
98.73994974590001
 31
0.0
  0
LINE
  5
1C6
330
1E
100
AcDbEntity
  8
0
 62
     3
100
AcDbLine
 10
55.66884666809997
 20
105.2399650047
 30
0.0
 11
55.66884666809997
 21
103.9399619529999
 31
0.0
  0
LINE
  5
1C7
330
1E
100
AcDbEntity
  8
0
 62
     3
100
AcDbLine
 10
56.06885582339997
 20
106.2399650046998
 30
0.0
 11
56.06885582339997
 21
105.2399650047
 31
0.0
  0
LINE
  5
1C8
330
1E
100
AcDbEntity
  8
0
 62
     3
100
AcDbLine
 10
46.06885582339997
 20
105.2399650047
 30
0.0
 11
56.06885582339997
 21
105.2399650047
 31
0.0
  0
LINE
  5
1C9
330
1E
100
AcDbEntity
  8
0
 62
     3
100
AcDbLine
 10
46.46884971989998
 20
103.9399619529999
 30
0.0
 11
55.66884666809997
 21
103.9399619529999
 31
0.0
  0
LINE
  5
1CA
330
1E
100
AcDbEntity
  8
0
 62
     3
100
AcDbLine
 10
51.12599238789997
 20
105.2399701564999
 30
0.0
 11
52.42598729419999
 21
103.9399752502
 31
0.0
  0
LINE
  5
1CB
330
1E
100
AcDbEntity
  8
0
 62
     3
100
AcDbLine
 10
49.7117788498
 20
105.2399701564999
 30
0.0
 11
51.01177375609998
 21
103.9399752502
 31
0.0
  0
LINE
  5
1CC
330
1E
100
AcDbEntity
  8
0
 62
     3
100
AcDbLine
 10
46.46884971989998
 20
105.2399650047
 30
0.0
 11
46.46884971989998
 21
103.9399619529999
 31
0.0
  0
LINE
  5
1CD
330
1E
100
AcDbEntity
  8
0
 62
     3
100
AcDbLine
 10
46.06885582339997
 20
106.2399650046998
 30
0.0
 11
46.06885582339997
 21
105.2399650047
 31
0.0
  0
LINE
  5
1CE
330
1E
100
AcDbEntity
  8
0
 62
     3
100
AcDbLine
 10
47.46884304449998
 20
103.9399420193
 30
0.0
 11
46.46884906819999
 21
103.3625952176
 31
0.0
  0
LINE
  5
1CF
330
1E
100
AcDbEntity
  8
0
 62
     3
100
AcDbLine
 10
54.66889842329999
 20
103.9399542494
 30
0.0
 11
55.66889239949998
 21
103.3626074475999
 31
0.0
  0
LINE
  5
1D0
330
1E
100
AcDbEntity
  8
0
 62
     3
100
AcDbLine
 10
55.66884666809997
 20
103.3625998923999
 30
0.0
 11
55.66884666809997
 21
101.3173118065
 31
0.0
  0
LINE
  5
1D1
330
1E
100
AcDbEntity
  8
0
 62
     3
100
AcDbLine
 10
54.66886118099997
 20
100.7399577541
 30
0.0
 11
55.6688551573
 21
101.3173045557999
 31
0.0
  0
LINE
  5
1D2
330
1E
100
AcDbEntity
  8
0
 62
     3
100
AcDbLine
 10
53.37824303039997
 20
103.3625998923999
 30
0.0
 11
53.37824303039997
 21
101.3173118065
 31
0.0
  0
LINE
  5
1D3
330
1E
100
AcDbEntity
  8
0
 62
     3
100
AcDbLine
 10
48.75945335759997
 20
103.3625998923999
 30
0.0
 11
48.75945335759997
 21
101.3173118065
 31
0.0
  0
LINE
  5
1D4
330
1E
100
AcDbEntity
  8
0
 62
     3
100
AcDbLine
 10
47.4688935013
 20
100.7399623546999
 30
0.0
 11
46.46888631049997
 21
101.3173167858
 31
0.0
  0
LINE
  5
1D5
330
1E
100
AcDbEntity
  8
0
 62
     3
100
AcDbLine
 10
46.46884971989998
 20
103.3625998923999
 30
0.0
 11
46.46884971989998
 21
101.3173118065
 31
0.0
  0
LINE
  5
1D6
330
1E
100
AcDbEntity
  8
0
 62
     3
100
AcDbLine
 10
46.06885582339997
 20
100.7399497459
 30
0.0
 11
56.06885582339997
 21
100.7399497459
 31
0.0
  0
LINE
  5
1D7
330
1E
100
AcDbEntity
  8
0
 62
     3
100
AcDbLine
 10
57.26889244449997
 20
83.3402305076
 30
0.0
 11
60.06889244449999
 21
83.3402305076
 31
0.0
  0
LINE
  5
1D8
330
1E
100
AcDbEntity
  8
0
 62
     3
100
AcDbLine
 10
105.2688527716
 20
74.5902457664
 30
0.0
 11
107.1688771856998
 21
74.5902457664
 31
0.0
  0
LINE
  5
1D9
330
1E
100
AcDbEntity
  8
0
 62
     3
100
AcDbLine
 10
87.76886803039998
 20
74.5902457664
 30
0.0
 11
95.26885277159999
 21
74.5902457664
 31
0.0
  0
LINE
  5
1DA
330
1E
100
AcDbEntity
  8
0
 62
     3
100
AcDbLine
 10
65.11885887519998
 20
236.2399344871
 30
0.0
 11
51.71886497869997
 21
236.2399344871
 31
0.0
  0
LINE
  5
1DB
330
1E
100
AcDbEntity
  8
0
 62
     3
100
AcDbLine
 10
44.16886192689998
 20
84.14023355940001
 30
0.0
 11
107.1688771856998
 21
84.14023355940001
 31
0.0
  0
LINE
  5
1DC
330
1E
100
AcDbEntity
  8
0
 62
     3
100
AcDbLine
 10
97.98760277159999
 20
70.6389823387
 30
0.0
 11
102.5501027715999
 21
70.6389823387
 31
0.0
  0
LINE
  5
1DD
330
1E
100
AcDbEntity
  8
0
 62
     3
100
AcDbLine
 10
95.70634942209998
 20
74.5902566262
 30
0.0
 11
97.98759969399998
 21
70.6390157924
 31
0.0
  0
LINE
  5
1DE
330
1E
100
AcDbEntity
  8
0
 62
     3
100
AcDbLine
 10
102.5501319997998
 20
70.6390476424
 30
0.0
 11
104.8313822716999
 21
74.5902884763
 31
0.0
  0
LINE
  5
1DF
330
1E
100
AcDbEntity
  8
0
 62
     3
100
AcDbLine
 10
102.5501027715999
 20
78.5414786766
 30
0.0
 11
97.98760277159999
 21
78.5414786766
 31
0.0
  0
LINE
  5
1E0
330
1E
100
AcDbEntity
  8
0
 62
     3
100
AcDbLine
 10
104.8313357240999
 20
74.5902491736
 30
0.0
 11
102.5500854521999
 21
78.5414900074
 31
0.0
  0
LINE
  5
1E1
330
1E
100
AcDbEntity
  8
0
 62
     3
100
AcDbLine
 10
97.9876462416
 20
78.5415218575
 30
0.0
 11
95.7063959697
 21
74.5902810236
 31
0.0
  0
LINE
  5
1E2
330
1E
100
AcDbEntity
  8
0
 62
     3
100
AcDbLine
 10
48.78760582339999
 20
70.6389823387
 30
0.0
 11
53.35010582339997
 21
70.6389823387
 31
0.0
  0
LINE
  5
1E3
330
1E
100
AcDbEntity
  8
0
 62
     3
100
AcDbLine
 10
46.50635250569999
 20
74.59022775779999
 30
0.0
 11
48.78760277759996
 21
70.63898692390001
 31
0.0
  0
LINE
  5
1E4
330
1E
100
AcDbEntity
  8
0
 62
     3
100
AcDbLine
 10
53.35016505319998
 20
70.6390063498
 30
0.0
 11
55.63141532509996
 21
74.5902471837
 31
0.0
  0
LINE
  5
1E5
330
1E
100
AcDbEntity
  8
0
 62
     3
100
AcDbLine
 10
44.16886192689998
 20
83.0402427147
 30
0.0
 11
107.1688771856998
 21
83.0402427147
 31
0.0
  0
LINE
  5
1E6
330
1E
100
AcDbEntity
  8
0
 62
     3
100
AcDbLine
 10
84.32267052069999
 20
239.2399344870999
 30
0.0
 11
65.11885887519998
 21
239.2399344870999
 31
0.0
  0
LINE
  5
1E7
330
1E
100
AcDbEntity
  8
0
 62
     3
100
AcDbLine
 10
65.11885887519998
 20
239.2399344870999
 30
0.0
 11
65.11885887519998
 21
233.2399344870998
 31
0.0
  0
LINE
  5
1E8
330
1E
100
AcDbEntity
  8
0
 62
     3
100
AcDbLine
 10
84.32267052069999
 20
233.2399344870998
 30
0.0
 11
65.11885887519998
 21
233.2399344870998
 31
0.0
  0
LINE
  5
1E9
330
1E
100
AcDbEntity
  8
0
 62
     3
100
AcDbLine
 10
84.32267052069999
 20
233.0399222800999
 30
0.0
 11
73.41506248839997
 21
233.0399222800999
 31
0.0
  0
LINE
  5
1EA
330
1E
100
AcDbEntity
  8
0
 62
     3
100
AcDbLine
 10
84.32267052069999
 20
231.7399344870998
 30
0.0
 11
84.32267052069999
 21
240.7399650047
 31
0.0
  0
LINE
  5
1EB
330
1E
100
AcDbEntity
  8
0
 62
     3
100
AcDbLine
 10
53.35010582339997
 20
78.5414786766
 30
0.0
 11
48.78760582339999
 21
78.5414786766
 31
0.0
  0
LINE
  5
1EC
330
1E
100
AcDbEntity
  8
0
 62
     3
100
AcDbLine
 10
55.63136523669999
 20
74.5902355639
 30
0.0
 11
53.35011496479999
 21
78.54147639779998
 31
0.0
  0
LINE
  5
1ED
330
1E
100
AcDbEntity
  8
0
 62
     3
100
AcDbLine
 10
48.7876396515
 20
78.541503453
 30
0.0
 11
46.50638937959999
 21
74.5902626192
 31
0.0
  0
LINE
  5
1EE
330
1E
100
AcDbEntity
  8
0
 62
     3
100
AcDbLine
 10
63.56885582339997
 20
79.5902457664
 30
0.0
 11
63.56885582339997
 21
69.5902457664
 31
0.0
  0
LINE
  5
1EF
330
1E
100
AcDbEntity
  8
0
 62
     3
100
AcDbLine
 10
87.76886803039998
 20
79.5902457664
 30
0.0
 11
87.76886803039998
 21
69.5902457664
 31
0.0
  0
LINE
  5
1F0
330
1E
100
AcDbEntity
  8
0
 62
     3
100
AcDbLine
 10
63.56885582339997
 20
79.5902457664
 30
0.0
 11
87.76886803039998
 21
79.5902457664
 31
0.0
  0
LINE
  5
1F1
330
1E
100
AcDbEntity
  8
0
 62
     3
100
AcDbLine
 10
63.56885582339997
 20
69.5902457664
 30
0.0
 11
87.76886803039998
 21
69.5902457664
 31
0.0
  0
LINE
  5
1F2
330
1E
100
AcDbEntity
  8
0
 62
     3
100
AcDbLine
 10
86.1688619269
 20
231.7399344870998
 30
0.0
 11
72.50804191959997
 21
231.7399344870998
 31
0.0
  0
LINE
  5
1F3
330
1E
100
AcDbEntity
  8
0
 62
     3
100
AcDbLine
 10
56.06885582339997
 20
74.5902457664
 30
0.0
 11
63.56885582339997
 21
74.5902457664
 31
0.0
  0
LINE
  5
1F4
330
1E
100
AcDbEntity
  8
0
 62
     3
100
AcDbLine
 10
73.41506248839997
 20
231.7399344870998
 30
0.0
 11
73.41506248839997
 21
233.2399344870998
 31
0.0
  0
LINE
  5
1F5
330
1E
100
AcDbEntity
  8
0
 62
     3
100
AcDbLine
 10
86.1688619269
 20
240.7399344871
 30
0.0
 11
71.56887108219999
 21
240.7399344871
 31
0.0
  0
LINE
  5
1F6
330
1E
100
AcDbEntity
  8
0
 62
     3
100
AcDbLine
 10
44.16886192689998
 20
74.5902457664
 30
0.0
 11
46.06885582339997
 21
74.5902457664
 31
0.0
  0
LINE
  5
1F7
330
1E
100
AcDbEntity
  8
0
 62
     3
100
AcDbLine
 10
107.1688771856998
 20
245.7899527977
 30
0.0
 11
44.16886192689998
 21
245.7899527977
 31
0.0
  0
LINE
  5
1F8
330
1E
100
AcDbEntity
  8
0
 62
     3
100
AcDbLine
 10
71.56887108219999
 20
240.7399344871
 30
0.0
 11
71.56887108219999
 21
239.2399344870999
 31
0.0
  0
LINE
  5
1F9
330
1E
100
AcDbEntity
  8
0
 62
     3
100
AcDbLine
 10
86.1688619269
 20
240.7399650047
 30
0.0
 11
86.1688619269
 21
231.7399344870998
 31
0.0
  0
LINE
  5
1FA
330
1E
100
AcDbEntity
  8
0
 62
     3
100
AcDbLine
 10
84.32267052069999
 20
239.4399466942
 30
0.0
 11
73.41506248839997
 21
239.4399466942
 31
0.0
  0
LINE
  5
1FB
330
1E
100
AcDbEntity
  8
0
 62
     3
100
AcDbLine
 10
73.41506248839997
 20
240.7399344871
 30
0.0
 11
73.41506248839997
 21
239.2399344870999
 31
0.0
  0
LINE
  5
1FC
330
1E
100
AcDbEntity
  8
0
 62
     3
100
AcDbLine
 10
44.16886192689998
 20
66.14027552109999
 30
0.0
 11
107.1688771856998
 21
66.14027552109999
 31
0.0
  0
LINE
  5
1FD
330
1E
100
AcDbEntity
  8
0
 62
     3
100
AcDbLine
 10
64.16889244449999
 20
151.0399222801
 30
0.0
 11
64.16889244449999
 21
146.9399466941998
 31
0.0
  0
LINE
  5
1FE
330
1E
100
AcDbEntity
  8
0
 62
     3
100
AcDbLine
 10
44.31888634099997
 20
134.9399466941999
 30
0.0
 11
44.31888634099997
 21
118.7399344870999
 31
0.0
  0
LINE
  5
1FF
330
1E
100
AcDbEntity
  8
0
 62
     3
100
AcDbLine
 10
60.7188802375
 20
109.2399344870999
 30
0.0
 11
60.7188802375
 21
108.5399527977
 31
0.0
  0
LINE
  5
200
330
1E
100
AcDbEntity
  8
0
 62
     3
100
AcDbLine
 10
90.11888939269999
 20
108.0399222800999
 30
0.0
 11
61.21889549629997
 21
108.0399222800999
 31
0.0
  0
LINE
  5
201
330
1E
100
AcDbEntity
  8
0
 62
     3
100
AcDbLine
 10
69.36888939269997
 20
151.0399222801
 30
0.0
 11
69.36888939269997
 21
146.9399466941998
 31
0.0
  0
LINE
  5
202
330
1E
100
AcDbEntity
  8
0
 62
     3
100
AcDbLine
 10
93.66887718569998
 20
115.2399344870999
 30
0.0
 11
57.66889244449998
 21
115.2399344870999
 31
0.0
  0
LINE
  5
203
330
1E
100
AcDbEntity
  8
0
 62
     3
100
AcDbLine
 10
106.8688893926999
 20
114.8399405906999
 30
0.0
 11
105.6688771856999
 21
114.8399405906999
 31
0.0
  0
LINE
  5
204
330
1E
100
AcDbEntity
  8
0
 62
     3
100
AcDbLine
 10
56.61888939269997
 20
109.2399344870999
 30
0.0
 11
56.61888939269997
 21
108.5399222801
 31
0.0
  0
LINE
  5
205
330
1E
100
AcDbEntity
  8
0
 62
     3
100
AcDbLine
 10
90.61888939269998
 20
109.2399344870999
 30
0.0
 11
90.61888939269998
 21
108.5399222801
 31
0.0
  0
LINE
  5
206
330
1E
100
AcDbEntity
  8
0
 62
     3
100
AcDbLine
 10
95.2188954963
 20
108.0399222800999
 30
0.0
 11
106.8688893926999
 21
108.0399222800999
 31
0.0
  0
LINE
  5
207
330
1E
100
AcDbEntity
  8
0
 62
     3
100
AcDbLine
 10
61.36888939269997
 20
153.7399344870999
 30
0.0
 11
44.66889244449999
 21
153.7399344870999
 31
0.0
  0
LINE
  5
208
330
1E
100
AcDbEntity
  8
0
 62
     3
100
AcDbLine
 10
55.66889244449999
 20
134.2399344870998
 30
0.0
 11
55.66889244449999
 21
117.2399344870999
 31
0.0
  0
LINE
  5
209
330
1E
100
AcDbEntity
  8
0
 62
     3
100
AcDbLine
 10
44.31888634099997
 20
118.7399344870999
 30
0.0
 11
44.16889244449999
 21
118.7399344870999
 31
0.0
  0
LINE
  5
20A
330
1E
100
AcDbEntity
  8
0
 62
     3
100
AcDbLine
 10
95.66887718569999
 20
134.2399344870998
 30
0.0
 11
95.66887718569999
 21
117.2399344870999
 31
0.0
  0
LINE
  5
20B
330
1E
100
AcDbEntity
  8
0
 62
     3
100
AcDbLine
 10
68.86888939269997
 20
151.5399222801
 30
0.0
 11
64.66889244449999
 21
151.5399222801
 31
0.0
  0
LINE
  5
20C
330
1E
100
AcDbEntity
  8
0
 62
     3
100
AcDbLine
 10
60.71889549629997
 20
109.2399344870999
 30
0.0
 11
60.71889549629997
 21
108.5399222801
 31
0.0
  0
LINE
  5
20D
330
1E
100
AcDbEntity
  8
0
 62
     3
100
AcDbLine
 10
106.6688771856999
 20
106.2399344870999
 30
0.0
 11
44.66889244449999
 21
106.2399344870999
 31
0.0
  0
LINE
  5
20E
330
1E
100
AcDbEntity
  8
0
 62
     3
100
AcDbLine
 10
56.11888939269997
 20
108.0399222800999
 30
0.0
 11
44.46889549629997
 21
108.0399222800999
 31
0.0
  0
LINE
  5
20F
330
1E
100
AcDbEntity
  8
0
 62
     3
100
AcDbLine
 10
68.86888939269997
 20
146.4399466941999
 30
0.0
 11
64.66889244449999
 21
146.4399466941999
 31
0.0
  0
LINE
  5
210
330
1E
100
AcDbEntity
  8
0
 62
     3
100
AcDbLine
 10
93.66887718569998
 20
136.2399344870999
 30
0.0
 11
57.66889244449998
 21
136.2399344870999
 31
0.0
  0
LINE
  5
211
330
1E
100
AcDbEntity
  8
0
 62
     3
100
AcDbLine
 10
61.36888939269997
 20
156.7399344871
 30
0.0
 11
61.36888939269997
 21
153.7399344870999
 31
0.0
  0
LINE
  5
212
330
1E
100
AcDbEntity
  8
0
 62
     3
100
AcDbLine
 10
44.46889549629997
 20
114.8399405906999
 30
0.0
 11
45.66889244449998
 21
114.8399405906999
 31
0.0
  0
LINE
  5
213
330
1E
100
AcDbEntity
  8
0
 62
     3
100
AcDbLine
 10
106.6688771856999
 20
153.7399344870999
 30
0.0
 11
96.36888939270001
 21
153.7399344870999
 31
0.0
  0
LINE
  5
214
330
1E
100
AcDbEntity
  8
0
 62
     3
100
AcDbLine
 10
105.6688771856999
 20
114.8399405906999
 30
0.0
 11
105.6688771856999
 21
110.8399405906999
 31
0.0
  0
LINE
  5
215
330
1E
100
AcDbEntity
  8
0
 62
     3
100
AcDbLine
 10
106.8688893926999
 20
110.8399405906999
 30
0.0
 11
105.6688771856999
 21
110.8399405906999
 31
0.0
  0
LINE
  5
216
330
1E
100
AcDbEntity
  8
0
 62
     3
100
AcDbLine
 10
45.66889244449998
 20
114.8399405906999
 30
0.0
 11
45.66889244449998
 21
110.8399405906999
 31
0.0
  0
LINE
  5
217
330
1E
100
AcDbEntity
  8
0
 62
     3
100
AcDbLine
 10
44.46889549629997
 20
110.8399405906999
 30
0.0
 11
45.66889244449998
 21
110.8399405906999
 31
0.0
  0
LINE
  5
218
330
1E
100
AcDbEntity
  8
0
 62
     3
100
AcDbLine
 10
95.86888939269998
 20
157.2399344870999
 30
0.0
 11
61.86888939269997
 21
157.2399344870999
 31
0.0
  0
LINE
  5
219
330
1E
100
AcDbEntity
  8
0
 62
     3
100
AcDbLine
 10
44.16889244449999
 20
134.9399466941999
 30
0.0
 11
44.36888939269997
 21
134.9399466941999
 31
0.0
  0
LINE
  5
21A
330
1E
100
AcDbEntity
  8
0
 62
     3
100
AcDbLine
 10
107.1688771856998
 20
153.2399344870999
 30
0.0
 11
107.1688771856998
 21
115.1399283836
 31
0.0
  0
LINE
  5
21B
330
1E
100
AcDbEntity
  8
0
 62
     3
100
AcDbLine
 10
44.16889244449999
 20
153.2399344870999
 30
0.0
 11
44.16889244449999
 21
134.9399466941999
 31
0.0
  0
LINE
  5
21C
330
1E
100
AcDbEntity
  8
0
 62
     3
100
AcDbLine
 10
96.36888939270001
 20
156.7399344871
 30
0.0
 11
96.36888939270001
 21
153.7399344870999
 31
0.0
  0
LINE
  5
21D
330
1E
100
AcDbEntity
  8
0
 62
     3
100
AcDbLine
 10
94.71889549629995
 20
109.2399344870999
 30
0.0
 11
94.71889549629995
 21
108.5399222801
 31
0.0
  0
LINE
  5
21E
330
1E
100
AcDbEntity
  8
0
 62
     3
100
AcDbLine
 10
107.1688771856998
 20
115.1107535788999
 30
0.0
 11
107.1688771856998
 21
110.7022147606
 31
0.0
  0
LINE
  5
21F
330
1E
100
AcDbEntity
  8
0
 62
     3
100
AcDbLine
 10
44.16889244449999
 20
118.7399344870999
 30
0.0
 11
44.16889244449999
 21
106.7399344870999
 31
0.0
  0
LINE
  5
220
330
1E
100
AcDbEntity
  8
0
 62
     3
100
AcDbLine
 10
107.1688771856998
 20
110.5399222801
 30
0.0
 11
107.1688771856998
 21
106.7399344870999
 31
0.0
  0
LINE
  5
221
330
1E
100
AcDbEntity
  8
0
  6
PHANTOM
 62
     3
100
AcDbLine
 10
51.77857359719999
 20
155.600566297
 30
0.0
 11
51.81057602439998
 21
154.9899236121
 31
0.0
  0
LINE
  5
222
330
1E
100
AcDbEntity
  8
0
  6
PHANTOM
 62
     3
100
AcDbLine
 10
47.25921939789998
 20
155.6005736232
 30
0.0
 11
47.22721697069999
 21
154.9899309383
 31
0.0
  0
LINE
  5
223
330
1E
100
AcDbEntity
  8
0
  6
PHANTOM
 62
     3
100
AcDbLine
 10
43.57854515449997
 20
154.9899344870999
 30
0.0
 11
61.27307945619998
 21
154.9899344870999
 31
0.0
  0
LINE
  5
224
330
1E
100
AcDbEntity
  8
0
  6
PHANTOM
 62
     3
100
AcDbLine
 10
99.5591800857
 20
155.6005724469
 30
0.0
 11
99.52717765849998
 21
154.989929762
 31
0.0
  0
LINE
  5
225
330
1E
100
AcDbEntity
  8
0
  6
PHANTOM
 62
     3
100
AcDbLine
 10
104.0785038091998
 20
155.6005658761
 30
0.0
 11
104.1105062363999
 21
154.9899231912
 31
0.0
  0
LINE
  5
226
330
1E
100
AcDbEntity
  8
0
  6
PHANTOM
 62
     3
100
AcDbLine
 10
108.7771840704998
 20
154.9899344870999
 30
0.0
 11
96.36888939270001
 21
154.9899344870999
 31
0.0
  0
LINE
  5
227
330
1E
100
AcDbEntity
  8
0
  6
CENTER
 62
     3
100
AcDbLine
 10
49.51888328919999
 20
157.6903129051
 30
0.0
 11
49.51888328919999
 21
144.6726890037
 31
0.0
  0
LINE
  5
228
330
1E
100
AcDbEntity
  8
0
  6
CENTER
 62
     3
100
AcDbLine
 10
101.8188710822
 20
157.6378226706999
 30
0.0
 11
101.8188710822
 21
144.3136649559
 31
0.0
  0
LINE
  5
229
330
1E
100
AcDbEntity
  8
0
 62
     3
100
AcDbLine
 10
61.36885887519998
 20
245.8285880516
 30
0.0
 11
61.36885887519998
 21
226.7703605124999
 31
0.0
  0
LINE
  5
22A
330
1E
100
AcDbEntity
  8
0
 62
     3
100
AcDbLine
 10
96.3688588752
 20
245.669774575
 30
0.0
 11
96.3688588752
 21
226.9292045066999
 31
0.0
  0
LINE
  5
22B
330
1E
100
AcDbEntity
  8
0
  6
CENTER
 62
     3
100
AcDbLine
 10
51.06885582339997
 20
108.0399222800999
 30
0.0
 11
51.06885582339997
 21
90.23994974590001
 31
0.0
  0
LINE
  5
22C
330
1E
100
AcDbEntity
  8
0
  6
CENTER
 62
     3
100
AcDbLine
 10
100.2688527716
 20
108.0399222800999
 30
0.0
 11
100.2688527716
 21
90.23994974590001
 31
0.0
  0
LINE
  5
22D
330
1E
100
AcDbEntity
  8
0
  6
CENTER
 62
     3
100
AcDbLine
 10
49.51886803039997
 20
243.0169425438
 30
0.0
 11
49.51886803039997
 21
229.2045035789
 31
0.0
  0
LINE
  5
22E
330
1E
100
AcDbEntity
  8
0
  6
CENTER
 62
     3
100
AcDbLine
 10
58.66889244449999
 20
111.9821219870999
 30
0.0
 11
58.66889244449999
 21
107.4349723288999
 31
0.0
  0
LINE
  5
22F
330
1E
100
AcDbEntity
  8
0
  6
CENTER
 62
     3
100
AcDbLine
 10
61.84586387999999
 20
109.2399344870999
 30
0.0
 11
56.0989003791
 21
109.2399344870999
 31
0.0
  0
LINE
  5
230
330
1E
100
AcDbEntity
  8
0
  6
CENTER
 62
     3
100
AcDbLine
 10
56.63349205390001
 20
110.2399344870999
 30
0.0
 11
50.88652855289999
 21
110.2399344870999
 31
0.0
  0
LINE
  5
231
330
1E
100
AcDbEntity
  8
0
  6
CENTER
 62
     3
100
AcDbLine
 10
53.86888939269997
 20
112.2463889549
 30
0.0
 11
53.86888939269997
 21
108.5041709372999
 31
0.0
  0
LINE
  5
232
330
1E
100
AcDbEntity
  8
0
  6
CENTER
 62
     3
100
AcDbLine
 10
92.66887718569998
 20
112.5792136619
 30
0.0
 11
92.66887718569998
 21
106.7667136619
 31
0.0
  0
LINE
  5
233
330
1E
100
AcDbEntity
  8
0
  6
CENTER
 62
     3
100
AcDbLine
 10
96.7286458625
 20
109.2399344870999
 30
0.0
 11
88.84326988589995
 21
109.2399344870999
 31
0.0
  0
LINE
  5
234
330
1E
100
AcDbEntity
  8
0
 62
     3
100
AcDbLine
 10
106.6876454962999
 20
142.2399344870999
 30
0.0
 11
102.6138082159999
 21
142.2399344870999
 31
0.0
  0
LINE
  5
235
330
1E
100
AcDbEntity
  8
0
  6
CENTER
 62
     3
100
AcDbLine
 10
57.68795067199997
 20
74.5902457664
 30
0.0
 11
42.1410909308
 21
74.5902457664
 31
0.0
  0
LINE
  5
236
330
1E
100
AcDbEntity
  8
0
  6
CENTER
 62
     3
100
AcDbLine
 10
106.0086599004999
 20
148.0399222801
 30
0.0
 11
97.05236107240001
 21
148.0399222801
 31
0.0
  0
LINE
  5
237
330
1E
100
AcDbEntity
  8
0
  6
CENTER
 62
     3
100
AcDbLine
 10
54.06203514469999
 20
148.0399222801
 30
0.0
 11
45.85207420719997
 21
148.0399222801
 31
0.0
  0
LINE
  5
238
330
1E
100
AcDbEntity
  8
0
  6
CENTER
 62
     3
100
AcDbLine
 10
101.8189015997998
 20
242.2625480124999
 30
0.0
 11
101.8189015997998
 21
230.4700675438
 31
0.0
  0
LINE
  5
239
330
1E
100
AcDbEntity
  8
0
 62
     3
100
AcDbLine
 10
104.7688832891999
 20
144.2124076317
 30
0.0
 11
104.7688832891999
 21
140.1945243309
 31
0.0
  0
LINE
  5
23A
330
1E
100
AcDbEntity
  8
0
  6
CENTER
 62
     3
100
AcDbLine
 10
100.2688527716
 20
81.7975821922
 30
0.0
 11
100.2688527716
 21
67.570745034
 31
0.0
  0
LINE
  5
23B
330
1E
100
AcDbEntity
  8
0
  6
CENTER
 62
     3
100
AcDbLine
 10
51.06885582339997
 20
81.3575797508
 30
0.0
 11
51.06885582339997
 21
66.83741907579999
 31
0.0
  0
LINE
  5
23C
330
1E
100
AcDbEntity
  8
0
  6
CENTER
 62
     3
100
AcDbLine
 10
109.1685567510999
 20
74.5902457664
 30
0.0
 11
90.68833214179994
 21
74.5902457664
 31
0.0
  0
LINE
  5
23D
330
1E
100
AcDbEntity
  8
0
  6
CENTER
 62
     3
100
AcDbLine
 10
78.86886381969998
 20
149.2399689888999
 30
0.0
 11
67.51910178029999
 21
171.5151333082999
 31
0.0
  0
LINE
  5
23E
330
1E
100
AcDbEntity
  8
0
  6
CENTER
 62
     3
100
AcDbLine
 10
78.86886381969998
 20
149.2399689888999
 30
0.0
 11
90.2186418752
 21
171.515161817
 31
0.0
  0
CIRCLE
  5
23F
330
1E
100
AcDbEntity
  8
0
 62
     3
100
AcDbCircle
 10
82.98224693669999
 20
236.1763663718999
 30
0.0
 40
1.0
  0
ARC
  5
240
330
1E
100
AcDbEntity
  8
0
 62
     3
100
AcDbCircle
 10
69.10805565249998
 20
168.3965812157
 30
0.0
 40
1.799999237099998
100
AcDbArc
 50
269.7440533883999
 51
270.0
  0
CIRCLE
  5
241
330
1E
100
AcDbEntity
  8
0
 62
     3
100
AcDbCircle
 10
69.10805565249998
 20
168.3965812157
 30
0.0
 40
1.524999618499998
  0
ARC
  5
242
330
1E
100
AcDbEntity
  8
0
 62
     3
100
AcDbCircle
 10
100.2688527716
 20
92.53247599099999
 30
0.0
 40
4.9074773788
100
AcDbArc
 50
61.9275040485
 51
118.0724786487
  0
ARC
  5
243
330
1E
100
AcDbEntity
  8
0
 62
     3
100
AcDbCircle
 10
103.7235646856998
 20
96.0335746239
 30
0.0
 40
1.413851738
100
AcDbArc
 50
84.1013580191
 51
144.1013460284
  0
ARC
  5
244
330
1E
100
AcDbEntity
  8
0
 62
     3
100
AcDbCircle
 10
96.81414085759998
 20
96.0335746239
 30
0.0
 40
1.413851738
100
AcDbArc
 50
35.8985820273
 51
95.89857003659998
  0
ARC
  5
245
330
1E
100
AcDbEntity
  8
0
 62
     3
100
AcDbCircle
 10
96.81414085759998
 20
95.64632181620002
 30
0.0
 40
1.413851738
100
AcDbArc
 50
264.1013871610998
 51
324.1013854156
  0
ARC
  5
246
330
1E
100
AcDbEntity
  8
0
 62
     3
100
AcDbCircle
 10
100.2688527716
 20
99.14742044909999
 30
0.0
 40
4.9074773788
100
AcDbArc
 50
241.9275195301
 51
298.0724838849998
  0
ARC
  5
247
330
1E
100
AcDbEntity
  8
0
 62
     3
100
AcDbCircle
 10
103.7235646856998
 20
95.64632181620002
 30
0.0
 40
1.413851738
100
AcDbArc
 50
215.8986077542
 51
275.8986094238
  0
ARC
  5
248
330
1E
100
AcDbEntity
  8
0
 62
     3
100
AcDbCircle
 10
103.7235646856998
 20
102.5335898825999
 30
0.0
 40
1.413851738
100
AcDbArc
 50
84.1013580191
 51
144.1013460284
  0
ARC
  5
249
330
1E
100
AcDbEntity
  8
0
 62
     3
100
AcDbCircle
 10
100.2688527716
 20
99.0324607323
 30
0.0
 40
4.9074773788
100
AcDbArc
 50
61.9275040485
 51
118.0724786487
  0
ARC
  5
24A
330
1E
100
AcDbEntity
  8
0
 62
     3
100
AcDbCircle
 10
96.81414085759998
 20
102.5335898825999
 30
0.0
 40
1.413851738
100
AcDbArc
 50
35.8985820273
 51
95.89857003659998
  0
ARC
  5
24B
330
1E
100
AcDbEntity
  8
0
 62
     3
100
AcDbCircle
 10
96.81414085759998
 20
102.1463218162
 30
0.0
 40
1.413851738
100
AcDbArc
 50
264.1013871610998
 51
324.1013854156
  0
ARC
  5
24C
330
1E
100
AcDbEntity
  8
0
 62
     3
100
AcDbCircle
 10
100.2688527716
 20
105.6474357078
 30
0.0
 40
4.9074773788
100
AcDbArc
 50
241.9275195301
 51
298.0724838849998
  0
ARC
  5
24D
330
1E
100
AcDbEntity
  8
0
 62
     3
100
AcDbCircle
 10
103.7235646856998
 20
102.1463218162
 30
0.0
 40
1.413851738
100
AcDbArc
 50
215.8986077542
 51
275.8986094238
  0
ARC
  5
24E
330
1E
100
AcDbEntity
  8
0
 62
     3
100
AcDbCircle
 10
51.06885582339997
 20
92.53247599099999
 30
0.0
 40
4.9074773788
100
AcDbArc
 50
61.9275040485
 51
118.0724786487
  0
ARC
  5
24F
330
1E
100
AcDbEntity
  8
0
 62
     3
100
AcDbCircle
 10
47.61414390929996
 20
96.03358988270001
 30
0.0
 40
1.413851738
100
AcDbArc
 50
35.8985820273
 51
95.89857003659998
  0
ARC
  5
250
330
1E
100
AcDbEntity
  8
0
 62
     3
100
AcDbCircle
 10
54.52355247869997
 20
96.0335898826
 30
0.0
 40
1.413851738
100
AcDbArc
 50
84.1013580191
 51
144.1013460284
  0
ARC
  5
251
330
1E
100
AcDbEntity
  8
0
 62
     3
100
AcDbCircle
 10
54.52355247869997
 20
95.64632181620002
 30
0.0
 40
1.413851738
100
AcDbArc
 50
215.8986077542
 51
275.8986094238
  0
ARC
  5
252
330
1E
100
AcDbEntity
  8
0
 62
     3
100
AcDbCircle
 10
51.06885582339997
 20
99.14742044909999
 30
0.0
 40
4.9074773788
100
AcDbArc
 50
241.9275195301
 51
298.0724838849998
  0
ARC
  5
253
330
1E
100
AcDbEntity
  8
0
 62
     3
100
AcDbCircle
 10
47.61414390929996
 20
95.64632181620002
 30
0.0
 40
1.413851738
100
AcDbArc
 50
264.1013871610998
 51
324.1013854156
  0
ARC
  5
254
330
1E
100
AcDbEntity
  8
0
 62
     3
100
AcDbCircle
 10
47.61414390929996
 20
102.5335898825999
 30
0.0
 40
1.413851738
100
AcDbArc
 50
35.8985820273
 51
95.89857003659998
  0
ARC
  5
255
330
1E
100
AcDbEntity
  8
0
 62
     3
100
AcDbCircle
 10
51.06885582339997
 20
99.0324607323
 30
0.0
 40
4.9074773788
100
AcDbArc
 50
61.9275040485
 51
118.0724786487
  0
ARC
  5
256
330
1E
100
AcDbEntity
  8
0
 62
     3
100
AcDbCircle
 10
54.52355247869997
 20
102.5335898825999
 30
0.0
 40
1.413851738
100
AcDbArc
 50
84.1013580191
 51
144.1013460284
  0
ARC
  5
257
330
1E
100
AcDbEntity
  8
0
 62
     3
100
AcDbCircle
 10
54.52355247869997
 20
102.1463218162
 30
0.0
 40
1.413851738
100
AcDbArc
 50
215.8986077542
 51
275.8986094238
  0
ARC
  5
258
330
1E
100
AcDbEntity
  8
0
 62
     3
100
AcDbCircle
 10
51.06885582339997
 20
105.6474357078
 30
0.0
 40
4.9074773788
100
AcDbArc
 50
241.9275195301
 51
298.0724838849998
  0
ARC
  5
259
330
1E
100
AcDbEntity
  8
0
 62
     3
100
AcDbCircle
 10
47.61414390929996
 20
102.1463218162
 30
0.0
 40
1.413851738
100
AcDbArc
 50
264.1013871610998
 51
324.1013854156
  0
ARC
  5
25A
330
1E
100
AcDbEntity
  8
0
 62
     3
100
AcDbCircle
 10
69.10805565249998
 20
168.3965812157
 30
0.0
 40
3.5
100
AcDbArc
 50
14.5303078881
 51
219.4696421608
  0
CIRCLE
  5
25B
330
1E
100
AcDbEntity
  8
0
 62
     3
100
AcDbCircle
 10
69.10805565249998
 20
168.3965812157
 30
0.0
 40
1.8249998093
  0
CIRCLE
  5
25C
330
1E
100
AcDbEntity
  8
0
 62
     3
100
AcDbCircle
 10
49.51886803039997
 20
236.2399039696
 30
0.0
 40
1.25
  0
CIRCLE
  5
25D
330
1E
100
AcDbEntity
  8
0
 62
     3
100
AcDbCircle
 10
49.51886803039997
 20
236.2399039696
 30
0.0
 40
1.5
  0
LINE
  5
271
330
1E
100
AcDbEntity
  8
0
 62
     3
100
AcDbLine
 10
70.60805565249999
 20
240.5399375388999
 30
0.0
 11
70.60805565249999
 21
239.7399383018
 31
0.0
  0
LINE
  5
272
330
1E
100
AcDbEntity
  8
0
 62
     3
100
AcDbLine
 10
67.60806328189997
 20
240.5399375388999
 30
0.0
 11
67.60806328189997
 21
239.7399383018
 31
0.0
  0
LINE
  5
273
330
1E
100
AcDbEntity
  8
0
 62
     3
100
AcDbLine
 10
70.60801664099996
 20
240.5398941111
 30
0.0
 11
70.40801803019997
 21
240.739892705
 31
0.0
  0
LINE
  5
274
330
1E
100
AcDbEntity
  8
0
 62
     3
100
AcDbLine
 10
67.60806328189997
 20
233.2399344870998
 30
0.0
 11
67.60806328189997
 21
232.9899459312
 31
0.0
  0
LINE
  5
275
330
1E
100
AcDbEntity
  8
0
 62
     3
100
AcDbLine
 10
70.60805565249999
 20
240.5399375388999
 30
0.0
 11
67.60806328189997
 21
240.5399375388999
 31
0.0
  0
LINE
  5
276
330
1E
100
AcDbEntity
  8
0
 62
     3
100
AcDbLine
 10
72.50804191959997
 20
232.9899459312
 30
0.0
 11
65.70805794129999
 21
232.9899459312
 31
0.0
  0
LINE
  5
277
330
1E
100
AcDbEntity
  8
0
 62
     3
100
AcDbLine
 10
72.50804191959997
 20
220.3899627159
 30
0.0
 11
65.70805794129999
 21
220.3899627159
 31
0.0
  0
LINE
  5
278
330
1E
100
AcDbEntity
  8
0
 62
     3
100
AcDbLine
 10
66.60805946719998
 20
214.1399283835998
 30
0.0
 11
66.60805946719998
 21
213.8899398277
 31
0.0
  0
LINE
  5
279
330
1E
100
AcDbEntity
  8
0
 62
     3
100
AcDbLine
 10
70.60805565249999
 20
233.2399344870998
 30
0.0
 11
70.60805565249999
 21
232.9917197654999
 31
0.0
  0
LINE
  5
27A
330
1E
100
AcDbEntity
  8
0
 62
     3
100
AcDbLine
 10
66.60805946719998
 20
239.7399383018
 30
0.0
 11
66.60805946719998
 21
239.2410140465
 31
0.0
  0
LINE
  5
27B
330
1E
100
AcDbEntity
  8
0
 62
     3
100
AcDbLine
 10
67.60804143919997
 20
240.5399263228999
 30
0.0
 11
67.80786471899998
 21
240.7397495859
 31
0.0
  0
LINE
  5
27C
330
1E
100
AcDbEntity
  8
0
 62
     3
100
AcDbLine
 10
70.40805107489998
 20
240.7399421165
 30
0.0
 11
67.80804878599997
 21
240.7399421165
 31
0.0
  0
LINE
  5
27D
330
1E
100
AcDbEntity
  8
0
 62
     3
100
AcDbLine
 10
71.56887108219999
 20
239.7399383018
 30
0.0
 11
66.60805946719998
 21
239.7399383018
 31
0.0
  0
LINE
  5
27E
330
1E
100
AcDbEntity
  8
0
 62
     3
100
AcDbLine
 10
72.50804191959997
 20
232.9899459312
 30
0.0
 11
72.50804191959997
 21
220.3899627159
 31
0.0
  0
LINE
  5
27F
330
1E
100
AcDbEntity
  8
0
 62
     3
100
AcDbLine
 10
65.70805794129999
 20
232.9899459312
 30
0.0
 11
65.70805794129999
 21
220.3899627159
 31
0.0
  0
LINE
  5
280
330
1E
100
AcDbEntity
  8
0
  6
CENTER
 62
     3
100
AcDbLine
 10
109.1685567510999
 20
55.4902816246
 30
0.0
 11
90.68833214179994
 21
55.4902816246
 31
0.0
  0
LINE
  5
281
330
1E
100
AcDbEntity
  8
0
  6
CENTER
 62
     3
100
AcDbLine
 10
51.06885582339997
 20
62.257615609
 30
0.0
 11
51.06885582339997
 21
47.7374549339
 31
0.0
  0
LINE
  5
282
330
1E
100
AcDbEntity
  8
0
  6
CENTER
 62
     3
100
AcDbLine
 10
100.2688527716
 20
62.69761805039999
 30
0.0
 11
100.2688527716
 21
48.4707808922
 31
0.0
  0
LINE
  5
283
330
1E
100
AcDbEntity
  8
0
  6
CENTER
 62
     3
100
AcDbLine
 10
57.68795067199997
 20
55.4902816246
 30
0.0
 11
42.1410909308
 21
55.4902816246
 31
0.0
  0
LINE
  5
284
330
1E
100
AcDbEntity
  8
0
 62
     3
100
AcDbLine
 10
44.16886192689998
 20
47.0403113792
 30
0.0
 11
107.1688771856998
 21
47.0403113792
 31
0.0
  0
LINE
  5
285
330
1E
100
AcDbEntity
  8
0
 62
     3
100
AcDbLine
 10
44.16886192689998
 20
55.4902816246
 30
0.0
 11
46.06885582339997
 21
55.4902816246
 31
0.0
  0
LINE
  5
286
330
1E
100
AcDbEntity
  8
0
 62
     3
100
AcDbLine
 10
56.06885582339997
 20
55.4902816246
 30
0.0
 11
63.56885582339997
 21
55.4902816246
 31
0.0
  0
LINE
  5
287
330
1E
100
AcDbEntity
  8
0
 62
     3
100
AcDbLine
 10
63.56885582339997
 20
50.4902816246
 30
0.0
 11
87.76886803039998
 21
50.4902816246
 31
0.0
  0
LINE
  5
288
330
1E
100
AcDbEntity
  8
0
 62
     3
100
AcDbLine
 10
63.56885582339997
 20
60.4902816246
 30
0.0
 11
87.76886803039998
 21
60.4902816246
 31
0.0
  0
LINE
  5
289
330
1E
100
AcDbEntity
  8
0
 62
     3
100
AcDbLine
 10
87.76886803039998
 20
60.4902816246
 30
0.0
 11
87.76886803039998
 21
50.4902816246
 31
0.0
  0
LINE
  5
28A
330
1E
100
AcDbEntity
  8
0
 62
     3
100
AcDbLine
 10
63.56885582339997
 20
60.4902816246
 30
0.0
 11
63.56885582339997
 21
50.4902816246
 31
0.0
  0
LINE
  5
28B
330
1E
100
AcDbEntity
  8
0
 62
     3
100
AcDbLine
 10
48.7876396515
 20
59.44153931119999
 30
0.0
 11
46.50638937959999
 21
55.49029847729999
 31
0.0
  0
LINE
  5
28C
330
1E
100
AcDbEntity
  8
0
 62
     3
100
AcDbLine
 10
55.63136523669999
 20
55.4902714221
 30
0.0
 11
53.35011496479999
 21
59.44151225590001
 31
0.0
  0
LINE
  5
28D
330
1E
100
AcDbEntity
  8
0
 62
     3
100
AcDbLine
 10
53.35010582339997
 20
59.4415145347
 30
0.0
 11
48.78760582339999
 21
59.4415145347
 31
0.0
  0
LINE
  5
28E
330
1E
100
AcDbEntity
  8
0
 62
     3
100
AcDbLine
 10
44.16886192689998
 20
63.9402785728
 30
0.0
 11
107.1688771856998
 21
63.9402785728
 31
0.0
  0
LINE
  5
28F
330
1E
100
AcDbEntity
  8
0
 62
     3
100
AcDbLine
 10
53.35016505319998
 20
51.53904220800001
 30
0.0
 11
55.63141532509996
 21
55.49028304180001
 31
0.0
  0
LINE
  5
290
330
1E
100
AcDbEntity
  8
0
 62
     3
100
AcDbLine
 10
46.50635250569999
 20
55.4902636159
 30
0.0
 11
48.78760277759996
 21
51.5390227821
 31
0.0
  0
LINE
  5
291
330
1E
100
AcDbEntity
  8
0
 62
     3
100
AcDbLine
 10
48.78760582339999
 20
51.53901819689999
 30
0.0
 11
53.35010582339997
 21
51.53901819689999
 31
0.0
  0
LINE
  5
292
330
1E
100
AcDbEntity
  8
0
 62
     3
100
AcDbLine
 10
97.9876462416
 20
59.44155771560001
 30
0.0
 11
95.7063959697
 21
55.49031688180001
 31
0.0
  0
LINE
  5
293
330
1E
100
AcDbEntity
  8
0
 62
     3
100
AcDbLine
 10
104.8313357240999
 20
55.49028503169999
 30
0.0
 11
102.5500854521999
 21
59.44152586560001
 31
0.0
  0
LINE
  5
294
330
1E
100
AcDbEntity
  8
0
 62
     3
100
AcDbLine
 10
102.5501027715999
 20
59.4415145347
 30
0.0
 11
97.98760277159999
 21
59.4415145347
 31
0.0
  0
LINE
  5
295
330
1E
100
AcDbEntity
  8
0
 62
     3
100
AcDbLine
 10
102.5501319997998
 20
51.5390835006
 30
0.0
 11
104.8313822716999
 21
55.49032433439999
 31
0.0
  0
LINE
  5
296
330
1E
100
AcDbEntity
  8
0
 62
     3
100
AcDbLine
 10
95.70634942209998
 20
55.4902924844
 30
0.0
 11
97.98759969399998
 21
51.5390516506
 31
0.0
  0
LINE
  5
297
330
1E
100
AcDbEntity
  8
0
 62
     3
100
AcDbLine
 10
97.98760277159999
 20
51.53901819689999
 30
0.0
 11
102.5501027715999
 21
51.53901819689999
 31
0.0
  0
LINE
  5
298
330
1E
100
AcDbEntity
  8
0
 62
     3
100
AcDbLine
 10
107.1688771856998
 20
84.14023355940001
 30
0.0
 11
107.1688771856998
 21
45.9403052757
 31
0.0
  0
LINE
  5
299
330
1E
100
AcDbEntity
  8
0
 62
     3
100
AcDbLine
 10
44.16886192689998
 20
84.14023355940001
 30
0.0
 11
44.16886192689998
 21
45.9403052757
 31
0.0
  0
LINE
  5
29A
330
1E
100
AcDbEntity
  8
0
 62
     3
100
AcDbLine
 10
87.76886803039998
 20
55.4902816246
 30
0.0
 11
95.26885277159999
 21
55.4902816246
 31
0.0
  0
LINE
  5
29B
330
1E
100
AcDbEntity
  8
0
 62
     3
100
AcDbLine
 10
105.2688527716
 20
55.4902816246
 30
0.0
 11
107.1688771856998
 21
55.4902816246
 31
0.0
  0
CIRCLE
  5
29C
330
1E
100
AcDbEntity
  8
0
 62
     3
100
AcDbCircle
 10
51.06885582339997
 20
55.4902816246
 30
0.0
 40
4.5625
  0
CIRCLE
  5
29D
330
1E
100
AcDbEntity
  8
0
 62
     3
100
AcDbCircle
 10
51.06885582339997
 20
55.4902816246
 30
0.0
 40
5.0
  0
CIRCLE
  5
29E
330
1E
100
AcDbEntity
  8
0
 62
     3
100
AcDbCircle
 10
100.2688527716
 20
55.4902816246
 30
0.0
 40
4.5625
  0
CIRCLE
  5
29F
330
1E
100
AcDbEntity
  8
0
 62
     3
100
AcDbCircle
 10
100.2688527716
 20
55.4902816246
 30
0.0
 40
5.0
  0
CIRCLE
  5
2A0
330
1E
100
AcDbEntity
  8
0
 62
     3
100
AcDbCircle
 10
100.2688527716
 20
55.4902816246
 30
0.0
 40
2.5
  0
CIRCLE
  5
2A1
330
1E
100
AcDbEntity
  8
0
 62
     3
100
AcDbCircle
 10
51.06885582339997
 20
55.4902816246
 30
0.0
 40
2.5
  0
CIRCLE
  5
2A2
330
1E
100
AcDbEntity
  8
0
 62
     3
100
AcDbCircle
 10
100.2688527716
 20
55.4902816246
 30
0.0
 40
2.0
  0
CIRCLE
  5
2A3
330
1E
100
AcDbEntity
  8
0
 62
     3
100
AcDbCircle
 10
51.06885582339997
 20
55.4902816246
 30
0.0
 40
2.0
  0
CIRCLE
  5
2A4
330
1E
100
AcDbEntity
  8
0
 62
     3
100
AcDbCircle
 10
49.51886803039997
 20
217.139897866
 30
0.0
 40
1.5
  0
CIRCLE
  5
2A5
330
1E
100
AcDbEntity
  8
0
 62
     3
100
AcDbCircle
 10
49.51886803039997
 20
217.139897866
 30
0.0
 40
1.25
  0
CIRCLE
  5
2A6
330
1E
100
AcDbEntity
  8
0
 62
     3
100
AcDbCircle
 10
82.98224693669999
 20
217.0763602684
 30
0.0
 40
1.0
  0
LINE
  5
2A7
330
1E
100
AcDbEntity
  8
0
  6
CENTER
 62
     3
100
AcDbLine
 10
101.8189015997998
 20
223.162541909
 30
0.0
 11
101.8189015997998
 21
211.3700614403
 31
0.0
  0
LINE
  5
2A8
330
1E
100
AcDbEntity
  8
0
  6
CENTER
 62
     3
100
AcDbLine
 10
49.51886803039997
 20
223.9169364403
 30
0.0
 11
49.51886803039997
 21
210.1044974754
 31
0.0
  0
LINE
  5
2A9
330
1E
100
AcDbEntity
  8
0
 62
     3
100
AcDbLine
 10
96.3688588752
 20
226.5697684715
 30
0.0
 11
96.3688588752
 21
207.8291984031999
 31
0.0
  0
LINE
  5
2AA
330
1E
100
AcDbEntity
  8
0
 62
     3
100
AcDbLine
 10
61.36885887519998
 20
226.7285819481
 30
0.0
 11
61.36885887519998
 21
207.670354409
 31
0.0
  0
LINE
  5
2AB
330
1E
100
AcDbEntity
  8
0
 62
     3
100
AcDbLine
 10
73.41506248839997
 20
221.6399283836
 30
0.0
 11
73.41506248839997
 21
220.1399283835999
 31
0.0
  0
LINE
  5
2AC
330
1E
100
AcDbEntity
  8
0
 62
     3
100
AcDbLine
 10
84.32267052069999
 20
220.3399405907
 30
0.0
 11
73.41506248839997
 21
220.3399405907
 31
0.0
  0
LINE
  5
2AD
330
1E
100
AcDbEntity
  8
0
 62
     3
100
AcDbLine
 10
86.1688619269
 20
221.6399589011999
 30
0.0
 11
86.1688619269
 21
212.6399283836
 31
0.0
  0
LINE
  5
2AE
330
1E
100
AcDbEntity
  8
0
 62
     3
100
AcDbLine
 10
86.1688619269
 20
221.6399283836
 30
0.0
 11
72.50804191959997
 21
221.6399283836
 31
0.0
  0
LINE
  5
2AF
330
1E
100
AcDbEntity
  8
0
 62
     3
100
AcDbLine
 10
73.41506248839997
 20
212.6399283836
 30
0.0
 11
73.41506248839997
 21
214.1399283835998
 31
0.0
  0
LINE
  5
2B0
330
1E
100
AcDbEntity
  8
0
 62
     3
100
AcDbLine
 10
44.16886192689998
 20
245.7899527977
 30
0.0
 11
44.16886192689998
 21
207.5899405907
 31
0.0
  0
LINE
  5
2B1
330
1E
100
AcDbEntity
  8
0
 62
     3
100
AcDbLine
 10
107.1688771856998
 20
245.7899527977
 30
0.0
 11
107.1688771856998
 21
207.5899405907
 31
0.0
  0
LINE
  5
2B2
330
1E
100
AcDbEntity
  8
0
 62
     3
100
AcDbLine
 10
86.1688619269
 20
212.6399283836
 30
0.0
 11
72.50804191959997
 21
212.6399283836
 31
0.0
  0
LINE
  5
2B3
330
1E
100
AcDbEntity
  8
0
 62
     3
100
AcDbLine
 10
107.1688771856998
 20
207.5899405907
 30
0.0
 11
44.16886192689998
 21
207.5899405907
 31
0.0
  0
LINE
  5
2B4
330
1E
100
AcDbEntity
  8
0
 62
     3
100
AcDbLine
 10
84.32267052069999
 20
212.6399283836
 30
0.0
 11
84.32267052069999
 21
221.6399589011999
 31
0.0
  0
LINE
  5
2B5
330
1E
100
AcDbEntity
  8
0
 62
     3
100
AcDbLine
 10
84.32267052069999
 20
213.9399161766
 30
0.0
 11
73.41506248839997
 21
213.9399161766
 31
0.0
  0
LINE
  5
2B6
330
1E
100
AcDbEntity
  8
0
 62
     3
100
AcDbLine
 10
84.32267052069999
 20
214.1399283835998
 30
0.0
 11
65.11885887519998
 21
214.1399283835998
 31
0.0
  0
LINE
  5
2B7
330
1E
100
AcDbEntity
  8
0
 62
     3
100
AcDbLine
 10
65.11885887519998
 20
220.1399283835999
 30
0.0
 11
65.11885887519998
 21
214.1399283835998
 31
0.0
  0
LINE
  5
2B8
330
1E
100
AcDbEntity
  8
0
 62
     3
100
AcDbLine
 10
84.32267052069999
 20
220.1399283835999
 30
0.0
 11
65.11885887519998
 21
220.1399283835999
 31
0.0
  0
LINE
  5
2B9
330
1E
100
AcDbEntity
  8
0
 62
     3
100
AcDbLine
 10
65.11885887519998
 20
217.1399283836
 30
0.0
 11
51.71886497869997
 21
217.1399283836
 31
0.0
  0
CIRCLE
  5
2BB
330
1E
100
AcDbEntity
  8
0
 62
     3
100
AcDbCircle
 10
101.8189015997998
 20
217.1399283836
 30
0.0
 40
1.5
  0
CIRCLE
  5
2BC
330
1E
100
AcDbEntity
  8
0
 62
     3
100
AcDbCircle
 10
101.8189015997998
 20
217.1399283836
 30
0.0
 40
1.25
  0
LINE
  5
2BD
330
1E
100
AcDbEntity
  8
0
 62
     3
100
AcDbLine
 10
99.61888939269998
 20
217.1399283836
 30
0.0
 11
84.32267052069999
 21
217.1399283836
 31
0.0
  0
LINE
  5
2BE
330
1E
100
AcDbEntity
  8
0
 62
     3
100
AcDbLine
 10
71.56887108219999
 20
213.8899398277
 30
0.0
 11
71.56887108219999
 21
214.1399283835998
 31
0.0
  0
LINE
  5
2BF
330
1E
100
AcDbEntity
  8
0
 62
     3
100
AcDbLine
 10
78.86885887519999
 20
220.1725821922
 30
0.0
 11
78.86885887519999
 21
214.1271415184
 31
0.0
  0
LINE
  5
2C0
330
1E
100
AcDbEntity
  8
0
 62
     3
100
AcDbLine
 10
73.37593895329998
 20
220.1399283835999
 30
0.0
 11
73.37593895329998
 21
214.1271415184
 31
0.0
  0
LINE
  5
2C1
330
1E
100
AcDbEntity
  8
0
  6
CENTER
 62
     3
100
AcDbLine
 10
78.86885887519999
 20
248.7899527976999
 30
0.0
 11
78.86885887519999
 21
204.5899405906999
 31
0.0
  0
LINE
  5
2C2
330
1E
100
AcDbEntity
  8
0
  6
CENTER
 62
     3
100
AcDbLine
 10
54.73496300109997
 20
217.139897866
 30
0.0
 11
43.33234459289997
 21
217.139897866
 31
0.0
  0
LINE
  5
2C3
330
1E
100
AcDbEntity
  8
0
  6
CENTER
 62
     3
100
AcDbLine
 10
107.0349965704999
 20
217.1399283836
 30
0.0
 11
95.63237816229998
 21
217.1399283836
 31
0.0
  0
LINE
  5
2CC
330
1E
100
AcDbEntity
  8
0
 62
     3
100
AcDbLine
 10
107.1688771856998
 20
226.6899466941999
 30
0.0
 11
72.50804191959997
 21
226.6899466941999
 31
0.0
  0
LINE
  5
2CD
330
1E
100
AcDbEntity
  8
0
 62
     3
100
AcDbLine
 10
65.70805794129999
 20
226.6899466941999
 30
0.0
 11
44.16886192689998
 21
226.6899466941999
 31
0.0
  0
LINE
  5
2CE
330
1E
100
AcDbEntity
  8
0
 62
     3
100
AcDbLine
 10
67.60806328189997
 20
220.3899627159
 30
0.0
 11
67.60806328189997
 21
220.1399283835999
 31
0.0
  0
LINE
  5
2CF
330
1E
100
AcDbEntity
  8
0
 62
     3
100
AcDbLine
 10
70.60805565249999
 20
220.3899627159
 30
0.0
 11
70.60805565249999
 21
220.1399283835999
 31
0.0
  0
LINE
  5
2D0
330
1E
100
AcDbEntity
  8
0
 62
     3
100
AcDbLine
 10
44.16886192689998
 20
65.0402694176
 30
0.0
 11
57.51889244449998
 21
65.0402694176
 31
0.0
  0
LINE
  5
2D1
330
1E
100
AcDbEntity
  8
0
 62
     3
100
AcDbLine
 10
59.81889244449998
 20
65.0402694176
 30
0.0
 11
91.5188771857
 21
65.0402694176
 31
0.0
  0
LINE
  5
2D2
330
1E
100
AcDbEntity
  8
0
 62
     3
100
AcDbLine
 10
93.81887718569997
 20
65.0402694176
 30
0.0
 11
107.1688771856998
 21
65.0402694176
 31
0.0
  0
LINE
  5
2D3
330
1E
100
AcDbEntity
  8
0
 62
     3
100
AcDbLine
 10
60.06889244449999
 20
83.0402427147
 30
0.0
 11
60.06889244449999
 21
83.3402305076
 31
0.0
  0
LINE
  5
2D4
330
1E
100
AcDbEntity
  8
0
 62
     3
100
AcDbLine
 10
57.26889244449997
 20
83.0402427147
 30
0.0
 11
57.26889244449997
 21
83.3402305076
 31
0.0
  0
LINE
  5
2D5
330
1E
100
AcDbEntity
  8
0
 62
     3
100
AcDbLine
 10
57.51889244449998
 20
63.9402785728
 30
0.0
 11
57.51889244449998
 21
66.14027552109999
 31
0.0
  0
LINE
  5
2D6
330
1E
100
AcDbEntity
  8
0
 62
     3
100
AcDbLine
 10
59.81889244449998
 20
63.9402785728
 30
0.0
 11
59.81889244449998
 21
66.14027552109999
 31
0.0
  0
LINE
  5
2D7
330
1E
100
AcDbEntity
  8
0
 62
     3
100
AcDbLine
 10
93.81887718569997
 20
63.9402785728
 30
0.0
 11
93.81887718569997
 21
66.14027552109999
 31
0.0
  0
LINE
  5
2D8
330
1E
100
AcDbEntity
  8
0
 62
     3
100
AcDbLine
 10
91.5188771857
 20
63.9402785728
 30
0.0
 11
91.5188771857
 21
66.14027552109999
 31
0.0
  0
LINE
  5
2D9
330
1E
100
AcDbEntity
  8
0
 62
     3
100
AcDbLine
 10
91.26887718569999
 20
83.0402427147
 30
0.0
 11
91.26887718569999
 21
83.3402305076
 31
0.0
  0
LINE
  5
2DA
330
1E
100
AcDbEntity
  8
0
 62
     3
100
AcDbLine
 10
94.06887718570001
 20
83.0402427147
 30
0.0
 11
94.06887718570001
 21
83.3402305076
 31
0.0
  0
LINE
  5
2DB
330
1E
100
AcDbEntity
  8
0
 62
     3
100
AcDbLine
 10
91.26887718569999
 20
83.3402305076
 30
0.0
 11
94.06887718570001
 21
83.3402305076
 31
0.0
  0
LINE
  5
2DC
330
1E
100
AcDbEntity
  8
0
 62
     3
100
AcDbLine
 10
56.61888939269997
 20
83.0402427147
 30
0.0
 11
56.61888939269997
 21
84.14023355940001
 31
0.0
  0
LINE
  5
2DD
330
1E
100
AcDbEntity
  8
0
 62
     3
100
AcDbLine
 10
60.71889549629997
 20
83.0402427147
 30
0.0
 11
60.71889549629997
 21
84.14023355940001
 31
0.0
  0
LINE
  5
2DE
330
1E
100
AcDbEntity
  8
0
 62
     3
100
AcDbLine
 10
90.61888939269998
 20
83.0402427147
 30
0.0
 11
90.61888939269998
 21
84.14023355940001
 31
0.0
  0
LINE
  5
2DF
330
1E
100
AcDbEntity
  8
0
 62
     3
100
AcDbLine
 10
94.71889549629995
 20
83.0402427147
 30
0.0
 11
94.71889549629995
 21
84.14023355940001
 31
0.0
  0
POINT
  5
2E0
330
1E
100
AcDbEntity
  8
0
 62
     3
100
AcDbPoint
 10
44.16886192689998
 20
226.6899466941999
 30
0.0
  0
POINT
  5
2E1
330
1E
100
AcDbEntity
  8
0
 62
     3
100
AcDbPoint
 10
44.16886192689998
 20
207.5899405907
 30
0.0
  0
LINE
  5
2E2
330
1E
100
AcDbEntity
  8
0
 62
     3
100
AcDbLine
 10
70.60805565249999
 20
201.2899566124
 30
0.0
 11
70.60805565249999
 21
201.0399222800999
 31
0.0
  0
LINE
  5
2E3
330
1E
100
AcDbEntity
  8
0
 62
     3
100
AcDbLine
 10
67.60806328189997
 20
201.2899566124
 30
0.0
 11
67.60806328189997
 21
201.0399222800999
 31
0.0
  0
LINE
  5
2E5
330
1E
100
AcDbEntity
  8
0
  6
CENTER
 62
     3
100
AcDbLine
 10
107.0349965704999
 20
198.0399222800999
 30
0.0
 11
95.63237816229998
 21
198.0399222800999
 31
0.0
  0
LINE
  5
2E6
330
1E
100
AcDbEntity
  8
0
  6
CENTER
 62
     3
100
AcDbLine
 10
54.73496300109997
 20
198.0398917624999
 30
0.0
 11
43.33234459289997
 21
198.0398917624999
 31
0.0
  0
LINE
  5
2E7
330
1E
100
AcDbEntity
  8
0
  6
CENTER
 62
     3
100
AcDbLine
 10
78.86885887519999
 20
229.6899466941999
 30
0.0
 11
78.86885887519999
 21
185.4899344870998
 31
0.0
  0
LINE
  5
2E8
330
1E
100
AcDbEntity
  8
0
 62
     3
100
AcDbLine
 10
73.37593895329998
 20
201.0399222800999
 30
0.0
 11
73.37593895329998
 21
195.0271354149
 31
0.0
  0
LINE
  5
2E9
330
1E
100
AcDbEntity
  8
0
 62
     3
100
AcDbLine
 10
78.86885887519999
 20
201.0725760886999
 30
0.0
 11
78.86885887519999
 21
195.0271354149
 31
0.0
  0
LINE
  5
2EA
330
1E
100
AcDbEntity
  8
0
 62
     3
100
AcDbLine
 10
71.56887108219999
 20
193.5399222800999
 30
0.0
 11
71.56887108219999
 21
195.0399222800999
 31
0.0
  0
LINE
  5
2EB
330
1E
100
AcDbEntity
  8
0
 62
     3
100
AcDbLine
 10
99.61888939269998
 20
198.0399222800999
 30
0.0
 11
84.32267052069999
 21
198.0399222800999
 31
0.0
  0
CIRCLE
  5
2EC
330
1E
100
AcDbEntity
  8
0
 62
     3
100
AcDbCircle
 10
101.8189015997998
 20
198.0399222800999
 30
0.0
 40
1.25
  0
CIRCLE
  5
2ED
330
1E
100
AcDbEntity
  8
0
 62
     3
100
AcDbCircle
 10
101.8189015997998
 20
198.0399222800999
 30
0.0
 40
1.5
  0
LINE
  5
2EF
330
1E
100
AcDbEntity
  8
0
 62
     3
100
AcDbLine
 10
65.11885887519998
 20
198.0399222800999
 30
0.0
 11
51.71886497869997
 21
198.0399222800999
 31
0.0
  0
LINE
  5
2F0
330
1E
100
AcDbEntity
  8
0
 62
     3
100
AcDbLine
 10
84.32267052069999
 20
201.0399222800999
 30
0.0
 11
65.11885887519998
 21
201.0399222800999
 31
0.0
  0
LINE
  5
2F1
330
1E
100
AcDbEntity
  8
0
 62
     3
100
AcDbLine
 10
65.11885887519998
 20
201.0399222800999
 30
0.0
 11
65.11885887519998
 21
195.0399222800999
 31
0.0
  0
LINE
  5
2F2
330
1E
100
AcDbEntity
  8
0
 62
     3
100
AcDbLine
 10
84.32267052069999
 20
195.0399222800999
 30
0.0
 11
65.11885887519998
 21
195.0399222800999
 31
0.0
  0
LINE
  5
2F3
330
1E
100
AcDbEntity
  8
0
 62
     3
100
AcDbLine
 10
84.32267052069999
 20
194.8399100731
 30
0.0
 11
73.41506248839997
 21
194.8399100731
 31
0.0
  0
LINE
  5
2F4
330
1E
100
AcDbEntity
  8
0
 62
     3
100
AcDbLine
 10
84.32267052069999
 20
193.5399222800999
 30
0.0
 11
84.32267052069999
 21
202.5399527977
 31
0.0
  0
LINE
  5
2F5
330
1E
100
AcDbEntity
  8
0
 62
     3
100
AcDbLine
 10
107.1688771856998
 20
188.4899344870999
 30
0.0
 11
44.16886192689998
 21
188.4899344870999
 31
0.0
  0
LINE
  5
2F6
330
1E
100
AcDbEntity
  8
0
 62
     3
100
AcDbLine
 10
86.1688619269
 20
193.5399222800999
 30
0.0
 11
71.56887108219999
 21
193.5399222800999
 31
0.0
  0
LINE
  5
2F7
330
1E
100
AcDbEntity
  8
0
 62
     3
100
AcDbLine
 10
107.1688771856998
 20
226.6899466941999
 30
0.0
 11
107.1688771856998
 21
188.4899344870999
 31
0.0
  0
LINE
  5
2F8
330
1E
100
AcDbEntity
  8
0
 62
     3
100
AcDbLine
 10
44.16886192689998
 20
226.6899466941999
 30
0.0
 11
44.16886192689998
 21
188.4899344870999
 31
0.0
  0
LINE
  5
2F9
330
1E
100
AcDbEntity
  8
0
 62
     3
100
AcDbLine
 10
73.41506248839997
 20
193.5399222800999
 30
0.0
 11
73.41506248839997
 21
195.0399222800999
 31
0.0
  0
LINE
  5
2FA
330
1E
100
AcDbEntity
  8
0
 62
     3
100
AcDbLine
 10
86.1688619269
 20
202.5399222800999
 30
0.0
 11
72.50804191959997
 21
202.5399222800999
 31
0.0
  0
LINE
  5
2FB
330
1E
100
AcDbEntity
  8
0
 62
     3
100
AcDbLine
 10
86.1688619269
 20
202.5399527977
 30
0.0
 11
86.1688619269
 21
193.5399222800999
 31
0.0
  0
LINE
  5
2FC
330
1E
100
AcDbEntity
  8
0
 62
     3
100
AcDbLine
 10
84.32267052069999
 20
201.2399344871
 30
0.0
 11
73.41506248839997
 21
201.2399344871
 31
0.0
  0
LINE
  5
2FD
330
1E
100
AcDbEntity
  8
0
 62
     3
100
AcDbLine
 10
73.41506248839997
 20
202.5399222800999
 30
0.0
 11
73.41506248839997
 21
201.0399222800999
 31
0.0
  0
LINE
  5
2FE
330
1E
100
AcDbEntity
  8
0
 62
     3
100
AcDbLine
 10
61.36885887519998
 20
207.6285758446
 30
0.0
 11
61.36885887519998
 21
188.5703483055
 31
0.0
  0
LINE
  5
2FF
330
1E
100
AcDbEntity
  8
0
 62
     3
100
AcDbLine
 10
96.3688588752
 20
207.469762368
 30
0.0
 11
96.3688588752
 21
188.7291922995999
 31
0.0
  0
LINE
  5
300
330
1E
100
AcDbEntity
  8
0
  6
CENTER
 62
     3
100
AcDbLine
 10
49.51886803039997
 20
204.8169303368
 30
0.0
 11
49.51886803039997
 21
191.0044913718999
 31
0.0
  0
LINE
  5
301
330
1E
100
AcDbEntity
  8
0
  6
CENTER
 62
     3
100
AcDbLine
 10
101.8189015997998
 20
204.0625358055
 30
0.0
 11
101.8189015997998
 21
192.2700553367998
 31
0.0
  0
CIRCLE
  5
302
330
1E
100
AcDbEntity
  8
0
 62
     3
100
AcDbCircle
 10
82.98224693669999
 20
197.9763541649
 30
0.0
 40
1.0
  0
CIRCLE
  5
303
330
1E
100
AcDbEntity
  8
0
 62
     3
100
AcDbCircle
 10
49.51886803039997
 20
198.0398917624999
 30
0.0
 40
1.25
  0
CIRCLE
  5
304
330
1E
100
AcDbEntity
  8
0
 62
     3
100
AcDbCircle
 10
49.51886803039997
 20
198.0398917624999
 30
0.0
 40
1.5
  0
LINE
  5
305
330
1E
100
AcDbEntity
  8
0
 62
     3
100
AcDbLine
 10
65.70805794129999
 20
213.8899398277
 30
0.0
 11
65.70805794129999
 21
201.2899566124
 31
0.0
  0
LINE
  5
306
330
1E
100
AcDbEntity
  8
0
 62
     3
100
AcDbLine
 10
72.50804191959997
 20
213.8899398277
 30
0.0
 11
72.50804191959997
 21
201.2899566124
 31
0.0
  0
LINE
  5
307
330
1E
100
AcDbEntity
  8
0
 62
     3
100
AcDbLine
 10
71.56887108219999
 20
194.5399260948
 30
0.0
 11
66.60805946719998
 21
194.5399260948
 31
0.0
  0
LINE
  5
308
330
1E
100
AcDbEntity
  8
0
 62
     3
100
AcDbLine
 10
66.60805946719998
 20
195.0474906395
 30
0.0
 11
66.60805946719998
 21
194.5399260948
 31
0.0
  0
LINE
  5
309
330
1E
100
AcDbEntity
  8
0
 62
     3
100
AcDbLine
 10
70.60805565249999
 20
193.7399459312
 30
0.0
 11
67.60806328189997
 21
193.7399459312
 31
0.0
  0
LINE
  5
30A
330
1E
100
AcDbEntity
  8
0
 62
     3
100
AcDbLine
 10
72.50804191959997
 20
201.2899566124
 30
0.0
 11
65.70805794129999
 21
201.2899566124
 31
0.0
  0
LINE
  5
30B
330
1E
100
AcDbEntity
  8
0
 62
     3
100
AcDbLine
 10
67.60806328189997
 20
194.5399260948
 30
0.0
 11
67.60806328189997
 21
193.7399459312
 31
0.0
  0
LINE
  5
30C
330
1E
100
AcDbEntity
  8
0
 62
     3
100
AcDbLine
 10
70.60805565249999
 20
194.5399260948
 30
0.0
 11
70.60805565249999
 21
193.7399459312
 31
0.0
  0
LINE
  5
30D
330
1E
100
AcDbEntity
  8
0
 62
     3
100
AcDbLine
 10
70.40805107489998
 20
193.5399222800999
 30
0.0
 11
67.80804878599997
 21
193.5399222800999
 31
0.0
  0
LINE
  5
30E
330
1E
100
AcDbEntity
  8
0
 62
     3
100
AcDbLine
 10
70.60803279329999
 20
193.7399046249
 30
0.0
 11
70.4080476696
 21
193.539919518
 31
0.0
  0
LINE
  5
30F
330
1E
100
AcDbEntity
  8
0
 62
     3
100
AcDbLine
 10
67.60805226079998
 20
193.7399263609998
 30
0.0
 11
67.8080508715
 21
193.5399277671998
 31
0.0
  0
LINE
  5
310
330
1E
100
AcDbEntity
  8
0
 62
     3
100
AcDbLine
 10
65.70805794129999
 20
213.8899398277
 30
0.0
 11
72.50804191959997
 21
213.8899398277
 31
0.0
  0
POINT
  5
312
330
1E
100
AcDbEntity
  8
0
 62
     3
100
AcDbPoint
 10
44.16886192689998
 20
84.14023355940001
 30
0.0
  0
POINT
  5
313
330
1E
100
AcDbEntity
  8
0
 62
     3
100
AcDbPoint
 10
44.16886192689998
 20
65.0402694176
 30
0.0
  0
LINE
  5
314
330
1E
100
AcDbEntity
  8
0
 62
     3
100
AcDbLine
 10
94.71889549629995
 20
26.8403411339
 30
0.0
 11
94.71889549629995
 21
27.94034723739998
 31
0.0
  0
LINE
  5
315
330
1E
100
AcDbEntity
  8
0
 62
     3
100
AcDbLine
 10
90.61888939269998
 20
26.8403411339
 30
0.0
 11
90.61888939269998
 21
27.94034723739998
 31
0.0
  0
LINE
  5
316
330
1E
100
AcDbEntity
  8
0
 62
     3
100
AcDbLine
 10
60.71889549629997
 20
26.8403411339
 30
0.0
 11
60.71889549629997
 21
27.94034723739998
 31
0.0
  0
LINE
  5
317
330
1E
100
AcDbEntity
  8
0
 62
     3
100
AcDbLine
 10
56.61888939269997
 20
26.8403411339
 30
0.0
 11
56.61888939269997
 21
27.94034723739998
 31
0.0
  0
ARC
  5
318
330
1E
100
AcDbEntity
  8
0
 62
     3
100
AcDbCircle
 10
92.6188588752
 20
27.940347771
 30
0.0
 40
1.6999998093
100
AcDbArc
 50
180.0000726276
 51
210.8836199033
  0
ARC
  5
319
330
1E
100
AcDbEntity
  8
0
 62
     3
100
AcDbCircle
 10
92.66890770329998
 20
35.94033632699999
 30
0.0
 40
9.0
100
AcDbArc
 50
260.3480342876
 51
279.6520066934998
  0
ARC
  5
31A
330
1E
100
AcDbEntity
  8
0
 62
     3
100
AcDbCircle
 10
92.7188954963
 20
27.940347771
 30
0.0
 40
1.6999998093
100
AcDbArc
 50
329.1164347381998
 51
0.0000366553999953
  0
LINE
  5
31B
330
1E
100
AcDbEntity
  8
0
 62
     3
100
AcDbLine
 10
91.5188771857
 20
44.840314431
 30
0.0
 11
91.5188771857
 21
47.0403113792
 31
0.0
  0
LINE
  5
31C
330
1E
100
AcDbEntity
  8
0
 62
     3
100
AcDbLine
 10
93.81887718569997
 20
44.840314431
 30
0.0
 11
93.81887718569997
 21
47.0403113792
 31
0.0
  0
LINE
  5
31D
330
1E
100
AcDbEntity
  8
0
 62
     3
100
AcDbLine
 10
59.81889244449998
 20
44.840314431
 30
0.0
 11
59.81889244449998
 21
47.0403113792
 31
0.0
  0
LINE
  5
31E
330
1E
100
AcDbEntity
  8
0
 62
     3
100
AcDbLine
 10
57.51889244449998
 20
44.840314431
 30
0.0
 11
57.51889244449998
 21
47.0403113792
 31
0.0
  0
CIRCLE
  5
31F
330
1E
100
AcDbEntity
  8
0
 62
     3
100
AcDbCircle
 10
51.06885582339997
 20
36.39031748269999
 30
0.0
 40
2.0
  0
CIRCLE
  5
320
330
1E
100
AcDbEntity
  8
0
 62
     3
100
AcDbCircle
 10
100.2688527716
 20
36.39031748269999
 30
0.0
 40
2.0
  0
CIRCLE
  5
321
330
1E
100
AcDbEntity
  8
0
 62
     3
100
AcDbCircle
 10
51.06885582339997
 20
36.39031748269999
 30
0.0
 40
2.5
  0
CIRCLE
  5
322
330
1E
100
AcDbEntity
  8
0
 62
     3
100
AcDbCircle
 10
100.2688527716
 20
36.39031748269999
 30
0.0
 40
2.5
  0
CIRCLE
  5
323
330
1E
100
AcDbEntity
  8
0
 62
     3
100
AcDbCircle
 10
100.2688527716
 20
36.39031748269999
 30
0.0
 40
5.0
  0
CIRCLE
  5
324
330
1E
100
AcDbEntity
  8
0
 62
     3
100
AcDbCircle
 10
100.2688527716
 20
36.39031748269999
 30
0.0
 40
4.5625
  0
CIRCLE
  5
325
330
1E
100
AcDbEntity
  8
0
 62
     3
100
AcDbCircle
 10
51.06885582339997
 20
36.39031748269999
 30
0.0
 40
5.0
  0
CIRCLE
  5
326
330
1E
100
AcDbEntity
  8
0
 62
     3
100
AcDbCircle
 10
51.06885582339997
 20
36.39031748269999
 30
0.0
 40
4.5625
  0
ARC
  5
327
330
1E
100
AcDbEntity
  8
0
 62
     3
100
AcDbCircle
 10
58.71891075499998
 20
27.940347771
 30
0.0
 40
1.6999998093
100
AcDbArc
 50
329.1164347381998
 51
0.0000366553999953
  0
LINE
  5
328
330
1E
100
AcDbEntity
  8
0
 62
     3
100
AcDbLine
 10
105.2688527716
 20
36.39031748269999
 30
0.0
 11
107.1688771856998
 21
36.39031748269999
 31
0.0
  0
LINE
  5
329
330
1E
100
AcDbEntity
  8
0
 62
     3
100
AcDbLine
 10
87.76886803039998
 20
36.39031748269999
 30
0.0
 11
95.26885277159999
 21
36.39031748269999
 31
0.0
  0
LINE
  5
32A
330
1E
100
AcDbEntity
  8
0
 62
     3
100
AcDbLine
 10
44.16886192689998
 20
26.8403411339
 30
0.0
 11
107.1688771856998
 21
26.8403411339
 31
0.0
  0
LINE
  5
32B
330
1E
100
AcDbEntity
  8
0
 62
     3
100
AcDbLine
 10
44.16886192689998
 20
65.0402694176
 30
0.0
 11
44.16886192689998
 21
26.8403411339
 31
0.0
  0
LINE
  5
32C
330
1E
100
AcDbEntity
  8
0
 62
     3
100
AcDbLine
 10
107.1688771856998
 20
65.0402694176
 30
0.0
 11
107.1688771856998
 21
26.8403411339
 31
0.0
  0
LINE
  5
32D
330
1E
100
AcDbEntity
  8
0
 62
     3
100
AcDbLine
 10
97.98760277159999
 20
32.439054055
 30
0.0
 11
102.5501027715999
 21
32.439054055
 31
0.0
  0
LINE
  5
32E
330
1E
100
AcDbEntity
  8
0
 62
     3
100
AcDbLine
 10
95.70634942209998
 20
36.3903283426
 30
0.0
 11
97.98759969399998
 21
32.4390875087
 31
0.0
  0
LINE
  5
32F
330
1E
100
AcDbEntity
  8
0
 62
     3
100
AcDbLine
 10
102.5501319997998
 20
32.43911935869999
 30
0.0
 11
104.8313822716999
 21
36.3903601926
 31
0.0
  0
LINE
  5
330
330
1E
100
AcDbEntity
  8
0
 62
     3
100
AcDbLine
 10
102.5501027715999
 20
40.34155039289998
 30
0.0
 11
97.98760277159999
 21
40.34155039289998
 31
0.0
  0
LINE
  5
331
330
1E
100
AcDbEntity
  8
0
 62
     3
100
AcDbLine
 10
104.8313357240999
 20
36.39032088989999
 30
0.0
 11
102.5500854521999
 21
40.34156172369999
 31
0.0
  0
LINE
  5
332
330
1E
100
AcDbEntity
  8
0
 62
     3
100
AcDbLine
 10
97.9876462416
 20
40.3415935738
 30
0.0
 11
95.7063959697
 21
36.39035273989999
 31
0.0
  0
LINE
  5
333
330
1E
100
AcDbEntity
  8
0
 62
     3
100
AcDbLine
 10
48.78760582339999
 20
32.439054055
 30
0.0
 11
53.35010582339997
 21
32.439054055
 31
0.0
  0
LINE
  5
334
330
1E
100
AcDbEntity
  8
0
 62
     3
100
AcDbLine
 10
46.50635250569999
 20
36.3902994741
 30
0.0
 11
48.78760277759996
 21
32.4390586402
 31
0.0
  0
LINE
  5
335
330
1E
100
AcDbEntity
  8
0
 62
     3
100
AcDbLine
 10
53.35016505319998
 20
32.4390780661
 30
0.0
 11
55.63141532509996
 21
36.3903189
 31
0.0
  0
LINE
  5
336
330
1E
100
AcDbEntity
  8
0
 62
     3
100
AcDbLine
 10
44.16886192689998
 20
44.840314431
 30
0.0
 11
107.1688771856998
 21
44.840314431
 31
0.0
  0
LINE
  5
337
330
1E
100
AcDbEntity
  8
0
 62
     3
100
AcDbLine
 10
53.35010582339997
 20
40.34155039289998
 30
0.0
 11
48.78760582339999
 21
40.34155039289998
 31
0.0
  0
LINE
  5
338
330
1E
100
AcDbEntity
  8
0
 62
     3
100
AcDbLine
 10
55.63136523669999
 20
36.39030728019999
 30
0.0
 11
53.35011496479999
 21
40.3415481141
 31
0.0
  0
LINE
  5
339
330
1E
100
AcDbEntity
  8
0
 62
     3
100
AcDbLine
 10
48.7876396515
 20
40.3415751693
 30
0.0
 11
46.50638937959999
 21
36.3903343355
 31
0.0
  0
LINE
  5
33A
330
1E
100
AcDbEntity
  8
0
 62
     3
100
AcDbLine
 10
63.56885582339997
 20
41.39031748269999
 30
0.0
 11
63.56885582339997
 21
31.39031748269999
 31
0.0
  0
LINE
  5
33B
330
1E
100
AcDbEntity
  8
0
 62
     3
100
AcDbLine
 10
87.76886803039998
 20
41.39031748269999
 30
0.0
 11
87.76886803039998
 21
31.39031748269999
 31
0.0
  0
LINE
  5
33C
330
1E
100
AcDbEntity
  8
0
 62
     3
100
AcDbLine
 10
63.56885582339997
 20
41.39031748269999
 30
0.0
 11
87.76886803039998
 21
41.39031748269999
 31
0.0
  0
LINE
  5
33D
330
1E
100
AcDbEntity
  8
0
 62
     3
100
AcDbLine
 10
63.56885582339997
 20
31.39031748269999
 30
0.0
 11
87.76886803039998
 21
31.39031748269999
 31
0.0
  0
LINE
  5
33E
330
1E
100
AcDbEntity
  8
0
 62
     3
100
AcDbLine
 10
56.06885582339997
 20
36.39031748269999
 30
0.0
 11
63.56885582339997
 21
36.39031748269999
 31
0.0
  0
LINE
  5
33F
330
1E
100
AcDbEntity
  8
0
 62
     3
100
AcDbLine
 10
44.16886192689998
 20
36.39031748269999
 30
0.0
 11
46.06885582339997
 21
36.39031748269999
 31
0.0
  0
LINE
  5
340
330
1E
100
AcDbEntity
  8
0
 62
     3
100
AcDbLine
 10
44.16886192689998
 20
27.94034723739998
 30
0.0
 11
107.1688771856998
 21
27.94034723739998
 31
0.0
  0
LINE
  5
341
330
1E
100
AcDbEntity
  8
0
  6
CENTER
 62
     3
100
AcDbLine
 10
57.68795067199997
 20
36.39031748269999
 30
0.0
 11
42.1410909308
 21
36.39031748269999
 31
0.0
  0
LINE
  5
342
330
1E
100
AcDbEntity
  8
0
  6
CENTER
 62
     3
100
AcDbLine
 10
100.2688527716
 20
43.5976539085
 30
0.0
 11
100.2688527716
 21
29.3708167503
 31
0.0
  0
LINE
  5
343
330
1E
100
AcDbEntity
  8
0
  6
CENTER
 62
     3
100
AcDbLine
 10
51.06885582339997
 20
43.1576514671
 30
0.0
 11
51.06885582339997
 21
28.6374907921
 31
0.0
  0
LINE
  5
344
330
1E
100
AcDbEntity
  8
0
  6
CENTER
 62
     3
100
AcDbLine
 10
109.1685567510999
 20
36.39031748269999
 30
0.0
 11
90.68833214179994
 21
36.39031748269999
 31
0.0
  0
ARC
  5
345
330
1E
100
AcDbEntity
  8
0
 62
     3
100
AcDbCircle
 10
58.66892296209996
 20
35.94033632699999
 30
0.0
 40
9.0
100
AcDbArc
 50
260.3480342876
 51
279.6520066934998
  0
ARC
  5
346
330
1E
100
AcDbEntity
  8
0
 62
     3
100
AcDbCircle
 10
58.61887413389999
 20
27.940347771
 30
0.0
 40
1.6999998093
100
AcDbArc
 50
180.0000726276
 51
210.8836199033
  0
LINE
  5
347
330
1E
100
AcDbEntity
  8
0
 62
     3
100
AcDbLine
 10
44.16886192689998
 20
45.9403052757
 30
0.0
 11
57.51889244449998
 21
45.9403052757
 31
0.0
  0
LINE
  5
348
330
1E
100
AcDbEntity
  8
0
 62
     3
100
AcDbLine
 10
59.81889244449998
 20
45.9403052757
 30
0.0
 11
91.5188771857
 21
45.9403052757
 31
0.0
  0
LINE
  5
349
330
1E
100
AcDbEntity
  8
0
 62
     3
100
AcDbLine
 10
93.81887718569997
 20
45.9403052757
 30
0.0
 11
107.1688771856998
 21
45.9403052757
 31
0.0
  0
LINE
  5
385
330
1E
100
AcDbEntity
  8
0
100
AcDbLine
 10
0.0
 20
0.0
 30
0.0
 11
210.0
 21
0.0
 31
0.0
  0
LINE
  5
386
330
1E
100
AcDbEntity
  8
0
100
AcDbLine
 10
210.0
 20
0.0
 30
0.0
 11
210.0
 21
297.0
 31
0.0
  0
LINE
  5
387
330
1E
100
AcDbEntity
  8
0
100
AcDbLine
 10
210.0
 20
297.0
 30
0.0
 11
0.0
 21
297.0
 31
0.0
  0
LINE
  5
388
330
1E
100
AcDbEntity
  8
0
100
AcDbLine
 10
0.0
 20
297.0
 30
0.0
 11
0.0
 21
0.0
 31
0.0
  0
TEXT
  5
38D
330
1E
100
AcDbEntity
  8
0
 62
     5
100
AcDbText
 10
145.0
 20
10.0
 30
0.0
 40
5.0
  1
ＭＡ４－Ｃ０００６４Ｂ
 41
0.8443967743953106
 72
     5
 11
199.0413935612998
 21
10.0
 31
0.0
100
AcDbText
  0
TEXT
  5
39B
330
1E
100
AcDbEntity
  8
0
 62
     7
100
AcDbText
 10
146.0
 20
110.0000029552498
 30
0.0
 40
2.999994089499998
  1
NRBM3100F
 11
146.0
 21
111.4999999999999
 31
0.0
100
AcDbText
 73
     2
  0
TEXT
  5
39C
330
1E
100
AcDbEntity
  8
0
 62
     7
100
AcDbText
 10
146.0
 20
115.0000029552499
 30
0.0
 40
2.999994089499998
  1
NRBM3100
 11
146.0
 21
116.5
 31
0.0
100
AcDbText
 73
     2
  0
ENDSEC
  0
SECTION
  2
OBJECTS
  0
DICTIONARY
  5
C
330
0
100
AcDbDictionary
281
     1
  3
ACAD_GROUP
350
D
  3
ACAD_LAYOUT
350
19
  3
ACAD_MLINESTYLE
350
16
  3
ACAD_PLOTSETTINGS
350
18
  3
ACAD_PLOTSTYLENAME
350
E
  3
AcDbVariableDictionary
350
39D
  0
DICTIONARY
  5
D
102
{ACAD_REACTORS
330
C
102
}
330
C
100
AcDbDictionary
281
     1
  0
DICTIONARY
  5
19
102
{ACAD_REACTORS
330
C
102
}
330
C
100
AcDbDictionary
281
     1
  3
Model
350
21
  3
ﾚｲｱｳﾄ1
350
1D
  0
DICTIONARY
  5
16
102
{ACAD_REACTORS
330
C
102
}
330
C
100
AcDbDictionary
281
     1
  3
Standard
350
17
  0
DICTIONARY
  5
18
102
{ACAD_REACTORS
330
C
102
}
330
C
100
AcDbDictionary
281
     1
  0
ACDBDICTIONARYWDFLT
  5
E
102
{ACAD_REACTORS
330
C
102
}
330
C
100
AcDbDictionary
281
     1
  3
Normal
350
F
100
AcDbDictionaryWithDefault
340
F
  0
DICTIONARY
  5
39D
102
{ACAD_REACTORS
330
C
102
}
330
C
100
AcDbDictionary
281
     1
  3
DIMASSOC
350
39E
  0
LAYOUT
  5
21
102
{ACAD_REACTORS
330
19
102
}
330
19
100
AcDbPlotSettings
  1

  2
C:\Program Files\AutoCAD 2000i\plotters\DWF Classic.pc3
  4

  6

 40
0.0
 41
0.0
 42
0.0
 43
0.0
 44
0.0
 45
0.0
 46
0.0
 47
0.0
 48
0.0
 49
0.0
140
0.0
141
0.0
142
1.0
143
1.0
 70
  1712
 72
     0
 73
     0
 74
     0
  7

 75
     0
147
1.0
148
0.0
149
0.0
100
AcDbLayout
  1
Model
 70
     1
 71
     0
 10
0.0
 20
0.0
 11
12.0
 21
9.0
 12
0.0
 22
0.0
 32
0.0
 14
0.0
 24
0.0
 34
0.0
 15
0.0
 25
0.0
 35
0.0
146
0.0
 13
0.0
 23
0.0
 33
0.0
 16
1.0
 26
0.0
 36
0.0
 17
0.0
 27
1.0
 37
0.0
 76
     0
330
1E
  0
LAYOUT
  5
1D
102
{ACAD_REACTORS
330
19
102
}
330
19
100
AcDbPlotSettings
  1

  2
C:\Program Files\AutoCAD 2000i\plotters\DWF Classic.pc3
  4

  6

 40
0.0
 41
0.0
 42
0.0
 43
0.0
 44
0.0
 45
0.0
 46
0.0
 47
0.0
 48
0.0
 49
0.0
140
0.0
141
0.0
142
1.0
143
1.0
 70
   688
 72
     0
 73
     0
 74
     5
  7

 75
    16
147
1.0
148
0.0
149
0.0
100
AcDbLayout
  1
ﾚｲｱｳﾄ1
 70
     1
 71
     1
 10
0.0
 20
0.0
 11
12.0
 21
9.0
 12
0.0
 22
0.0
 32
0.0
 14
1.000000000000000E+20
 24
1.000000000000000E+20
 34
1.000000000000000E+20
 15
-1.000000000000000E+20
 25
-1.000000000000000E+20
 35
-1.000000000000000E+20
146
0.0
 13
0.0
 23
0.0
 33
0.0
 16
1.0
 26
0.0
 36
0.0
 17
0.0
 27
1.0
 37
0.0
 76
     0
330
1A
  0
MLINESTYLE
  5
17
102
{ACAD_REACTORS
330
16
102
}
330
16
100
AcDbMlineStyle
  2
STANDARD
 70
     0
  3

 62
   256
 51
90.0
 52
90.0
 71
     2
 49
0.5
 62
   256
  6
BYLAYER
 49
-0.5
 62
   256
  6
BYLAYER
  0
ACDBPLACEHOLDER
  5
F
102
{ACAD_REACTORS
330
E
102
}
330
E
  0
DICTIONARYVAR
  5
39E
102
{ACAD_REACTORS
330
39D
102
}
330
39D
100
DictionaryVariables
280
     0
  1
1
  0
ENDSEC
  0
EOF
