  0
SECTION
  2
HEADER
  9
$ACADVER
  1
AC1015
  9
$ACADMAINTVER
 70
    13
  9
$DWGCODEPAGE
  3
ANSI_932
  9
$INSBASE
 10
0.0
 20
0.0
 30
0.0
  9
$EXTMIN
 10
-0.0105817107668145
 20
-0.0007183713929635
 30
-0.0000000349181948
  9
$EXTMAX
 10
210.0033166873966
 20
297.0212825562859
 30
0.0000000814935747
  9
$LIMMIN
 10
-182.9961364745999
 20
-3.174999999999998
  9
$LIMMAX
 10
3.174999999999998
 20
291.2585876465
  9
$ORTHOMODE
 70
     0
  9
$REGENMODE
 70
     1
  9
$FILLMODE
 70
     1
  9
$QTEXTMODE
 70
     0
  9
$MIRRTEXT
 70
     0
  9
$LTSCALE
 40
1.0
  9
$ATTMODE
 70
     1
  9
$TEXTSIZE
 40
2.999994039499997
  9
$TRACEWID
 40
0.05
  9
$TEXTSTYLE
  7
STANDARD
  9
$CLAYER
  8
0
  9
$CELTYPE
  6
ByLayer
  9
$CECOLOR
 62
   256
  9
$CELTSCALE
 40
1.0
  9
$DISPSILH
 70
     0
  9
$DIMSCALE
 40
1.0
  9
$DIMASZ
 40
1.9727878465
  9
$DIMEXO
 40
2.539999961899999
  9
$DIMDLI
 40
0.38
  9
$DIMRND
 40
0.0
  9
$DIMDLE
 40
0.0
  9
$DIMEXE
 40
3.809999942799997
  9
$DIMTP
 40
0.0
  9
$DIMTM
 40
0.0
  9
$DIMTXT
 40
2.999994039499997
  9
$DIMCEN
 40
0.09
  9
$DIMTSZ
 40
0.0
  9
$DIMTOL
 70
     0
  9
$DIMLIM
 70
     0
  9
$DIMTIH
 70
     0
  9
$DIMTOH
 70
     1
  9
$DIMSE1
 70
     0
  9
$DIMSE2
 70
     0
  9
$DIMTAD
 70
     0
  9
$DIMZIN
 70
     0
  9
$DIMBLK
  1

  9
$DIMASO
 70
     1
  9
$DIMSHO
 70
     0
  9
$DIMPOST
  1

  9
$DIMAPOST
  1

  9
$DIMALT
 70
     0
  9
$DIMALTD
 70
     2
  9
$DIMALTF
 40
25.4
  9
$DIMLFAC
 40
1.0
  9
$DIMTOFL
 70
     0
  9
$DIMTVP
 40
0.0
  9
$DIMTIX
 70
     0
  9
$DIMSOXD
 70
     0
  9
$DIMSAH
 70
     0
  9
$DIMBLK1
  1

  9
$DIMBLK2
  1

  9
$DIMSTYLE
  2
Standard
  9
$DIMCLRD
 70
     0
  9
$DIMCLRE
 70
     0
  9
$DIMCLRT
 70
     0
  9
$DIMTFAC
 40
1.0
  9
$DIMGAP
 40
0.09
  9
$DIMJUST
 70
     0
  9
$DIMSD1
 70
     0
  9
$DIMSD2
 70
     0
  9
$DIMTOLJ
 70
     1
  9
$DIMTZIN
 70
     0
  9
$DIMALTZ
 70
     0
  9
$DIMALTTZ
 70
     0
  9
$DIMUPT
 70
     0
  9
$DIMDEC
 70
     4
  9
$DIMTDEC
 70
     4
  9
$DIMALTU
 70
     2
  9
$DIMALTTD
 70
     2
  9
$DIMTXSTY
  7
STANDARD
  9
$DIMAUNIT
 70
     0
  9
$DIMADEC
 70
     0
  9
$DIMALTRND
 40
0.0
  9
$DIMAZIN
 70
     0
  9
$DIMDSEP
 70
    46
  9
$DIMATFIT
 70
     3
  9
$DIMFRAC
 70
     0
  9
$DIMLDRBLK
  1

  9
$DIMLUNIT
 70
     2
  9
$DIMLWD
 70
    -2
  9
$DIMLWE
 70
    -2
  9
$DIMTMOVE
 70
     0
  9
$LUNITS
 70
     2
  9
$LUPREC
 70
     3
  9
$SKETCHINC
 40
0.1
  9
$FILLETRAD
 40
0.0625
  9
$AUNITS
 70
     0
  9
$AUPREC
 70
     0
  9
$MENU
  1
ACAD
  9
$ELEVATION
 40
0.0
  9
$PELEVATION
 40
0.0
  9
$THICKNESS
 40
0.0
  9
$LIMCHECK
 70
     0
  9
$CHAMFERA
 40
0.0
  9
$CHAMFERB
 40
0.0
  9
$CHAMFERC
 40
0.0
  9
$CHAMFERD
 40
0.0
  9
$SKPOLY
 70
     0
  9
$TDCREATE
 40
2452527.780497685
  9
$TDUCREATE
 40
2452527.405497685
  9
$TDUPDATE
 40
2453339.778802083
  9
$TDUUPDATE
 40
2453339.403802083
  9
$TDINDWG
 40
0.0025164583
  9
$TDUSRTIMER
 40
0.0025162847
  9
$USRTIMER
 70
     1
  9
$ANGBASE
 50
0.0
  9
$ANGDIR
 70
     0
  9
$PDMODE
 70
     0
  9
$PDSIZE
 40
0.0
  9
$PLINEWID
 40
0.0
  9
$SPLFRAME
 70
     0
  9
$SPLINETYPE
 70
     6
  9
$SPLINESEGS
 70
     8
  9
$HANDSEED
  5
222
  9
$SURFTAB1
 70
     6
  9
$SURFTAB2
 70
     6
  9
$SURFTYPE
 70
     6
  9
$SURFU
 70
     6
  9
$SURFV
 70
     6
  9
$UCSBASE
  2

  9
$UCSNAME
  2

  9
$UCSORG
 10
0.0
 20
0.0
 30
0.0
  9
$UCSXDIR
 10
1.0
 20
0.0
 30
0.0
  9
$UCSYDIR
 10
0.0
 20
1.0
 30
0.0
  9
$UCSORTHOREF
  2

  9
$UCSORTHOVIEW
 70
     0
  9
$UCSORGTOP
 10
0.0
 20
0.0
 30
0.0
  9
$UCSORGBOTTOM
 10
0.0
 20
0.0
 30
0.0
  9
$UCSORGLEFT
 10
0.0
 20
0.0
 30
0.0
  9
$UCSORGRIGHT
 10
0.0
 20
0.0
 30
0.0
  9
$UCSORGFRONT
 10
0.0
 20
0.0
 30
0.0
  9
$UCSORGBACK
 10
0.0
 20
0.0
 30
0.0
  9
$PUCSBASE
  2

  9
$PUCSNAME
  2

  9
$PUCSORG
 10
0.0
 20
0.0
 30
0.0
  9
$PUCSXDIR
 10
1.0
 20
0.0
 30
0.0
  9
$PUCSYDIR
 10
0.0
 20
1.0
 30
0.0
  9
$PUCSORTHOREF
  2

  9
$PUCSORTHOVIEW
 70
     0
  9
$PUCSORGTOP
 10
0.0
 20
0.0
 30
0.0
  9
$PUCSORGBOTTOM
 10
0.0
 20
0.0
 30
0.0
  9
$PUCSORGLEFT
 10
0.0
 20
0.0
 30
0.0
  9
$PUCSORGRIGHT
 10
0.0
 20
0.0
 30
0.0
  9
$PUCSORGFRONT
 10
0.0
 20
0.0
 30
0.0
  9
$PUCSORGBACK
 10
0.0
 20
0.0
 30
0.0
  9
$USERI1
 70
     8
  9
$USERI2
 70
     0
  9
$USERI3
 70
     0
  9
$USERI4
 70
     0
  9
$USERI5
 70
     0
  9
$USERR1
 40
0.0
  9
$USERR2
 40
0.0
  9
$USERR3
 40
0.0
  9
$USERR4
 40
0.0
  9
$USERR5
 40
0.0
  9
$WORLDVIEW
 70
     1
  9
$SHADEDGE
 70
     3
  9
$SHADEDIF
 70
    70
  9
$TILEMODE
 70
     1
  9
$MAXACTVP
 70
    64
  9
$PINSBASE
 10
0.0
 20
0.0
 30
0.0
  9
$PLIMCHECK
 70
     0
  9
$PEXTMIN
 10
1.000000000000000E+20
 20
1.000000000000000E+20
 30
1.000000000000000E+20
  9
$PEXTMAX
 10
-1.000000000000000E+20
 20
-1.000000000000000E+20
 30
-1.000000000000000E+20
  9
$PLIMMIN
 10
0.0
 20
0.0
  9
$PLIMMAX
 10
12.0
 20
9.0
  9
$UNITMODE
 70
     0
  9
$VISRETAIN
 70
     1
  9
$PLINEGEN
 70
     0
  9
$PSLTSCALE
 70
     1
  9
$TREEDEPTH
 70
  3020
  9
$CMLSTYLE
  2
Standard
  9
$CMLJUST
 70
     0
  9
$CMLSCALE
 40
1.0
  9
$PROXYGRAPHICS
 70
     1
  9
$MEASUREMENT
 70
     0
  9
$CELWEIGHT
370
    -1
  9
$ENDCAPS
280
     0
  9
$JOINSTYLE
280
     0
  9
$LWDISPLAY
290
     0
  9
$INSUNITS
 70
     0
  9
$HYPERLINKBASE
  1

  9
$STYLESHEET
  1

  9
$XEDIT
290
     1
  9
$CEPSNTYPE
380
     0
  9
$PSTYLEMODE
290
     1
  9
$FINGERPRINTGUID
  2
{2C9013B0-7F09-477B-ABBD-DCB0B0729009}
  9
$VERSIONGUID
  2
{AF0EAFE8-B6B7-41E1-87BF-5EE800E53C73}
  9
$EXTNAMES
290
     1
  9
$PSVPSCALE
 40
0.0
  9
$OLESTARTUP
290
     0
  0
ENDSEC
  0
SECTION
  2
CLASSES
  0
CLASS
  1
ACDBDICTIONARYWDFLT
  2
AcDbDictionaryWithDefault
  3
AutoCAD 2000
 90
        0
280
     0
281
     0
  0
CLASS
  1
ACDBPLACEHOLDER
  2
AcDbPlaceHolder
  3
AutoCAD 2000
 90
        0
280
     0
281
     0
  0
CLASS
  1
LAYOUT
  2
AcDbLayout
  3
AutoCAD 2000
 90
        0
280
     0
281
     0
  0
CLASS
  1
DICTIONARYVAR
  2
AcDbDictionaryVar
  3
AutoCAD 2000
 90
        0
280
     0
281
     0
  0
ENDSEC
  0
SECTION
  2
TABLES
  0
TABLE
  2
VPORT
  5
19
330
0
100
AcDbSymbolTable
 70
     2
  0
VPORT
  5
221
330
19
100
AcDbSymbolTableRecord
100
AcDbViewportTableRecord
  2
*Active
 70
     0
 10
0.0
 20
0.0
 11
1.0
 21
1.0
 12
104.9963674883149
 22
148.5102820924464
 13
0.0
 23
0.0
 14
1.0
 24
1.0
 15
0.0
 25
0.0
 16
0.0
 26
0.0
 36
1.0
 17
0.0
 27
0.0
 37
0.0
 40
301.0178125993517
 41
2.253932584269663
 42
50.0
 43
0.0
 44
0.0
 50
0.0
 51
0.0
 71
     0
 72
   100
 73
     1
 74
     1
 75
     0
 76
     0
 77
     0
 78
     0
281
     0
 65
     1
110
0.0
120
0.0
130
0.0
111
1.0
121
0.0
131
0.0
112
0.0
122
1.0
132
0.0
 79
     0
146
0.0
  0
ENDTAB
  0
TABLE
  2
LTYPE
  5
14
330
0
100
AcDbSymbolTable
 70
     3
  0
LTYPE
  5
15
330
14
100
AcDbSymbolTableRecord
100
AcDbLinetypeTableRecord
  2
ByBlock
 70
     0
  3

 72
    65
 73
     0
 40
0.0
  0
LTYPE
  5
16
330
14
100
AcDbSymbolTableRecord
100
AcDbLinetypeTableRecord
  2
ByLayer
 70
     0
  3

 72
    65
 73
     0
 40
0.0
  0
LTYPE
  5
8
330
14
100
AcDbSymbolTableRecord
100
AcDbLinetypeTableRecord
  2
Continuous
 70
     0
  3
Solid line
 72
    65
 73
     0
 40
0.0
  0
LTYPE
  5
29
330
14
100
AcDbSymbolTableRecord
100
AcDbLinetypeTableRecord
  2
CENTER
 70
     0
  3
Center
 72
    65
 73
     4
 40
9.100006759199999
 49
6.5000119209
 74
     0
 49
-0.7999984026000001
 74
     0
 49
0.9999980329999999
 74
     0
 49
-0.7999984026000001
 74
     0
  0
LTYPE
  5
197
330
14
100
AcDbSymbolTableRecord
100
AcDbLinetypeTableRecord
  2
PHANTOM
 70
     0
  3
Phantom
 72
    65
 73
     6
 40
9.499981462999999
 49
4.799990654
 74
     0
 49
-0.8999982475999999
 74
     0
 49
0.9999980329999999
 74
     0
 49
-0.8999982475999999
 74
     0
 49
0.9999980329999999
 74
     0
 49
-0.8999982475999999
 74
     0
  0
ENDTAB
  0
TABLE
  2
LAYER
  5
10
330
0
100
AcDbSymbolTable
 70
     1
  0
LAYER
  5
4
330
10
100
AcDbSymbolTableRecord
100
AcDbLayerTableRecord
  2
0
 70
     0
 62
     7
  6
Continuous
370
    -3
390
5
  0
ENDTAB
  0
TABLE
  2
STYLE
  5
11
330
0
100
AcDbSymbolTable
 70
     1
  0
STYLE
  5
12
330
11
100
AcDbSymbolTableRecord
100
AcDbTextStyleTableRecord
  2
STANDARD
 70
     0
 40
0.0
 41
1.0
 50
0.0
 71
     0
 42
2.999994039499997
  3
romans.shx
  4
bigfont.shx
  0
ENDTAB
  0
TABLE
  2
VIEW
  5
17
330
0
100
AcDbSymbolTable
 70
     0
  0
ENDTAB
  0
TABLE
  2
UCS
  5
18
330
0
100
AcDbSymbolTable
 70
     0
  0
ENDTAB
  0
TABLE
  2
APPID
  5
1B
330
0
100
AcDbSymbolTable
 70
     1
  0
APPID
  5
1C
330
1B
100
AcDbSymbolTableRecord
100
AcDbRegAppTableRecord
  2
ACAD
 70
     0
  0
ENDTAB
  0
TABLE
  2
DIMSTYLE
  5
1D
330
0
100
AcDbSymbolTable
 70
     1
100
AcDbDimStyleTable
 71
     0
  0
DIMSTYLE
105
23
330
1D
100
AcDbSymbolTableRecord
100
AcDbDimStyleTableRecord
  2
Standard
 70
     0
340
12
  0
ENDTAB
  0
TABLE
  2
BLOCK_RECORD
  5
1
330
0
100
AcDbSymbolTable
 70
     1
  0
BLOCK_RECORD
  5
2
330
1
100
AcDbSymbolTableRecord
100
AcDbBlockTableRecord
  2
*Model_Space
340
A
  0
BLOCK_RECORD
  5
C
330
1
100
AcDbSymbolTableRecord
100
AcDbBlockTableRecord
  2
*Paper_Space
340
F
  0
ENDTAB
  0
ENDSEC
  0
SECTION
  2
BLOCKS
  0
BLOCK
  5
3
330
2
100
AcDbEntity
  8
0
100
AcDbBlockBegin
  2
*Model_Space
 70
     2
 10
0.0
 20
0.0
 30
0.0
  3
*Model_Space
  1

  0
ENDBLK
  5
9
330
2
100
AcDbEntity
  8
0
100
AcDbBlockEnd
  0
BLOCK
  5
D
330
C
100
AcDbEntity
 67
     1
  8
0
100
AcDbBlockBegin
  2
*Paper_Space
 70
     0
 10
0.0
 20
0.0
 30
0.0
  3
*Paper_Space
  1

  0
ENDBLK
  5
E
330
C
100
AcDbEntity
 67
     1
  8
0
100
AcDbBlockEnd
  0
ENDSEC
  0
SECTION
  2
ENTITIES
  0
LINE
  5
24
330
2
100
AcDbEntity
  8
0
 62
     3
100
AcDbLine
 10
48.69063157489998
 20
160.8921084002
 30
0.0
 11
48.69063157489998
 21
142.5921206072
 31
0.0
  0
LINE
  5
25
330
2
100
AcDbEntity
  8
0
 62
     3
100
AcDbLine
 10
111.6906163160999
 20
160.8921084002
 30
0.0
 11
111.6906163160999
 21
122.7921022966999
 31
0.0
  0
ARC
  5
26
330
2
100
AcDbEntity
  8
0
 62
     3
100
AcDbCircle
 10
62.19063157489998
 20
141.8921084002
 30
0.0
 40
2.0
100
AcDbArc
 50
89.9999640278
 51
180.0000006832
  0
ARC
  5
27
330
2
100
AcDbEntity
  8
0
 62
     3
100
AcDbCircle
 10
98.19061631609995
 20
141.8921084002
 30
0.0
 40
2.0
100
AcDbArc
 50
359.9999820138998
 51
89.99996402779997
  0
LINE
  5
28
330
2
100
AcDbEntity
  8
0
  6
CENTER
 62
     3
100
AcDbLine
 10
83.39059800559999
 20
185.5482210711
 30
0.0
 11
83.39059800559999
 21
106.1520418719
 31
0.0
  0
LINE
  5
2A
330
2
100
AcDbEntity
  8
0
100
AcDbLine
 10
0.0
 20
297.0
 30
0.0
 11
0.0
 21
0.0
 31
0.0
  0
LINE
  5
2B
330
2
100
AcDbEntity
  8
0
100
AcDbLine
 10
210.0
 20
0.0
 30
0.0
 11
210.0
 21
297.0
 31
0.0
  0
LINE
  5
2C
330
2
100
AcDbEntity
  8
0
100
AcDbLine
 10
0.0
 20
0.0
 30
0.0
 11
210.0
 21
0.0
 31
0.0
  0
LINE
  5
2D
330
2
100
AcDbEntity
  8
0
 62
     3
100
AcDbLine
 10
98.19061631609995
 20
143.8921084002
 30
0.0
 11
62.19063157489998
 21
143.8921084002
 31
0.0
  0
LINE
  5
2E
330
2
100
AcDbEntity
  8
0
 62
     3
100
AcDbLine
 10
111.1906163160997
 20
113.8921084002
 30
0.0
 11
49.19063157489998
 21
113.8921084002
 31
0.0
  0
LINE
  5
2F
330
2
100
AcDbEntity
  8
0
 62
     3
100
AcDbLine
 10
98.19061631609995
 20
122.8921084001999
 30
0.0
 11
62.19063157489998
 21
122.8921084001999
 31
0.0
  0
LINE
  5
30
330
2
100
AcDbEntity
  8
0
 62
     3
100
AcDbLine
 10
94.64062852319999
 20
115.6920961932
 30
0.0
 11
65.7406346267
 21
115.6920961932
 31
0.0
  0
LINE
  5
31
330
2
100
AcDbEntity
  8
0
 62
     3
100
AcDbLine
 10
48.6906010573
 20
65.79244943409999
 30
0.0
 11
111.6906163160999
 21
65.79244943409999
 31
0.0
  0
LINE
  5
32
330
2
100
AcDbEntity
  8
0
 62
     3
100
AcDbLine
 10
68.09059495379997
 20
69.2424196795
 30
0.0
 11
92.29060716089998
 21
69.2424196795
 31
0.0
  0
LINE
  5
33
330
2
100
AcDbEntity
  8
0
 62
     3
100
AcDbLine
 10
68.09059495379997
 20
79.2424196795
 30
0.0
 11
92.29060716089998
 21
79.2424196795
 31
0.0
  0
LINE
  5
34
330
2
100
AcDbEntity
  8
0
 62
     3
100
AcDbLine
 10
48.6906010573
 20
82.69241662769998
 30
0.0
 11
111.6906163160999
 21
82.69241662769998
 31
0.0
  0
LINE
  5
35
330
2
100
AcDbEntity
  8
0
 62
     3
100
AcDbLine
 10
48.6906010573
 20
83.79240747249998
 30
0.0
 11
111.6906163160999
 21
83.79240747249998
 31
0.0
  0
LINE
  5
36
330
2
100
AcDbEntity
  8
0
 62
     3
100
AcDbLine
 10
89.78697556909997
 20
57.453628023
 30
0.0
 11
70.78697556909999
 21
57.453628023
 31
0.0
  0
LINE
  5
37
330
2
100
AcDbEntity
  8
0
 62
     3
100
AcDbLine
 10
70.29060716089997
 20
57.3424524859
 30
0.0
 11
90.09059495379998
 21
57.3424524859
 31
0.0
  0
LINE
  5
38
330
2
100
AcDbEntity
  8
0
 62
     3
100
AcDbLine
 10
70.29060716089997
 20
50.94245858939999
 30
0.0
 11
90.09059495379998
 21
50.94245858939999
 31
0.0
  0
LINE
  5
39
330
2
100
AcDbEntity
  8
0
 62
     3
100
AcDbLine
 10
89.78697556909997
 20
60.05363412649999
 30
0.0
 11
70.78697556909999
 21
60.05363412649999
 31
0.0
  0
LINE
  5
3A
330
2
100
AcDbEntity
  8
0
 62
     3
100
AcDbLine
 10
68.05432481219998
 20
112.5869021014
 30
0.0
 11
92.3011967605
 21
112.5869021014
 31
0.0
  0
LINE
  5
3B
330
2
100
AcDbEntity
  8
0
 62
     3
100
AcDbLine
 10
84.84640855249997
 20
111.5828890398
 30
0.0
 11
84.24402207789999
 21
111.5828890398
 31
0.0
  0
LINE
  5
3C
330
2
100
AcDbEntity
  8
0
 62
     3
100
AcDbLine
 10
64.34063157489998
 20
64.6924433306
 30
0.0
 11
96.04061631610001
 21
64.6924433306
 31
0.0
  0
LINE
  5
3D
330
2
100
AcDbEntity
  8
0
 62
     3
100
AcDbLine
 10
48.6906010573
 20
45.59247918879999
 30
0.0
 11
111.6906163160999
 21
45.59247918879999
 31
0.0
  0
LINE
  5
3E
330
2
100
AcDbEntity
  8
0
 62
     3
100
AcDbLine
 10
48.6906010573
 20
63.59245248589999
 30
0.0
 11
111.6906163160999
 21
63.59245248589999
 31
0.0
  0
LINE
  5
3F
330
2
100
AcDbEntity
  8
0
 62
     3
100
AcDbLine
 10
68.09059495379997
 20
60.1424555376
 30
0.0
 11
92.29060716089998
 21
60.1424555376
 31
0.0
  0
LINE
  5
40
330
2
100
AcDbEntity
  8
0
 62
     3
100
AcDbLine
 10
68.09059495379997
 20
50.1424555376
 30
0.0
 11
92.29060716089998
 21
50.1424555376
 31
0.0
  0
LINE
  5
41
330
2
100
AcDbEntity
  8
0
 62
     3
100
AcDbLine
 10
48.6906010573
 20
46.69248529229999
 30
0.0
 11
111.6906163160999
 21
46.69248529229999
 31
0.0
  0
LINE
  5
42
330
2
100
AcDbEntity
  8
0
 62
     3
100
AcDbLine
 10
84.24058885029998
 20
57.3424524859
 30
0.0
 11
84.24058885029998
 21
50.94245858939999
 31
0.0
  0
LINE
  5
43
330
2
100
AcDbEntity
  8
0
 62
     3
100
AcDbLine
 10
84.14058274679998
 20
57.3424524859
 30
0.0
 11
84.14058274679998
 21
50.94245858939999
 31
0.0
  0
LINE
  5
44
330
2
100
AcDbEntity
  8
0
 62
     3
100
AcDbLine
 10
77.1405980056
 20
57.3424524859
 30
0.0
 11
77.1405980056
 21
50.94245858939999
 31
0.0
  0
LINE
  5
45
330
2
100
AcDbEntity
  8
0
 62
     3
100
AcDbLine
 10
76.54060716089998
 20
57.3424524859
 30
0.0
 11
76.54060716089998
 21
50.94245858939999
 31
0.0
  0
LINE
  5
46
330
2
100
AcDbEntity
  8
0
 62
     3
100
AcDbLine
 10
76.4406010573
 20
57.3424524859
 30
0.0
 11
76.4406010573
 21
50.94245858939999
 31
0.0
  0
LINE
  5
47
330
2
100
AcDbEntity
  8
0
 62
     3
100
AcDbLine
 10
77.24060410909999
 20
57.3424524859
 30
0.0
 11
77.24060410909999
 21
50.94245858939999
 31
0.0
  0
LINE
  5
48
330
2
100
AcDbEntity
  8
0
 62
     3
100
AcDbLine
 10
70.29060716089997
 20
57.3424524859
 30
0.0
 11
70.29060716089997
 21
50.94245858939999
 31
0.0
  0
CIRCLE
  5
49
330
2
100
AcDbEntity
  8
0
 62
     3
100
AcDbCircle
 10
55.59059495379997
 20
55.1424555376
 30
0.0
 40
5.0
  0
CIRCLE
  5
4A
330
2
100
AcDbEntity
  8
0
 62
     3
100
AcDbCircle
 10
55.59059495379997
 20
55.1424555376
 30
0.0
 40
4.5625
  0
LINE
  5
4B
330
2
100
AcDbEntity
  8
0
 62
     3
100
AcDbLine
 10
48.6906010573
 20
83.79240747249998
 30
0.0
 11
48.6906010573
 21
45.59247918879999
 31
0.0
  0
LINE
  5
4C
330
2
100
AcDbEntity
  8
0
 62
     3
100
AcDbLine
 10
51.02809163609999
 20
55.142437529
 30
0.0
 11
53.30934190809998
 21
51.1911966951
 31
0.0
  0
LINE
  5
4D
330
2
100
AcDbEntity
  8
0
 62
     3
100
AcDbLine
 10
57.87190418359998
 20
51.191216121
 30
0.0
 11
60.15315445559997
 21
55.1424569549
 31
0.0
  0
LINE
  5
4E
330
2
100
AcDbEntity
  8
0
 62
     3
100
AcDbLine
 10
68.09059495379997
 20
60.1424555376
 30
0.0
 11
68.09059495379997
 21
50.1424555376
 31
0.0
  0
LINE
  5
4F
330
2
100
AcDbEntity
  8
0
  6
CENTER
 62
     3
100
AcDbLine
 10
55.59059495379997
 20
61.909789522
 30
0.0
 11
55.59059495379997
 21
47.389628847
 31
0.0
  0
LINE
  5
50
330
2
100
AcDbEntity
  8
0
 62
     3
100
AcDbLine
 10
53.30934495379997
 20
51.1911921099
 30
0.0
 11
57.87184495379997
 21
51.1911921099
 31
0.0
  0
ARC
  5
51
330
2
100
AcDbEntity
  8
0
 62
     3
100
AcDbCircle
 10
63.19066209249999
 20
54.6924743818
 30
0.0
 40
9.0
100
AcDbArc
 50
260.3480342876
 51
279.6520066934998
  0
LINE
  5
52
330
2
100
AcDbEntity
  8
0
 62
     3
100
AcDbLine
 10
61.14062852319998
 20
45.59247918879999
 30
0.0
 11
61.14062852319998
 21
46.69248529229999
 31
0.0
  0
ARC
  5
53
330
2
100
AcDbEntity
  8
0
 62
     3
100
AcDbCircle
 10
63.14061326439997
 20
46.69248582589999
 30
0.0
 40
1.6999998093
100
AcDbArc
 50
180.0000726276
 51
210.8836199033
  0
LINE
  5
54
330
2
100
AcDbEntity
  8
0
 62
     3
100
AcDbLine
 10
65.2406346267
 20
45.59247918879999
 30
0.0
 11
65.2406346267
 21
46.69248529229999
 31
0.0
  0
ARC
  5
55
330
2
100
AcDbEntity
  8
0
 62
     3
100
AcDbCircle
 10
63.24064988549998
 20
46.69248582589999
 30
0.0
 40
1.6999998093
100
AcDbArc
 50
329.1164347381998
 51
0.0000366553999953
  0
ARC
  5
56
330
2
100
AcDbEntity
  8
0
 62
     3
100
AcDbCircle
 10
55.59059495379997
 20
113.2996096208999
 30
0.0
 40
4.9074773788
100
AcDbArc
 50
241.9275195301
 51
298.0724838849998
  0
ARC
  5
57
330
2
100
AcDbEntity
  8
0
 62
     3
100
AcDbCircle
 10
55.59059495379997
 20
106.6846346453
 30
0.0
 40
4.9074773788
100
AcDbArc
 50
61.9275040485
 51
118.0724786487
  0
ARC
  5
58
330
2
100
AcDbEntity
  8
0
 62
     3
100
AcDbCircle
 10
55.59059495379997
 20
106.7995943621
 30
0.0
 40
4.9074773788
100
AcDbArc
 50
241.9275195301
 51
298.0724838849998
  0
ARC
  5
59
330
2
100
AcDbEntity
  8
0
 62
     3
100
AcDbCircle
 10
55.59059495379997
 20
100.1846499041
 30
0.0
 40
4.9074773788
100
AcDbArc
 50
61.9275040485
 51
118.0724786487
  0
LINE
  5
5A
330
2
100
AcDbEntity
  8
0
  6
CENTER
 62
     3
100
AcDbLine
 10
62.20968980249998
 20
74.2424196795
 30
0.0
 11
46.66283006129996
 21
74.2424196795
 31
0.0
  0
LINE
  5
5B
330
2
100
AcDbEntity
  8
0
  6
CENTER
 62
     3
100
AcDbLine
 10
61.15523118429996
 20
117.8921084002
 30
0.0
 11
55.40826768329998
 21
117.8921084002
 31
0.0
  0
LINE
  5
5C
330
2
100
AcDbEntity
  8
0
 62
     3
100
AcDbLine
 10
60.64062852319998
 20
115.6920961932
 30
0.0
 11
48.9906346267
 21
115.6920961932
 31
0.0
  0
LINE
  5
5D
330
2
100
AcDbEntity
  8
0
 62
     3
100
AcDbLine
 10
57.87184495379997
 20
78.19365258960002
 30
0.0
 11
53.30934495379997
 21
78.19365258960002
 31
0.0
  0
LINE
  5
5E
330
2
100
AcDbEntity
  8
0
 62
     3
100
AcDbLine
 10
53.30934495379997
 20
70.2911562517
 30
0.0
 11
57.87184495379997
 21
70.2911562517
 31
0.0
  0
LINE
  5
5F
330
2
100
AcDbEntity
  8
0
 62
     3
100
AcDbLine
 10
50.59059495379997
 20
108.3921236589999
 30
0.0
 11
60.59059495379997
 21
108.3921236589999
 31
0.0
  0
LINE
  5
60
330
2
100
AcDbEntity
  8
0
 62
     3
100
AcDbLine
 10
50.99058885029998
 20
111.592135866
 30
0.0
 11
60.19058579859997
 21
111.592135866
 31
0.0
  0
LINE
  5
61
330
2
100
AcDbEntity
  8
0
 62
     3
100
AcDbLine
 10
50.59059495379997
 20
112.8921389178
 30
0.0
 11
60.59059495379997
 21
112.8921389178
 31
0.0
  0
LINE
  5
62
330
2
100
AcDbEntity
  8
0
 62
     3
100
AcDbLine
 10
50.59059495379997
 20
106.3921236589999
 30
0.0
 11
60.59059495379997
 21
106.3921236589999
 31
0.0
  0
LINE
  5
63
330
2
100
AcDbEntity
  8
0
 62
     3
100
AcDbLine
 10
51.99058885029998
 20
101.892123659
 30
0.0
 11
58.89998216089997
 21
101.892123659
 31
0.0
  0
LINE
  5
64
330
2
100
AcDbEntity
  8
0
 62
     3
100
AcDbLine
 10
50.99058885029998
 20
105.0921206071999
 30
0.0
 11
60.19058579859997
 21
105.0921206071999
 31
0.0
  0
LINE
  5
65
330
2
100
AcDbEntity
  8
0
 62
     3
100
AcDbLine
 10
50.59059495379997
 20
107.3921236589999
 30
0.0
 11
60.59059495379997
 21
107.3921236589999
 31
0.0
  0
LINE
  5
66
330
2
100
AcDbEntity
  8
0
 62
     3
100
AcDbLine
 10
53.09059495379997
 20
98.39212365899999
 30
0.0
 11
58.09059495379997
 21
98.39212365899999
 31
0.0
  0
LINE
  5
67
330
2
100
AcDbEntity
  8
0
 62
     3
100
AcDbLine
 10
53.59059495379997
 20
97.89212365899999
 30
0.0
 11
57.59059495379997
 21
97.89212365899999
 31
0.0
  0
CIRCLE
  5
68
330
2
100
AcDbEntity
  8
0
 62
     3
100
AcDbCircle
 10
55.59059495379997
 20
74.2424196795
 30
0.0
 40
4.5625
  0
CIRCLE
  5
69
330
2
100
AcDbEntity
  8
0
 62
     3
100
AcDbCircle
 10
55.59059495379997
 20
74.2424196795
 30
0.0
 40
5.0
  0
CIRCLE
  5
6A
330
2
100
AcDbEntity
  8
0
 62
     3
100
AcDbCircle
 10
55.59059495379997
 20
74.2424196795
 30
0.0
 40
2.5
  0
CIRCLE
  5
6B
330
2
100
AcDbEntity
  8
0
 62
     3
100
AcDbCircle
 10
55.59059495379997
 20
74.2424196795
 30
0.0
 40
2.0
  0
LINE
  5
6C
330
2
100
AcDbEntity
  8
0
 62
     3
100
AcDbLine
 10
48.6906010573
 20
64.6924433306
 30
0.0
 11
62.04063157490001
 21
64.6924433306
 31
0.0
  0
CIRCLE
  5
6D
330
2
100
AcDbEntity
  8
0
 62
     3
100
AcDbCircle
 10
55.59059495379997
 20
55.1424555376
 30
0.0
 40
2.0
  0
CIRCLE
  5
6E
330
2
100
AcDbEntity
  8
0
 62
     3
100
AcDbCircle
 10
55.59059495379997
 20
55.1424555376
 30
0.0
 40
2.5
  0
LINE
  5
6F
330
2
100
AcDbEntity
  8
0
 62
     3
100
AcDbLine
 10
57.87184495379997
 20
59.09368844779999
 30
0.0
 11
53.30934495379997
 21
59.09368844779999
 31
0.0
  0
LINE
  5
70
330
2
100
AcDbEntity
  8
0
  6
CENTER
 62
     3
100
AcDbLine
 10
62.20968980249998
 20
55.1424555376
 30
0.0
 11
46.66283006129996
 21
55.1424555376
 31
0.0
  0
LINE
  5
71
330
2
100
AcDbEntity
  8
0
 62
     3
100
AcDbLine
 10
53.59059495379997
 20
101.892123659
 30
0.0
 11
53.59059495379997
 21
97.89212365899999
 31
0.0
  0
LINE
  5
72
330
2
100
AcDbEntity
  8
0
 62
     3
100
AcDbLine
 10
53.59065139409998
 20
97.89215471490001
 30
0.0
 11
53.09064007369997
 21
98.3921660775
 31
0.0
  0
LINE
  5
73
330
2
100
AcDbEntity
  8
0
 62
     3
100
AcDbLine
 10
53.30937878199998
 20
78.19367736609999
 30
0.0
 11
51.02812850999999
 21
74.2424365322
 31
0.0
  0
LINE
  5
74
330
2
100
AcDbEntity
  8
0
 62
     3
100
AcDbLine
 10
53.30937878199998
 20
59.0937132242
 30
0.0
 11
51.02812850999999
 21
55.1424723904
 31
0.0
  0
LINE
  5
75
330
2
100
AcDbEntity
  8
0
 62
     3
100
AcDbLine
 10
48.6906010573
 20
55.1424555376
 30
0.0
 11
50.59059495379997
 21
55.1424555376
 31
0.0
  0
LINE
  5
76
330
2
100
AcDbEntity
  8
0
 62
     3
100
AcDbLine
 10
51.02809163609999
 20
74.24240167079998
 30
0.0
 11
53.30934190809998
 21
70.29116083699999
 31
0.0
  0
LINE
  5
77
330
2
100
AcDbEntity
  8
0
 62
     3
100
AcDbLine
 10
48.6906010573
 20
74.2424196795
 30
0.0
 11
50.59059495379997
 21
74.2424196795
 31
0.0
  0
LINE
  5
78
330
2
100
AcDbEntity
  8
0
 62
     3
100
AcDbLine
 10
48.69063157489998
 20
126.3921084002
 30
0.0
 11
48.69063157489998
 21
114.3921084001999
 31
0.0
  0
LINE
  5
79
330
2
100
AcDbEntity
  8
0
 62
     3
100
AcDbLine
 10
50.19063157489998
 20
122.4921145037
 30
0.0
 11
50.19063157489998
 21
118.4921145037
 31
0.0
  0
LINE
  5
7A
330
2
100
AcDbEntity
  8
0
 62
     3
100
AcDbLine
 10
50.99058885029998
 20
111.0147738054999
 30
0.0
 11
50.99058885029998
 21
108.9694857195
 31
0.0
  0
LINE
  5
7B
330
2
100
AcDbEntity
  8
0
 62
     3
100
AcDbLine
 10
53.281192488
 20
111.0147738054999
 30
0.0
 11
53.281192488
 21
108.9694857195
 31
0.0
  0
LINE
  5
7C
330
2
100
AcDbEntity
  8
0
 62
     3
100
AcDbLine
 10
51.99063263169997
 20
108.3921362677
 30
0.0
 11
50.99062544089997
 21
108.9694906988998
 31
0.0
  0
LINE
  5
7D
330
2
100
AcDbEntity
  8
0
 62
     3
100
AcDbLine
 10
51.99063790389999
 20
101.8921150568
 30
0.0
 11
50.99061749859997
 21
102.4694771173999
 31
0.0
  0
LINE
  5
7E
330
2
100
AcDbEntity
  8
0
 62
     3
100
AcDbLine
 10
51.99058248789999
 20
105.0921155654
 30
0.0
 11
50.99058851159998
 21
104.5147687635999
 31
0.0
  0
LINE
  5
7F
330
2
100
AcDbEntity
  8
0
 62
     3
100
AcDbLine
 10
50.99058885029998
 20
104.5147738055
 30
0.0
 11
50.99058885029998
 21
102.4694704607
 31
0.0
  0
LINE
  5
80
330
2
100
AcDbEntity
  8
0
 62
     3
100
AcDbLine
 10
50.59059495379997
 20
108.3921236589999
 30
0.0
 11
50.59059495379997
 21
106.3921236589999
 31
0.0
  0
LINE
  5
81
330
2
100
AcDbEntity
  8
0
 62
     3
100
AcDbLine
 10
50.99058885029998
 20
106.3921236589999
 30
0.0
 11
50.99058885029998
 21
105.0921206071999
 31
0.0
  0
LINE
  5
82
330
2
100
AcDbEntity
  8
0
 62
     3
100
AcDbLine
 10
53.281192488
 20
104.5147738055
 30
0.0
 11
53.281192488
 21
102.4694704607
 31
0.0
  0
ARC
  5
83
330
2
100
AcDbEntity
  8
0
 62
     3
100
AcDbCircle
 10
52.13588303979998
 20
103.2984957293
 30
0.0
 40
1.413851738
100
AcDbArc
 50
264.1013871610998
 51
324.1013854156
  0
LINE
  5
84
330
2
100
AcDbEntity
  8
0
 62
     3
100
AcDbLine
 10
53.09059495379997
 20
101.892123659
 30
0.0
 11
53.09059495379997
 21
98.39212365899999
 31
0.0
  0
ARC
  5
85
330
2
100
AcDbEntity
  8
0
 62
     3
100
AcDbCircle
 10
52.13588303979998
 20
109.7984957293
 30
0.0
 40
1.413851738
100
AcDbArc
 50
264.1013871610998
 51
324.1013854156
  0
ARC
  5
86
330
2
100
AcDbEntity
  8
0
 62
     3
100
AcDbCircle
 10
52.13588303979998
 20
103.6857637957
 30
0.0
 40
1.413851738
100
AcDbArc
 50
35.8985820273
 51
95.89857003659998
  0
LINE
  5
87
330
2
100
AcDbEntity
  8
0
 62
     3
100
AcDbLine
 10
54.2335179802
 20
106.3921479587999
 30
0.0
 11
55.53352367609996
 21
105.0921422629
 31
0.0
  0
LINE
  5
88
330
2
100
AcDbEntity
  8
0
 62
     3
100
AcDbLine
 10
51.9905821749
 20
111.5921159323999
 30
0.0
 11
50.99058819869998
 21
111.0147691305999
 31
0.0
  0
ARC
  5
89
330
2
100
AcDbEntity
  8
0
 62
     3
100
AcDbCircle
 10
49.19063157489998
 20
114.3921084001999
 30
0.0
 40
0.5
100
AcDbArc
 50
180.0000179861
 51
270.0
  0
LINE
  5
8A
330
2
100
AcDbEntity
  8
0
 62
     3
100
AcDbLine
 10
50.59059495379997
 20
113.8921389178
 30
0.0
 11
50.59059495379997
 21
112.8921389178
 31
0.0
  0
LINE
  5
8B
330
2
100
AcDbEntity
  8
0
 62
     3
100
AcDbLine
 10
50.99058885029998
 20
112.8921389178
 30
0.0
 11
50.99058885029998
 21
111.592135866
 31
0.0
  0
LINE
  5
8C
330
2
100
AcDbEntity
  8
0
 62
     3
100
AcDbLine
 10
48.9906346267
 20
118.4921145037
 30
0.0
 11
50.19063157489998
 21
118.4921145037
 31
0.0
  0
ARC
  5
8D
330
2
100
AcDbEntity
  8
0
 62
     3
100
AcDbCircle
 10
48.9906346267
 20
118.1920961932
 30
0.0
 40
0.3000000119
100
AcDbArc
 50
90.00003597219999
 51
180.0000179861
  0
ARC
  5
8E
330
2
100
AcDbEntity
  8
0
 62
     3
100
AcDbCircle
 10
48.9906346267
 20
115.9921145037
 30
0.0
 40
0.3000000119
100
AcDbArc
 50
180.0000179861
 51
270.0
  0
ARC
  5
8F
330
2
100
AcDbEntity
  8
0
 62
     3
100
AcDbCircle
 10
52.13588303979998
 20
110.1857637956999
 30
0.0
 40
1.413851738
100
AcDbArc
 50
35.8985820273
 51
95.89857003659998
  0
LINE
  5
90
330
2
100
AcDbEntity
  8
0
 62
     3
100
AcDbLine
 10
54.2335179802
 20
112.8921440695
 30
0.0
 11
55.53351288649998
 21
111.5921491631999
 31
0.0
  0
LINE
  5
91
330
2
100
AcDbEntity
  8
0
 62
     3
100
AcDbLine
 10
48.8406254714
 20
142.5921206072
 30
0.0
 11
48.8406254714
 21
126.3921084002
 31
0.0
  0
LINE
  5
92
330
2
100
AcDbEntity
  8
0
 62
     3
100
AcDbLine
 10
48.9906346267
 20
122.4921145037
 30
0.0
 11
50.19063157489998
 21
122.4921145037
 31
0.0
  0
LINE
  5
93
330
2
100
AcDbEntity
  8
0
 62
     3
100
AcDbLine
 10
48.8406254714
 20
126.3921084002
 30
0.0
 11
48.69063157489998
 21
126.3921084002
 31
0.0
  0
ARC
  5
94
330
2
100
AcDbEntity
  8
0
 62
     3
100
AcDbCircle
 10
48.9906346267
 20
122.7921022966999
 30
0.0
 40
0.3000000119
100
AcDbArc
 50
180.0000179861
 51
270.0
  0
LINE
  5
95
330
2
100
AcDbEntity
  8
0
 62
     3
100
AcDbLine
 10
48.69063157489998
 20
142.5921206072
 30
0.0
 11
48.89062852319998
 21
142.5921206072
 31
0.0
  0
LINE
  5
96
330
2
100
AcDbEntity
  8
0
  6
CENTER
 62
     3
100
AcDbLine
 10
55.59059495379997
 20
117.0919069842
 30
0.0
 11
55.59059495379997
 21
95.97513147149999
 31
0.0
  0
LINE
  5
97
330
2
100
AcDbEntity
  8
0
 62
     3
100
AcDbLine
 10
57.59059495379997
 20
101.892123659
 30
0.0
 11
57.59059495379997
 21
97.89212365899999
 31
0.0
  0
LINE
  5
98
330
2
100
AcDbEntity
  8
0
 62
     3
100
AcDbLine
 10
57.59063029369997
 20
97.89217041870001
 30
0.0
 11
58.09062003489998
 21
98.39216020209999
 31
0.0
  0
LINE
  5
99
330
2
100
AcDbEntity
  8
0
  6
CENTER
 62
     3
100
AcDbLine
 10
55.59059495379997
 20
81.00975366390001
 30
0.0
 11
55.59059495379997
 21
66.4895929888
 31
0.0
  0
LINE
  5
9A
330
2
100
AcDbEntity
  8
0
 62
     3
100
AcDbLine
 10
68.09059495379997
 20
79.2424196795
 30
0.0
 11
68.09059495379997
 21
69.2424196795
 31
0.0
  0
LINE
  5
9B
330
2
100
AcDbEntity
  8
0
 62
     3
100
AcDbLine
 10
60.15310436719996
 20
74.24240947699999
 30
0.0
 11
57.87185409519998
 21
78.1936503108
 31
0.0
  0
LINE
  5
9C
330
2
100
AcDbEntity
  8
0
 62
     3
100
AcDbLine
 10
60.59059495379997
 20
74.2424196795
 30
0.0
 11
68.09059495379997
 21
74.2424196795
 31
0.0
  0
LINE
  5
9D
330
2
100
AcDbEntity
  8
0
 62
     3
100
AcDbLine
 10
60.59059495379997
 20
55.1424555376
 30
0.0
 11
68.09059495379997
 21
55.1424555376
 31
0.0
  0
LINE
  5
9E
330
2
100
AcDbEntity
  8
0
 62
     3
100
AcDbLine
 10
60.15310436719996
 20
55.1424453351
 30
0.0
 11
57.87185409519998
 21
59.093686169
 31
0.0
  0
LINE
  5
9F
330
2
100
AcDbEntity
  8
0
 62
     3
100
AcDbLine
 10
57.87190418359998
 20
70.29118026289999
 30
0.0
 11
60.15315445559997
 21
74.2424210967
 31
0.0
  0
LINE
  5
A0
330
2
100
AcDbEntity
  8
0
 62
     3
100
AcDbLine
 10
62.04063157490001
 20
63.59245248589999
 30
0.0
 11
62.04063157490001
 21
65.79244943409999
 31
0.0
  0
LINE
  5
A1
330
2
100
AcDbEntity
  8
0
 62
     3
100
AcDbLine
 10
64.34063157489998
 20
63.59245248589999
 30
0.0
 11
64.34063157489998
 21
65.79244943409999
 31
0.0
  0
LINE
  5
A2
330
2
100
AcDbEntity
  8
0
 62
     3
100
AcDbLine
 10
61.79063157489999
 20
82.99240442069999
 30
0.0
 11
64.59063157489999
 21
82.99240442069999
 31
0.0
  0
LINE
  5
A3
330
2
100
AcDbEntity
  8
0
 62
     3
100
AcDbLine
 10
61.14062852319998
 20
82.69241662769998
 30
0.0
 11
61.14062852319998
 21
83.79240747249998
 31
0.0
  0
LINE
  5
A4
330
2
100
AcDbEntity
  8
0
 62
     3
100
AcDbLine
 10
61.79063157489999
 20
82.69241662769998
 30
0.0
 11
61.79063157489999
 21
82.99240442069999
 31
0.0
  0
LINE
  5
A5
330
2
100
AcDbEntity
  8
0
 62
     3
100
AcDbLine
 10
64.59063157489999
 20
82.69241662769998
 30
0.0
 11
64.59063157489999
 21
82.99240442069999
 31
0.0
  0
LINE
  5
A6
330
2
100
AcDbEntity
  8
0
 62
     3
100
AcDbLine
 10
65.2406346267
 20
82.69241662769998
 30
0.0
 11
65.2406346267
 21
83.79240747249998
 31
0.0
  0
ARC
  5
A7
330
2
100
AcDbEntity
  8
0
 62
     3
100
AcDbCircle
 10
70.78697556909999
 20
57.953628023
 30
0.0
 40
0.5
100
AcDbArc
 50
180.0000179861
 51
270.0
  0
LINE
  5
A8
330
2
100
AcDbEntity
  8
0
 62
     3
100
AcDbLine
 10
71.89061326439997
 20
52.5424494341
 30
0.0
 11
72.39061326439999
 21
52.5424494341
 31
0.0
  0
LINE
  5
A9
330
2
100
AcDbEntity
  8
0
 62
     3
100
AcDbLine
 10
71.89061326439997
 20
55.7424616412
 30
0.0
 11
72.39061326439999
 21
55.7424616412
 31
0.0
  0
LINE
  5
AA
330
2
100
AcDbEntity
  8
0
 62
     3
100
AcDbLine
 10
71.89061326439997
 20
55.5424494341
 30
0.0
 11
72.39061326439999
 21
55.5424494341
 31
0.0
  0
LINE
  5
AB
330
2
100
AcDbEntity
  8
0
 62
     3
100
AcDbLine
 10
71.89061326439997
 20
52.7424616412
 30
0.0
 11
72.39061326439999
 21
52.7424616412
 31
0.0
  0
LINE
  5
AC
330
2
100
AcDbEntity
  8
0
 62
     3
100
AcDbLine
 10
71.89061326439997
 20
54.7424616412
 30
0.0
 11
72.39061326439999
 21
54.7424616412
 31
0.0
  0
LINE
  5
AD
330
2
100
AcDbEntity
  8
0
 62
     3
100
AcDbLine
 10
71.89061326439997
 20
53.5424494341
 30
0.0
 11
72.39061326439999
 21
53.5424494341
 31
0.0
  0
LINE
  5
AE
330
2
100
AcDbEntity
  8
0
 62
     3
100
AcDbLine
 10
71.89061326439997
 20
55.7424616412
 30
0.0
 11
71.89061326439997
 21
52.5424494341
 31
0.0
  0
LINE
  5
AF
330
2
100
AcDbEntity
  8
0
 62
     3
100
AcDbLine
 10
72.39061326439999
 20
55.7424616412
 30
0.0
 11
72.39061326439999
 21
52.5424494341
 31
0.0
  0
ARC
  5
B0
330
2
100
AcDbEntity
  8
0
 62
     3
100
AcDbCircle
 10
70.78697556909999
 20
59.55363412649999
 30
0.0
 40
0.5
100
AcDbArc
 50
89.9999640278
 51
180.0000006832
  0
LINE
  5
B1
330
2
100
AcDbEntity
  8
0
 62
     3
100
AcDbLine
 10
70.28697556909998
 20
57.953628023
 30
0.0
 11
70.28697556909998
 21
59.55363412649999
 31
0.0
  0
LINE
  5
B2
330
2
100
AcDbEntity
  8
0
 62
     3
100
AcDbLine
 10
80.69060105730001
 20
53.5424494341
 30
0.0
 11
81.1906010573
 21
53.5424494341
 31
0.0
  0
LINE
  5
B3
330
2
100
AcDbEntity
  8
0
 62
     3
100
AcDbLine
 10
80.69060105730001
 20
55.7424616412
 30
0.0
 11
81.1906010573
 21
55.7424616412
 31
0.0
  0
LINE
  5
B4
330
2
100
AcDbEntity
  8
0
 62
     3
100
AcDbLine
 10
80.69060105730001
 20
55.5424494341
 30
0.0
 11
81.1906010573
 21
55.5424494341
 31
0.0
  0
LINE
  5
B5
330
2
100
AcDbEntity
  8
0
 62
     3
100
AcDbLine
 10
80.69060105730001
 20
52.7424616412
 30
0.0
 11
81.1906010573
 21
52.7424616412
 31
0.0
  0
LINE
  5
B6
330
2
100
AcDbEntity
  8
0
 62
     3
100
AcDbLine
 10
80.69060105730001
 20
52.5424494341
 30
0.0
 11
81.1906010573
 21
52.5424494341
 31
0.0
  0
LINE
  5
B7
330
2
100
AcDbEntity
  8
0
 62
     3
100
AcDbLine
 10
80.69060105730001
 20
54.7424616412
 30
0.0
 11
81.1906010573
 21
54.7424616412
 31
0.0
  0
LINE
  5
B8
330
2
100
AcDbEntity
  8
0
 62
     3
100
AcDbLine
 10
80.69060105730001
 20
55.7424616412
 30
0.0
 11
80.69060105730001
 21
52.5424494341
 31
0.0
  0
LINE
  5
B9
330
2
100
AcDbEntity
  8
0
 62
     3
100
AcDbLine
 10
81.1906010573
 20
55.7424616412
 30
0.0
 11
81.1906010573
 21
52.5424494341
 31
0.0
  0
LINE
  5
BA
330
2
100
AcDbEntity
  8
0
  6
CENTER
 62
     3
100
AcDbLine
 10
66.36760301049998
 20
116.8921084002
 30
0.0
 11
60.62063950949998
 21
116.8921084002
 31
0.0
  0
ARC
  5
BB
330
2
100
AcDbEntity
  8
0
 62
     3
100
AcDbCircle
 10
63.19063157489998
 20
116.8921084002
 30
0.0
 40
2.0499992371
100
AcDbArc
 50
359.9999820138998
 51
180.0000006832
  0
CIRCLE
  5
BC
330
2
100
AcDbEntity
  8
0
 62
     3
100
AcDbCircle
 10
63.19063157489998
 20
116.8921084002
 30
0.0
 40
1.1999998093
  0
LINE
  5
BD
330
2
100
AcDbEntity
  8
0
 62
     3
100
AcDbLine
 10
57.89998216089998
 20
111.0147738054999
 30
0.0
 11
57.89998216089998
 21
108.9694857195
 31
0.0
  0
LINE
  5
BE
330
2
100
AcDbEntity
  8
0
 62
     3
100
AcDbLine
 10
60.19058579859997
 20
111.0147738054999
 30
0.0
 11
60.19058579859997
 21
108.9694857195
 31
0.0
  0
ARC
  5
BF
330
2
100
AcDbEntity
  8
0
 62
     3
100
AcDbCircle
 10
59.04529160909999
 20
109.7984957293
 30
0.0
 40
1.413851738
100
AcDbArc
 50
215.8986077542
 51
275.8986094238
  0
ARC
  5
C0
330
2
100
AcDbEntity
  8
0
 62
     3
100
AcDbCircle
 10
59.04529160909999
 20
103.2984957293
 30
0.0
 40
1.413851738
100
AcDbArc
 50
215.8986077542
 51
275.8986094238
  0
ARC
  5
C1
330
2
100
AcDbEntity
  8
0
 62
     3
100
AcDbCircle
 10
59.04529160909999
 20
103.6857637957
 30
0.0
 40
1.413851738
100
AcDbArc
 50
84.1013580191
 51
144.1013460284
  0
LINE
  5
C2
330
2
100
AcDbEntity
  8
0
 62
     3
100
AcDbLine
 10
57.89998216089998
 20
104.5147738055
 30
0.0
 11
57.89998216089998
 21
102.4694704607
 31
0.0
  0
LINE
  5
C3
330
2
100
AcDbEntity
  8
0
 62
     3
100
AcDbLine
 10
58.09059495379997
 20
101.892123659
 30
0.0
 11
58.09059495379997
 21
98.39212365899999
 31
0.0
  0
LINE
  5
C4
330
2
100
AcDbEntity
  8
0
 62
     3
100
AcDbLine
 10
55.64773151839997
 20
106.3921479587999
 30
0.0
 11
56.94772642469999
 21
105.0921530524999
 31
0.0
  0
LINE
  5
C5
330
2
100
AcDbEntity
  8
0
 62
     3
100
AcDbLine
 10
60.19058579859997
 20
104.5147738055
 30
0.0
 11
60.19058579859997
 21
102.4694704607
 31
0.0
  0
LINE
  5
C6
330
2
100
AcDbEntity
  8
0
 62
     3
100
AcDbLine
 10
59.19060825369999
 20
101.8921180855999
 30
0.0
 11
60.19060223
 21
102.4694648873999
 31
0.0
  0
LINE
  5
C7
330
2
100
AcDbEntity
  8
0
 62
     3
100
AcDbLine
 10
59.19060031139998
 20
108.3921316670999
 30
0.0
 11
60.19059428769996
 21
108.9694784688999
 31
0.0
  0
LINE
  5
C8
330
2
100
AcDbEntity
  8
0
 62
     3
100
AcDbLine
 10
60.59059495379997
 20
108.3921236589999
 30
0.0
 11
60.59059495379997
 21
106.3921236589999
 31
0.0
  0
LINE
  5
C9
330
2
100
AcDbEntity
  8
0
 62
     3
100
AcDbLine
 10
59.19064487019998
 20
105.0921410099
 30
0.0
 11
60.19063884649998
 21
104.5147942080999
 31
0.0
  0
LINE
  5
CA
330
2
100
AcDbEntity
  8
0
 62
     3
100
AcDbLine
 10
60.19058579859997
 20
106.3921236589999
 30
0.0
 11
60.19058579859997
 21
105.0921206071999
 31
0.0
  0
ARC
  5
CB
330
2
100
AcDbEntity
  8
0
 62
     3
100
AcDbCircle
 10
59.04529160909999
 20
110.1857637956999
 30
0.0
 40
1.413851738
100
AcDbArc
 50
84.1013580191
 51
144.1013460284
  0
CIRCLE
  5
CC
330
2
100
AcDbEntity
  8
0
 62
     3
100
AcDbCircle
 10
58.39062852319997
 20
117.8921084002
 30
0.0
 40
1.0
  0
LINE
  5
CD
330
2
100
AcDbEntity
  8
0
 62
     3
100
AcDbLine
 10
55.64773151839997
 20
112.8921440695
 30
0.0
 11
56.94772642469999
 21
111.5921491631999
 31
0.0
  0
LINE
  5
CE
330
2
100
AcDbEntity
  8
0
  6
CENTER
 62
     3
100
AcDbLine
 10
58.39062852319997
 20
119.898562868
 30
0.0
 11
58.39062852319997
 21
116.1563448504
 31
0.0
  0
CIRCLE
  5
CF
330
2
100
AcDbEntity
  8
0
 62
     3
100
AcDbCircle
 10
58.39062852319997
 20
117.8921084002
 30
0.0
 40
0.6999999881
  0
LINE
  5
D0
330
2
100
AcDbEntity
  8
0
 62
     3
100
AcDbLine
 10
59.19063755369998
 20
111.5921281624
 30
0.0
 11
60.19063152999999
 21
111.0147813605999
 31
0.0
  0
LINE
  5
D1
330
2
100
AcDbEntity
  8
0
 62
     3
100
AcDbLine
 10
60.59059495379997
 20
113.8921389178
 30
0.0
 11
60.59059495379997
 21
112.8921389178
 31
0.0
  0
LINE
  5
D2
330
2
100
AcDbEntity
  8
0
 62
     3
100
AcDbLine
 10
60.19058579859997
 20
112.8921389178
 30
0.0
 11
60.19058579859997
 21
111.592135866
 31
0.0
  0
ARC
  5
D3
330
2
100
AcDbEntity
  8
0
 62
     3
100
AcDbCircle
 10
60.64062852319998
 20
116.1920961932
 30
0.0
 40
0.5
100
AcDbArc
 50
270.0
 51
359.9999820138998
  0
LINE
  5
D4
330
2
100
AcDbEntity
  8
0
 62
     3
100
AcDbLine
 10
61.14062852319998
 20
116.8921084002
 30
0.0
 11
61.14062852319998
 21
116.1920961932
 31
0.0
  0
LINE
  5
D5
330
2
100
AcDbEntity
  8
0
  6
CENTER
 62
     3
100
AcDbLine
 10
63.19063157489998
 20
119.6342959002
 30
0.0
 11
63.19063157489998
 21
115.087146242
 31
0.0
  0
LINE
  5
D6
330
2
100
AcDbEntity
  8
0
 62
     3
100
AcDbLine
 10
65.2406346267
 20
116.8921084002
 30
0.0
 11
65.2406346267
 21
116.1920961932
 31
0.0
  0
LINE
  5
D7
330
2
100
AcDbEntity
  8
0
 62
     3
100
AcDbLine
 10
65.24061936789999
 20
116.8921084002
 30
0.0
 11
65.24061936789999
 21
116.1921267107
 31
0.0
  0
ARC
  5
D8
330
2
100
AcDbEntity
  8
0
 62
     3
100
AcDbCircle
 10
65.7406346267
 20
116.1920961932
 30
0.0
 40
0.5
100
AcDbArc
 50
180.0000179861
 51
270.0
  0
LINE
  5
D9
330
2
100
AcDbEntity
  8
0
 62
     3
100
AcDbLine
 10
68.05432481219998
 20
113.8921084002
 30
0.0
 11
68.05432481219998
 21
112.5869021014
 31
0.0
  0
LINE
  5
DA
330
2
100
AcDbEntity
  8
0
 62
     3
100
AcDbLine
 10
60.19063157489998
 20
141.8921084002
 30
0.0
 11
60.19063157489998
 21
124.8921084001999
 31
0.0
  0
ARC
  5
DB
330
2
100
AcDbEntity
  8
0
 62
     3
100
AcDbCircle
 10
62.19063157489998
 20
124.8921084001999
 30
0.0
 40
2.0
100
AcDbArc
 50
180.0000179861
 51
270.0
  0
LINE
  5
DC
330
2
100
AcDbEntity
  8
0
 62
     3
100
AcDbLine
 10
77.2159306472
 20
112.4864992693
 30
0.0
 11
84.14360398699995
 21
112.4864992693
 31
0.0
  0
LINE
  5
DD
330
2
100
AcDbEntity
  8
0
 62
     3
100
AcDbLine
 10
71.84447068629999
 20
112.4864992693
 30
0.0
 11
71.84447068629999
 21
103.8519777849999
 31
0.0
  0
LINE
  5
DE
330
2
100
AcDbEntity
  8
0
 62
     3
100
AcDbLine
 10
72.34646958759999
 20
112.4864992693
 30
0.0
 11
72.34646958759999
 21
103.8519777849999
 31
0.0
  0
LINE
  5
DF
330
2
100
AcDbEntity
  8
0
 62
     3
100
AcDbLine
 10
71.84447068629999
 20
103.8519777849999
 30
0.0
 11
72.34646958759999
 21
103.8519777849999
 31
0.0
  0
LINE
  5
E0
330
2
100
AcDbEntity
  8
0
 62
     3
100
AcDbLine
 10
70.23805589129998
 20
112.4864992693
 30
0.0
 11
76.41272324969998
 21
112.4864992693
 31
0.0
  0
LINE
  5
E1
330
2
100
AcDbEntity
  8
0
 62
     3
100
AcDbLine
 10
71.84447068629999
 20
110.9804720475999
 30
0.0
 11
72.34646958759999
 21
110.9804720475999
 31
0.0
  0
LINE
  5
E2
330
2
100
AcDbEntity
  8
0
 62
     3
100
AcDbLine
 10
70.23805589129998
 20
112.5869021014
 30
0.0
 11
70.23805589129998
 21
112.4864992693
 31
0.0
  0
LINE
  5
E3
330
2
100
AcDbEntity
  8
0
 62
     3
100
AcDbLine
 10
76.51312608179998
 20
111.5828890398
 30
0.0
 11
77.11554307399999
 21
111.5828890398
 31
0.0
  0
LINE
  5
E4
330
2
100
AcDbEntity
  8
0
 62
     3
100
AcDbLine
 10
76.51312816549998
 20
111.5828841177
 30
0.0
 11
76.412724465
 21
112.4865181812999
 31
0.0
  0
LINE
  5
E5
330
2
100
AcDbEntity
  8
0
 62
     3
100
AcDbLine
 10
77.11550109269999
 20
111.582883727
 30
0.0
 11
77.21590305399998
 21
112.4865026251
 31
0.0
  0
LINE
  5
E6
330
2
100
AcDbEntity
  8
0
 62
     3
100
AcDbLine
 10
81.18178147729997
 20
112.4864992693
 30
0.0
 11
81.18178147729997
 21
103.8519777849999
 31
0.0
  0
LINE
  5
E7
330
2
100
AcDbEntity
  8
0
 62
     3
100
AcDbLine
 10
80.67976731709999
 20
112.4864992693
 30
0.0
 11
80.67976731709999
 21
103.8519777849999
 31
0.0
  0
LINE
  5
E8
330
2
100
AcDbEntity
  8
0
 62
     3
100
AcDbLine
 10
80.67976731709999
 20
103.8519777849999
 30
0.0
 11
81.18178147729997
 21
103.8519777849999
 31
0.0
  0
LINE
  5
E9
330
2
100
AcDbEntity
  8
0
 62
     3
100
AcDbLine
 10
80.67976731709999
 20
110.9804720475999
 30
0.0
 11
81.18178147729997
 21
110.9804720475999
 31
0.0
  0
LINE
  5
EA
330
2
100
AcDbEntity
  8
0
 62
     3
100
AcDbLine
 10
84.24403801109997
 20
111.5828770141999
 30
0.0
 11
84.1436377349
 21
112.4864807468999
 31
0.0
  0
LINE
  5
EB
330
2
100
AcDbEntity
  8
0
 62
     3
100
AcDbLine
 10
84.84059495379998
 20
57.3424524859
 30
0.0
 11
84.84059495379998
 21
50.94245858939999
 31
0.0
  0
LINE
  5
EC
330
2
100
AcDbEntity
  8
0
 62
     3
100
AcDbLine
 10
84.94060105729998
 20
57.3424524859
 30
0.0
 11
84.94060105729998
 21
50.94245858939999
 31
0.0
  0
LINE
  5
ED
330
2
100
AcDbEntity
  8
0
 62
     3
100
AcDbLine
 10
90.09059495379998
 20
57.3424524859
 30
0.0
 11
90.09059495379998
 21
50.94245858939999
 31
0.0
  0
CIRCLE
  5
EE
330
2
100
AcDbEntity
  8
0
 62
     3
100
AcDbCircle
 10
104.7905919020999
 20
55.1424555376
 30
0.0
 40
5.0
  0
CIRCLE
  5
EF
330
2
100
AcDbEntity
  8
0
 62
     3
100
AcDbCircle
 10
104.7905919020999
 20
55.1424555376
 30
0.0
 40
4.5625
  0
LINE
  5
F0
330
2
100
AcDbEntity
  8
0
 62
     3
100
AcDbLine
 10
111.6906163160999
 20
83.79240747249998
 30
0.0
 11
111.6906163160999
 21
45.59247918879999
 31
0.0
  0
LINE
  5
F1
330
2
100
AcDbEntity
  8
0
 62
     3
100
AcDbLine
 10
100.2280885525
 20
55.1424663974
 30
0.0
 11
102.5093388244999
 21
51.1912255636
 31
0.0
  0
LINE
  5
F2
330
2
100
AcDbEntity
  8
0
 62
     3
100
AcDbLine
 10
107.0718711301999
 20
51.1912574136
 30
0.0
 11
109.3531214021999
 21
55.1424982475
 31
0.0
  0
LINE
  5
F3
330
2
100
AcDbEntity
  8
0
 62
     3
100
AcDbLine
 10
92.29060716089998
 20
60.1424555376
 30
0.0
 11
92.29060716089998
 21
50.1424555376
 31
0.0
  0
LINE
  5
F4
330
2
100
AcDbEntity
  8
0
  6
CENTER
 62
     3
100
AcDbLine
 10
104.7905919020999
 20
62.34979196340001
 30
0.0
 11
104.7905919020999
 21
48.1229548052
 31
0.0
  0
ARC
  5
F5
330
2
100
AcDbEntity
  8
0
 62
     3
100
AcDbCircle
 10
97.14059800560001
 20
46.69248582589999
 30
0.0
 40
1.6999998093
100
AcDbArc
 50
180.0000726276
 51
210.8836199033
  0
LINE
  5
F6
330
2
100
AcDbEntity
  8
0
 62
     3
100
AcDbLine
 10
95.1406285232
 20
45.59247918879999
 30
0.0
 11
95.1406285232
 21
46.69248529229999
 31
0.0
  0
ARC
  5
F7
330
2
100
AcDbEntity
  8
0
 62
     3
100
AcDbCircle
 10
97.24063462670001
 20
46.69248582589999
 30
0.0
 40
1.6999998093
100
AcDbArc
 50
329.1164347381998
 51
0.0000366553999953
  0
ARC
  5
F8
330
2
100
AcDbEntity
  8
0
 62
     3
100
AcDbCircle
 10
97.19064683370001
 20
54.6924743818
 30
0.0
 40
9.0
100
AcDbArc
 50
260.3480342876
 51
279.6520066934998
  0
LINE
  5
F9
330
2
100
AcDbEntity
  8
0
 62
     3
100
AcDbLine
 10
102.5093419020999
 20
51.1911921099
 30
0.0
 11
107.0718419020999
 21
51.1911921099
 31
0.0
  0
LINE
  5
FA
330
2
100
AcDbEntity
  8
0
 62
     3
100
AcDbLine
 10
99.2406346267
 20
45.59247918879999
 30
0.0
 11
99.2406346267
 21
46.69248529229999
 31
0.0
  0
LINE
  5
FB
330
2
100
AcDbEntity
  8
0
  6
CENTER
 62
     3
100
AcDbLine
 10
104.7905919020999
 20
120.0322146014
 30
0.0
 11
104.7905919020999
 21
96.2424196795
 31
0.0
  0
LINE
  5
FC
330
2
100
AcDbEntity
  8
0
 62
     3
100
AcDbLine
 10
102.7905919020999
 20
101.892123659
 30
0.0
 11
102.7905919020999
 21
97.89212365899999
 31
0.0
  0
LINE
  5
FD
330
2
100
AcDbEntity
  8
0
 62
     3
100
AcDbLine
 10
106.7905919020999
 20
101.892123659
 30
0.0
 11
106.7905919020999
 21
97.89212365899999
 31
0.0
  0
LINE
  5
FE
330
2
100
AcDbEntity
  8
0
 62
     3
100
AcDbLine
 10
102.7906366445999
 20
97.8921526413
 30
0.0
 11
102.2906469033999
 21
98.39214242469999
 31
0.0
  0
LINE
  5
FF
330
2
100
AcDbEntity
  8
0
 62
     3
100
AcDbLine
 10
106.7906371232999
 20
97.8921509132
 30
0.0
 11
107.2906268644999
 21
98.39214069649999
 31
0.0
  0
LINE
  5
100
330
2
100
AcDbEntity
  8
0
  6
CENTER
 62
     3
100
AcDbLine
 10
113.6902958816
 20
74.2424196795
 30
0.0
 11
95.2100712722
 21
74.2424196795
 31
0.0
  0
LINE
  5
101
330
2
100
AcDbEntity
  8
0
 62
     3
100
AcDbLine
 10
92.29060716089998
 20
74.2424196795
 30
0.0
 11
99.7905919021
 21
74.2424196795
 31
0.0
  0
LINE
  5
102
330
2
100
AcDbEntity
  8
0
 62
     3
100
AcDbLine
 10
98.34061631609998
 20
64.6924433306
 30
0.0
 11
111.6906163160999
 21
64.6924433306
 31
0.0
  0
LINE
  5
103
330
2
100
AcDbEntity
  8
0
 62
     3
100
AcDbLine
 10
92.29060716089998
 20
55.1424555376
 30
0.0
 11
99.7905919021
 21
55.1424555376
 31
0.0
  0
LINE
  5
104
330
2
100
AcDbEntity
  8
0
  6
CENTER
 62
     3
100
AcDbLine
 10
113.6902958816
 20
55.1424555376
 30
0.0
 11
95.2100712722
 21
55.1424555376
 31
0.0
  0
LINE
  5
105
330
2
100
AcDbEntity
  8
0
 62
     3
100
AcDbLine
 10
92.29060716089998
 20
79.2424196795
 30
0.0
 11
92.29060716089998
 21
69.2424196795
 31
0.0
  0
LINE
  5
106
330
2
100
AcDbEntity
  8
0
 62
     3
100
AcDbLine
 10
87.9906041091
 20
54.7424616412
 30
0.0
 11
88.49060410909997
 21
54.7424616412
 31
0.0
  0
LINE
  5
107
330
2
100
AcDbEntity
  8
0
 62
     3
100
AcDbLine
 10
87.9906041091
 20
53.5424494341
 30
0.0
 11
88.49060410909997
 21
53.5424494341
 31
0.0
  0
LINE
  5
108
330
2
100
AcDbEntity
  8
0
 62
     3
100
AcDbLine
 10
87.9906041091
 20
55.5424494341
 30
0.0
 11
88.49060410909997
 21
55.5424494341
 31
0.0
  0
LINE
  5
109
330
2
100
AcDbEntity
  8
0
 62
     3
100
AcDbLine
 10
87.9906041091
 20
55.7424616412
 30
0.0
 11
88.49060410909997
 21
55.7424616412
 31
0.0
  0
LINE
  5
10A
330
2
100
AcDbEntity
  8
0
 62
     3
100
AcDbLine
 10
87.9906041091
 20
52.7424616412
 30
0.0
 11
88.49060410909997
 21
52.7424616412
 31
0.0
  0
LINE
  5
10B
330
2
100
AcDbEntity
  8
0
 62
     3
100
AcDbLine
 10
87.9906041091
 20
52.5424494341
 30
0.0
 11
88.49060410909997
 21
52.5424494341
 31
0.0
  0
LINE
  5
10C
330
2
100
AcDbEntity
  8
0
 62
     3
100
AcDbLine
 10
87.9906041091
 20
55.7424616412
 30
0.0
 11
87.9906041091
 21
52.5424494341
 31
0.0
  0
ARC
  5
10D
330
2
100
AcDbEntity
  8
0
 62
     3
100
AcDbCircle
 10
89.78697556909997
 20
57.953628023
 30
0.0
 40
0.5
100
AcDbArc
 50
270.0
 51
359.9999820138998
  0
LINE
  5
10E
330
2
100
AcDbEntity
  8
0
 62
     3
100
AcDbLine
 10
88.49060410909997
 20
55.7424616412
 30
0.0
 11
88.49060410909997
 21
52.5424494341
 31
0.0
  0
ARC
  5
10F
330
2
100
AcDbEntity
  8
0
 62
     3
100
AcDbCircle
 10
89.78697556909997
 20
59.55363412649999
 30
0.0
 40
0.5
100
AcDbArc
 50
359.9999820138998
 51
89.99996402779997
  0
LINE
  5
110
330
2
100
AcDbEntity
  8
0
 62
     3
100
AcDbLine
 10
90.2869755691
 20
57.953628023
 30
0.0
 11
90.2869755691
 21
59.55363412649999
 31
0.0
  0
LINE
  5
111
330
2
100
AcDbEntity
  8
0
 62
     3
100
AcDbLine
 10
96.04061631610001
 20
63.59245248589999
 30
0.0
 11
96.04061631610001
 21
65.79244943409999
 31
0.0
  0
LINE
  5
112
330
2
100
AcDbEntity
  8
0
 62
     3
100
AcDbLine
 10
98.34061631609998
 20
63.59245248589999
 30
0.0
 11
98.34061631609998
 21
65.79244943409999
 31
0.0
  0
LINE
  5
113
330
2
100
AcDbEntity
  8
0
 62
     3
100
AcDbLine
 10
95.1406285232
 20
82.69241662769998
 30
0.0
 11
95.1406285232
 21
83.79240747249998
 31
0.0
  0
LINE
  5
114
330
2
100
AcDbEntity
  8
0
 62
     3
100
AcDbLine
 10
95.79061631610001
 20
82.99240442069999
 30
0.0
 11
98.59061631609998
 21
82.99240442069999
 31
0.0
  0
LINE
  5
115
330
2
100
AcDbEntity
  8
0
 62
     3
100
AcDbLine
 10
95.79061631610001
 20
82.69241662769998
 30
0.0
 11
95.79061631610001
 21
82.99240442069999
 31
0.0
  0
LINE
  5
116
330
2
100
AcDbEntity
  8
0
 62
     3
100
AcDbLine
 10
98.59061631609998
 20
82.69241662769998
 30
0.0
 11
98.59061631609998
 21
82.99240442069999
 31
0.0
  0
LINE
  5
117
330
2
100
AcDbEntity
  8
0
  6
CENTER
 62
     3
100
AcDbLine
 10
104.7905919020999
 20
81.44975610530002
 30
0.0
 11
104.7905919020999
 21
67.2229189471
 31
0.0
  0
LINE
  5
118
330
2
100
AcDbEntity
  8
0
 62
     3
100
AcDbLine
 10
102.5093853720999
 20
78.1936957705
 30
0.0
 11
100.2281351000999
 21
74.24245493669999
 31
0.0
  0
LINE
  5
119
330
2
100
AcDbEntity
  8
0
 62
     3
100
AcDbLine
 10
109.3530748544999
 20
74.2424230866
 30
0.0
 11
107.0718245825997
 21
78.1936639205
 31
0.0
  0
CIRCLE
  5
11A
330
2
100
AcDbEntity
  8
0
 62
     3
100
AcDbCircle
 10
104.7905919020999
 20
74.2424196795
 30
0.0
 40
4.5625
  0
CIRCLE
  5
11B
330
2
100
AcDbEntity
  8
0
 62
     3
100
AcDbCircle
 10
104.7905919020999
 20
74.2424196795
 30
0.0
 40
5.0
  0
CIRCLE
  5
11C
330
2
100
AcDbEntity
  8
0
 62
     3
100
AcDbCircle
 10
104.7905919020999
 20
74.2424196795
 30
0.0
 40
2.5
  0
CIRCLE
  5
11D
330
2
100
AcDbEntity
  8
0
 62
     3
100
AcDbCircle
 10
104.7905919020999
 20
74.2424196795
 30
0.0
 40
2.0
  0
LINE
  5
11E
330
2
100
AcDbEntity
  8
0
 62
     3
100
AcDbLine
 10
102.5093419020999
 20
70.2911562517
 30
0.0
 11
107.0718419020999
 21
70.2911562517
 31
0.0
  0
CIRCLE
  5
11F
330
2
100
AcDbEntity
  8
0
 62
     3
100
AcDbCircle
 10
104.7905919020999
 20
55.1424555376
 30
0.0
 40
2.0
  0
CIRCLE
  5
120
330
2
100
AcDbEntity
  8
0
 62
     3
100
AcDbCircle
 10
104.7905919020999
 20
55.1424555376
 30
0.0
 40
2.5
  0
LINE
  5
121
330
2
100
AcDbEntity
  8
0
 62
     3
100
AcDbLine
 10
107.0718419020999
 20
59.09368844779999
 30
0.0
 11
102.5093419020999
 21
59.09368844779999
 31
0.0
  0
LINE
  5
122
330
2
100
AcDbEntity
  8
0
 62
     3
100
AcDbLine
 10
102.5093853720999
 20
59.0937316287
 30
0.0
 11
100.2281351000999
 21
55.14249079479999
 31
0.0
  0
LINE
  5
123
330
2
100
AcDbEntity
  8
0
 62
     3
100
AcDbLine
 10
100.2280885525
 20
74.2424305393
 30
0.0
 11
102.5093388244999
 21
70.2911897054
 31
0.0
  0
LINE
  5
124
330
2
100
AcDbEntity
  8
0
 62
     3
100
AcDbLine
 10
109.7905919020999
 20
55.1424555376
 30
0.0
 11
111.6906163160999
 21
55.1424555376
 31
0.0
  0
LINE
  5
125
330
2
100
AcDbEntity
  8
0
 62
     3
100
AcDbLine
 10
109.3530748544999
 20
55.1424589448
 30
0.0
 11
107.0718245825997
 21
59.09369977859999
 31
0.0
  0
LINE
  5
126
330
2
100
AcDbEntity
  8
0
 62
     3
100
AcDbLine
 10
109.7905919020999
 20
74.2424196795
 30
0.0
 11
111.6906163160999
 21
74.2424196795
 31
0.0
  0
LINE
  5
127
330
2
100
AcDbEntity
  8
0
 62
     3
100
AcDbLine
 10
107.0718711301999
 20
70.2912215555
 30
0.0
 11
109.3531214021999
 21
74.2424623893
 31
0.0
  0
LINE
  5
128
330
2
100
AcDbEntity
  8
0
 62
     3
100
AcDbLine
 10
107.0718419020999
 20
78.19365258960002
 30
0.0
 11
102.5093419020999
 21
78.19365258960002
 31
0.0
  0
LINE
  5
129
330
2
100
AcDbEntity
  8
0
 62
     3
100
AcDbLine
 10
106.7905919020999
 20
97.89212365899999
 30
0.0
 11
102.7905919020999
 21
97.89212365899999
 31
0.0
  0
LINE
  5
12A
330
2
100
AcDbEntity
  8
0
 62
     3
100
AcDbLine
 10
99.2406346267
 20
82.69241662769998
 30
0.0
 11
99.2406346267
 21
83.79240747249998
 31
0.0
  0
LINE
  5
12B
330
2
100
AcDbEntity
  8
0
  6
CENTER
 62
     3
100
AcDbLine
 10
101.2503849928999
 20
116.8921084002
 30
0.0
 11
93.3650090163
 21
116.8921084002
 31
0.0
  0
ARC
  5
12C
330
2
100
AcDbEntity
  8
0
 62
     3
100
AcDbCircle
 10
97.19061631610001
 20
116.8921084002
 30
0.0
 40
2.0499992371
100
AcDbArc
 50
359.9999820138998
 51
180.0000006832
  0
ARC
  5
12D
330
2
100
AcDbEntity
  8
0
 62
     3
100
AcDbCircle
 10
98.19061631609995
 20
124.8921084001999
 30
0.0
 40
2.0
100
AcDbArc
 50
270.0
 51
359.9999820138998
  0
ARC
  5
12E
330
2
100
AcDbEntity
  8
0
 62
     3
100
AcDbCircle
 10
99.74063462670001
 20
116.1920961932
 30
0.0
 40
0.5
100
AcDbArc
 50
180.0000179861
 51
270.0
  0
LINE
  5
12F
330
2
100
AcDbEntity
  8
0
 62
     3
100
AcDbLine
 10
88.51108140399999
 20
112.4864992693
 30
0.0
 11
88.51108140399999
 21
103.8519777849999
 31
0.0
  0
LINE
  5
130
330
2
100
AcDbEntity
  8
0
 62
     3
100
AcDbLine
 10
88.00906724389999
 20
112.4864992693
 30
0.0
 11
88.00906724389999
 21
103.8519777849999
 31
0.0
  0
LINE
  5
131
330
2
100
AcDbEntity
  8
0
 62
     3
100
AcDbLine
 10
88.00906724389999
 20
103.8519777849999
 30
0.0
 11
88.51108140399999
 21
103.8519777849999
 31
0.0
  0
LINE
  5
132
330
2
100
AcDbEntity
  8
0
 62
     3
100
AcDbLine
 10
84.94681138449999
 20
112.4864992693
 30
0.0
 11
90.11748094019996
 21
112.4864992693
 31
0.0
  0
LINE
  5
133
330
2
100
AcDbEntity
  8
0
 62
     3
100
AcDbLine
 10
88.51108140399999
 20
110.9804720475999
 30
0.0
 11
88.00906724389999
 21
110.9804720475999
 31
0.0
  0
LINE
  5
134
330
2
100
AcDbEntity
  8
0
 62
     3
100
AcDbLine
 10
84.84637670899997
 20
111.5828663617999
 30
0.0
 11
84.94678035529998
 21
112.4865004254
 31
0.0
  0
LINE
  5
135
330
2
100
AcDbEntity
  8
0
 62
     3
100
AcDbLine
 10
90.11748094019996
 20
112.5869021014
 30
0.0
 11
90.11748094019996
 21
112.4864992693
 31
0.0
  0
LINE
  5
136
330
2
100
AcDbEntity
  8
0
 62
     3
100
AcDbLine
 10
92.3011967605
 20
113.8921084002
 30
0.0
 11
92.3011967605
 21
112.5869021014
 31
0.0
  0
LINE
  5
137
330
2
100
AcDbEntity
  8
0
 62
     3
100
AcDbLine
 10
95.1406285232
 20
116.8921084002
 30
0.0
 11
95.1406285232
 21
116.1920961932
 31
0.0
  0
ARC
  5
138
330
2
100
AcDbEntity
  8
0
 62
     3
100
AcDbCircle
 10
94.64062852319999
 20
116.1920961932
 30
0.0
 40
0.5
100
AcDbArc
 50
270.0
 51
359.9999820138998
  0
LINE
  5
139
330
2
100
AcDbEntity
  8
0
  6
CENTER
 62
     3
100
AcDbLine
 10
97.19061631610001
 20
120.231387575
 30
0.0
 11
97.19061631610001
 21
114.418887575
 31
0.0
  0
CIRCLE
  5
13A
330
2
100
AcDbEntity
  8
0
 62
     3
100
AcDbCircle
 10
97.19061631610001
 20
116.8921084002
 30
0.0
 40
1.1999998093
  0
LINE
  5
13B
330
2
100
AcDbEntity
  8
0
 62
     3
100
AcDbLine
 10
111.6906163160999
 20
122.7629274919999
 30
0.0
 11
111.6906163160999
 21
118.3543886735999
 31
0.0
  0
LINE
  5
13C
330
2
100
AcDbEntity
  8
0
 62
     3
100
AcDbLine
 10
110.1906163160997
 20
122.4921145037
 30
0.0
 11
110.1906163160997
 21
118.4921145037
 31
0.0
  0
ARC
  5
13D
330
2
100
AcDbEntity
  8
0
 62
     3
100
AcDbCircle
 10
104.7905919020999
 20
113.2996096208999
 30
0.0
 40
4.9074773788
100
AcDbArc
 50
241.9275195301
 51
298.0724838849998
  0
ARC
  5
13E
330
2
100
AcDbEntity
  8
0
 62
     3
100
AcDbCircle
 10
104.7905919020999
 20
106.6846346453
 30
0.0
 40
4.9074773788
100
AcDbArc
 50
61.9275040485
 51
118.0724786487
  0
ARC
  5
13F
330
2
100
AcDbEntity
  8
0
 62
     3
100
AcDbCircle
 10
104.7905919020999
 20
106.7995943621
 30
0.0
 40
4.9074773788
100
AcDbArc
 50
241.9275195301
 51
298.0724838849998
  0
ARC
  5
140
330
2
100
AcDbEntity
  8
0
 62
     3
100
AcDbCircle
 10
104.7905919020999
 20
100.1846499041
 30
0.0
 40
4.9074773788
100
AcDbArc
 50
61.9275040485
 51
118.0724786487
  0
LINE
  5
141
330
2
100
AcDbEntity
  8
0
 62
     3
100
AcDbLine
 10
99.74063462670001
 20
115.6920961932
 30
0.0
 11
111.3906285231999
 21
115.6920961932
 31
0.0
  0
LINE
  5
142
330
2
100
AcDbEntity
  8
0
 62
     3
100
AcDbLine
 10
109.7905919020999
 20
108.3921236589999
 30
0.0
 11
99.7905919021
 21
108.3921236589999
 31
0.0
  0
LINE
  5
143
330
2
100
AcDbEntity
  8
0
 62
     3
100
AcDbLine
 10
109.3905980055998
 20
111.592135866
 30
0.0
 11
100.1906163160999
 21
111.592135866
 31
0.0
  0
LINE
  5
144
330
2
100
AcDbEntity
  8
0
 62
     3
100
AcDbLine
 10
109.7905919020999
 20
112.8921389178
 30
0.0
 11
99.7905919021
 21
112.8921389178
 31
0.0
  0
LINE
  5
145
330
2
100
AcDbEntity
  8
0
 62
     3
100
AcDbLine
 10
109.7905919020999
 20
106.3921236589999
 30
0.0
 11
99.7905919021
 21
106.3921236589999
 31
0.0
  0
LINE
  5
146
330
2
100
AcDbEntity
  8
0
 62
     3
100
AcDbLine
 10
108.3905980055998
 20
101.892123659
 30
0.0
 11
101.4812046949999
 21
101.892123659
 31
0.0
  0
LINE
  5
147
330
2
100
AcDbEntity
  8
0
 62
     3
100
AcDbLine
 10
109.3905980055998
 20
105.0921206071999
 30
0.0
 11
100.1906163160999
 21
105.0921206071999
 31
0.0
  0
LINE
  5
148
330
2
100
AcDbEntity
  8
0
 62
     3
100
AcDbLine
 10
109.7905919020999
 20
107.3921236589999
 30
0.0
 11
99.7905919021
 21
107.3921236589999
 31
0.0
  0
LINE
  5
149
330
2
100
AcDbEntity
  8
0
 62
     3
100
AcDbLine
 10
107.2905919020999
 20
98.39212365899999
 30
0.0
 11
102.2905919020999
 21
98.39212365899999
 31
0.0
  0
LINE
  5
14A
330
2
100
AcDbEntity
  8
0
 62
     3
100
AcDbLine
 10
102.4812046949999
 20
111.0147738054999
 30
0.0
 11
102.4812046949999
 21
108.9694857195
 31
0.0
  0
LINE
  5
14B
330
2
100
AcDbEntity
  8
0
 62
     3
100
AcDbLine
 10
100.1906163160999
 20
111.0147738054999
 30
0.0
 11
100.1906163160999
 21
108.9694857195
 31
0.0
  0
LINE
  5
14C
330
2
100
AcDbEntity
  8
0
 62
     3
100
AcDbLine
 10
102.4812046949999
 20
104.5147738055
 30
0.0
 11
102.4812046949999
 21
102.4694704607
 31
0.0
  0
LINE
  5
14D
330
2
100
AcDbEntity
  8
0
 62
     3
100
AcDbLine
 10
100.1906163160999
 20
104.5147738055
 30
0.0
 11
100.1906163160999
 21
102.4694704607
 31
0.0
  0
LINE
  5
14E
330
2
100
AcDbEntity
  8
0
 62
     3
100
AcDbLine
 10
101.1906486127999
 20
101.892115157
 30
0.0
 11
100.1906282074999
 21
102.4694772176
 31
0.0
  0
ARC
  5
14F
330
2
100
AcDbEntity
  8
0
 62
     3
100
AcDbCircle
 10
101.3358799879999
 20
103.2984957293
 30
0.0
 40
1.413851738
100
AcDbArc
 50
264.1013871610998
 51
324.1013854156
  0
LINE
  5
150
330
2
100
AcDbEntity
  8
0
 62
     3
100
AcDbLine
 10
102.2905919020999
 20
101.892123659
 30
0.0
 11
102.2905919020999
 21
98.39212365899999
 31
0.0
  0
LINE
  5
151
330
2
100
AcDbEntity
  8
0
 62
     3
100
AcDbLine
 10
101.1906565550999
 20
108.3921287385
 30
0.0
 11
100.1906361497999
 21
108.9694907991
 31
0.0
  0
LINE
  5
152
330
2
100
AcDbEntity
  8
0
 62
     3
100
AcDbLine
 10
101.1905931967999
 20
105.0921154652
 30
0.0
 11
100.1905992204997
 21
104.5147686634
 31
0.0
  0
LINE
  5
153
330
2
100
AcDbEntity
  8
0
 62
     3
100
AcDbLine
 10
99.7905919021
 20
108.3921236589999
 30
0.0
 11
99.7905919021
 21
106.3921236589999
 31
0.0
  0
LINE
  5
154
330
2
100
AcDbEntity
  8
0
 62
     3
100
AcDbLine
 10
100.1906163160999
 20
106.3921236589999
 30
0.0
 11
100.1906163160999
 21
105.0921206071999
 31
0.0
  0
ARC
  5
155
330
2
100
AcDbEntity
  8
0
 62
     3
100
AcDbCircle
 10
101.3358799879999
 20
109.7984957293
 30
0.0
 40
1.413851738
100
AcDbArc
 50
264.1013871610998
 51
324.1013854156
  0
ARC
  5
156
330
2
100
AcDbEntity
  8
0
 62
     3
100
AcDbCircle
 10
101.3358799879999
 20
103.6857485369
 30
0.0
 40
1.413851738
100
AcDbArc
 50
35.8985820273
 51
95.89857003659998
  0
LINE
  5
157
330
2
100
AcDbEntity
  8
0
 62
     3
100
AcDbLine
 10
104.7335284320999
 20
106.3921371691999
 30
0.0
 11
103.4335335257999
 21
105.0921422629
 31
0.0
  0
LINE
  5
158
330
2
100
AcDbEntity
  8
0
 62
     3
100
AcDbLine
 10
106.1477419702999
 20
106.3921371691999
 30
0.0
 11
104.8477470639999
 21
105.0921422629
 31
0.0
  0
LINE
  5
159
330
2
100
AcDbEntity
  8
0
 62
     3
100
AcDbLine
 10
101.1905928837999
 20
111.5921158321999
 30
0.0
 11
100.1905989075999
 21
111.0147690303999
 31
0.0
  0
LINE
  5
15A
330
2
100
AcDbEntity
  8
0
 62
     3
100
AcDbLine
 10
99.7905919021
 20
113.8921389178
 30
0.0
 11
99.7905919021
 21
112.8921389178
 31
0.0
  0
LINE
  5
15B
330
2
100
AcDbEntity
  8
0
 62
     3
100
AcDbLine
 10
100.1906163160999
 20
112.8921389178
 30
0.0
 11
100.1906163160999
 21
111.592135866
 31
0.0
  0
ARC
  5
15C
330
2
100
AcDbEntity
  8
0
 62
     3
100
AcDbCircle
 10
101.3358799879999
 20
110.1857637956999
 30
0.0
 40
1.413851738
100
AcDbArc
 50
35.8985820273
 51
95.89857003659998
  0
LINE
  5
15D
330
2
100
AcDbEntity
  8
0
 62
     3
100
AcDbLine
 10
99.2406346267
 20
116.8921084002
 30
0.0
 11
99.2406346267
 21
116.1920961932
 31
0.0
  0
LINE
  5
15E
330
2
100
AcDbEntity
  8
0
 62
     3
100
AcDbLine
 10
104.7335284320999
 20
112.8921332798999
 30
0.0
 11
103.4335335257999
 21
111.5921383736
 31
0.0
  0
LINE
  5
15F
330
2
100
AcDbEntity
  8
0
 62
     3
100
AcDbLine
 10
106.1477419702999
 20
112.8921332798999
 30
0.0
 11
104.8477470639999
 21
111.5921383736
 31
0.0
  0
LINE
  5
160
330
2
100
AcDbEntity
  8
0
 62
     3
100
AcDbLine
 10
109.3905980055998
 20
111.0147738054999
 30
0.0
 11
109.3905980055998
 21
108.9694857195
 31
0.0
  0
LINE
  5
161
330
2
100
AcDbEntity
  8
0
 62
     3
100
AcDbLine
 10
107.1000096267
 20
111.0147738054999
 30
0.0
 11
107.1000096267
 21
108.9694857195
 31
0.0
  0
LINE
  5
162
330
2
100
AcDbEntity
  8
0
 62
     3
100
AcDbLine
 10
107.1000096267
 20
104.5147738055
 30
0.0
 11
107.1000096267
 21
102.4694704607
 31
0.0
  0
LINE
  5
163
330
2
100
AcDbEntity
  8
0
 62
     3
100
AcDbLine
 10
109.3905980055998
 20
104.5147738055
 30
0.0
 11
109.3905980055998
 21
102.4694704607
 31
0.0
  0
ARC
  5
164
330
2
100
AcDbEntity
  8
0
 62
     3
100
AcDbCircle
 10
108.2453038160999
 20
103.2984957293
 30
0.0
 40
1.413851738
100
AcDbArc
 50
215.8986077542
 51
275.8986094238
  0
LINE
  5
165
330
2
100
AcDbEntity
  8
0
 62
     3
100
AcDbLine
 10
107.2905919020999
 20
101.892123659
 30
0.0
 11
107.2905919020999
 21
98.39212365899999
 31
0.0
  0
LINE
  5
166
330
2
100
AcDbEntity
  8
0
 62
     3
100
AcDbLine
 10
108.3905925335999
 20
101.8921027266
 30
0.0
 11
109.3905865098999
 21
102.4694495284
 31
0.0
  0
ARC
  5
167
330
2
100
AcDbEntity
  8
0
 62
     3
100
AcDbCircle
 10
108.2453038160999
 20
109.7984957293
 30
0.0
 40
1.413851738
100
AcDbArc
 50
215.8986077542
 51
275.8986094238
  0
ARC
  5
168
330
2
100
AcDbEntity
  8
0
 62
     3
100
AcDbCircle
 10
108.2453038160999
 20
103.6857485369
 30
0.0
 40
1.413851738
100
AcDbArc
 50
84.1013580191
 51
144.1013460284
  0
LINE
  5
169
330
2
100
AcDbEntity
  8
0
 62
     3
100
AcDbLine
 10
108.3905845912999
 20
108.3921163080999
 30
0.0
 11
109.3905785675999
 21
108.9694631098999
 31
0.0
  0
LINE
  5
16A
330
2
100
AcDbEntity
  8
0
 62
     3
100
AcDbLine
 10
109.7905919020999
 20
108.3921236589999
 30
0.0
 11
109.7905919020999
 21
106.3921236589999
 31
0.0
  0
LINE
  5
16B
330
2
100
AcDbEntity
  8
0
 62
     3
100
AcDbLine
 10
108.3906403202999
 20
105.0921146811
 30
0.0
 11
109.3906078675999
 21
104.5147831381
 31
0.0
  0
LINE
  5
16C
330
2
100
AcDbEntity
  8
0
 62
     3
100
AcDbLine
 10
109.3905980055998
 20
106.3921236589999
 30
0.0
 11
109.3905980055998
 21
105.0921206071999
 31
0.0
  0
ARC
  5
16D
330
2
100
AcDbEntity
  8
0
 62
     3
100
AcDbCircle
 10
108.2453038160999
 20
110.1857637956999
 30
0.0
 40
1.413851738
100
AcDbArc
 50
84.1013580191
 51
144.1013460284
  0
LINE
  5
16E
330
2
100
AcDbEntity
  8
0
 62
     3
100
AcDbLine
 10
108.3906482625999
 20
111.5921282626
 30
0.0
 11
109.3906422388998
 21
111.0147814607999
 31
0.0
  0
LINE
  5
16F
330
2
100
AcDbEntity
  8
0
 62
     3
100
AcDbLine
 10
109.7905919020999
 20
113.8921389178
 30
0.0
 11
109.7905919020999
 21
112.8921389178
 31
0.0
  0
LINE
  5
170
330
2
100
AcDbEntity
  8
0
 62
     3
100
AcDbLine
 10
109.3905980055998
 20
112.8921389178
 30
0.0
 11
109.3905980055998
 21
111.592135866
 31
0.0
  0
LINE
  5
171
330
2
100
AcDbEntity
  8
0
 62
     3
100
AcDbLine
 10
111.6906163160999
 20
118.1920961932
 30
0.0
 11
111.6906163160999
 21
114.3921084001999
 31
0.0
  0
ARC
  5
172
330
2
100
AcDbEntity
  8
0
 62
     3
100
AcDbCircle
 10
111.1906163160997
 20
114.3921084001999
 30
0.0
 40
0.5
100
AcDbArc
 50
270.0
 51
359.9999820138998
  0
LINE
  5
173
330
2
100
AcDbEntity
  8
0
 62
     3
100
AcDbLine
 10
111.3906285231999
 20
118.4921145037
 30
0.0
 11
110.1906163160997
 21
118.4921145037
 31
0.0
  0
ARC
  5
174
330
2
100
AcDbEntity
  8
0
 62
     3
100
AcDbCircle
 10
111.3906285231999
 20
115.9921145037
 30
0.0
 40
0.3000000119
100
AcDbArc
 50
270.0
 51
359.9999820138998
  0
ARC
  5
175
330
2
100
AcDbEntity
  8
0
 62
     3
100
AcDbCircle
 10
111.3906285231999
 20
118.1920961932
 30
0.0
 40
0.3000000119
100
AcDbArc
 50
359.9999820138998
 51
89.99996402779997
  0
LINE
  5
176
330
2
100
AcDbEntity
  8
0
 62
     3
100
AcDbLine
 10
100.1906163160999
 20
141.8921084002
 30
0.0
 11
100.1906163160999
 21
124.8921084001999
 31
0.0
  0
LINE
  5
177
330
2
100
AcDbEntity
  8
0
 62
     3
100
AcDbLine
 10
111.3906285231999
 20
122.4921145037
 30
0.0
 11
110.1906163160997
 21
122.4921145037
 31
0.0
  0
ARC
  5
178
330
2
100
AcDbEntity
  8
0
 62
     3
100
AcDbCircle
 10
111.3906285231999
 20
122.7921022966999
 30
0.0
 40
0.3000000119
100
AcDbArc
 50
270.0
 51
359.9999820138998
  0
TEXT
  5
179
330
2
100
AcDbEntity
  8
0
 62
     5
100
AcDbText
 10
145.0
 20
10.0
 30
0.0
 40
5.0
  1
ＭＡ４－Ｃ０００６２Ｂ
 41
0.8443967743953095
 72
     5
 11
199.0413935612998
 21
10.0
 31
0.0
100
AcDbText
  0
LINE
  5
17D
330
2
100
AcDbEntity
  8
0
100
AcDbLine
 10
210.0
 20
297.0
 30
0.0
 11
0.0
 21
297.0
 31
0.0
  0
LINE
  5
17E
330
2
100
AcDbEntity
  8
0
  6
CENTER
 62
     3
100
AcDbLine
 10
83.39060295019999
 20
156.8921429019
 30
0.0
 11
94.74038100569996
 21
179.1673357300998
 31
0.0
  0
LINE
  5
17F
330
2
100
AcDbEntity
  8
0
 62
     3
100
AcDbLine
 10
100.3906285231999
 20
164.8921084002
 30
0.0
 11
66.39062852319998
 21
164.8921084002
 31
0.0
  0
LINE
  5
180
330
2
100
AcDbEntity
  8
0
 62
     3
100
AcDbLine
 10
88.8444096511
 20
234.0921206072
 30
0.0
 11
77.93680161889998
 21
234.0921206072
 31
0.0
  0
LINE
  5
181
330
2
100
AcDbEntity
  8
0
 62
     3
100
AcDbLine
 10
111.6906163160999
 20
240.4421267107
 30
0.0
 11
48.6906010573
 21
240.4421267107
 31
0.0
  0
LINE
  5
182
330
2
100
AcDbEntity
  8
0
 62
     3
100
AcDbLine
 10
90.69060105730001
 20
235.3921084002
 30
0.0
 11
76.09061021259998
 21
235.3921084002
 31
0.0
  0
LINE
  5
183
330
2
100
AcDbEntity
  8
0
 62
     3
100
AcDbLine
 10
90.69060105730001
 20
226.3921084002
 30
0.0
 11
77.02978104999998
 21
226.3921084002
 31
0.0
  0
LINE
  5
184
330
2
100
AcDbEntity
  8
0
 62
     3
100
AcDbLine
 10
88.8444096511
 20
227.6920961931998
 30
0.0
 11
77.93680161889998
 21
227.6920961931998
 31
0.0
  0
LINE
  5
185
330
2
100
AcDbEntity
  8
0
 62
     3
100
AcDbLine
 10
88.8444096511
 20
227.8921084001999
 30
0.0
 11
69.6405980056
 21
227.8921084001999
 31
0.0
  0
LINE
  5
186
330
2
100
AcDbEntity
  8
0
 62
     3
100
AcDbLine
 10
88.8444096511
 20
233.8921084002
 30
0.0
 11
69.6405980056
 21
233.8921084002
 31
0.0
  0
ARC
  5
187
330
2
100
AcDbEntity
  8
0
  6
CENTER
 62
     3
100
AcDbCircle
 10
83.39058274679997
 20
156.8921541766
 30
0.0
 40
25.0
100
AcDbArc
 50
62.9999530312
 51
116.9999203829
  0
LINE
  5
188
330
2
100
AcDbEntity
  8
0
 62
     3
100
AcDbLine
 10
111.6906163160999
 20
221.3421206072
 30
0.0
 11
77.02978104999998
 21
221.3421206072
 31
0.0
  0
LINE
  5
189
330
2
100
AcDbEntity
  8
0
 62
     3
100
AcDbLine
 10
88.8444096511
 20
214.7921022967
 30
0.0
 11
69.6405980056
 21
214.7921022967
 31
0.0
  0
LINE
  5
18A
330
2
100
AcDbEntity
  8
0
 62
     3
100
AcDbLine
 10
88.8444096511
 20
208.7921022966999
 30
0.0
 11
69.6405980056
 21
208.7921022966999
 31
0.0
  0
LINE
  5
18B
330
2
100
AcDbEntity
  8
0
 62
     3
100
AcDbLine
 10
88.8444096511
 20
208.5920900895998
 30
0.0
 11
77.93680161889998
 21
208.5920900895998
 31
0.0
  0
LINE
  5
18C
330
2
100
AcDbEntity
  8
0
 62
     3
100
AcDbLine
 10
111.6906163160999
 20
202.2421145036999
 30
0.0
 11
48.6906010573
 21
202.2421145036999
 31
0.0
  0
LINE
  5
18D
330
2
100
AcDbEntity
  8
0
 62
     3
100
AcDbLine
 10
90.69060105730001
 20
207.2921022966998
 30
0.0
 11
76.09061021259998
 21
207.2921022966998
 31
0.0
  0
LINE
  5
18E
330
2
100
AcDbEntity
  8
0
 62
     3
100
AcDbLine
 10
90.69060105730001
 20
216.2921022967
 30
0.0
 11
77.02978104999998
 21
216.2921022967
 31
0.0
  0
LINE
  5
18F
330
2
100
AcDbEntity
  8
0
 62
     3
100
AcDbLine
 10
88.8444096511
 20
214.9921145036999
 30
0.0
 11
77.93680161889998
 21
214.9921145036999
 31
0.0
  0
LINE
  5
190
330
2
100
AcDbEntity
  8
0
  6
CENTER
 62
     3
100
AcDbLine
 10
54.04060716089997
 20
237.6691164568
 30
0.0
 11
54.04060716089997
 21
223.856677492
 31
0.0
  0
LINE
  5
191
330
2
100
AcDbEntity
  8
0
 62
     3
100
AcDbLine
 10
65.8905980056
 20
240.4807619645999
 30
0.0
 11
65.8905980056
 21
221.4225344256
 31
0.0
  0
LINE
  5
192
330
2
100
AcDbEntity
  8
0
  6
CENTER
 62
     3
100
AcDbLine
 10
83.39059800559999
 20
243.4421267107
 30
0.0
 11
83.39059800559999
 21
199.2421145036999
 31
0.0
  0
LINE
  5
193
330
2
100
AcDbEntity
  8
0
 62
     3
100
AcDbLine
 10
48.6906010573
 20
240.4421267107
 30
0.0
 11
48.6906010573
 21
202.2421145036999
 31
0.0
  0
CIRCLE
  5
194
330
2
100
AcDbEntity
  8
0
 62
     3
100
AcDbCircle
 10
54.04060716089997
 20
230.8920778825999
 30
0.0
 40
1.5
  0
LINE
  5
195
330
2
100
AcDbEntity
  8
0
  6
CENTER
 62
     3
100
AcDbLine
 10
58.58377427509998
 20
155.6920961932
 30
0.0
 11
50.37381333759999
 21
155.6920961932
 31
0.0
  0
LINE
  5
196
330
2
100
AcDbEntity
  8
0
  6
PHANTOM
 62
     3
100
AcDbLine
 10
48.10028428489999
 20
162.6421084002
 30
0.0
 11
65.7948185866
 21
162.6421084002
 31
0.0
  0
LINE
  5
198
330
2
100
AcDbEntity
  8
0
 62
     3
100
AcDbLine
 10
65.89062852319996
 20
161.3921084002
 30
0.0
 11
49.19063157489998
 21
161.3921084002
 31
0.0
  0
ARC
  5
199
330
2
100
AcDbEntity
  8
0
  6
PHANTOM
 62
     3
100
AcDbCircle
 10
54.04062241969999
 20
158.4754213884998
 30
0.0
 40
5.8333330154
100
AcDbArc
 50
74.1328335292
 51
105.8670945263999
  0
CIRCLE
  5
19A
330
2
100
AcDbEntity
  8
0
 62
     3
100
AcDbCircle
 10
54.04062241969999
 20
155.6920961932
 30
0.0
 40
2.0499992371
  0
LINE
  5
19B
330
2
100
AcDbEntity
  8
0
  6
CENTER
 62
     3
100
AcDbLine
 10
59.25670213159998
 20
230.8920778825999
 30
0.0
 11
47.85408372339997
 21
230.8920778825999
 31
0.0
  0
LINE
  5
19C
330
2
100
AcDbEntity
  8
0
 62
     3
100
AcDbLine
 10
70.22979707179996
 20
221.3421206072
 30
0.0
 11
48.6906010573
 21
221.3421206072
 31
0.0
  0
LINE
  5
19D
330
2
100
AcDbEntity
  8
0
  6
CENTER
 62
     3
100
AcDbLine
 10
59.25670213159998
 20
211.7920717790999
 30
0.0
 11
47.85408372339997
 21
211.7920717790999
 31
0.0
  0
CIRCLE
  5
19E
330
2
100
AcDbEntity
  8
0
 62
     3
100
AcDbCircle
 10
54.04060716089997
 20
211.7920717790999
 30
0.0
 40
1.5
  0
LINE
  5
19F
330
2
100
AcDbEntity
  8
0
  6
CENTER
 62
     3
100
AcDbLine
 10
54.04062241969999
 20
165.3424868182
 30
0.0
 11
54.04062241969999
 21
152.3248629168
 31
0.0
  0
CIRCLE
  5
1A0
330
2
100
AcDbEntity
  8
0
 62
     3
100
AcDbCircle
 10
54.04062241969999
 20
155.6920961932
 30
0.0
 40
1.1999998093
  0
ARC
  5
1A1
330
2
100
AcDbEntity
  8
0
  6
PHANTOM
 62
     3
100
AcDbCircle
 10
52.69636887959999
 20
163.2047609880999
 30
0.0
 40
0.9166666864999999
100
AcDbArc
 50
105.8671664708
 51
177.0000349781
  0
ARC
  5
1A2
330
2
100
AcDbEntity
  8
0
 62
     3
100
AcDbCircle
 10
49.19063157489998
 20
160.8921084002
 30
0.0
 40
0.5
100
AcDbArc
 50
90.00003597219999
 51
180.0000179861
  0
LINE
  5
1A3
330
2
100
AcDbEntity
  8
0
  6
PHANTOM
 62
     3
100
AcDbLine
 10
51.78095852839996
 20
163.2527475362999
 30
0.0
 11
51.74895610119998
 21
162.6421048512999
 31
0.0
  0
LINE
  5
1A4
330
2
100
AcDbEntity
  8
0
  6
CENTER
 62
     3
100
AcDbLine
 10
54.04060716089997
 20
218.5691103533
 30
0.0
 11
54.04060716089997
 21
204.7566713884999
 31
0.0
  0
CIRCLE
  5
1A5
330
2
100
AcDbEntity
  8
0
 62
     3
100
AcDbCircle
 10
54.04060716089997
 20
211.7920717790999
 30
0.0
 40
1.25
  0
CIRCLE
  5
1A6
330
2
100
AcDbEntity
  8
0
 62
     3
100
AcDbCircle
 10
54.04060716089997
 20
230.8920778825999
 30
0.0
 40
1.25
  0
LINE
  5
1A7
330
2
100
AcDbEntity
  8
0
 62
     3
100
AcDbLine
 10
73.39062852319995
 20
154.0921206072
 30
0.0
 11
69.19063157489998
 21
154.0921206072
 31
0.0
  0
LINE
  5
1A8
330
2
100
AcDbEntity
  8
0
 62
     3
100
AcDbLine
 10
73.39062852319995
 20
159.1920961932
 30
0.0
 11
69.19063157489998
 21
159.1920961932
 31
0.0
  0
LINE
  5
1A9
330
2
100
AcDbEntity
  8
0
  6
PHANTOM
 62
     3
100
AcDbLine
 10
56.30031272769997
 20
163.2527402101
 30
0.0
 11
56.33231515489999
 21
162.6420975251
 31
0.0
  0
ARC
  5
1AA
330
2
100
AcDbEntity
  8
0
  6
PHANTOM
 62
     3
100
AcDbCircle
 10
55.3848759597
 20
163.2047609880999
 30
0.0
 40
0.9166666864999999
100
AcDbArc
 50
2.999965021899998
 51
74.1328335292
  0
LINE
  5
1AB
330
2
100
AcDbEntity
  8
0
 62
     3
100
AcDbLine
 10
68.69063157489998
 20
158.6920961931998
 30
0.0
 11
68.69063157489998
 21
154.5921206072
 31
0.0
  0
ARC
  5
1AC
330
2
100
AcDbEntity
  8
0
 62
     3
100
AcDbCircle
 10
69.19063157489998
 20
154.5921206072
 30
0.0
 40
0.5
100
AcDbArc
 50
180.0000179861
 51
270.0
  0
LINE
  5
1AD
330
2
100
AcDbEntity
  8
0
 62
     3
100
AcDbLine
 10
65.89062852319996
 20
164.3921084002
 30
0.0
 11
65.89062852319996
 21
161.3921084002
 31
0.0
  0
ARC
  5
1AE
330
2
100
AcDbEntity
  8
0
 62
     3
100
AcDbCircle
 10
66.39062852319998
 20
164.3921084002
 30
0.0
 40
0.5
100
AcDbArc
 50
90.00003597219999
 51
180.0000179861
  0
ARC
  5
1AF
330
2
100
AcDbEntity
  8
0
 62
     3
100
AcDbCircle
 10
69.19063157489998
 20
158.6920961931998
 30
0.0
 40
0.5
100
AcDbArc
 50
89.9999640278
 51
180.0000006832
  0
LINE
  5
1B0
330
2
100
AcDbEntity
  8
0
  6
CENTER
 62
     3
100
AcDbLine
 10
83.39060295019999
 20
156.8921429019
 30
0.0
 11
72.04084091069998
 21
179.1673072213
 31
0.0
  0
LINE
  5
1B1
330
2
100
AcDbEntity
  8
0
 62
     3
100
AcDbLine
 10
76.31222362409999
 20
164.9471323775
 30
0.0
 11
73.18727810019999
 21
171.0801838715999
 31
0.0
  0
LINE
  5
1B2
330
2
100
AcDbEntity
  8
0
 62
     3
100
AcDbLine
 10
82.22310001809999
 20
165.0206101031999
 30
0.0
 11
77.89774914239998
 21
173.5095899743999
 31
0.0
  0
LINE
  5
1B3
330
2
100
AcDbEntity
  8
0
 62
     3
100
AcDbLine
 10
73.89062852319999
 20
158.6920961931998
 30
0.0
 11
73.89062852319999
 21
154.5921206072
 31
0.0
  0
ARC
  5
1B4
330
2
100
AcDbEntity
  8
0
 62
     3
100
AcDbCircle
 10
73.39062852319995
 20
154.5921206072
 30
0.0
 40
0.5
100
AcDbArc
 50
270.0
 51
359.9999820138998
  0
ARC
  5
1B5
330
2
100
AcDbEntity
  8
0
 62
     3
100
AcDbCircle
 10
73.39062852319995
 20
158.6920961931998
 30
0.0
 40
0.5
100
AcDbArc
 50
359.9999820138998
 51
89.99996402779997
  0
LINE
  5
1B6
330
2
100
AcDbEntity
  8
0
 62
     3
100
AcDbLine
 10
77.0178450656
 20
176.9268559151
 30
0.0
 11
77.89773242009997
 21
173.5095679775
 31
0.0
  0
ARC
  5
1B7
330
2
100
AcDbEntity
  8
0
 62
     3
100
AcDbCircle
 10
73.62979478289997
 20
176.0487551286999
 30
0.0
 40
3.5
100
AcDbArc
 50
14.5303078881
 51
219.4696421608
  0
CIRCLE
  5
1B8
330
2
100
AcDbEntity
  8
0
 62
     3
100
AcDbCircle
 10
73.62979478289997
 20
176.0487551286999
 30
0.0
 40
1.8249998093
  0
CIRCLE
  5
1B9
330
2
100
AcDbEntity
  8
0
 62
     3
100
AcDbCircle
 10
73.62979478289997
 20
176.0487551286999
 30
0.0
 40
1.524999618499998
  0
LINE
  5
1BA
330
2
100
AcDbEntity
  8
0
 62
     3
100
AcDbLine
 10
70.92796565329996
 20
173.8239181465999
 30
0.0
 11
73.17542895369998
 21
171.1034658893
 31
0.0
  0
ARC
  5
1BB
330
2
100
AcDbEntity
  8
0
 62
     3
100
AcDbCircle
 10
73.62979478289997
 20
176.0487551286999
 30
0.0
 40
1.799999237099997
100
AcDbArc
 50
269.7440533883999
 51
270.0
  0
LINE
  5
1BC
330
2
100
AcDbEntity
  8
0
 62
     3
100
AcDbLine
 10
69.6405980056
 20
214.7921022967
 30
0.0
 11
69.6405980056
 21
208.7921022966999
 31
0.0
  0
LINE
  5
1BD
330
2
100
AcDbEntity
  8
0
 62
     3
100
AcDbLine
 10
65.8905980056
 20
221.3807558611
 30
0.0
 11
65.8905980056
 21
202.3225283221
 31
0.0
  0
LINE
  5
1BE
330
2
100
AcDbEntity
  8
0
 62
     3
100
AcDbLine
 10
69.6405980056
 20
211.7921022966998
 30
0.0
 11
56.24060410909999
 21
211.7921022966998
 31
0.0
  0
LINE
  5
1BF
330
2
100
AcDbEntity
  8
0
 62
     3
100
AcDbLine
 10
69.6405980056
 20
230.8921084002
 30
0.0
 11
56.24060410909999
 21
230.8921084002
 31
0.0
  0
LINE
  5
1C0
330
2
100
AcDbEntity
  8
0
 62
     3
100
AcDbLine
 10
69.6405980056
 20
233.8921084002
 30
0.0
 11
69.6405980056
 21
227.8921084001999
 31
0.0
  0
LINE
  5
1C1
330
2
100
AcDbEntity
  8
0
 62
     3
100
AcDbLine
 10
77.89767808369998
 20
214.7921022967
 30
0.0
 11
77.89767808369998
 21
208.7793154313998
 31
0.0
  0
LINE
  5
1C2
330
2
100
AcDbEntity
  8
0
 62
     3
100
AcDbLine
 10
83.39059800559999
 20
214.8247561053
 30
0.0
 11
83.39059800559999
 21
208.7793154313998
 31
0.0
  0
LINE
  5
1C3
330
2
100
AcDbEntity
  8
0
 62
     3
100
AcDbLine
 10
76.09061021259998
 20
208.2921061113999
 30
0.0
 11
71.12979859759995
 21
208.2921061113999
 31
0.0
  0
LINE
  5
1C4
330
2
100
AcDbEntity
  8
0
 62
     3
100
AcDbLine
 10
75.12979478289998
 20
207.4921259477997
 30
0.0
 11
72.12980241229998
 21
207.4921259477997
 31
0.0
  0
LINE
  5
1C5
330
2
100
AcDbEntity
  8
0
 62
     3
100
AcDbLine
 10
74.92979020529999
 20
207.2921022966998
 30
0.0
 11
72.32978791649998
 21
207.2921022966998
 31
0.0
  0
LINE
  5
1C6
330
2
100
AcDbEntity
  8
0
 62
     3
100
AcDbLine
 10
72.12979139119997
 20
207.4921063775998
 30
0.0
 11
72.32979000199998
 21
207.2921077836999
 31
0.0
  0
LINE
  5
1C7
330
2
100
AcDbEntity
  8
0
 62
     3
100
AcDbLine
 10
71.12979859759995
 20
208.7996706559998
 30
0.0
 11
71.12979859759995
 21
208.2921061113999
 31
0.0
  0
LINE
  5
1C8
330
2
100
AcDbEntity
  8
0
 62
     3
100
AcDbLine
 10
72.12980241229998
 20
208.2921061113999
 30
0.0
 11
72.12980241229998
 21
207.4921259477997
 31
0.0
  0
LINE
  5
1C9
330
2
100
AcDbEntity
  8
0
 62
     3
100
AcDbLine
 10
76.09061021259998
 20
207.2921022966998
 30
0.0
 11
76.09061021259998
 21
208.7921022966999
 31
0.0
  0
LINE
  5
1CA
330
2
100
AcDbEntity
  8
0
 62
     3
100
AcDbLine
 10
75.12977192369998
 20
207.4920846413998
 30
0.0
 11
74.92978679999997
 21
207.2920995346
 31
0.0
  0
LINE
  5
1CB
330
2
100
AcDbEntity
  8
0
 62
     3
100
AcDbLine
 10
75.12979478289998
 20
208.2921061113999
 30
0.0
 11
75.12979478289998
 21
207.4921259477997
 31
0.0
  0
LINE
  5
1CC
330
2
100
AcDbEntity
  8
0
 62
     3
100
AcDbLine
 10
77.93680161889998
 20
207.2921022966998
 30
0.0
 11
77.93680161889998
 21
208.7921022966999
 31
0.0
  0
LINE
  5
1CD
330
2
100
AcDbEntity
  8
0
 62
     3
100
AcDbLine
 10
70.22979707179996
 20
227.6421198442998
 30
0.0
 11
70.22979707179996
 21
215.0421366288999
 31
0.0
  0
LINE
  5
1CE
330
2
100
AcDbEntity
  8
0
 62
     3
100
AcDbLine
 10
77.02978104999998
 20
227.6421198442998
 30
0.0
 11
77.02978104999998
 21
215.0421366288999
 31
0.0
  0
LINE
  5
1CF
330
2
100
AcDbEntity
  8
0
 62
     3
100
AcDbLine
 10
77.02978104999998
 20
215.0421366288999
 30
0.0
 11
70.22979707179996
 21
215.0421366288999
 31
0.0
  0
LINE
  5
1D0
330
2
100
AcDbEntity
  8
0
 62
     3
100
AcDbLine
 10
72.12980241229998
 20
215.0421366288999
 30
0.0
 11
72.12980241229998
 21
214.7921022967
 31
0.0
  0
LINE
  5
1D1
330
2
100
AcDbEntity
  8
0
 62
     3
100
AcDbLine
 10
75.12979478289998
 20
215.0421366288999
 30
0.0
 11
75.12979478289998
 21
214.7921022967
 31
0.0
  0
LINE
  5
1D2
330
2
100
AcDbEntity
  8
0
 62
     3
100
AcDbLine
 10
76.09061021259998
 20
234.3921122149
 30
0.0
 11
71.12979859759995
 21
234.3921122149
 31
0.0
  0
LINE
  5
1D3
330
2
100
AcDbEntity
  8
0
 62
     3
100
AcDbLine
 10
74.92979020529999
 20
235.3921160296
 30
0.0
 11
72.32978791649998
 21
235.3921160296
 31
0.0
  0
LINE
  5
1D4
330
2
100
AcDbEntity
  8
0
 62
     3
100
AcDbLine
 10
77.02978104999998
 20
227.6421198442998
 30
0.0
 11
70.22979707179996
 21
227.6421198442998
 31
0.0
  0
LINE
  5
1D5
330
2
100
AcDbEntity
  8
0
 62
     3
100
AcDbLine
 10
75.12979478289998
 20
235.1921114518999
 30
0.0
 11
72.12980241229998
 21
235.1921114518999
 31
0.0
  0
LINE
  5
1D6
330
2
100
AcDbEntity
  8
0
 62
     3
100
AcDbLine
 10
72.12980241229998
 20
227.8921084001999
 30
0.0
 11
72.12980241229998
 21
227.6421198442998
 31
0.0
  0
LINE
  5
1D7
330
2
100
AcDbEntity
  8
0
 62
     3
100
AcDbLine
 10
71.12979859759995
 20
234.3921122149
 30
0.0
 11
71.12979859759995
 21
233.8931879595
 31
0.0
  0
LINE
  5
1D8
330
2
100
AcDbEntity
  8
0
 62
     3
100
AcDbLine
 10
72.12978056959997
 20
235.1921002359
 30
0.0
 11
72.32960384939997
 21
235.3919234988999
 31
0.0
  0
LINE
  5
1D9
330
2
100
AcDbEntity
  8
0
 62
     3
100
AcDbLine
 10
72.12980241229998
 20
235.1921114518999
 30
0.0
 11
72.12980241229998
 21
234.3921122149
 31
0.0
  0
LINE
  5
1DA
330
2
100
AcDbEntity
  8
0
 62
     3
100
AcDbLine
 10
75.12979478289998
 20
227.8921084001999
 30
0.0
 11
75.12979478289998
 21
227.6438936784999
 31
0.0
  0
LINE
  5
1DB
330
2
100
AcDbEntity
  8
0
 62
     3
100
AcDbLine
 10
75.1297557714
 20
235.1920680241
 30
0.0
 11
74.92975716069999
 21
235.392066618
 31
0.0
  0
LINE
  5
1DC
330
2
100
AcDbEntity
  8
0
 62
     3
100
AcDbLine
 10
75.12979478289998
 20
235.1921114518999
 30
0.0
 11
75.12979478289998
 21
234.3921122149
 31
0.0
  0
LINE
  5
1DD
330
2
100
AcDbEntity
  8
0
 62
     3
100
AcDbLine
 10
76.09061021259998
 20
235.3921084002
 30
0.0
 11
76.09061021259998
 21
233.8921084002
 31
0.0
  0
LINE
  5
1DE
330
2
100
AcDbEntity
  8
0
 62
     3
100
AcDbLine
 10
77.93680161889998
 20
216.2921022967
 30
0.0
 11
77.93680161889998
 21
214.7921022967
 31
0.0
  0
LINE
  5
1DF
330
2
100
AcDbEntity
  8
0
 62
     3
100
AcDbLine
 10
77.89767808369998
 20
233.8921084002
 30
0.0
 11
77.89767808369998
 21
227.8793215349999
 31
0.0
  0
LINE
  5
1E0
330
2
100
AcDbEntity
  8
0
 62
     3
100
AcDbLine
 10
77.93680161889998
 20
226.3921084002
 30
0.0
 11
77.93680161889998
 21
227.8921084001999
 31
0.0
  0
LINE
  5
1E1
330
2
100
AcDbEntity
  8
0
 62
     3
100
AcDbLine
 10
77.93680161889998
 20
235.3921084002
 30
0.0
 11
77.93680161889998
 21
233.8921084002
 31
0.0
  0
LINE
  5
1E2
330
2
100
AcDbEntity
  8
0
 62
     3
100
AcDbLine
 10
83.39059800559999
 20
233.9247622088
 30
0.0
 11
83.39059800559999
 21
227.8793215349999
 31
0.0
  0
LINE
  5
1E3
330
2
100
AcDbEntity
  8
0
  6
CENTER
 62
     3
100
AcDbLine
 10
106.3406407301999
 20
236.9147219256
 30
0.0
 11
106.3406407301999
 21
225.1222414568
 31
0.0
  0
LINE
  5
1E4
330
2
100
AcDbEntity
  8
0
 62
     3
100
AcDbLine
 10
100.8905980055998
 20
240.3219484881
 30
0.0
 11
100.8905980055998
 21
221.5813784197
 31
0.0
  0
LINE
  5
1E5
330
2
100
AcDbEntity
  8
0
 62
     3
100
AcDbLine
 10
111.6906163160999
 20
240.4421267107
 30
0.0
 11
111.6906163160999
 21
202.2421145036999
 31
0.0
  0
LINE
  5
1E6
330
2
100
AcDbEntity
  8
0
  6
CENTER
 62
     3
100
AcDbLine
 10
110.5303990309999
 20
155.6920961932
 30
0.0
 11
101.5741002028999
 21
155.6920961932
 31
0.0
  0
LINE
  5
1E7
330
2
100
AcDbEntity
  8
0
  6
PHANTOM
 62
     3
100
AcDbLine
 10
113.2989232008999
 20
162.6421084002
 30
0.0
 11
100.8906285231998
 21
162.6421084002
 31
0.0
  0
LINE
  5
1E8
330
2
100
AcDbEntity
  8
0
 62
     3
100
AcDbLine
 10
111.1906163160997
 20
161.3921084002
 30
0.0
 11
100.8906285231998
 21
161.3921084002
 31
0.0
  0
ARC
  5
1E9
330
2
100
AcDbEntity
  8
0
  6
PHANTOM
 62
     3
100
AcDbCircle
 10
106.3406102125999
 20
158.4754213884998
 30
0.0
 40
5.8333330154
100
AcDbArc
 50
74.1328335292
 51
105.8670945263999
  0
CIRCLE
  5
1EA
330
2
100
AcDbEntity
  8
0
 62
     3
100
AcDbCircle
 10
106.3406102125999
 20
155.6920961932
 30
0.0
 40
2.0499992371
  0
CIRCLE
  5
1EB
330
2
100
AcDbEntity
  8
0
 62
     3
100
AcDbCircle
 10
106.3406102125999
 20
155.6920961932
 30
0.0
 40
1.1999998093
  0
LINE
  5
1EC
330
2
100
AcDbEntity
  8
0
  6
CENTER
 62
     3
100
AcDbLine
 10
106.3406102125999
 20
165.2899965837999
 30
0.0
 11
106.3406102125999
 21
151.9658388689
 31
0.0
  0
ARC
  5
1ED
330
2
100
AcDbEntity
  8
0
 62
     3
100
AcDbCircle
 10
100.3906285231999
 20
164.3921084002
 30
0.0
 40
0.5
100
AcDbArc
 50
359.9999820138998
 51
89.99996402779997
  0
LINE
  5
1EE
330
2
100
AcDbEntity
  8
0
 62
     3
100
AcDbLine
 10
100.8906285231998
 20
164.3921084002
 30
0.0
 11
100.8906285231998
 21
161.3921084002
 31
0.0
  0
ARC
  5
1EF
330
2
100
AcDbEntity
  8
0
  6
PHANTOM
 62
     3
100
AcDbCircle
 10
104.9963414137999
 20
163.2047609880999
 30
0.0
 40
0.9166666864999999
100
AcDbArc
 50
105.8671664708
 51
177.0000349781
  0
LINE
  5
1F0
330
2
100
AcDbEntity
  8
0
  6
PHANTOM
 62
     3
100
AcDbLine
 10
104.0809192160999
 20
163.2527463599999
 30
0.0
 11
104.0489167888999
 21
162.6421036751
 31
0.0
  0
LINE
  5
1F1
330
2
100
AcDbEntity
  8
0
 62
     3
100
AcDbLine
 10
111.2093846267
 20
149.8921084002
 30
0.0
 11
107.1355473463998
 21
149.8921084002
 31
0.0
  0
CIRCLE
  5
1F2
330
2
100
AcDbEntity
  8
0
 62
     3
100
AcDbCircle
 10
109.2906224196999
 20
149.8921084002
 30
0.0
 40
1.0
  0
LINE
  5
1F3
330
2
100
AcDbEntity
  8
0
 62
     3
100
AcDbLine
 10
109.2906224196999
 20
151.8645815446998
 30
0.0
 11
109.2906224196999
 21
147.8466982438999
 31
0.0
  0
CIRCLE
  5
1F4
330
2
100
AcDbEntity
  8
0
 62
     3
100
AcDbCircle
 10
109.2906224196999
 20
149.8921084002
 30
0.0
 40
0.6999999881
  0
ARC
  5
1F5
330
2
100
AcDbEntity
  8
0
  6
PHANTOM
 62
     3
100
AcDbCircle
 10
107.6848484938998
 20
163.2047609880999
 30
0.0
 40
0.9166666864999999
100
AcDbArc
 50
2.999965021899998
 51
74.1328335292
  0
LINE
  5
1F6
330
2
100
AcDbEntity
  8
0
  6
PHANTOM
 62
     3
100
AcDbLine
 10
108.6002429396998
 20
163.2527397892
 30
0.0
 11
108.6322453668999
 21
162.6420971041999
 31
0.0
  0
ARC
  5
1F7
330
2
100
AcDbEntity
  8
0
 62
     3
100
AcDbCircle
 10
111.1906163160997
 20
160.8921084002
 30
0.0
 40
0.5
100
AcDbArc
 50
359.9999820138998
 51
89.99996402779997
  0
LINE
  5
1F8
330
2
100
AcDbEntity
  8
0
 62
     3
100
AcDbLine
 10
104.1406285231999
 20
230.8921084002
 30
0.0
 11
88.8444096511
 21
230.8921084002
 31
0.0
  0
LINE
  5
1F9
330
2
100
AcDbEntity
  8
0
 62
     3
100
AcDbLine
 10
104.1406285231999
 20
211.7921022966998
 30
0.0
 11
88.8444096511
 21
211.7921022966998
 31
0.0
  0
LINE
  5
1FA
330
2
100
AcDbEntity
  8
0
 62
     3
100
AcDbLine
 10
88.8444096511
 20
207.2921022966998
 30
0.0
 11
88.8444096511
 21
216.2921328142
 31
0.0
  0
LINE
  5
1FB
330
2
100
AcDbEntity
  8
0
 62
     3
100
AcDbLine
 10
90.69060105730001
 20
216.2921328142
 30
0.0
 11
90.69060105730001
 21
207.2921022966998
 31
0.0
  0
CIRCLE
  5
1FC
330
2
100
AcDbEntity
  8
0
 62
     3
100
AcDbCircle
 10
87.50398606709998
 20
211.7285341814
 30
0.0
 40
1.0
  0
CIRCLE
  5
1FD
330
2
100
AcDbEntity
  8
0
 62
     3
100
AcDbCircle
 10
87.50398606709998
 20
230.828540285
 30
0.0
 40
1.0
  0
LINE
  5
1FE
330
2
100
AcDbEntity
  8
0
 62
     3
100
AcDbLine
 10
90.69060105730001
 20
235.3921389178
 30
0.0
 11
90.69060105730001
 21
226.3921084002
 31
0.0
  0
LINE
  5
1FF
330
2
100
AcDbEntity
  8
0
 62
     3
100
AcDbLine
 10
88.8444096511
 20
226.3921084002
 30
0.0
 11
88.8444096511
 21
235.3921389178
 31
0.0
  0
CIRCLE
  5
200
330
2
100
AcDbEntity
  8
0
 62
     3
100
AcDbCircle
 10
106.3406407301999
 20
211.7921022966998
 30
0.0
 40
1.5
  0
LINE
  5
201
330
2
100
AcDbEntity
  8
0
 62
     3
100
AcDbLine
 10
100.8905980055998
 20
221.2219423846
 30
0.0
 11
100.8905980055998
 21
202.4813723162
 31
0.0
  0
LINE
  5
202
330
2
100
AcDbEntity
  8
0
  6
CENTER
 62
     3
100
AcDbLine
 10
106.3406407301999
 20
217.8147158220999
 30
0.0
 11
106.3406407301999
 21
206.0222353533
 31
0.0
  0
LINE
  5
203
330
2
100
AcDbEntity
  8
0
  6
CENTER
 62
     3
100
AcDbLine
 10
111.5567357008999
 20
211.7921022966998
 30
0.0
 11
100.1541172926999
 21
211.7921022966998
 31
0.0
  0
CIRCLE
  5
204
330
2
100
AcDbEntity
  8
0
 62
     3
100
AcDbCircle
 10
106.3406407301999
 20
211.7921022966998
 30
0.0
 40
1.25
  0
CIRCLE
  5
205
330
2
100
AcDbEntity
  8
0
 62
     3
100
AcDbCircle
 10
106.3406407301999
 20
230.8921084002
 30
0.0
 40
1.5
  0
CIRCLE
  5
206
330
2
100
AcDbEntity
  8
0
 62
     3
100
AcDbCircle
 10
106.3406407301999
 20
230.8921084002
 30
0.0
 40
1.25
  0
LINE
  5
207
330
2
100
AcDbEntity
  8
0
  6
CENTER
 62
     3
100
AcDbLine
 10
111.5567357008999
 20
230.8921084002
 30
0.0
 11
100.1541172926999
 21
230.8921084002
 31
0.0
  0
TEXT
  5
21D
330
2
100
AcDbEntity
  8
0
 62
     7
100
AcDbText
 10
146.0
 20
110.0000029552498
 30
0.0
 40
2.999994089499998
  1
NRBM2111F
 11
146.0
 21
111.4999999999999
 31
0.0
100
AcDbText
 73
     2
  0
TEXT
  5
21E
330
2
100
AcDbEntity
  8
0
 62
     7
100
AcDbText
 10
146.0
 20
115.0000029552499
 30
0.0
 40
2.999994089499998
  1
NRBM2111
 11
146.0
 21
116.5
 31
0.0
100
AcDbText
 73
     2
  0
ENDSEC
  0
SECTION
  2
OBJECTS
  0
DICTIONARY
  5
7
330
0
100
AcDbDictionary
281
     1
  3
ACAD_GROUP
350
1F
  3
ACAD_LAYOUT
350
B
  3
ACAD_MLINESTYLE
350
20
  3
ACAD_PLOTSETTINGS
350
21
  3
ACAD_PLOTSTYLENAME
350
6
  3
AcDbVariableDictionary
350
21F
  0
DICTIONARY
  5
1F
102
{ACAD_REACTORS
330
7
102
}
330
7
100
AcDbDictionary
281
     1
  0
DICTIONARY
  5
B
102
{ACAD_REACTORS
330
7
102
}
330
7
100
AcDbDictionary
281
     1
  3
Model
350
A
  3
ﾚｲｱｳﾄ1
350
F
  0
DICTIONARY
  5
20
102
{ACAD_REACTORS
330
7
102
}
330
7
100
AcDbDictionary
281
     1
  3
Standard
350
22
  0
DICTIONARY
  5
21
102
{ACAD_REACTORS
330
7
102
}
330
7
100
AcDbDictionary
281
     1
  0
ACDBDICTIONARYWDFLT
  5
6
102
{ACAD_REACTORS
330
7
102
}
330
7
100
AcDbDictionary
281
     1
  3
Normal
350
5
100
AcDbDictionaryWithDefault
340
5
  0
DICTIONARY
  5
21F
102
{ACAD_REACTORS
330
7
102
}
330
7
100
AcDbDictionary
281
     1
  3
DIMASSOC
350
220
  0
LAYOUT
  5
A
102
{ACAD_REACTORS
330
B
102
}
330
B
100
AcDbPlotSettings
  1

  2
C:\Program Files\AutoCAD 2000i\plotters\DWF Classic.pc3
  4

  6

 40
0.0
 41
0.0
 42
0.0
 43
0.0
 44
0.0
 45
0.0
 46
0.0
 47
0.0
 48
0.0
 49
0.0
140
0.0
141
0.0
142
1.0
143
1.0
 70
  1712
 72
     0
 73
     0
 74
     0
  7

 75
     0
147
1.0
148
0.0
149
0.0
100
AcDbLayout
  1
Model
 70
     1
 71
     0
 10
0.0
 20
0.0
 11
12.0
 21
9.0
 12
0.0
 22
0.0
 32
0.0
 14
0.0
 24
0.0
 34
0.0
 15
0.0
 25
0.0
 35
0.0
146
0.0
 13
0.0
 23
0.0
 33
0.0
 16
1.0
 26
0.0
 36
0.0
 17
0.0
 27
1.0
 37
0.0
 76
     0
330
2
  0
LAYOUT
  5
F
102
{ACAD_REACTORS
330
B
102
}
330
B
100
AcDbPlotSettings
  1

  2
C:\Program Files\AutoCAD 2000i\plotters\DWF Classic.pc3
  4

  6

 40
0.0
 41
0.0
 42
0.0
 43
0.0
 44
0.0
 45
0.0
 46
0.0
 47
0.0
 48
0.0
 49
0.0
140
0.0
141
0.0
142
1.0
143
1.0
 70
   688
 72
     0
 73
     0
 74
     5
  7

 75
    16
147
1.0
148
0.0
149
0.0
100
AcDbLayout
  1
ﾚｲｱｳﾄ1
 70
     1
 71
     1
 10
0.0
 20
0.0
 11
12.0
 21
9.0
 12
0.0
 22
0.0
 32
0.0
 14
1.000000000000000E+20
 24
1.000000000000000E+20
 34
1.000000000000000E+20
 15
-1.000000000000000E+20
 25
-1.000000000000000E+20
 35
-1.000000000000000E+20
146
0.0
 13
0.0
 23
0.0
 33
0.0
 16
1.0
 26
0.0
 36
0.0
 17
0.0
 27
1.0
 37
0.0
 76
     0
330
C
  0
MLINESTYLE
  5
22
102
{ACAD_REACTORS
330
20
102
}
330
20
100
AcDbMlineStyle
  2
STANDARD
 70
     0
  3

 62
   256
 51
90.0
 52
90.0
 71
     2
 49
0.5
 62
   256
  6
BYLAYER
 49
-0.5
 62
   256
  6
BYLAYER
  0
ACDBPLACEHOLDER
  5
5
102
{ACAD_REACTORS
330
6
102
}
330
6
  0
DICTIONARYVAR
  5
220
102
{ACAD_REACTORS
330
21F
102
}
330
21F
100
DictionaryVariables
280
     0
  1
1
  0
ENDSEC
  0
EOF
