  0
SECTION
  2
HEADER
  9
$ACADVER
  1
AC1015
  9
$ACADMAINTVER
 70
    13
  9
$DWGCODEPAGE
  3
ANSI_932
  9
$INSBASE
 10
0.0
 20
0.0
 30
0.0
  9
$EXTMIN
 10
-0.0182270987114635
 20
-0.0006537740625845
 30
-0.0000000000112498
  9
$EXTMAX
 10
210.024025502352
 20
297.0044886908847
 30
0.0000000000002956
  9
$LIMMIN
 10
-193.9005401611
 20
-3.174999999999998
  9
$LIMMAX
 10
3.174999999999998
 20
291.2585876465
  9
$ORTHOMODE
 70
     0
  9
$REGENMODE
 70
     1
  9
$FILLMODE
 70
     1
  9
$QTEXTMODE
 70
     0
  9
$MIRRTEXT
 70
     0
  9
$LTSCALE
 40
1.0
  9
$ATTMODE
 70
     1
  9
$TEXTSIZE
 40
2.999994039499998
  9
$TRACEWID
 40
0.05
  9
$TEXTSTYLE
  7
STANDARD
  9
$CLAYER
  8
0
  9
$CELTYPE
  6
ByLayer
  9
$CECOLOR
 62
   256
  9
$CELTSCALE
 40
1.0
  9
$DISPSILH
 70
     0
  9
$DIMSCALE
 40
1.0
  9
$DIMASZ
 40
1.9727878465
  9
$DIMEXO
 40
2.539999961899999
  9
$DIMDLI
 40
0.38
  9
$DIMRND
 40
0.0
  9
$DIMDLE
 40
0.0
  9
$DIMEXE
 40
3.809999942799998
  9
$DIMTP
 40
0.0
  9
$DIMTM
 40
0.0
  9
$DIMTXT
 40
2.999994039499998
  9
$DIMCEN
 40
0.09
  9
$DIMTSZ
 40
0.0
  9
$DIMTOL
 70
     0
  9
$DIMLIM
 70
     0
  9
$DIMTIH
 70
     0
  9
$DIMTOH
 70
     1
  9
$DIMSE1
 70
     0
  9
$DIMSE2
 70
     0
  9
$DIMTAD
 70
     0
  9
$DIMZIN
 70
     0
  9
$DIMBLK
  1

  9
$DIMASO
 70
     1
  9
$DIMSHO
 70
     0
  9
$DIMPOST
  1

  9
$DIMAPOST
  1

  9
$DIMALT
 70
     0
  9
$DIMALTD
 70
     2
  9
$DIMALTF
 40
25.4
  9
$DIMLFAC
 40
1.0
  9
$DIMTOFL
 70
     0
  9
$DIMTVP
 40
0.0
  9
$DIMTIX
 70
     0
  9
$DIMSOXD
 70
     0
  9
$DIMSAH
 70
     0
  9
$DIMBLK1
  1

  9
$DIMBLK2
  1

  9
$DIMSTYLE
  2
Standard
  9
$DIMCLRD
 70
     0
  9
$DIMCLRE
 70
     0
  9
$DIMCLRT
 70
     0
  9
$DIMTFAC
 40
1.0
  9
$DIMGAP
 40
0.09
  9
$DIMJUST
 70
     0
  9
$DIMSD1
 70
     0
  9
$DIMSD2
 70
     0
  9
$DIMTOLJ
 70
     1
  9
$DIMTZIN
 70
     0
  9
$DIMALTZ
 70
     0
  9
$DIMALTTZ
 70
     0
  9
$DIMUPT
 70
     0
  9
$DIMDEC
 70
     4
  9
$DIMTDEC
 70
     4
  9
$DIMALTU
 70
     2
  9
$DIMALTTD
 70
     2
  9
$DIMTXSTY
  7
STANDARD
  9
$DIMAUNIT
 70
     0
  9
$DIMADEC
 70
     0
  9
$DIMALTRND
 40
0.0
  9
$DIMAZIN
 70
     0
  9
$DIMDSEP
 70
    46
  9
$DIMATFIT
 70
     3
  9
$DIMFRAC
 70
     0
  9
$DIMLDRBLK
  1

  9
$DIMLUNIT
 70
     2
  9
$DIMLWD
 70
    -2
  9
$DIMLWE
 70
    -2
  9
$DIMTMOVE
 70
     0
  9
$LUNITS
 70
     2
  9
$LUPREC
 70
     3
  9
$SKETCHINC
 40
0.1
  9
$FILLETRAD
 40
0.0625
  9
$AUNITS
 70
     0
  9
$AUPREC
 70
     0
  9
$MENU
  1
ACAD
  9
$ELEVATION
 40
0.0
  9
$PELEVATION
 40
0.0
  9
$THICKNESS
 40
0.0
  9
$LIMCHECK
 70
     0
  9
$CHAMFERA
 40
0.0
  9
$CHAMFERB
 40
0.0
  9
$CHAMFERC
 40
0.0
  9
$CHAMFERD
 40
0.0
  9
$SKPOLY
 70
     0
  9
$TDCREATE
 40
2452527.778715277
  9
$TDUCREATE
 40
2452527.403715277
  9
$TDUPDATE
 40
2453339.777469791
  9
$TDUUPDATE
 40
2453339.402469791
  9
$TDINDWG
 40
0.0028054398
  9
$TDUSRTIMER
 40
0.0028054398
  9
$USRTIMER
 70
     1
  9
$ANGBASE
 50
0.0
  9
$ANGDIR
 70
     0
  9
$PDMODE
 70
     0
  9
$PDSIZE
 40
0.0
  9
$PLINEWID
 40
0.0
  9
$SPLFRAME
 70
     0
  9
$SPLINETYPE
 70
     6
  9
$SPLINESEGS
 70
     8
  9
$HANDSEED
  5
2A5
  9
$SURFTAB1
 70
     6
  9
$SURFTAB2
 70
     6
  9
$SURFTYPE
 70
     6
  9
$SURFU
 70
     6
  9
$SURFV
 70
     6
  9
$UCSBASE
  2

  9
$UCSNAME
  2

  9
$UCSORG
 10
0.0
 20
0.0
 30
0.0
  9
$UCSXDIR
 10
1.0
 20
0.0
 30
0.0
  9
$UCSYDIR
 10
0.0
 20
1.0
 30
0.0
  9
$UCSORTHOREF
  2

  9
$UCSORTHOVIEW
 70
     0
  9
$UCSORGTOP
 10
0.0
 20
0.0
 30
0.0
  9
$UCSORGBOTTOM
 10
0.0
 20
0.0
 30
0.0
  9
$UCSORGLEFT
 10
0.0
 20
0.0
 30
0.0
  9
$UCSORGRIGHT
 10
0.0
 20
0.0
 30
0.0
  9
$UCSORGFRONT
 10
0.0
 20
0.0
 30
0.0
  9
$UCSORGBACK
 10
0.0
 20
0.0
 30
0.0
  9
$PUCSBASE
  2

  9
$PUCSNAME
  2

  9
$PUCSORG
 10
0.0
 20
0.0
 30
0.0
  9
$PUCSXDIR
 10
1.0
 20
0.0
 30
0.0
  9
$PUCSYDIR
 10
0.0
 20
1.0
 30
0.0
  9
$PUCSORTHOREF
  2

  9
$PUCSORTHOVIEW
 70
     0
  9
$PUCSORGTOP
 10
0.0
 20
0.0
 30
0.0
  9
$PUCSORGBOTTOM
 10
0.0
 20
0.0
 30
0.0
  9
$PUCSORGLEFT
 10
0.0
 20
0.0
 30
0.0
  9
$PUCSORGRIGHT
 10
0.0
 20
0.0
 30
0.0
  9
$PUCSORGFRONT
 10
0.0
 20
0.0
 30
0.0
  9
$PUCSORGBACK
 10
0.0
 20
0.0
 30
0.0
  9
$USERI1
 70
     8
  9
$USERI2
 70
     0
  9
$USERI3
 70
     0
  9
$USERI4
 70
     0
  9
$USERI5
 70
     0
  9
$USERR1
 40
0.0
  9
$USERR2
 40
0.0
  9
$USERR3
 40
0.0
  9
$USERR4
 40
0.0
  9
$USERR5
 40
0.0
  9
$WORLDVIEW
 70
     1
  9
$SHADEDGE
 70
     3
  9
$SHADEDIF
 70
    70
  9
$TILEMODE
 70
     1
  9
$MAXACTVP
 70
    64
  9
$PINSBASE
 10
0.0
 20
0.0
 30
0.0
  9
$PLIMCHECK
 70
     0
  9
$PEXTMIN
 10
1.000000000000000E+20
 20
1.000000000000000E+20
 30
1.000000000000000E+20
  9
$PEXTMAX
 10
-1.000000000000000E+20
 20
-1.000000000000000E+20
 30
-1.000000000000000E+20
  9
$PLIMMIN
 10
0.0
 20
0.0
  9
$PLIMMAX
 10
12.0
 20
9.0
  9
$UNITMODE
 70
     0
  9
$VISRETAIN
 70
     1
  9
$PLINEGEN
 70
     0
  9
$PSLTSCALE
 70
     1
  9
$TREEDEPTH
 70
  3020
  9
$CMLSTYLE
  2
Standard
  9
$CMLJUST
 70
     0
  9
$CMLSCALE
 40
1.0
  9
$PROXYGRAPHICS
 70
     1
  9
$MEASUREMENT
 70
     0
  9
$CELWEIGHT
370
    -1
  9
$ENDCAPS
280
     0
  9
$JOINSTYLE
280
     0
  9
$LWDISPLAY
290
     0
  9
$INSUNITS
 70
     0
  9
$HYPERLINKBASE
  1

  9
$STYLESHEET
  1

  9
$XEDIT
290
     1
  9
$CEPSNTYPE
380
     0
  9
$PSTYLEMODE
290
     1
  9
$FINGERPRINTGUID
  2
{446C049B-6E56-497D-9D9C-D5F5B8820932}
  9
$VERSIONGUID
  2
{9CC25DD2-54A4-4B2D-AE87-FE192DF0EAE0}
  9
$EXTNAMES
290
     1
  9
$PSVPSCALE
 40
0.0
  9
$OLESTARTUP
290
     0
  0
ENDSEC
  0
SECTION
  2
CLASSES
  0
CLASS
  1
ACDBDICTIONARYWDFLT
  2
AcDbDictionaryWithDefault
  3
AutoCAD 2000
 90
        0
280
     0
281
     0
  0
CLASS
  1
ACDBPLACEHOLDER
  2
AcDbPlaceHolder
  3
AutoCAD 2000
 90
        0
280
     0
281
     0
  0
CLASS
  1
LAYOUT
  2
AcDbLayout
  3
AutoCAD 2000
 90
        0
280
     0
281
     0
  0
CLASS
  1
DICTIONARYVAR
  2
AcDbDictionaryVar
  3
AutoCAD 2000
 90
        0
280
     0
281
     0
  0
ENDSEC
  0
SECTION
  2
TABLES
  0
TABLE
  2
VPORT
  5
8
330
0
100
AcDbSymbolTable
 70
     2
  0
VPORT
  5
2A4
330
8
100
AcDbSymbolTableRecord
100
AcDbViewportTableRecord
  2
*Active
 70
     0
 10
0.0
 20
0.0
 11
1.0
 21
1.0
 12
105.0028992018202
 22
148.501917458411
 13
0.0
 23
0.0
 14
1.0
 24
1.0
 15
0.0
 25
0.0
 16
0.0
 26
0.0
 36
1.0
 17
0.0
 27
0.0
 37
0.0
 40
301.0007273411573
 41
2.253932584269663
 42
50.0
 43
0.0
 44
0.0
 50
0.0
 51
0.0
 71
     0
 72
   100
 73
     1
 74
     1
 75
     0
 76
     0
 77
     0
 78
     0
281
     0
 65
     1
110
0.0
120
0.0
130
0.0
111
1.0
121
0.0
131
0.0
112
0.0
122
1.0
132
0.0
 79
     0
146
0.0
  0
ENDTAB
  0
TABLE
  2
LTYPE
  5
5
330
0
100
AcDbSymbolTable
 70
     3
  0
LTYPE
  5
13
330
5
100
AcDbSymbolTableRecord
100
AcDbLinetypeTableRecord
  2
ByBlock
 70
     0
  3

 72
    65
 73
     0
 40
0.0
  0
LTYPE
  5
14
330
5
100
AcDbSymbolTableRecord
100
AcDbLinetypeTableRecord
  2
ByLayer
 70
     0
  3

 72
    65
 73
     0
 40
0.0
  0
LTYPE
  5
15
330
5
100
AcDbSymbolTableRecord
100
AcDbLinetypeTableRecord
  2
Continuous
 70
     0
  3
Solid line
 72
    65
 73
     0
 40
0.0
  0
LTYPE
  5
24
330
5
100
AcDbSymbolTableRecord
100
AcDbLinetypeTableRecord
  2
CENTER
 70
     0
  3
Center
 72
    65
 73
     4
 40
9.100006759199999
 49
6.5000119209
 74
     0
 49
-0.7999984026000001
 74
     0
 49
0.9999980329999999
 74
     0
 49
-0.7999984026000001
 74
     0
  0
LTYPE
  5
25
330
5
100
AcDbSymbolTableRecord
100
AcDbLinetypeTableRecord
  2
PHANTOM
 70
     0
  3
Phantom
 72
    65
 73
     6
 40
9.499981462999999
 49
4.799990654
 74
     0
 49
-0.8999982475999999
 74
     0
 49
0.9999980329999999
 74
     0
 49
-0.8999982475999999
 74
     0
 49
0.9999980329999999
 74
     0
 49
-0.8999982475999999
 74
     0
  0
ENDTAB
  0
TABLE
  2
LAYER
  5
2
330
0
100
AcDbSymbolTable
 70
     1
  0
LAYER
  5
10
330
2
100
AcDbSymbolTableRecord
100
AcDbLayerTableRecord
  2
0
 70
     0
 62
     7
  6
Continuous
370
    -3
390
F
  0
ENDTAB
  0
TABLE
  2
STYLE
  5
3
330
0
100
AcDbSymbolTable
 70
     1
  0
STYLE
  5
11
330
3
100
AcDbSymbolTableRecord
100
AcDbTextStyleTableRecord
  2
STANDARD
 70
     0
 40
0.0
 41
1.0
 50
0.0
 71
     0
 42
2.999994039499998
  3
romans.shx
  4
bigfont.shx
  0
ENDTAB
  0
TABLE
  2
VIEW
  5
6
330
0
100
AcDbSymbolTable
 70
     0
  0
ENDTAB
  0
TABLE
  2
UCS
  5
7
330
0
100
AcDbSymbolTable
 70
     0
  0
ENDTAB
  0
TABLE
  2
APPID
  5
9
330
0
100
AcDbSymbolTable
 70
     1
  0
APPID
  5
12
330
9
100
AcDbSymbolTableRecord
100
AcDbRegAppTableRecord
  2
ACAD
 70
     0
  0
ENDTAB
  0
TABLE
  2
DIMSTYLE
  5
A
330
0
100
AcDbSymbolTable
 70
     1
100
AcDbDimStyleTable
 71
     0
  0
DIMSTYLE
105
26A
330
A
100
AcDbSymbolTableRecord
100
AcDbDimStyleTableRecord
  2
Standard
 70
     0
340
11
  0
ENDTAB
  0
TABLE
  2
BLOCK_RECORD
  5
1
330
0
100
AcDbSymbolTable
 70
     2
  0
BLOCK_RECORD
  5
1E
330
1
100
AcDbSymbolTableRecord
100
AcDbBlockTableRecord
  2
*Model_Space
340
21
  0
BLOCK_RECORD
  5
1A
330
1
100
AcDbSymbolTableRecord
100
AcDbBlockTableRecord
  2
*Paper_Space
340
1D
  0
ENDTAB
  0
ENDSEC
  0
SECTION
  2
BLOCKS
  0
BLOCK
  5
1F
330
1E
100
AcDbEntity
  8
0
100
AcDbBlockBegin
  2
*Model_Space
 70
     0
 10
0.0
 20
0.0
 30
0.0
  3
*Model_Space
  1

  0
ENDBLK
  5
20
330
1E
100
AcDbEntity
  8
0
100
AcDbBlockEnd
  0
BLOCK
  5
1B
330
1A
100
AcDbEntity
 67
     1
  8
0
100
AcDbBlockBegin
  2
*Paper_Space
 70
     0
 10
0.0
 20
0.0
 30
0.0
  3
*Paper_Space
  1

  0
ENDBLK
  5
1C
330
1A
100
AcDbEntity
 67
     1
  8
0
100
AcDbBlockEnd
  0
ENDSEC
  0
SECTION
  2
ENTITIES
  0
LINE
  5
101
330
1E
100
AcDbEntity
  8
0
  6
CENTER
 62
     3
100
AcDbLine
 10
52.33621581089997
 20
228.9654559379
 30
0.0
 11
52.33621581089997
 21
217.5628375297
 31
0.0
  0
LINE
  5
102
330
1E
100
AcDbEntity
  8
0
  6
CENTER
 62
     3
100
AcDbLine
 10
52.33624632849998
 20
176.6654223684999
 30
0.0
 11
52.33624632849998
 21
165.2628039602999
 31
0.0
  0
LINE
  5
110
330
1E
100
AcDbEntity
  8
0
  6
CENTER
 62
     3
100
AcDbLine
 10
77.68010314
 20
200.7993182426
 30
0.0
 11
157.0762823391999
 21
200.7993182426
 31
0.0
  0
LINE
  5
112
330
1E
100
AcDbEntity
  8
0
  6
CENTER
 62
     3
100
AcDbLine
 10
39.78619750029997
 20
200.7993182426
 30
0.0
 11
64.88620360389997
 21
200.7993182426
 31
0.0
  0
LINE
  5
113
330
1E
100
AcDbEntity
  8
0
 62
     3
100
AcDbLine
 10
49.46918089879996
 20
195.3063983207
 30
0.0
 11
55.34900267609998
 21
195.3063983207
 31
0.0
  0
LINE
  5
114
330
1E
100
AcDbEntity
  8
0
 62
     3
100
AcDbLine
 10
49.3035620023
 20
200.7993182426
 30
0.0
 11
55.34900267609998
 21
200.7993182426
 31
0.0
  0
LINE
  5
118
330
1E
100
AcDbEntity
  8
0
 62
     3
100
AcDbLine
 10
98.2077141078
 20
199.6318202551
 30
0.0
 11
89.71873423669999
 21
195.3064693793999
 31
0.0
  0
LINE
  5
119
330
1E
100
AcDbEntity
  8
0
 62
     3
100
AcDbLine
 10
86.30146829589998
 20
194.4265653025999
 30
0.0
 11
89.71875623359997
 21
195.3064526570999
 31
0.0
  0
LINE
  5
11A
330
1E
100
AcDbEntity
  8
0
 62
     3
100
AcDbLine
 10
98.28119183349995
 20
193.720943861
 30
0.0
 11
92.14814033949995
 21
190.5959983372
 31
0.0
  0
LINE
  5
11B
330
1E
100
AcDbEntity
  8
0
 62
     3
100
AcDbLine
 10
89.40440606439997
 20
188.3366858902999
 30
0.0
 11
92.12485832179998
 21
190.5841491907
 31
0.0
  0
LINE
  5
11C
330
1E
100
AcDbEntity
  8
0
 62
     3
100
AcDbLine
 10
56.83621581089997
 20
193.4993304496
 30
0.0
 11
55.33621581089997
 21
193.4993304496
 31
0.0
  0
LINE
  5
11D
330
1E
100
AcDbEntity
  8
0
 62
     3
100
AcDbLine
 10
52.33621581089997
 20
221.5493487602
 30
0.0
 11
52.33621581089997
 21
206.2531298881
 31
0.0
  0
LINE
  5
11E
330
1E
100
AcDbEntity
  8
0
 62
     3
100
AcDbLine
 10
161.3362005520999
 20
224.6993121390999
 30
0.0
 11
164.8362005520999
 21
224.6993121390999
 31
0.0
  0
LINE
  5
11F
330
1E
100
AcDbEntity
  8
0
 62
     3
100
AcDbLine
 10
161.3362005520999
 20
219.6993121390999
 30
0.0
 11
164.8362005520999
 21
219.6993121390999
 31
0.0
  0
LINE
  5
120
330
1E
100
AcDbEntity
  8
0
 62
     3
100
AcDbLine
 10
161.3362005520999
 20
175.4993151908
 30
0.0
 11
164.8362005520999
 21
175.4993151908
 31
0.0
  0
LINE
  5
121
330
1E
100
AcDbEntity
  8
0
 62
     3
100
AcDbLine
 10
161.3362005520999
 20
170.4993151907999
 30
0.0
 11
164.8362005520999
 21
170.4993151907999
 31
0.0
  0
LINE
  5
122
330
1E
100
AcDbEntity
  8
0
 62
     3
100
AcDbLine
 10
165.3362005520999
 20
224.1993121390999
 30
0.0
 11
165.3362005520999
 21
220.1993121390999
 31
0.0
  0
LINE
  5
123
330
1E
100
AcDbEntity
  8
0
 62
     3
100
AcDbLine
 10
165.3361732979
 20
224.1993573603
 30
0.0
 11
164.8361835145999
 21
224.6993471015
 31
0.0
  0
LINE
  5
124
330
1E
100
AcDbEntity
  8
0
 62
     3
100
AcDbLine
 10
165.3361715698
 20
220.1993568815
 30
0.0
 11
164.8361817863998
 21
219.6993671402998
 31
0.0
  0
LINE
  5
125
330
1E
100
AcDbEntity
  8
0
 62
     3
100
AcDbLine
 10
164.8362005520999
 20
224.6993121390999
 30
0.0
 11
164.8362005520999
 21
219.6993121390999
 31
0.0
  0
LINE
  5
126
330
1E
100
AcDbEntity
  8
0
 62
     3
100
AcDbLine
 10
161.3362005520999
 20
224.1993121390999
 30
0.0
 11
165.3362005520999
 21
224.1993121390999
 31
0.0
  0
LINE
  5
128
330
1E
100
AcDbEntity
  8
0
 62
     3
100
AcDbLine
 10
161.3362005520999
 20
220.1993121390999
 30
0.0
 11
165.3362005520999
 21
220.1993121390999
 31
0.0
  0
CIRCLE
  5
129
330
1E
100
AcDbEntity
  8
0
 62
     3
100
AcDbCircle
 10
52.33621581089997
 20
223.7493609672
 30
0.0
 40
1.25
  0
LINE
  5
12A
330
1E
100
AcDbEntity
  8
0
 62
     3
100
AcDbLine
 10
155.8362005520999
 20
227.1993121391
 30
0.0
 11
155.8362005520999
 21
217.1993121390999
 31
0.0
  0
LINE
  5
12B
330
1E
100
AcDbEntity
  8
0
 62
     3
100
AcDbLine
 10
156.8362005520999
 20
226.7993182425998
 30
0.0
 11
158.1362036038999
 21
226.7993182425998
 31
0.0
  0
LINE
  5
12D
330
1E
100
AcDbEntity
  8
0
 62
     3
100
AcDbLine
 10
156.8362005520999
 20
217.5993365531
 30
0.0
 11
158.1362036038999
 21
217.5993365531
 31
0.0
  0
LINE
  5
12E
330
1E
100
AcDbEntity
  8
0
 62
     3
100
AcDbLine
 10
158.1362036038999
 20
226.7993182425998
 30
0.0
 11
158.1362036038999
 21
217.5993365531
 31
0.0
  0
LINE
  5
12F
330
1E
100
AcDbEntity
  8
0
 62
     3
100
AcDbLine
 10
156.8361870418998
 20
223.5564622072
 30
0.0
 11
158.1361819481998
 21
222.2564673008999
 31
0.0
  0
LINE
  5
130
330
1E
100
AcDbEntity
  8
0
 62
     3
100
AcDbLine
 10
156.8361870418998
 20
222.1422486690999
 30
0.0
 11
158.1361819481998
 21
220.8422537628
 31
0.0
  0
LINE
  5
131
330
1E
100
AcDbEntity
  8
0
 62
     3
100
AcDbLine
 10
161.3362005520999
 20
225.7993182426
 30
0.0
 11
161.3362005520999
 21
218.889924932
 31
0.0
  0
LINE
  5
132
330
1E
100
AcDbEntity
  8
0
 62
     3
100
AcDbLine
 10
158.7135504056
 20
217.5993365531
 30
0.0
 11
160.7588537502999
 21
217.5993365531
 31
0.0
  0
LINE
  5
133
330
1E
100
AcDbEntity
  8
0
 62
     3
100
AcDbLine
 10
158.7135504056
 20
226.7993182425998
 30
0.0
 11
160.7588537502999
 21
226.7993182425998
 31
0.0
  0
LINE
  5
134
330
1E
100
AcDbEntity
  8
0
 62
     3
100
AcDbLine
 10
158.7135504056
 20
219.889924932
 30
0.0
 11
160.7588537502999
 21
219.889924932
 31
0.0
  0
CIRCLE
  5
135
330
1E
100
AcDbEntity
  8
0
 62
     3
100
AcDbCircle
 10
52.33621581089997
 20
223.7493609672
 30
0.0
 40
1.5
  0
CIRCLE
  5
136
330
1E
100
AcDbEntity
  8
0
 62
     3
100
AcDbCircle
 10
188.9859045316
 20
172.9993151908
 30
0.0
 40
2.0
  0
CIRCLE
  5
137
330
1E
100
AcDbEntity
  8
0
 62
     3
100
AcDbCircle
 10
188.9859045316
 20
222.1993121390999
 30
0.0
 40
2.0
  0
CIRCLE
  5
138
330
1E
100
AcDbEntity
  8
0
 62
     3
100
AcDbCircle
 10
188.9859045316
 20
172.9993151908
 30
0.0
 40
2.5
  0
CIRCLE
  5
139
330
1E
100
AcDbEntity
  8
0
 62
     3
100
AcDbCircle
 10
188.9859045316
 20
222.1993121390999
 30
0.0
 40
2.5
  0
CIRCLE
  5
13A
330
1E
100
AcDbEntity
  8
0
 62
     3
100
AcDbCircle
 10
188.9859045316
 20
222.1993121390999
 30
0.0
 40
5.0
  0
CIRCLE
  5
13B
330
1E
100
AcDbEntity
  8
0
 62
     3
100
AcDbCircle
 10
188.9859045316
 20
222.1993121390999
 30
0.0
 40
4.5625
  0
CIRCLE
  5
13C
330
1E
100
AcDbEntity
  8
0
 62
     3
100
AcDbCircle
 10
188.9859045316
 20
172.9993151908
 30
0.0
 40
5.0
  0
CIRCLE
  5
13D
330
1E
100
AcDbEntity
  8
0
 62
     3
100
AcDbCircle
 10
188.9859045316
 20
172.9993151908
 30
0.0
 40
4.5625
  0
ARC
  5
13E
330
1E
100
AcDbEntity
  8
0
 62
     3
100
AcDbCircle
 10
197.4358742433
 20
180.6493701224999
 30
0.0
 40
1.6999998093
100
AcDbArc
 50
59.11643473819999
 51
90.00003665540001
  0
ARC
  5
13F
330
1E
100
AcDbEntity
  8
0
 62
     3
100
AcDbCircle
 10
108.6362036038998
 20
186.5993518118999
 30
0.0
 40
0.5
100
AcDbArc
 50
270.0000179861
 51
0.0
  0
ARC
  5
140
330
1E
100
AcDbEntity
  8
0
 62
     3
100
AcDbCircle
 10
147.0362280178999
 20
217.1493548636999
 30
0.0
 40
0.5
100
AcDbArc
 50
270.0000179861
 51
0.0
  0
CIRCLE
  5
141
330
1E
100
AcDbEntity
  8
0
 62
     3
100
AcDbCircle
 10
107.5362280178999
 20
171.4493426566
 30
0.0
 40
1.1999998093
  0
CIRCLE
  5
142
330
1E
100
AcDbEntity
  8
0
 62
     3
100
AcDbCircle
 10
107.5362280178999
 20
171.4493426566
 30
0.0
 40
2.0499992371
  0
ARC
  5
143
330
1E
100
AcDbEntity
  8
0
 62
     3
100
AcDbCircle
 10
121.3362158108999
 20
215.5993365531
 30
0.0
 40
2.0
100
AcDbArc
 50
89.99998201389999
 51
179.9999640277999
  0
ARC
  5
144
330
1E
100
AcDbEntity
  8
0
 62
     3
100
AcDbCircle
 10
104.5362280178999
 20
190.7993487602
 30
0.0
 40
0.5
100
AcDbArc
 50
89.99998201389999
 51
179.9999640277999
  0
CIRCLE
  5
145
330
1E
100
AcDbEntity
  8
0
 62
     3
100
AcDbCircle
 10
113.3362158108998
 20
226.6993426566
 30
0.0
 40
1.0
  0
CIRCLE
  5
146
330
1E
100
AcDbEntity
  8
0
 62
     3
100
AcDbCircle
 10
146.3362158108999
 20
180.5993518118999
 30
0.0
 40
1.1999998093
  0
ARC
  5
147
330
1E
100
AcDbEntity
  8
0
 62
     3
100
AcDbCircle
 10
121.3362158108999
 20
179.5993518118999
 30
0.0
 40
2.0
100
AcDbArc
 50
179.9999640277999
 51
270.0000006831999
  0
ARC
  5
148
330
1E
100
AcDbEntity
  8
0
 62
     3
100
AcDbCircle
 10
147.0362280178999
 20
212.0493487602
 30
0.0
 40
0.5
100
AcDbArc
 50
0.0
 51
89.99998201389999
  0
ARC
  5
149
330
1E
100
AcDbEntity
  8
0
 62
     3
100
AcDbCircle
 10
138.3362158109
 20
179.5993518118999
 30
0.0
 40
2.0
100
AcDbArc
 50
270.0000179861
 51
0.0
  0
CIRCLE
  5
14A
330
1E
100
AcDbEntity
  8
0
 62
     3
100
AcDbCircle
 10
146.3362158108999
 20
214.5993365531
 30
0.0
 40
1.1999998093
  0
ARC
  5
14B
330
1E
100
AcDbEntity
  8
0
 62
     3
100
AcDbCircle
 10
147.0362280178999
 20
178.0493487602
 30
0.0
 40
0.5
100
AcDbArc
 50
0.0
 51
89.99998201389999
  0
ARC
  5
14C
330
1E
100
AcDbEntity
  8
0
 62
     3
100
AcDbCircle
 10
138.3362158109
 20
215.5993365531
 30
0.0
 40
2.0
100
AcDbArc
 50
0.0
 51
89.99998201389999
  0
ARC
  5
14D
330
1E
100
AcDbEntity
  8
0
 62
     3
100
AcDbCircle
 10
104.5362280178999
 20
186.5993518118999
 30
0.0
 40
0.5
100
AcDbArc
 50
179.9999640277999
 51
270.0000006831999
  0
ARC
  5
14E
330
1E
100
AcDbEntity
  8
0
 62
     3
100
AcDbCircle
 10
140.4362219143999
 20
228.7993487602
 30
0.0
 40
0.3000000119
100
AcDbArc
 50
0.0
 51
89.99998201389999
  0
ARC
  5
14F
330
1E
100
AcDbEntity
  8
0
 62
     3
100
AcDbCircle
 10
148.8362158109
 20
228.5993365531
 30
0.0
 40
0.5
100
AcDbArc
 50
0.0
 51
89.99998201389999
  0
ARC
  5
150
330
1E
100
AcDbEntity
  8
0
 62
     3
100
AcDbCircle
 10
146.3362158108999
 20
214.5993365531
 30
0.0
 40
2.0499992371
100
AcDbArc
 50
89.99998201389999
 51
270.0000006831999
  0
CIRCLE
  5
151
330
1E
100
AcDbEntity
  8
0
 62
     3
100
AcDbCircle
 10
107.5362280178999
 20
223.7493304496
 30
0.0
 40
1.1999998093
  0
ARC
  5
152
330
1E
100
AcDbEntity
  8
0
 62
     3
100
AcDbCircle
 10
146.3362158108999
 20
180.5993518118999
 30
0.0
 40
2.0499992371
100
AcDbArc
 50
89.99998201389999
 51
270.0000006831999
  0
ARC
  5
153
330
1E
100
AcDbEntity
  8
0
 62
     3
100
AcDbCircle
 10
147.0362280178999
 20
183.1493548636999
 30
0.0
 40
0.5
100
AcDbArc
 50
270.0000179861
 51
0.0
  0
CIRCLE
  5
154
330
1E
100
AcDbEntity
  8
0
 62
     3
100
AcDbCircle
 10
107.5362280178999
 20
223.7493304496
 30
0.0
 40
2.0499992371
  0
CIRCLE
  5
155
330
1E
100
AcDbEntity
  8
0
 62
     3
100
AcDbCircle
 10
113.3362158108998
 20
226.6993426566
 30
0.0
 40
0.6999999881
  0
CIRCLE
  5
156
330
1E
100
AcDbEntity
  8
0
 62
     3
100
AcDbCircle
 10
145.3362158108999
 20
175.7993487602
 30
0.0
 40
1.0
  0
CIRCLE
  5
157
330
1E
100
AcDbEntity
  8
0
 62
     3
100
AcDbCircle
 10
145.3362158108999
 20
175.7993487602
 30
0.0
 40
0.6999999881
  0
ARC
  5
158
330
1E
100
AcDbEntity
  8
0
 62
     3
100
AcDbCircle
 10
108.6362036038998
 20
190.7993487602
 30
0.0
 40
0.5
100
AcDbArc
 50
0.0
 51
89.99998201389999
  0
ARC
  5
159
330
1E
100
AcDbEntity
  8
0
 62
     3
100
AcDbCircle
 10
148.8362158109
 20
166.5993518118999
 30
0.0
 40
0.5
100
AcDbArc
 50
270.0000179861
 51
0.0
  0
ARC
  5
15A
330
1E
100
AcDbEntity
  8
0
 62
     3
100
AcDbCircle
 10
145.0362280178999
 20
228.7993487602
 30
0.0
 40
0.3000000119
100
AcDbArc
 50
89.99998201389999
 51
179.9999640277999
  0
ARC
  5
15B
330
1E
100
AcDbEntity
  8
0
 62
     3
100
AcDbCircle
 10
98.83621581089995
 20
217.7993487602
 30
0.0
 40
0.5
100
AcDbArc
 50
89.99998201389999
 51
179.9999640277999
  0
ARC
  5
15C
330
1E
100
AcDbEntity
  8
0
 62
     3
100
AcDbCircle
 10
147.2362097073999
 20
166.3993548636999
 30
0.0
 40
0.3000000119
100
AcDbArc
 50
270.0000179861
 51
0.0
  0
ARC
  5
15D
330
1E
100
AcDbEntity
  8
0
 62
     3
100
AcDbCircle
 10
140.4362219143999
 20
166.3993548636999
 30
0.0
 40
0.3000000119
100
AcDbArc
 50
270.0000179861
 51
0.0
  0
ARC
  5
15E
330
1E
100
AcDbEntity
  8
0
 62
     3
100
AcDbCircle
 10
145.0362280178999
 20
166.3993548636999
 30
0.0
 40
0.3000000119
100
AcDbArc
 50
180.0000359722
 51
270.0000179861
  0
ARC
  5
15F
330
1E
100
AcDbEntity
  8
0
 62
     3
100
AcDbCircle
 10
102.3362158108999
 20
228.5993365531
 30
0.0
 40
0.5
100
AcDbArc
 50
89.99998201389999
 51
179.9999640277999
  0
ARC
  5
160
330
1E
100
AcDbEntity
  8
0
 62
     3
100
AcDbCircle
 10
102.3362158108999
 20
166.5993518118999
 30
0.0
 40
0.5
100
AcDbArc
 50
180.0000359722
 51
270.0000179861
  0
ARC
  5
161
330
1E
100
AcDbEntity
  8
0
 62
     3
100
AcDbCircle
 10
147.2362097073999
 20
228.7993487602
 30
0.0
 40
0.3000000119
100
AcDbArc
 50
0.0
 51
89.99998201389999
  0
ARC
  5
162
330
1E
100
AcDbEntity
  8
0
 62
     3
100
AcDbCircle
 10
98.83621581089995
 20
183.7993487602
 30
0.0
 40
0.5
100
AcDbArc
 50
180.0000359722
 51
270.0000179861
  0
ARC
  5
163
330
1E
100
AcDbEntity
  8
0
  6
PHANTOM
 62
     3
100
AcDbCircle
 10
100.0235632229999
 20
225.0935687309
 30
0.0
 40
0.9166666864999999
100
AcDbArc
 50
92.99996502190001
 51
164.1328335292
  0
ARC
  5
164
330
1E
100
AcDbEntity
  8
0
  6
PHANTOM
 62
     3
100
AcDbCircle
 10
104.7529028225999
 20
223.7493304496
 30
0.0
 40
5.8333330154
100
AcDbArc
 50
164.1328335292
 51
195.8670945264
  0
ARC
  5
165
330
1E
100
AcDbEntity
  8
0
  6
PHANTOM
 62
     3
100
AcDbCircle
 10
100.0235632229999
 20
170.1050891166
 30
0.0
 40
0.9166666864999999
100
AcDbArc
 50
195.8671664708
 51
267.0000349781
  0
ARC
  5
166
330
1E
100
AcDbEntity
  8
0
  6
PHANTOM
 62
     3
100
AcDbCircle
 10
104.7529028225999
 20
171.4493426566
 30
0.0
 40
5.8333330154
100
AcDbArc
 50
164.1328335292
 51
195.8670945264
  0
ARC
  5
167
330
1E
100
AcDbEntity
  8
0
  6
PHANTOM
 62
     3
100
AcDbCircle
 10
100.0235632229999
 20
172.7935961966998
 30
0.0
 40
0.9166666864999999
100
AcDbArc
 50
92.99996502190001
 51
164.1328335292
  0
ARC
  5
168
330
1E
100
AcDbEntity
  8
0
  6
PHANTOM
 62
     3
100
AcDbCircle
 10
100.0235632229999
 20
222.4050616508
 30
0.0
 40
0.9166666864999999
100
AcDbArc
 50
195.8671664708
 51
267.0000349781
  0
ARC
  5
169
330
1E
100
AcDbEntity
  8
0
  6
CENTER
 62
     3
100
AcDbCircle
 10
106.3361700344999
 20
200.7993029837999
 30
0.0
 40
25.0
100
AcDbArc
 50
152.9999530312
 51
206.9999203829
  0
LINE
  5
172
330
1E
100
AcDbEntity
  8
0
 62
     3
100
AcDbLine
 10
158.7135504056
 20
224.5087298636999
 30
0.0
 11
160.7588537502999
 21
224.5087298636999
 31
0.0
  0
LINE
  5
173
330
1E
100
AcDbEntity
  8
0
 62
     3
100
AcDbLine
 10
158.1362095299999
 20
225.7993605573
 30
0.0
 11
158.713541073
 21
226.7993281045999
 31
0.0
  0
LINE
  5
174
330
1E
100
AcDbEntity
  8
0
 62
     3
100
AcDbLine
 10
158.1362087458998
 20
218.5993134338
 30
0.0
 11
158.7135555476999
 21
217.5993194575
 31
0.0
  0
LINE
  5
175
330
1E
100
AcDbEntity
  8
0
 62
     3
100
AcDbLine
 10
161.3362090540999
 20
218.5993688497999
 30
0.0
 11
160.7588469934999
 21
217.5993484445
 31
0.0
  0
LINE
  5
176
330
1E
100
AcDbEntity
  8
0
 62
     3
100
AcDbLine
 10
161.3362214844999
 20
225.7993127706
 30
0.0
 11
160.7588746827
 21
226.7993067468998
 31
0.0
  0
LINE
  5
177
330
1E
100
AcDbEntity
  8
0
 62
     3
100
AcDbLine
 10
156.8362005520999
 20
227.1993121391
 30
0.0
 11
156.8362005520999
 21
217.1993121390999
 31
0.0
  0
LINE
  5
178
330
1E
100
AcDbEntity
  8
0
 62
     3
100
AcDbLine
 10
154.8362005520999
 20
217.1993121390999
 30
0.0
 11
156.8362005520999
 21
217.1993121390999
 31
0.0
  0
LINE
  5
179
330
1E
100
AcDbEntity
  8
0
 62
     3
100
AcDbLine
 10
154.8362005520999
 20
227.1993121391
 30
0.0
 11
156.8362005520999
 21
227.1993121391
 31
0.0
  0
LINE
  5
17A
330
1E
100
AcDbEntity
  8
0
 62
     3
100
AcDbLine
 10
150.3361852932999
 20
217.5993365531
 30
0.0
 11
151.6361883450999
 21
217.5993365531
 31
0.0
  0
LINE
  5
17B
330
1E
100
AcDbEntity
  8
0
 62
     3
100
AcDbLine
 10
149.3361852932999
 20
217.1993121390999
 30
0.0
 11
150.3361852932999
 21
217.1993121390999
 31
0.0
  0
LINE
  5
17C
330
1E
100
AcDbEntity
  8
0
 62
     3
100
AcDbLine
 10
150.3361852932999
 20
227.1993121391
 30
0.0
 11
150.3361852932999
 21
217.1993121390999
 31
0.0
  0
LINE
  5
17D
330
1E
100
AcDbEntity
  8
0
 62
     3
100
AcDbLine
 10
151.6361883450999
 20
226.7993182425998
 30
0.0
 11
151.6361883450999
 21
217.5993365531
 31
0.0
  0
LINE
  5
17E
330
1E
100
AcDbEntity
  8
0
 62
     3
100
AcDbLine
 10
150.3361909311999
 20
222.1422486690999
 30
0.0
 11
151.6361858374999
 21
220.8422537628
 31
0.0
  0
LINE
  5
17F
330
1E
100
AcDbEntity
  8
0
 62
     3
100
AcDbLine
 10
150.3361909311999
 20
223.5564622072
 30
0.0
 11
151.6361858374999
 21
222.2564673008999
 31
0.0
  0
LINE
  5
180
330
1E
100
AcDbEntity
  8
0
 62
     3
100
AcDbLine
 10
150.3361852932999
 20
226.7993182425998
 30
0.0
 11
151.6361883450999
 21
226.7993182425998
 31
0.0
  0
LINE
  5
181
330
1E
100
AcDbEntity
  8
0
 62
     3
100
AcDbLine
 10
149.3361852932999
 20
227.1993121391
 30
0.0
 11
150.3361852932999
 21
227.1993121391
 31
0.0
  0
LINE
  5
182
330
1E
100
AcDbEntity
  8
0
 62
     3
100
AcDbLine
 10
151.6361959484999
 20
225.7993684995999
 30
0.0
 11
152.2135427502
 21
226.7993624759
 31
0.0
  0
LINE
  5
183
330
1E
100
AcDbEntity
  8
0
 62
     3
100
AcDbLine
 10
151.6362083788999
 20
218.5993131208
 30
0.0
 11
152.2135551806
 21
217.5993191445
 31
0.0
  0
LINE
  5
184
330
1E
100
AcDbEntity
  8
0
 62
     3
100
AcDbLine
 10
152.2135504055999
 20
217.5993365531
 30
0.0
 11
154.2588384915999
 21
217.5993365531
 31
0.0
  0
LINE
  5
185
330
1E
100
AcDbEntity
  8
0
 62
     3
100
AcDbLine
 10
154.8361954725999
 20
218.5993767920999
 30
0.0
 11
154.2588334119999
 21
217.5993563867999
 31
0.0
  0
LINE
  5
186
330
1E
100
AcDbEntity
  8
0
 62
     3
100
AcDbLine
 10
152.2135504055999
 20
219.889924932
 30
0.0
 11
154.2588384915999
 21
219.889924932
 31
0.0
  0
LINE
  5
187
330
1E
100
AcDbEntity
  8
0
 62
     3
100
AcDbLine
 10
152.2135504055999
 20
224.5087298636999
 30
0.0
 11
154.2588384915999
 21
224.5087298636999
 31
0.0
  0
LINE
  5
188
330
1E
100
AcDbEntity
  8
0
 62
     3
100
AcDbLine
 10
154.836207903
 20
225.7993048283
 30
0.0
 11
154.2588611011999
 21
226.7992988046
 31
0.0
  0
LINE
  5
189
330
1E
100
AcDbEntity
  8
0
 62
     3
100
AcDbLine
 10
152.2135504055999
 20
226.7993182425998
 30
0.0
 11
154.2588384915999
 21
226.7993182425998
 31
0.0
  0
LINE
  5
18A
330
1E
100
AcDbEntity
  8
0
 62
     3
100
AcDbLine
 10
154.8362005520999
 20
227.1993121391
 30
0.0
 11
154.8362005520999
 21
217.1993121390999
 31
0.0
  0
LINE
  5
18B
330
1E
100
AcDbEntity
  8
0
 62
     3
100
AcDbLine
 10
165.3362005520999
 20
170.9993151907999
 30
0.0
 11
165.3362005520999
 21
174.9993151908
 31
0.0
  0
LINE
  5
18C
330
1E
100
AcDbEntity
  8
0
 62
     3
100
AcDbLine
 10
165.3361694960999
 20
170.9993716311
 30
0.0
 11
164.8361581335999
 21
170.4993603106998
 31
0.0
  0
LINE
  5
18D
330
1E
100
AcDbEntity
  8
0
 62
     3
100
AcDbLine
 10
165.3361537923998
 20
174.9993505306999
 30
0.0
 11
164.8361640089999
 21
175.4993402718999
 31
0.0
  0
LINE
  5
18E
330
1E
100
AcDbEntity
  8
0
 62
     3
100
AcDbLine
 10
164.8362005520999
 20
170.4993151907999
 30
0.0
 11
164.8362005520999
 21
175.4993151908
 31
0.0
  0
LINE
  5
18F
330
1E
100
AcDbEntity
  8
0
 62
     3
100
AcDbLine
 10
161.3362005520999
 20
170.9993151907999
 30
0.0
 11
165.3362005520999
 21
170.9993151907999
 31
0.0
  0
LINE
  5
190
330
1E
100
AcDbEntity
  8
0
 62
     3
100
AcDbLine
 10
161.3362005520999
 20
174.9993151908
 30
0.0
 11
165.3362005520999
 21
174.9993151908
 31
0.0
  0
LINE
  5
191
330
1E
100
AcDbEntity
  8
0
 62
     3
100
AcDbLine
 10
155.8362005520999
 20
167.9993151908
 30
0.0
 11
155.8362005520999
 21
177.9993151908
 31
0.0
  0
LINE
  5
192
330
1E
100
AcDbEntity
  8
0
 62
     3
100
AcDbLine
 10
156.8362005520999
 20
168.3993090873
 30
0.0
 11
158.1362036038999
 21
168.3993090873
 31
0.0
  0
LINE
  5
193
330
1E
100
AcDbEntity
  8
0
 62
     3
100
AcDbLine
 10
156.8362005520999
 20
177.5993060354999
 30
0.0
 11
158.1362036038999
 21
177.5993060354999
 31
0.0
  0
LINE
  5
194
330
1E
100
AcDbEntity
  8
0
 62
     3
100
AcDbLine
 10
158.1362036038999
 20
168.3993090873
 30
0.0
 11
158.1362036038999
 21
177.5993060354999
 31
0.0
  0
LINE
  5
195
330
1E
100
AcDbEntity
  8
0
 62
     3
100
AcDbLine
 10
156.8361762522999
 20
171.6422382172
 30
0.0
 11
158.1361819481998
 21
172.9422439131
 31
0.0
  0
LINE
  5
196
330
1E
100
AcDbEntity
  8
0
 62
     3
100
AcDbLine
 10
156.8361762522999
 20
173.0564517552999
 30
0.0
 11
158.1361711585999
 21
174.3564466616998
 31
0.0
  0
LINE
  5
197
330
1E
100
AcDbEntity
  8
0
 62
     3
100
AcDbLine
 10
161.3362005520999
 20
169.3993090873
 30
0.0
 11
161.3362005520999
 21
176.3087023977999
 31
0.0
  0
LINE
  5
198
330
1E
100
AcDbEntity
  8
0
 62
     3
100
AcDbLine
 10
158.7135504056
 20
177.5993060354999
 30
0.0
 11
160.7588537502999
 21
177.5993060354999
 31
0.0
  0
LINE
  5
199
330
1E
100
AcDbEntity
  8
0
 62
     3
100
AcDbLine
 10
158.7135504056
 20
168.3993090873
 30
0.0
 11
160.7588537502999
 21
168.3993090873
 31
0.0
  0
LINE
  5
19A
330
1E
100
AcDbEntity
  8
0
 62
     3
100
AcDbLine
 10
158.7135504056
 20
175.3087023977999
 30
0.0
 11
160.7588537502999
 21
175.3087023977999
 31
0.0
  0
LINE
  5
19B
330
1E
100
AcDbEntity
  8
0
 62
     3
100
AcDbLine
 10
158.7135504056
 20
170.6899127249999
 30
0.0
 11
160.7588537502999
 21
170.6899127249999
 31
0.0
  0
LINE
  5
19C
330
1E
100
AcDbEntity
  8
0
 62
     3
100
AcDbLine
 10
158.1362086456999
 20
169.3993027248
 30
0.0
 11
158.7135554474999
 21
168.3993087485999
 31
0.0
  0
LINE
  5
19D
330
1E
100
AcDbEntity
  8
0
 62
     3
100
AcDbLine
 10
158.1361832011999
 20
176.5993651072
 30
0.0
 11
158.7135300028999
 21
177.5993590834
 31
0.0
  0
LINE
  5
19E
330
1E
100
AcDbEntity
  8
0
 62
     3
100
AcDbLine
 10
161.3362061254998
 20
176.5993284907
 30
0.0
 11
160.7588593236999
 21
177.599322467
 31
0.0
  0
LINE
  5
19F
330
1E
100
AcDbEntity
  8
0
 62
     3
100
AcDbLine
 10
161.3362091542998
 20
169.3993581409
 30
0.0
 11
160.7588470936999
 21
168.3993377356
 31
0.0
  0
LINE
  5
1A0
330
1E
100
AcDbEntity
  8
0
 62
     3
100
AcDbLine
 10
156.8362005520999
 20
167.9993151908
 30
0.0
 11
156.8362005520999
 21
177.9993151908
 31
0.0
  0
LINE
  5
1A1
330
1E
100
AcDbEntity
  8
0
 62
     3
100
AcDbLine
 10
154.8362005520999
 20
177.9993151908
 30
0.0
 11
156.8362005520999
 21
177.9993151908
 31
0.0
  0
LINE
  5
1A2
330
1E
100
AcDbEntity
  8
0
 62
     3
100
AcDbLine
 10
154.8362005520999
 20
167.9993151908
 30
0.0
 11
156.8362005520999
 21
167.9993151908
 31
0.0
  0
LINE
  5
1A3
330
1E
100
AcDbEntity
  8
0
 62
     3
100
AcDbLine
 10
150.3361852932999
 20
177.5993060354999
 30
0.0
 11
151.6361883450999
 21
177.5993060354999
 31
0.0
  0
LINE
  5
1A4
330
1E
100
AcDbEntity
  8
0
 62
     3
100
AcDbLine
 10
149.3361852932999
 20
177.9993151908
 30
0.0
 11
150.3361852932999
 21
177.9993151908
 31
0.0
  0
LINE
  5
1A5
330
1E
100
AcDbEntity
  8
0
 62
     3
100
AcDbLine
 10
150.3361852932999
 20
167.9993151908
 30
0.0
 11
150.3361852932999
 21
177.9993151908
 31
0.0
  0
LINE
  5
1A6
330
1E
100
AcDbEntity
  8
0
 62
     3
100
AcDbLine
 10
151.6361883450999
 20
168.3993090873
 30
0.0
 11
151.6361883450999
 21
177.5993060354999
 31
0.0
  0
LINE
  5
1A7
330
1E
100
AcDbEntity
  8
0
 62
     3
100
AcDbLine
 10
150.3361801415999
 20
173.0564517552999
 30
0.0
 11
151.6361750478999
 21
174.3564466616998
 31
0.0
  0
LINE
  5
1A8
330
1E
100
AcDbEntity
  8
0
 62
     3
100
AcDbLine
 10
150.3361801415999
 20
171.6422382172
 30
0.0
 11
151.6361750478999
 21
172.9422331234998
 31
0.0
  0
LINE
  5
1A9
330
1E
100
AcDbEntity
  8
0
 62
     3
100
AcDbLine
 10
150.3361852932999
 20
168.3993090873
 30
0.0
 11
151.6361883450999
 21
168.3993090873
 31
0.0
  0
LINE
  5
1AA
330
1E
100
AcDbEntity
  8
0
 62
     3
100
AcDbLine
 10
149.3361852932999
 20
167.9993151908
 30
0.0
 11
150.3361852932999
 21
167.9993151908
 31
0.0
  0
LINE
  5
1AB
330
1E
100
AcDbEntity
  8
0
 62
     3
100
AcDbLine
 10
151.6362082786999
 20
169.3993024118999
 30
0.0
 11
152.2135550804998
 21
168.3993084356
 31
0.0
  0
LINE
  5
1AC
330
1E
100
AcDbEntity
  8
0
 62
     3
100
AcDbLine
 10
151.6361960487
 20
176.5993577906999
 30
0.0
 11
152.2135428503998
 21
177.599351767
 31
0.0
  0
LINE
  5
1AD
330
1E
100
AcDbEntity
  8
0
 62
     3
100
AcDbLine
 10
152.2135504055999
 20
177.5993060354999
 30
0.0
 11
154.2588384915999
 21
177.5993060354999
 31
0.0
  0
LINE
  5
1AE
330
1E
100
AcDbEntity
  8
0
 62
     3
100
AcDbLine
 10
154.836192544
 20
176.5993205484
 30
0.0
 11
154.2588457421999
 21
177.5993145247
 31
0.0
  0
LINE
  5
1AF
330
1E
100
AcDbEntity
  8
0
 62
     3
100
AcDbLine
 10
152.2135504055999
 20
175.3087023977999
 30
0.0
 11
154.2588384915999
 21
175.3087023977999
 31
0.0
  0
LINE
  5
1B0
330
1E
100
AcDbEntity
  8
0
 62
     3
100
AcDbLine
 10
152.2135504055999
 20
170.6899127249999
 30
0.0
 11
154.2588384915999
 21
170.6899127249999
 31
0.0
  0
LINE
  5
1B1
330
1E
100
AcDbEntity
  8
0
 62
     3
100
AcDbLine
 10
154.8361879433999
 20
169.3993528686999
 30
0.0
 11
154.2588335121998
 21
168.3993456779
 31
0.0
  0
LINE
  5
1B2
330
1E
100
AcDbEntity
  8
0
 62
     3
100
AcDbLine
 10
152.2135504055999
 20
168.3993090873
 30
0.0
 11
154.2588384915999
 21
168.3993090873
 31
0.0
  0
LINE
  5
1B3
330
1E
100
AcDbEntity
  8
0
 62
     3
100
AcDbLine
 10
154.8362005520999
 20
167.9993151908
 30
0.0
 11
154.8362005520999
 21
177.9993151908
 31
0.0
  0
LINE
  5
1B4
330
1E
100
AcDbEntity
  8
0
 62
     3
100
AcDbLine
 10
180.2358887390999
 20
179.1993579154
 30
0.0
 11
180.2358887390999
 21
181.9993457083999
 31
0.0
  0
LINE
  5
1B5
330
1E
100
AcDbEntity
  8
0
 62
     3
100
AcDbLine
 10
180.2358887390999
 20
181.9993457083999
 30
0.0
 11
180.5358917909
 21
181.9993457083999
 31
0.0
  0
LINE
  5
1B6
330
1E
100
AcDbEntity
  8
0
 62
     3
100
AcDbLine
 10
180.2358887390999
 20
179.1993579154
 30
0.0
 11
180.5358917909
 21
179.1993579154
 31
0.0
  0
LINE
  5
1B7
330
1E
100
AcDbEntity
  8
0
 62
     3
100
AcDbLine
 10
188.9859045316
 20
227.1993121391
 30
0.0
 11
188.9859045316
 21
229.0993365531
 31
0.0
  0
LINE
  5
1B8
330
1E
100
AcDbEntity
  8
0
 62
     3
100
AcDbLine
 10
188.9859045316
 20
209.6993273977999
 30
0.0
 11
188.9859045316
 21
217.1993121390999
 31
0.0
  0
LINE
  5
1B9
330
1E
100
AcDbEntity
  8
0
 62
     3
100
AcDbLine
 10
52.33621581089997
 20
187.0493182425999
 30
0.0
 11
52.33621581089997
 21
173.6493243461
 31
0.0
  0
LINE
  5
1BA
330
1E
100
AcDbEntity
  8
0
 62
     3
100
AcDbLine
 10
198.5358808804999
 20
166.0993212943
 30
0.0
 11
198.5358808804999
 21
229.0993365531
 31
0.0
  0
LINE
  5
1BB
330
1E
100
AcDbEntity
  8
0
 62
     3
100
AcDbLine
 10
179.4359167386
 20
166.0993212943
 30
0.0
 11
198.5358808804999
 21
166.0993212943
 31
0.0
  0
LINE
  5
1BC
330
1E
100
AcDbEntity
  8
0
 62
     3
100
AcDbLine
 10
179.4359167386
 20
229.0993365531
 30
0.0
 11
198.5358808804999
 21
229.0993365531
 31
0.0
  0
LINE
  5
1BD
330
1E
100
AcDbEntity
  8
0
 62
     3
100
AcDbLine
 10
179.4359167386
 20
166.0993212943
 30
0.0
 11
179.4359167386
 21
229.0993365531
 31
0.0
  0
LINE
  5
1BE
330
1E
100
AcDbEntity
  8
0
 62
     3
100
AcDbLine
 10
192.9371679592998
 20
219.9180621391
 30
0.0
 11
192.9371679592998
 21
224.4805621390999
 31
0.0
  0
LINE
  5
1BF
330
1E
100
AcDbEntity
  8
0
 62
     3
100
AcDbLine
 10
188.9858936718
 20
217.6368087895
 30
0.0
 11
192.9371345055998
 21
219.9180590614
 31
0.0
  0
LINE
  5
1C0
330
1E
100
AcDbEntity
  8
0
 62
     3
100
AcDbLine
 10
192.9371026555998
 20
224.4805913672
 30
0.0
 11
188.9858618217998
 21
226.7618416391
 31
0.0
  0
LINE
  5
1C1
330
1E
100
AcDbEntity
  8
0
 62
     3
100
AcDbLine
 10
185.0346716213999
 20
224.4805621390999
 30
0.0
 11
185.0346716213999
 21
219.9180621391
 31
0.0
  0
LINE
  5
1C2
330
1E
100
AcDbEntity
  8
0
 62
     3
100
AcDbLine
 10
188.9859011244998
 20
226.7617950915
 30
0.0
 11
185.0346602905998
 21
224.4805448196
 31
0.0
  0
LINE
  5
1C3
330
1E
100
AcDbEntity
  8
0
 62
     3
100
AcDbLine
 10
185.0346284405999
 20
219.918105609
 30
0.0
 11
188.9858692744
 21
217.6368553371
 31
0.0
  0
LINE
  5
1C4
330
1E
100
AcDbEntity
  8
0
 62
     3
100
AcDbLine
 10
192.9371679592998
 20
170.7180651907999
 30
0.0
 11
192.9371679592998
 21
175.2805651908
 31
0.0
  0
LINE
  5
1C5
330
1E
100
AcDbEntity
  8
0
 62
     3
100
AcDbLine
 10
188.9859225401998
 20
168.4368118731
 30
0.0
 11
192.9371633740999
 21
170.718062145
 31
0.0
  0
LINE
  5
1C6
330
1E
100
AcDbEntity
  8
0
 62
     3
100
AcDbLine
 10
192.9371439481999
 20
175.2806244206
 30
0.0
 11
188.9859031143999
 21
177.5618746924999
 31
0.0
  0
LINE
  5
1C7
330
1E
100
AcDbEntity
  8
0
 62
     3
100
AcDbLine
 10
180.5359075833999
 20
166.0993212943
 30
0.0
 11
180.5359075833999
 21
229.0993365531
 31
0.0
  0
LINE
  5
1C8
330
1E
100
AcDbEntity
  8
0
 62
     3
100
AcDbLine
 10
49.33621581089997
 20
206.2531298881
 30
0.0
 11
49.33621581089997
 21
187.0493182425999
 31
0.0
  0
LINE
  5
1C9
330
1E
100
AcDbEntity
  8
0
 62
     3
100
AcDbLine
 10
49.33621581089997
 20
187.0493182425999
 30
0.0
 11
55.33621581089997
 21
187.0493182425999
 31
0.0
  0
LINE
  5
1CA
330
1E
100
AcDbEntity
  8
0
 62
     3
100
AcDbLine
 10
55.33621581089997
 20
206.2531298881
 30
0.0
 11
55.33621581089997
 21
187.0493182425999
 31
0.0
  0
LINE
  5
1CB
330
1E
100
AcDbEntity
  8
0
 62
     3
100
AcDbLine
 10
55.53622801789998
 20
206.2531298881
 30
0.0
 11
55.53622801789998
 21
195.3455218558999
 31
0.0
  0
LINE
  5
1CC
330
1E
100
AcDbEntity
  8
0
 62
     3
100
AcDbLine
 10
56.83621581089997
 20
206.2531298881
 30
0.0
 11
47.83618529329999
 21
206.2531298881
 31
0.0
  0
LINE
  5
1CD
330
1E
100
AcDbEntity
  8
0
 62
     3
100
AcDbLine
 10
185.0346716213999
 20
175.2805651908
 30
0.0
 11
185.0346716213999
 21
170.7180651907999
 31
0.0
  0
LINE
  5
1CE
330
1E
100
AcDbEntity
  8
0
 62
     3
100
AcDbLine
 10
188.9859147341
 20
177.5618246040999
 30
0.0
 11
185.0346739002999
 21
175.2805743322
 31
0.0
  0
LINE
  5
1CF
330
1E
100
AcDbEntity
  8
0
 62
     3
100
AcDbLine
 10
185.0346468449999
 20
170.7180990189999
 30
0.0
 11
188.9858876787998
 21
168.436848747
 31
0.0
  0
LINE
  5
1D0
330
1E
100
AcDbEntity
  8
0
 62
     3
100
AcDbLine
 10
183.9859045316
 20
185.4993151908
 30
0.0
 11
193.9859045316
 21
185.4993151908
 31
0.0
  0
LINE
  5
1D1
330
1E
100
AcDbEntity
  8
0
 62
     3
100
AcDbLine
 10
183.9859045316
 20
209.6993273977999
 30
0.0
 11
193.9859045316
 21
209.6993273977999
 31
0.0
  0
LINE
  5
1D2
330
1E
100
AcDbEntity
  8
0
 62
     3
100
AcDbLine
 10
183.9859045316
 20
185.4993151908
 30
0.0
 11
183.9859045316
 21
209.6993273977999
 31
0.0
  0
LINE
  5
1D3
330
1E
100
AcDbEntity
  8
0
 62
     3
100
AcDbLine
 10
193.9859045316
 20
185.4993151908
 30
0.0
 11
193.9859045316
 21
209.6993273977999
 31
0.0
  0
LINE
  5
1D4
330
1E
100
AcDbEntity
  8
0
 62
     3
100
AcDbLine
 10
61.88620360389997
 20
229.0993365531
 30
0.0
 11
61.88620360389997
 21
166.0993212943
 31
0.0
  0
LINE
  5
1D5
330
1E
100
AcDbEntity
  8
0
 62
     3
100
AcDbLine
 10
56.83621581089997
 20
208.0993212942999
 30
0.0
 11
56.83621581089997
 21
193.4993304496
 31
0.0
  0
LINE
  5
1D6
330
1E
100
AcDbEntity
  8
0
 62
     3
100
AcDbLine
 10
42.78619750029998
 20
229.0993365531
 30
0.0
 11
61.88620360389997
 21
229.0993365531
 31
0.0
  0
LINE
  5
1D7
330
1E
100
AcDbEntity
  8
0
 62
     3
100
AcDbLine
 10
188.9859045316
 20
177.9993151908
 30
0.0
 11
188.9859045316
 21
185.4993151908
 31
0.0
  0
LINE
  5
1D8
330
1E
100
AcDbEntity
  8
0
 62
     3
100
AcDbLine
 10
52.33621581089997
 20
229.0993365531
 30
0.0
 11
52.33621581089997
 21
225.9493426566
 31
0.0
  0
LINE
  5
1D9
330
1E
100
AcDbEntity
  8
0
 62
     3
100
AcDbLine
 10
42.78619750029998
 20
166.0993212943
 30
0.0
 11
61.88620360389997
 21
166.0993212943
 31
0.0
  0
LINE
  5
1DA
330
1E
100
AcDbEntity
  8
0
 62
     3
100
AcDbLine
 10
56.83621581089997
 20
195.3455218558999
 30
0.0
 11
55.33621581089997
 21
195.3455218558999
 31
0.0
  0
LINE
  5
1DB
330
1E
100
AcDbEntity
  8
0
 62
     3
100
AcDbLine
 10
47.83621581089997
 20
208.0993212942999
 30
0.0
 11
47.83621581089997
 21
193.4993304496
 31
0.0
  0
LINE
  5
1DC
330
1E
100
AcDbEntity
  8
0
 62
     3
100
AcDbLine
 10
188.9859045316
 20
166.0993212943
 30
0.0
 11
188.9859045316
 21
167.9993151908
 31
0.0
  0
LINE
  5
1DD
330
1E
100
AcDbEntity
  8
0
 62
     3
100
AcDbLine
 10
42.78619750029998
 20
229.0993365531
 30
0.0
 11
42.78619750029998
 21
166.0993212943
 31
0.0
  0
LINE
  5
1DE
330
1E
100
AcDbEntity
  8
0
 62
     3
100
AcDbLine
 10
52.33621581089997
 20
169.2493304495999
 30
0.0
 11
52.33621581089997
 21
166.0993212943
 31
0.0
  0
LINE
  5
1DF
330
1E
100
AcDbEntity
  8
0
 62
     3
100
AcDbLine
 10
47.83621581089997
 20
193.4993304496
 30
0.0
 11
49.33621581089997
 21
193.4993304496
 31
0.0
  0
LINE
  5
1E0
330
1E
100
AcDbEntity
  8
0
 62
     3
100
AcDbLine
 10
47.83618529329999
 20
208.0993212942999
 30
0.0
 11
56.83621581089997
 21
208.0993212942999
 31
0.0
  0
LINE
  5
1E1
330
1E
100
AcDbEntity
  8
0
 62
     3
100
AcDbLine
 10
49.13620360389997
 20
206.2531298881
 30
0.0
 11
49.13620360389997
 21
195.3455218558999
 31
0.0
  0
LINE
  5
1E2
330
1E
100
AcDbEntity
  8
0
 62
     3
100
AcDbLine
 10
47.83621581089997
 20
195.3455218558999
 30
0.0
 11
49.33621581089997
 21
195.3455218558999
 31
0.0
  0
LINE
  5
1E3
330
1E
100
AcDbEntity
  8
0
 62
     3
100
AcDbLine
 10
197.4358747769999
 20
166.0993212943
 30
0.0
 11
197.4358747769999
 21
229.0993365531
 31
0.0
  0
LINE
  5
1E4
330
1E
100
AcDbEntity
  8
0
 62
     3
100
AcDbLine
 10
104.5362280178999
 20
186.0993518119
 30
0.0
 11
108.6362036038998
 21
186.0993518119
 31
0.0
  0
LINE
  5
1E5
330
1E
100
AcDbEntity
  8
0
 62
     3
100
AcDbLine
 10
120.6362036038999
 20
166.2493457083999
 30
0.0
 11
136.8362158108999
 21
166.2493457083999
 31
0.0
  0
LINE
  5
1E6
330
1E
100
AcDbEntity
  8
0
 62
     3
100
AcDbLine
 10
146.3362158108999
 20
182.6493396049
 30
0.0
 11
147.0361975002999
 21
182.6493396049
 31
0.0
  0
LINE
  5
1E7
330
1E
100
AcDbEntity
  8
0
 62
     3
100
AcDbLine
 10
147.5362280178998
 20
212.0493487602
 30
0.0
 11
147.5362280178998
 21
183.1493548636999
 31
0.0
  0
LINE
  5
1E8
330
1E
100
AcDbEntity
  8
0
 62
     3
100
AcDbLine
 10
104.5362280178999
 20
191.2993487602
 30
0.0
 11
108.6362036038998
 21
191.2993487602
 31
0.0
  0
LINE
  5
1E9
330
1E
100
AcDbEntity
  8
0
 62
     3
100
AcDbLine
 10
140.3362158109
 20
215.5993365531
 30
0.0
 11
140.3362158109
 21
179.5993518118999
 31
0.0
  0
LINE
  5
1EA
330
1E
100
AcDbEntity
  8
0
 62
     3
100
AcDbLine
 10
140.7362097073999
 20
228.7993487602
 30
0.0
 11
140.7362097073999
 21
227.5993365531
 31
0.0
  0
LINE
  5
1EB
330
1E
100
AcDbEntity
  8
0
 62
     3
100
AcDbLine
 10
146.3362158108999
 20
178.5493487602
 30
0.0
 11
147.0362280178999
 21
178.5493487602
 31
0.0
  0
LINE
  5
1EC
330
1E
100
AcDbEntity
  8
0
 62
     3
100
AcDbLine
 10
146.3362158108999
 20
212.5493487602
 30
0.0
 11
147.0362280178999
 21
212.5493487602
 31
0.0
  0
LINE
  5
1ED
330
1E
100
AcDbEntity
  8
0
 62
     3
100
AcDbLine
 10
147.5362280178998
 20
217.1493548636999
 30
0.0
 11
147.5362280178998
 21
228.7993487602
 31
0.0
  0
LINE
  5
1EE
330
1E
100
AcDbEntity
  8
0
 62
     3
100
AcDbLine
 10
101.8362158108998
 20
183.2993487602
 30
0.0
 11
101.8362158108998
 21
166.5993518118999
 31
0.0
  0
LINE
  5
1EF
330
1E
100
AcDbEntity
  8
0
 62
     3
100
AcDbLine
 10
121.3362158108999
 20
177.5993518118999
 30
0.0
 11
138.3362158109
 21
177.5993518118999
 31
0.0
  0
LINE
  5
1F0
330
1E
100
AcDbEntity
  8
0
 62
     3
100
AcDbLine
 10
136.8362158108999
 20
166.2493457083999
 30
0.0
 11
136.8362158108999
 21
166.0993518118999
 31
0.0
  0
LINE
  5
1F1
330
1E
100
AcDbEntity
  8
0
 62
     3
100
AcDbLine
 10
121.3362158108999
 20
217.5993365531
 30
0.0
 11
138.3362158109
 21
217.5993365531
 31
0.0
  0
LINE
  5
1F2
330
1E
100
AcDbEntity
  8
0
 62
     3
100
AcDbLine
 10
104.0362280178999
 20
190.7993487602
 30
0.0
 11
104.0362280178999
 21
186.5993518118999
 31
0.0
  0
LINE
  5
1F3
330
1E
100
AcDbEntity
  8
0
 62
     3
100
AcDbLine
 10
146.3362158108999
 20
182.6493548636999
 30
0.0
 11
147.0362280178999
 21
182.6493548636999
 31
0.0
  0
LINE
  5
1F4
330
1E
100
AcDbEntity
  8
0
 62
     3
100
AcDbLine
 10
149.3362158108999
 20
228.5993365531
 30
0.0
 11
149.3362158108999
 21
166.5993518118999
 31
0.0
  0
LINE
  5
1F5
330
1E
100
AcDbEntity
  8
0
 62
     3
100
AcDbLine
 10
147.5362280178998
 20
178.0493487602
 30
0.0
 11
147.5362280178998
 21
166.3993548636999
 31
0.0
  0
LINE
  5
1F6
330
1E
100
AcDbEntity
  8
0
 62
     3
100
AcDbLine
 10
109.1362036038999
 20
190.7993487602
 30
0.0
 11
109.1362036038999
 21
186.5993518118999
 31
0.0
  0
LINE
  5
1F7
330
1E
100
AcDbEntity
  8
0
 62
     3
100
AcDbLine
 10
119.3362158108999
 20
215.5993365531
 30
0.0
 11
119.3362158108999
 21
179.5993518118999
 31
0.0
  0
LINE
  5
1F8
330
1E
100
AcDbEntity
  8
0
 62
     3
100
AcDbLine
 10
98.83621581089995
 20
183.2993487602
 30
0.0
 11
101.8362158108998
 21
183.2993487602
 31
0.0
  0
LINE
  5
1F9
330
1E
100
AcDbEntity
  8
0
 62
     3
100
AcDbLine
 10
140.7362097073999
 20
166.3993548636999
 30
0.0
 11
140.7362097073999
 21
167.5993518119
 31
0.0
  0
LINE
  5
1FA
330
1E
100
AcDbEntity
  8
0
 62
     3
100
AcDbLine
 10
101.8362158108998
 20
228.5993365531
 30
0.0
 11
101.8362158108998
 21
218.2993487602
 31
0.0
  0
LINE
  5
1FB
330
1E
100
AcDbEntity
  8
0
 62
     3
100
AcDbLine
 10
140.7362097073999
 20
227.5993365531
 30
0.0
 11
144.7362097073998
 21
227.5993365531
 31
0.0
  0
LINE
  5
1FC
330
1E
100
AcDbEntity
  8
0
 62
     3
100
AcDbLine
 10
144.7362097073998
 20
228.7993487602
 30
0.0
 11
144.7362097073998
 21
227.5993365531
 31
0.0
  0
LINE
  5
1FD
330
1E
100
AcDbEntity
  8
0
 62
     3
100
AcDbLine
 10
140.7362097073999
 20
167.5993518119
 30
0.0
 11
144.7362097073998
 21
167.5993518119
 31
0.0
  0
LINE
  5
1FE
330
1E
100
AcDbEntity
  8
0
 62
     3
100
AcDbLine
 10
144.7362097073998
 20
166.3993548636999
 30
0.0
 11
144.7362097073998
 21
167.5993518119
 31
0.0
  0
LINE
  5
1FF
330
1E
100
AcDbEntity
  8
0
 62
     3
100
AcDbLine
 10
98.3362158109
 20
217.7993487602
 30
0.0
 11
98.3362158109
 21
183.7993487602
 31
0.0
  0
LINE
  5
200
330
1E
100
AcDbEntity
  8
0
 62
     3
100
AcDbLine
 10
120.6362036038999
 20
166.0993518118999
 30
0.0
 11
120.6362036038999
 21
166.2993487602
 31
0.0
  0
LINE
  5
201
330
1E
100
AcDbEntity
  8
0
 62
     3
100
AcDbLine
 10
102.3362158108999
 20
229.0993365531
 30
0.0
 11
140.4362219143999
 21
229.0993365531
 31
0.0
  0
LINE
  5
202
330
1E
100
AcDbEntity
  8
0
 62
     3
100
AcDbLine
 10
102.3362158108999
 20
166.0993518118999
 30
0.0
 11
120.6362036038999
 21
166.0993518118999
 31
0.0
  0
LINE
  5
203
330
1E
100
AcDbEntity
  8
0
 62
     3
100
AcDbLine
 10
98.83621581089995
 20
218.2993487602
 30
0.0
 11
101.8362158108998
 21
218.2993487602
 31
0.0
  0
LINE
  5
204
330
1E
100
AcDbEntity
  8
0
 62
     3
100
AcDbLine
 10
146.3362158108999
 20
216.6493548636999
 30
0.0
 11
147.0362280178999
 21
216.6493548636999
 31
0.0
  0
LINE
  5
205
330
1E
100
AcDbEntity
  8
0
 62
     3
100
AcDbLine
 10
140.4653967191
 20
229.0993365531
 30
0.0
 11
144.8739355374998
 21
229.0993365531
 31
0.0
  0
LINE
  5
206
330
1E
100
AcDbEntity
  8
0
 62
     3
100
AcDbLine
 10
136.8362158108999
 20
166.0993518118999
 30
0.0
 11
148.8362158109
 21
166.0993518118999
 31
0.0
  0
LINE
  5
207
330
1E
100
AcDbEntity
  8
0
 62
     3
100
AcDbLine
 10
145.0362280178999
 20
229.0993365531
 30
0.0
 11
148.8362158109
 21
229.0993365531
 31
0.0
  0
LINE
  5
208
330
1E
100
AcDbEntity
  8
0
  6
PHANTOM
 62
     3
100
AcDbLine
 10
99.97558400099995
 20
173.7090329647
 30
0.0
 11
100.5862266859999
 21
173.7410353919
 31
0.0
  0
LINE
  5
209
330
1E
100
AcDbEntity
  8
0
  6
PHANTOM
 62
     3
100
AcDbLine
 10
99.97557667479998
 20
169.1896787654
 30
0.0
 11
100.5862193596998
 21
169.1576763381999
 31
0.0
  0
LINE
  5
20A
330
1E
100
AcDbEntity
  8
0
  6
PHANTOM
 62
     3
100
AcDbLine
 10
100.5862158108999
 20
165.5090045219
 30
0.0
 11
100.5862158108999
 21
183.2035388236
 31
0.0
  0
LINE
  5
20B
330
1E
100
AcDbEntity
  8
0
  6
PHANTOM
 62
     3
100
AcDbLine
 10
99.97557785109998
 20
221.4896394531
 30
0.0
 11
100.5862205359999
 21
221.4576370259
 31
0.0
  0
LINE
  5
20C
330
1E
100
AcDbEntity
  8
0
  6
PHANTOM
 62
     3
100
AcDbLine
 10
99.97558442189998
 20
226.0089631766998
 30
0.0
 11
100.5862271067999
 21
226.0409656039
 31
0.0
  0
LINE
  5
20D
330
1E
100
AcDbEntity
  8
0
  6
PHANTOM
 62
     3
100
AcDbLine
 10
100.5862158108999
 20
230.7076434379
 30
0.0
 11
100.5862158108999
 21
218.2993487602
 31
0.0
  0
LINE
  5
20E
330
1E
100
AcDbEntity
  8
0
  6
CENTER
 62
     3
100
AcDbLine
 10
97.88583739290002
 20
171.4493426566
 30
0.0
 11
110.9034612942999
 21
171.4493426566
 31
0.0
  0
LINE
  5
20F
330
1E
100
AcDbEntity
  8
0
  6
CENTER
 62
     3
100
AcDbLine
 10
97.93832762729998
 20
223.7493304496
 30
0.0
 11
111.2624853420999
 21
223.7493304496
 31
0.0
  0
LINE
  5
210
330
1E
100
AcDbEntity
  8
0
 62
     3
100
AcDbLine
 10
42.74756224639997
 20
183.2993182425999
 30
0.0
 11
61.80578978549998
 21
183.2993182425999
 31
0.0
  0
LINE
  5
211
330
1E
100
AcDbEntity
  8
0
 62
     3
100
AcDbLine
 10
42.90637572299998
 20
218.2993182425998
 30
0.0
 11
61.64694579139997
 21
218.2993182425998
 31
0.0
  0
LINE
  5
212
330
1E
100
AcDbEntity
  8
0
  6
CENTER
 62
     3
100
AcDbLine
 10
146.1364172269
 20
172.9993151908
 30
0.0
 11
167.2531927395999
 21
172.9993151908
 31
0.0
  0
LINE
  5
213
330
1E
100
AcDbEntity
  8
0
  6
CENTER
 62
     3
100
AcDbLine
 10
143.1961096096999
 20
222.1993121390999
 30
0.0
 11
166.9859045316
 21
222.1993121390999
 31
0.0
  0
LINE
  5
214
330
1E
100
AcDbEntity
  8
0
  6
CENTER
 62
     3
100
AcDbLine
 10
45.5592077542
 20
171.4493273977999
 30
0.0
 11
59.3716467191
 21
171.4493273977999
 31
0.0
  0
LINE
  5
215
330
1E
100
AcDbEntity
  8
0
  6
CENTER
 62
     3
100
AcDbLine
 10
143.5940283108999
 20
180.5993518118999
 30
0.0
 11
148.1411779691
 21
180.5993518118999
 31
0.0
  0
LINE
  5
216
330
1E
100
AcDbEntity
  8
0
  6
CENTER
 62
     3
100
AcDbLine
 10
146.3362158108999
 20
183.7763232474999
 30
0.0
 11
146.3362158108999
 21
178.0293597465
 31
0.0
  0
LINE
  5
217
330
1E
100
AcDbEntity
  8
0
  6
CENTER
 62
     3
100
AcDbLine
 10
145.3362158108999
 20
178.5639514213
 30
0.0
 11
145.3362158108999
 21
172.8169879203
 31
0.0
  0
LINE
  5
218
330
1E
100
AcDbEntity
  8
0
  6
CENTER
 62
     3
100
AcDbLine
 10
143.3297613430999
 20
175.7993487602
 30
0.0
 11
147.0719793606999
 21
175.7993487602
 31
0.0
  0
LINE
  5
219
330
1E
100
AcDbEntity
  8
0
  6
CENTER
 62
     3
100
AcDbLine
 10
142.9969366360999
 20
214.5993365531
 30
0.0
 11
148.8094366360999
 21
214.5993365531
 31
0.0
  0
LINE
  5
21A
330
1E
100
AcDbEntity
  8
0
  6
CENTER
 62
     3
100
AcDbLine
 10
146.3362158108999
 20
218.6591052299
 30
0.0
 11
146.3362158108999
 21
210.7737292533
 31
0.0
  0
LINE
  5
21B
330
1E
100
AcDbEntity
  8
0
 62
     3
100
AcDbLine
 10
113.3362158108998
 20
228.6181048636999
 30
0.0
 11
113.3362158108998
 21
224.5442675834
 31
0.0
  0
LINE
  5
21C
330
1E
100
AcDbEntity
  8
0
  6
CENTER
 62
     3
100
AcDbLine
 10
188.9859045316
 20
179.6184100393999
 30
0.0
 11
188.9859045316
 21
164.0715502982
 31
0.0
  0
LINE
  5
21D
330
1E
100
AcDbEntity
  8
0
  6
CENTER
 62
     3
100
AcDbLine
 10
107.5362280178999
 20
227.9391192679999
 30
0.0
 11
107.5362280178999
 21
218.9828204398
 31
0.0
  0
LINE
  5
21E
330
1E
100
AcDbEntity
  8
0
  6
CENTER
 62
     3
100
AcDbLine
 10
107.5362280178999
 20
175.9924945120999
 30
0.0
 11
107.5362280178999
 21
167.7825335746
 31
0.0
  0
LINE
  5
21F
330
1E
100
AcDbEntity
  8
0
  6
CENTER
 62
     3
100
AcDbLine
 10
46.3136022855
 20
223.7493609672
 30
0.0
 11
58.1060827542
 21
223.7493609672
 31
0.0
  0
LINE
  5
220
330
1E
100
AcDbEntity
  8
0
 62
     3
100
AcDbLine
 10
111.3637426663999
 20
226.6993426566
 30
0.0
 11
115.3816259670999
 21
226.6993426566
 31
0.0
  0
LINE
  5
221
330
1E
100
AcDbEntity
  8
0
  6
CENTER
 62
     3
100
AcDbLine
 10
181.7785681057999
 20
222.1993121390999
 30
0.0
 11
196.0054052639998
 21
222.1993121390999
 31
0.0
  0
LINE
  5
222
330
1E
100
AcDbEntity
  8
0
  6
CENTER
 62
     3
100
AcDbLine
 10
182.2185705471999
 20
172.9993151908
 30
0.0
 11
196.7387312222999
 21
172.9993151908
 31
0.0
  0
LINE
  5
223
330
1E
100
AcDbEntity
  8
0
  6
CENTER
 62
     3
100
AcDbLine
 10
188.9859045316
 20
231.0990161184999
 30
0.0
 11
188.9859045316
 21
212.6187915091998
 31
0.0
  0
LINE
  5
224
330
1E
100
AcDbEntity
  8
0
  6
CENTER
 62
     3
100
AcDbLine
 10
106.3361813091999
 20
200.7993231872
 30
0.0
 11
84.06101698979998
 21
189.4495611476998
 31
0.0
  0
LINE
  5
225
330
1E
100
AcDbEntity
  8
0
  6
CENTER
 62
     3
100
AcDbLine
 10
106.3361813091999
 20
200.7993231872
 30
0.0
 11
84.06098848099999
 21
212.1491012427
 31
0.0
  0
ARC
  5
226
330
1E
100
AcDbEntity
  8
0
 62
     3
100
AcDbCircle
 10
189.4358856873998
 20
180.5993823295
 30
0.0
 40
9.0
100
AcDbArc
 50
350.3480342876
 51
9.652006693499997
  0
ARC
  5
227
330
1E
100
AcDbEntity
  8
0
 62
     3
100
AcDbCircle
 10
197.4358742433
 20
180.5493335013999
 30
0.0
 40
1.6999998093
100
AcDbArc
 50
270.0000726275999
 51
300.8836199033
  0
CIRCLE
  5
228
330
1E
100
AcDbEntity
  8
0
 62
     3
100
AcDbCircle
 10
52.39978392609998
 20
204.9127063040999
 30
0.0
 40
1.0
  0
ARC
  5
229
330
1E
100
AcDbEntity
  8
0
 62
     3
100
AcDbCircle
 10
87.17956908239997
 20
191.0385150199
 30
0.0
 40
1.799999237099998
100
AcDbArc
 50
359.7440533883998
 51
0.0
  0
CIRCLE
  5
22A
330
1E
100
AcDbEntity
  8
0
 62
     3
100
AcDbCircle
 10
87.17956908239997
 20
191.0385150199
 30
0.0
 40
1.524999618499998
  0
ARC
  5
22B
330
1E
100
AcDbEntity
  8
0
 62
     3
100
AcDbCircle
 10
163.0436743069999
 20
222.1993121390999
 30
0.0
 40
4.9074773788
100
AcDbArc
 50
151.9275040484999
 51
208.0724786486999
  0
ARC
  5
22C
330
1E
100
AcDbEntity
  8
0
 62
     3
100
AcDbCircle
 10
159.5425756741998
 20
225.6540240531
 30
0.0
 40
1.413851738
100
AcDbArc
 50
174.1013580191
 51
234.1013460283999
  0
ARC
  5
22D
330
1E
100
AcDbEntity
  8
0
 62
     3
100
AcDbCircle
 10
159.5425756741998
 20
218.744600225
 30
0.0
 40
1.413851738
100
AcDbArc
 50
125.8985820272998
 51
185.8985700366
  0
ARC
  5
22E
330
1E
100
AcDbEntity
  8
0
 62
     3
100
AcDbCircle
 10
159.9298284817999
 20
218.744600225
 30
0.0
 40
1.413851738
100
AcDbArc
 50
354.1013871610998
 51
54.10138541559998
  0
ARC
  5
22F
330
1E
100
AcDbEntity
  8
0
 62
     3
100
AcDbCircle
 10
156.4287298489998
 20
222.1993121390999
 30
0.0
 40
4.9074773788
100
AcDbArc
 50
331.9275195300998
 51
28.07248388499996
  0
ARC
  5
230
330
1E
100
AcDbEntity
  8
0
 62
     3
100
AcDbCircle
 10
159.9298284817999
 20
225.6540240531
 30
0.0
 40
1.413851738
100
AcDbArc
 50
305.8986077541998
 51
5.898609423800014
  0
ARC
  5
231
330
1E
100
AcDbEntity
  8
0
 62
     3
100
AcDbCircle
 10
153.0425604153999
 20
225.6540240531
 30
0.0
 40
1.413851738
100
AcDbArc
 50
174.1013580191
 51
234.1013460283999
  0
ARC
  5
232
330
1E
100
AcDbEntity
  8
0
 62
     3
100
AcDbCircle
 10
156.5436895657998
 20
222.1993121390999
 30
0.0
 40
4.9074773788
100
AcDbArc
 50
151.9275040484999
 51
208.0724786486999
  0
ARC
  5
233
330
1E
100
AcDbEntity
  8
0
 62
     3
100
AcDbCircle
 10
153.0425604153999
 20
218.744600225
 30
0.0
 40
1.413851738
100
AcDbArc
 50
125.8985820272998
 51
185.8985700366
  0
ARC
  5
234
330
1E
100
AcDbEntity
  8
0
 62
     3
100
AcDbCircle
 10
153.4298284817999
 20
218.744600225
 30
0.0
 40
1.413851738
100
AcDbArc
 50
354.1013871610998
 51
54.10138541559998
  0
ARC
  5
235
330
1E
100
AcDbEntity
  8
0
 62
     3
100
AcDbCircle
 10
149.9287145902
 20
222.1993121390999
 30
0.0
 40
4.9074773788
100
AcDbArc
 50
331.9275195300998
 51
28.07248388499996
  0
ARC
  5
236
330
1E
100
AcDbEntity
  8
0
 62
     3
100
AcDbCircle
 10
153.4298284817999
 20
225.6540240531
 30
0.0
 40
1.413851738
100
AcDbArc
 50
305.8986077541998
 51
5.898609423800014
  0
ARC
  5
237
330
1E
100
AcDbEntity
  8
0
 62
     3
100
AcDbCircle
 10
163.0436743069999
 20
172.9993151908
 30
0.0
 40
4.9074773788
100
AcDbArc
 50
151.9275040484999
 51
208.0724786486999
  0
ARC
  5
238
330
1E
100
AcDbEntity
  8
0
 62
     3
100
AcDbCircle
 10
159.5425604153999
 20
169.5446032767998
 30
0.0
 40
1.413851738
100
AcDbArc
 50
125.8985820272998
 51
185.8985700366
  0
ARC
  5
239
330
1E
100
AcDbEntity
  8
0
 62
     3
100
AcDbCircle
 10
159.5425604153999
 20
176.4540118461
 30
0.0
 40
1.413851738
100
AcDbArc
 50
174.1013580191
 51
234.1013460283999
  0
ARC
  5
23A
330
1E
100
AcDbEntity
  8
0
 62
     3
100
AcDbCircle
 10
159.9298284817999
 20
176.4540118461
 30
0.0
 40
1.413851738
100
AcDbArc
 50
305.8986077541998
 51
5.898609423800014
  0
ARC
  5
23B
330
1E
100
AcDbEntity
  8
0
 62
     3
100
AcDbCircle
 10
156.4287298489998
 20
172.9993151908
 30
0.0
 40
4.9074773788
100
AcDbArc
 50
331.9275195300998
 51
28.07248388499996
  0
ARC
  5
23C
330
1E
100
AcDbEntity
  8
0
 62
     3
100
AcDbCircle
 10
159.9298284817999
 20
169.5446032767998
 30
0.0
 40
1.413851738
100
AcDbArc
 50
354.1013871610998
 51
54.10138541559998
  0
ARC
  5
23D
330
1E
100
AcDbEntity
  8
0
 62
     3
100
AcDbCircle
 10
153.0425604153999
 20
169.5446032767998
 30
0.0
 40
1.413851738
100
AcDbArc
 50
125.8985820272998
 51
185.8985700366
  0
ARC
  5
23E
330
1E
100
AcDbEntity
  8
0
 62
     3
100
AcDbCircle
 10
156.5436895657998
 20
172.9993151908
 30
0.0
 40
4.9074773788
100
AcDbArc
 50
151.9275040484999
 51
208.0724786486999
  0
ARC
  5
23F
330
1E
100
AcDbEntity
  8
0
 62
     3
100
AcDbCircle
 10
153.0425604153999
 20
176.4540118461
 30
0.0
 40
1.413851738
100
AcDbArc
 50
174.1013580191
 51
234.1013460283999
  0
ARC
  5
240
330
1E
100
AcDbEntity
  8
0
 62
     3
100
AcDbCircle
 10
153.4298284817999
 20
176.4540118461
 30
0.0
 40
1.413851738
100
AcDbArc
 50
305.8986077541998
 51
5.898609423800014
  0
ARC
  5
241
330
1E
100
AcDbEntity
  8
0
 62
     3
100
AcDbCircle
 10
149.9287145902
 20
172.9993151908
 30
0.0
 40
4.9074773788
100
AcDbArc
 50
331.9275195300998
 51
28.07248388499996
  0
ARC
  5
242
330
1E
100
AcDbEntity
  8
0
 62
     3
100
AcDbCircle
 10
153.4298284817999
 20
169.5446032767998
 30
0.0
 40
1.413851738
100
AcDbArc
 50
354.1013871610998
 51
54.10138541559998
  0
ARC
  5
243
330
1E
100
AcDbEntity
  8
0
 62
     3
100
AcDbCircle
 10
87.17956908239997
 20
191.0385150199
 30
0.0
 40
3.5
100
AcDbArc
 50
104.5303078881
 51
309.4696421607999
  0
CIRCLE
  5
244
330
1E
100
AcDbEntity
  8
0
 62
     3
100
AcDbCircle
 10
87.17956908239997
 20
191.0385150199
 30
0.0
 40
1.8249998093
  0
CIRCLE
  5
245
330
1E
100
AcDbEntity
  8
0
 62
     3
100
AcDbCircle
 10
52.33624632849998
 20
171.4493273977999
 30
0.0
 40
1.25
  0
CIRCLE
  5
246
330
1E
100
AcDbEntity
  8
0
 62
     3
100
AcDbCircle
 10
52.33624632849998
 20
171.4493273977999
 30
0.0
 40
1.5
  0
LINE
  5
25C
330
1E
100
AcDbEntity
  8
0
 62
     3
100
AcDbLine
 10
179.4359167386
 20
178.5639514213
 30
0.0
 11
180.5359075833999
 21
178.5639514213
 31
0.0
  0
LINE
  5
25D
330
1E
100
AcDbEntity
  8
0
 62
     3
100
AcDbLine
 10
197.4358747769999
 20
178.5639514213
 30
0.0
 11
198.5358808804999
 21
178.5639514213
 31
0.0
  0
LINE
  5
25E
330
1E
100
AcDbEntity
  8
0
 62
     3
100
AcDbLine
 10
179.4359167386
 20
182.6493548636999
 30
0.0
 11
180.5359075833999
 21
182.6493548636999
 31
0.0
  0
LINE
  5
25F
330
1E
100
AcDbEntity
  8
0
 62
     3
100
AcDbLine
 10
197.4358747769999
 20
182.6493548636999
 30
0.0
 11
198.5358808804999
 21
182.6493548636999
 31
0.0
  0
LINE
  5
260
330
1E
100
AcDbEntity
  8
0
 62
     3
100
AcDbLine
 10
197.4358747769999
 20
216.6493396049
 30
0.0
 11
198.5358808804999
 21
216.6493396049
 31
0.0
  0
LINE
  5
261
330
1E
100
AcDbEntity
  8
0
 62
     3
100
AcDbLine
 10
179.4359167386
 20
216.6493396049
 30
0.0
 11
180.5359075833999
 21
216.6493396049
 31
0.0
  0
LINE
  5
262
330
1E
100
AcDbEntity
  8
0
 62
     3
100
AcDbLine
 10
197.4358747769999
 20
212.5639361625
 30
0.0
 11
198.5358808804999
 21
212.5639361625
 31
0.0
  0
LINE
  5
263
330
1E
100
AcDbEntity
  8
0
 62
     3
100
AcDbLine
 10
179.4359167386
 20
212.5639361625
 30
0.0
 11
180.5359075833999
 21
212.5639361625
 31
0.0
  0
ARC
  5
264
330
1E
100
AcDbEntity
  8
0
 62
     3
100
AcDbCircle
 10
197.4358742433
 20
214.5493182425998
 30
0.0
 40
1.6999998093
100
AcDbArc
 50
270.0000726275999
 51
300.8836199033
  0
ARC
  5
265
330
1E
100
AcDbEntity
  8
0
 62
     3
100
AcDbCircle
 10
189.4358856873998
 20
214.5993670706999
 30
0.0
 40
9.0
100
AcDbArc
 50
350.3480342876
 51
9.652006693499997
  0
LINE
  5
266
330
1E
100
AcDbEntity
  8
0
 62
     3
100
AcDbLine
 10
180.2358887390999
 20
213.1993426566
 30
0.0
 11
180.5358917909
 21
213.1993426566
 31
0.0
  0
LINE
  5
267
330
1E
100
AcDbEntity
  8
0
 62
     3
100
AcDbLine
 10
180.2358887390999
 20
215.9993304496
 30
0.0
 11
180.5358917909
 21
215.9993304496
 31
0.0
  0
LINE
  5
268
330
1E
100
AcDbEntity
  8
0
 62
     3
100
AcDbLine
 10
180.2358887390999
 20
213.1993426566
 30
0.0
 11
180.2358887390999
 21
215.9993304496
 31
0.0
  0
ARC
  5
269
330
1E
100
AcDbEntity
  8
0
 62
     3
100
AcDbCircle
 10
197.4358742433
 20
214.6493548636999
 30
0.0
 40
1.6999998093
100
AcDbArc
 50
59.11643473819999
 51
90.00003665540001
  0
LINE
  5
272
330
1E
100
AcDbEntity
  8
0
100
AcDbLine
 10
0.0
 20
0.0
 30
0.0
 11
210.0
 21
0.0
 31
0.0
  0
LINE
  5
273
330
1E
100
AcDbEntity
  8
0
100
AcDbLine
 10
210.0
 20
0.0
 30
0.0
 11
210.0
 21
297.0
 31
0.0
  0
LINE
  5
274
330
1E
100
AcDbEntity
  8
0
100
AcDbLine
 10
210.0
 20
297.0
 30
0.0
 11
0.0
 21
297.0
 31
0.0
  0
LINE
  5
275
330
1E
100
AcDbEntity
  8
0
100
AcDbLine
 10
0.0
 20
297.0
 30
0.0
 11
0.0
 21
0.0
 31
0.0
  0
TEXT
  5
27A
330
1E
100
AcDbEntity
  8
0
 62
     5
100
AcDbText
 10
145.0
 20
10.0
 30
0.0
 40
5.0
  1
ＭＡ４－Ｃ０００５８Ｂ
 41
0.8443967743953109
 72
     5
 11
199.0413935612998
 21
10.0
 31
0.0
100
AcDbText
  0
TEXT
  5
2A0
330
1E
100
AcDbEntity
  8
0
 62
     7
100
AcDbText
 10
146.0
 20
115.0000029552499
 30
0.0
 40
2.999994089499998
  1
NRBM1100
 11
146.0
 21
116.5
 31
0.0
100
AcDbText
 73
     2
  0
TEXT
  5
2A1
330
1E
100
AcDbEntity
  8
0
 62
     7
100
AcDbText
 10
146.0
 20
110.0000029552498
 30
0.0
 40
2.999994089499998
  1
NRBM1100F
 11
146.0
 21
111.4999999999999
 31
0.0
100
AcDbText
 73
     2
  0
ENDSEC
  0
SECTION
  2
OBJECTS
  0
DICTIONARY
  5
C
330
0
100
AcDbDictionary
281
     1
  3
ACAD_GROUP
350
D
  3
ACAD_LAYOUT
350
19
  3
ACAD_MLINESTYLE
350
16
  3
ACAD_PLOTSETTINGS
350
18
  3
ACAD_PLOTSTYLENAME
350
E
  3
AcDbVariableDictionary
350
2A2
  0
DICTIONARY
  5
D
102
{ACAD_REACTORS
330
C
102
}
330
C
100
AcDbDictionary
281
     1
  0
DICTIONARY
  5
19
102
{ACAD_REACTORS
330
C
102
}
330
C
100
AcDbDictionary
281
     1
  3
Model
350
21
  3
ﾚｲｱｳﾄ1
350
1D
  0
DICTIONARY
  5
16
102
{ACAD_REACTORS
330
C
102
}
330
C
100
AcDbDictionary
281
     1
  3
Standard
350
17
  0
DICTIONARY
  5
18
102
{ACAD_REACTORS
330
C
102
}
330
C
100
AcDbDictionary
281
     1
  0
ACDBDICTIONARYWDFLT
  5
E
102
{ACAD_REACTORS
330
C
102
}
330
C
100
AcDbDictionary
281
     1
  3
Normal
350
F
100
AcDbDictionaryWithDefault
340
F
  0
DICTIONARY
  5
2A2
102
{ACAD_REACTORS
330
C
102
}
330
C
100
AcDbDictionary
281
     1
  3
DIMASSOC
350
2A3
  0
LAYOUT
  5
21
102
{ACAD_REACTORS
330
19
102
}
330
19
100
AcDbPlotSettings
  1

  2
C:\Program Files\AutoCAD 2000i\plotters\DWF Classic.pc3
  4

  6

 40
0.0
 41
0.0
 42
0.0
 43
0.0
 44
0.0
 45
0.0
 46
0.0
 47
0.0
 48
0.0
 49
0.0
140
0.0
141
0.0
142
1.0
143
1.0
 70
  1712
 72
     0
 73
     0
 74
     0
  7

 75
     0
147
1.0
148
0.0
149
0.0
100
AcDbLayout
  1
Model
 70
     1
 71
     0
 10
0.0
 20
0.0
 11
12.0
 21
9.0
 12
0.0
 22
0.0
 32
0.0
 14
0.0
 24
0.0
 34
0.0
 15
0.0
 25
0.0
 35
0.0
146
0.0
 13
0.0
 23
0.0
 33
0.0
 16
1.0
 26
0.0
 36
0.0
 17
0.0
 27
1.0
 37
0.0
 76
     0
330
1E
  0
LAYOUT
  5
1D
102
{ACAD_REACTORS
330
19
102
}
330
19
100
AcDbPlotSettings
  1

  2
C:\Program Files\AutoCAD 2000i\plotters\DWF Classic.pc3
  4

  6

 40
0.0
 41
0.0
 42
0.0
 43
0.0
 44
0.0
 45
0.0
 46
0.0
 47
0.0
 48
0.0
 49
0.0
140
0.0
141
0.0
142
1.0
143
1.0
 70
   688
 72
     0
 73
     0
 74
     5
  7

 75
    16
147
1.0
148
0.0
149
0.0
100
AcDbLayout
  1
ﾚｲｱｳﾄ1
 70
     1
 71
     1
 10
0.0
 20
0.0
 11
12.0
 21
9.0
 12
0.0
 22
0.0
 32
0.0
 14
1.000000000000000E+20
 24
1.000000000000000E+20
 34
1.000000000000000E+20
 15
-1.000000000000000E+20
 25
-1.000000000000000E+20
 35
-1.000000000000000E+20
146
0.0
 13
0.0
 23
0.0
 33
0.0
 16
1.0
 26
0.0
 36
0.0
 17
0.0
 27
1.0
 37
0.0
 76
     0
330
1A
  0
MLINESTYLE
  5
17
102
{ACAD_REACTORS
330
16
102
}
330
16
100
AcDbMlineStyle
  2
STANDARD
 70
     0
  3

 62
   256
 51
90.0
 52
90.0
 71
     2
 49
0.5
 62
   256
  6
BYLAYER
 49
-0.5
 62
   256
  6
BYLAYER
  0
ACDBPLACEHOLDER
  5
F
102
{ACAD_REACTORS
330
E
102
}
330
E
  0
DICTIONARYVAR
  5
2A3
102
{ACAD_REACTORS
330
2A2
102
}
330
2A2
100
DictionaryVariables
280
     0
  1
1
  0
ENDSEC
  0
EOF
