  0
SECTION
  2
HEADER
  9
$ACADVER
  1
AC1015
  9
$ACADMAINTVER
 70
    13
  9
$DWGCODEPAGE
  3
ANSI_932
  9
$INSBASE
 10
0.0
 20
0.0
 30
0.0
  9
$EXTMIN
 10
-0.019536893442023
 20
-0.0006347851383453
 30
-0.0000000349181948
  9
$EXTMAX
 10
210.0140489260695
 20
297.0062843631819
 30
0.0000000814935747
  9
$LIMMIN
 10
-189.5833099365
 20
-3.174999999999998
  9
$LIMMAX
 10
3.174999999999998
 20
291.2585876465
  9
$ORTHOMODE
 70
     0
  9
$REGENMODE
 70
     1
  9
$FILLMODE
 70
     1
  9
$QTEXTMODE
 70
     0
  9
$MIRRTEXT
 70
     0
  9
$LTSCALE
 40
1.0
  9
$ATTMODE
 70
     1
  9
$TEXTSIZE
 40
2.999994039499997
  9
$TRACEWID
 40
0.05
  9
$TEXTSTYLE
  7
STANDARD
  9
$CLAYER
  8
0
  9
$CELTYPE
  6
ByLayer
  9
$CECOLOR
 62
   256
  9
$CELTSCALE
 40
1.0
  9
$DISPSILH
 70
     0
  9
$DIMSCALE
 40
1.0
  9
$DIMASZ
 40
1.9727878465
  9
$DIMEXO
 40
2.539999961899999
  9
$DIMDLI
 40
0.38
  9
$DIMRND
 40
0.0
  9
$DIMDLE
 40
0.0
  9
$DIMEXE
 40
3.809999942799997
  9
$DIMTP
 40
0.0
  9
$DIMTM
 40
0.0
  9
$DIMTXT
 40
2.999994039499997
  9
$DIMCEN
 40
0.09
  9
$DIMTSZ
 40
0.0
  9
$DIMTOL
 70
     0
  9
$DIMLIM
 70
     0
  9
$DIMTIH
 70
     0
  9
$DIMTOH
 70
     1
  9
$DIMSE1
 70
     0
  9
$DIMSE2
 70
     0
  9
$DIMTAD
 70
     0
  9
$DIMZIN
 70
     0
  9
$DIMBLK
  1

  9
$DIMASO
 70
     1
  9
$DIMSHO
 70
     0
  9
$DIMPOST
  1

  9
$DIMAPOST
  1

  9
$DIMALT
 70
     0
  9
$DIMALTD
 70
     2
  9
$DIMALTF
 40
25.4
  9
$DIMLFAC
 40
1.0
  9
$DIMTOFL
 70
     0
  9
$DIMTVP
 40
0.0
  9
$DIMTIX
 70
     0
  9
$DIMSOXD
 70
     0
  9
$DIMSAH
 70
     0
  9
$DIMBLK1
  1

  9
$DIMBLK2
  1

  9
$DIMSTYLE
  2
Standard
  9
$DIMCLRD
 70
     0
  9
$DIMCLRE
 70
     0
  9
$DIMCLRT
 70
     0
  9
$DIMTFAC
 40
1.0
  9
$DIMGAP
 40
0.09
  9
$DIMJUST
 70
     0
  9
$DIMSD1
 70
     0
  9
$DIMSD2
 70
     0
  9
$DIMTOLJ
 70
     1
  9
$DIMTZIN
 70
     0
  9
$DIMALTZ
 70
     0
  9
$DIMALTTZ
 70
     0
  9
$DIMUPT
 70
     0
  9
$DIMDEC
 70
     4
  9
$DIMTDEC
 70
     4
  9
$DIMALTU
 70
     2
  9
$DIMALTTD
 70
     2
  9
$DIMTXSTY
  7
STANDARD
  9
$DIMAUNIT
 70
     0
  9
$DIMADEC
 70
     0
  9
$DIMALTRND
 40
0.0
  9
$DIMAZIN
 70
     0
  9
$DIMDSEP
 70
    46
  9
$DIMATFIT
 70
     3
  9
$DIMFRAC
 70
     0
  9
$DIMLDRBLK
  1

  9
$DIMLUNIT
 70
     2
  9
$DIMLWD
 70
    -2
  9
$DIMLWE
 70
    -2
  9
$DIMTMOVE
 70
     0
  9
$LUNITS
 70
     2
  9
$LUPREC
 70
     3
  9
$SKETCHINC
 40
0.1
  9
$FILLETRAD
 40
0.0625
  9
$AUNITS
 70
     0
  9
$AUPREC
 70
     0
  9
$MENU
  1
ACAD
  9
$ELEVATION
 40
0.0
  9
$PELEVATION
 40
0.0
  9
$THICKNESS
 40
0.0
  9
$LIMCHECK
 70
     0
  9
$CHAMFERA
 40
0.0
  9
$CHAMFERB
 40
0.0
  9
$CHAMFERC
 40
0.0
  9
$CHAMFERD
 40
0.0
  9
$SKPOLY
 70
     0
  9
$TDCREATE
 40
2452527.709872685
  9
$TDUCREATE
 40
2452527.334872685
  9
$TDUPDATE
 40
2453339.678120659
  9
$TDUUPDATE
 40
2453339.303120659
  9
$TDINDWG
 40
0.0026175579
  9
$TDUSRTIMER
 40
0.0026124884
  9
$USRTIMER
 70
     1
  9
$ANGBASE
 50
0.0
  9
$ANGDIR
 70
     0
  9
$PDMODE
 70
     0
  9
$PDSIZE
 40
0.0
  9
$PLINEWID
 40
0.0
  9
$SPLFRAME
 70
     0
  9
$SPLINETYPE
 70
     6
  9
$SPLINESEGS
 70
     8
  9
$HANDSEED
  5
338
  9
$SURFTAB1
 70
     6
  9
$SURFTAB2
 70
     6
  9
$SURFTYPE
 70
     6
  9
$SURFU
 70
     6
  9
$SURFV
 70
     6
  9
$UCSBASE
  2

  9
$UCSNAME
  2

  9
$UCSORG
 10
0.0
 20
0.0
 30
0.0
  9
$UCSXDIR
 10
1.0
 20
0.0
 30
0.0
  9
$UCSYDIR
 10
0.0
 20
1.0
 30
0.0
  9
$UCSORTHOREF
  2

  9
$UCSORTHOVIEW
 70
     0
  9
$UCSORGTOP
 10
0.0
 20
0.0
 30
0.0
  9
$UCSORGBOTTOM
 10
0.0
 20
0.0
 30
0.0
  9
$UCSORGLEFT
 10
0.0
 20
0.0
 30
0.0
  9
$UCSORGRIGHT
 10
0.0
 20
0.0
 30
0.0
  9
$UCSORGFRONT
 10
0.0
 20
0.0
 30
0.0
  9
$UCSORGBACK
 10
0.0
 20
0.0
 30
0.0
  9
$PUCSBASE
  2

  9
$PUCSNAME
  2

  9
$PUCSORG
 10
0.0
 20
0.0
 30
0.0
  9
$PUCSXDIR
 10
1.0
 20
0.0
 30
0.0
  9
$PUCSYDIR
 10
0.0
 20
1.0
 30
0.0
  9
$PUCSORTHOREF
  2

  9
$PUCSORTHOVIEW
 70
     0
  9
$PUCSORGTOP
 10
0.0
 20
0.0
 30
0.0
  9
$PUCSORGBOTTOM
 10
0.0
 20
0.0
 30
0.0
  9
$PUCSORGLEFT
 10
0.0
 20
0.0
 30
0.0
  9
$PUCSORGRIGHT
 10
0.0
 20
0.0
 30
0.0
  9
$PUCSORGFRONT
 10
0.0
 20
0.0
 30
0.0
  9
$PUCSORGBACK
 10
0.0
 20
0.0
 30
0.0
  9
$USERI1
 70
     8
  9
$USERI2
 70
     0
  9
$USERI3
 70
     0
  9
$USERI4
 70
     0
  9
$USERI5
 70
     0
  9
$USERR1
 40
0.0
  9
$USERR2
 40
0.0
  9
$USERR3
 40
0.0
  9
$USERR4
 40
0.0
  9
$USERR5
 40
0.0
  9
$WORLDVIEW
 70
     1
  9
$SHADEDGE
 70
     3
  9
$SHADEDIF
 70
    70
  9
$TILEMODE
 70
     1
  9
$MAXACTVP
 70
    64
  9
$PINSBASE
 10
0.0
 20
0.0
 30
0.0
  9
$PLIMCHECK
 70
     0
  9
$PEXTMIN
 10
1.000000000000000E+20
 20
1.000000000000000E+20
 30
1.000000000000000E+20
  9
$PEXTMAX
 10
-1.000000000000000E+20
 20
-1.000000000000000E+20
 30
-1.000000000000000E+20
  9
$PLIMMIN
 10
0.0
 20
0.0
  9
$PLIMMAX
 10
12.0
 20
9.0
  9
$UNITMODE
 70
     0
  9
$VISRETAIN
 70
     1
  9
$PLINEGEN
 70
     0
  9
$PSLTSCALE
 70
     1
  9
$TREEDEPTH
 70
  3020
  9
$CMLSTYLE
  2
Standard
  9
$CMLJUST
 70
     0
  9
$CMLSCALE
 40
1.0
  9
$PROXYGRAPHICS
 70
     1
  9
$MEASUREMENT
 70
     0
  9
$CELWEIGHT
370
    -1
  9
$ENDCAPS
280
     0
  9
$JOINSTYLE
280
     0
  9
$LWDISPLAY
290
     0
  9
$INSUNITS
 70
     0
  9
$HYPERLINKBASE
  1

  9
$STYLESHEET
  1

  9
$XEDIT
290
     1
  9
$CEPSNTYPE
380
     0
  9
$PSTYLEMODE
290
     1
  9
$FINGERPRINTGUID
  2
{8DA2A005-3989-488C-A6E2-164A007EBF8C}
  9
$VERSIONGUID
  2
{0362A6AE-A0F3-423E-B9DF-5BB74B824EDE}
  9
$EXTNAMES
290
     1
  9
$PSVPSCALE
 40
0.0
  9
$OLESTARTUP
290
     0
  0
ENDSEC
  0
SECTION
  2
CLASSES
  0
CLASS
  1
ACDBDICTIONARYWDFLT
  2
AcDbDictionaryWithDefault
  3
AutoCAD 2000
 90
        0
280
     0
281
     0
  0
CLASS
  1
ACDBPLACEHOLDER
  2
AcDbPlaceHolder
  3
AutoCAD 2000
 90
        0
280
     0
281
     0
  0
CLASS
  1
LAYOUT
  2
AcDbLayout
  3
AutoCAD 2000
 90
        0
280
     0
281
     0
  0
CLASS
  1
DICTIONARYVAR
  2
AcDbDictionaryVar
  3
AutoCAD 2000
 90
        0
280
     0
281
     0
  0
ENDSEC
  0
SECTION
  2
TABLES
  0
TABLE
  2
VPORT
  5
19
330
0
100
AcDbSymbolTable
 70
     2
  0
VPORT
  5
337
330
19
100
AcDbSymbolTableRecord
100
AcDbViewportTableRecord
  2
*Active
 70
     0
 10
0.0
 20
0.0
 11
1.0
 21
1.0
 12
104.9972560163137
 22
148.5028247890218
 13
0.0
 23
0.0
 14
1.0
 24
1.0
 15
0.0
 25
0.0
 16
0.0
 26
0.0
 36
1.0
 17
0.0
 27
0.0
 37
0.0
 40
301.3427865811424
 41
2.407317073170731
 42
50.0
 43
0.0
 44
0.0
 50
0.0
 51
0.0
 71
     0
 72
   100
 73
     1
 74
     1
 75
     0
 76
     0
 77
     0
 78
     0
281
     0
 65
     1
110
0.0
120
0.0
130
0.0
111
1.0
121
0.0
131
0.0
112
0.0
122
1.0
132
0.0
 79
     0
146
0.0
  0
ENDTAB
  0
TABLE
  2
LTYPE
  5
14
330
0
100
AcDbSymbolTable
 70
     3
  0
LTYPE
  5
15
330
14
100
AcDbSymbolTableRecord
100
AcDbLinetypeTableRecord
  2
ByBlock
 70
     0
  3

 72
    65
 73
     0
 40
0.0
  0
LTYPE
  5
16
330
14
100
AcDbSymbolTableRecord
100
AcDbLinetypeTableRecord
  2
ByLayer
 70
     0
  3

 72
    65
 73
     0
 40
0.0
  0
LTYPE
  5
8
330
14
100
AcDbSymbolTableRecord
100
AcDbLinetypeTableRecord
  2
Continuous
 70
     0
  3
Solid line
 72
    65
 73
     0
 40
0.0
  0
LTYPE
  5
38
330
14
100
AcDbSymbolTableRecord
100
AcDbLinetypeTableRecord
  2
CENTER
 70
     0
  3
Center
 72
    65
 73
     4
 40
9.100006759199999
 49
6.5000119209
 74
     0
 49
-0.7999984026000001
 74
     0
 49
0.9999980329999999
 74
     0
 49
-0.7999984026000001
 74
     0
  0
LTYPE
  5
164
330
14
100
AcDbSymbolTableRecord
100
AcDbLinetypeTableRecord
  2
PHANTOM
 70
     0
  3
Phantom
 72
    65
 73
     6
 40
9.499981462999999
 49
4.799990654
 74
     0
 49
-0.8999982475999999
 74
     0
 49
0.9999980329999999
 74
     0
 49
-0.8999982475999999
 74
     0
 49
0.9999980329999999
 74
     0
 49
-0.8999982475999999
 74
     0
  0
ENDTAB
  0
TABLE
  2
LAYER
  5
10
330
0
100
AcDbSymbolTable
 70
     1
  0
LAYER
  5
4
330
10
100
AcDbSymbolTableRecord
100
AcDbLayerTableRecord
  2
0
 70
     0
 62
     7
  6
Continuous
370
    -3
390
5
  0
ENDTAB
  0
TABLE
  2
STYLE
  5
11
330
0
100
AcDbSymbolTable
 70
     1
  0
STYLE
  5
12
330
11
100
AcDbSymbolTableRecord
100
AcDbTextStyleTableRecord
  2
STANDARD
 70
     0
 40
0.0
 41
1.0
 50
0.0
 71
     0
 42
2.999994039499997
  3
romans.shx
  4
bigfont.shx
  0
ENDTAB
  0
TABLE
  2
VIEW
  5
17
330
0
100
AcDbSymbolTable
 70
     0
  0
ENDTAB
  0
TABLE
  2
UCS
  5
18
330
0
100
AcDbSymbolTable
 70
     0
  0
ENDTAB
  0
TABLE
  2
APPID
  5
1B
330
0
100
AcDbSymbolTable
 70
     1
  0
APPID
  5
1C
330
1B
100
AcDbSymbolTableRecord
100
AcDbRegAppTableRecord
  2
ACAD
 70
     0
  0
ENDTAB
  0
TABLE
  2
DIMSTYLE
  5
1D
330
0
100
AcDbSymbolTable
 70
     1
100
AcDbDimStyleTable
 71
     0
  0
DIMSTYLE
105
23
330
1D
100
AcDbSymbolTableRecord
100
AcDbDimStyleTableRecord
  2
Standard
 70
     0
340
12
  0
ENDTAB
  0
TABLE
  2
BLOCK_RECORD
  5
1
330
0
100
AcDbSymbolTable
 70
     1
  0
BLOCK_RECORD
  5
2
330
1
100
AcDbSymbolTableRecord
100
AcDbBlockTableRecord
  2
*Model_Space
340
A
  0
BLOCK_RECORD
  5
C
330
1
100
AcDbSymbolTableRecord
100
AcDbBlockTableRecord
  2
*Paper_Space
340
F
  0
ENDTAB
  0
ENDSEC
  0
SECTION
  2
BLOCKS
  0
BLOCK
  5
3
330
2
100
AcDbEntity
  8
0
100
AcDbBlockBegin
  2
*Model_Space
 70
     2
 10
0.0
 20
0.0
 30
0.0
  3
*Model_Space
  1

  0
ENDBLK
  5
9
330
2
100
AcDbEntity
  8
0
100
AcDbBlockEnd
  0
BLOCK
  5
D
330
C
100
AcDbEntity
 67
     1
  8
0
100
AcDbBlockBegin
  2
*Paper_Space
 70
     0
 10
0.0
 20
0.0
 30
0.0
  3
*Paper_Space
  1

  0
ENDBLK
  5
E
330
C
100
AcDbEntity
 67
     1
  8
0
100
AcDbBlockEnd
  0
ENDSEC
  0
SECTION
  2
ENTITIES
  0
LINE
  5
24
330
2
100
AcDbEntity
  8
0
100
AcDbLine
 10
210.0
 20
0.0
 30
0.0
 11
210.0
 21
297.0
 31
0.0
  0
ARC
  5
25
330
2
100
AcDbEntity
  8
0
 62
     3
100
AcDbCircle
 10
89.5034585638
 20
142.780411754
 30
0.0
 40
2.0
100
AcDbArc
 50
0.0
 51
89.99998201389999
  0
ARC
  5
26
330
2
100
AcDbEntity
  8
0
 62
     3
100
AcDbCircle
 10
55.30344635679997
 20
142.780411754
 30
0.0
 40
2.0
100
AcDbArc
 50
89.99998201389999
 51
179.9999640277999
  0
LINE
  5
27
330
2
100
AcDbEntity
  8
0
100
AcDbLine
 10
0.0
 20
297.0
 30
0.0
 11
0.0
 21
0.0
 31
0.0
  0
LINE
  5
28
330
2
100
AcDbEntity
  8
0
 62
     3
100
AcDbLine
 10
97.70345551209999
 20
153.280411754
 30
0.0
 11
97.70345551209999
 21
115.2803964952
 31
0.0
  0
LINE
  5
29
330
2
100
AcDbEntity
  8
0
 62
     3
100
AcDbLine
 10
47.10343414979999
 20
153.280411754
 30
0.0
 11
47.10343414979999
 21
115.2803964952
 31
0.0
  0
TEXT
  5
2A
330
2
100
AcDbEntity
  8
0
 62
     5
100
AcDbText
 10
145.0
 20
10.0
 30
0.0
 40
5.0
  1
ＭＡ４－Ｃ０００７４Ｂ
 41
0.8443967743953098
 72
     5
 11
199.0413935612998
 21
10.0
 31
0.0
100
AcDbText
  0
LINE
  5
2B
330
2
100
AcDbEntity
  8
0
100
AcDbLine
 10
0.0
 20
0.0
 30
0.0
 11
210.0
 21
0.0
 31
0.0
  0
ARC
  5
2C
330
2
100
AcDbEntity
  8
0
 62
     3
100
AcDbCircle
 10
86.9984689398
 20
110.2803964952
 30
0.0
 40
1.0
100
AcDbArc
 50
270.0000179861
 51
354.2894051934999
  0
ARC
  5
2D
330
2
100
AcDbEntity
  8
0
 62
     3
100
AcDbCircle
 10
86.90346771909998
 20
83.70314025879997
 30
0.0
 40
1.0
100
AcDbArc
 50
0.0
 51
89.99998201389999
  0
ARC
  5
2E
330
2
100
AcDbEntity
  8
0
 62
     3
100
AcDbCircle
 10
86.90346771909998
 20
70.70314025880001
 30
0.0
 40
1.0
100
AcDbArc
 50
270.0000179861
 51
0.0
  0
ARC
  5
2F
330
2
100
AcDbEntity
  8
0
 62
     3
100
AcDbCircle
 10
86.90346771909998
 20
64.7031402588
 30
0.0
 40
1.0
100
AcDbArc
 50
0.0
 51
89.99998201389999
  0
ARC
  5
30
330
2
100
AcDbEntity
  8
0
 62
     3
100
AcDbCircle
 10
86.90346771909998
 20
51.70314025879999
 30
0.0
 40
1.0
100
AcDbArc
 50
270.0000179861
 51
0.0
  0
ARC
  5
31
330
2
100
AcDbEntity
  8
0
 62
     3
100
AcDbCircle
 10
87.40346771909996
 20
70.70314025880001
 30
0.0
 40
1.0
100
AcDbArc
 50
270.0000179861
 51
0.0
  0
ARC
  5
32
330
2
100
AcDbEntity
  8
0
 62
     3
100
AcDbCircle
 10
87.40346771909996
 20
83.70314025879997
 30
0.0
 40
1.0
100
AcDbArc
 50
0.0
 51
89.99998201389999
  0
ARC
  5
33
330
2
100
AcDbEntity
  8
0
 62
     3
100
AcDbCircle
 10
87.40346771909996
 20
51.70314025879999
 30
0.0
 40
1.0
100
AcDbArc
 50
270.0000179861
 51
0.0
  0
ARC
  5
34
330
2
100
AcDbEntity
  8
0
 62
     3
100
AcDbCircle
 10
87.40346771909996
 20
64.7031402588
 30
0.0
 40
1.0
100
AcDbArc
 50
0.0
 51
89.99998201389999
  0
LINE
  5
35
330
2
100
AcDbEntity
  8
0
 62
     3
100
AcDbLine
 10
85.80344635679997
 20
58.20314025880001
 30
0.0
 11
91.55344635679998
 21
58.20314025880001
 31
0.0
  0
LINE
  5
36
330
2
100
AcDbEntity
  8
0
 62
     3
100
AcDbLine
 10
85.80344635679997
 20
77.2031402588
 30
0.0
 11
91.55344635679998
 21
77.2031402588
 31
0.0
  0
LINE
  5
37
330
2
100
AcDbEntity
  8
0
  6
CENTER
 62
     3
100
AcDbLine
 10
90.66932160089995
 20
116.7803964952
 30
0.0
 11
86.69625336359997
 21
116.7803964952
 31
0.0
  0
CIRCLE
  5
39
330
2
100
AcDbEntity
  8
0
 62
     3
100
AcDbCircle
 10
88.40345246029997
 20
116.7803964952
 30
0.0
 40
1.0999994278
  0
ARC
  5
3A
330
2
100
AcDbEntity
  8
0
 62
     3
100
AcDbCircle
 10
86.90346771909998
 20
32.70314025879998
 30
0.0
 40
1.0
100
AcDbArc
 50
270.0000179861
 51
0.0
  0
ARC
  5
3B
330
2
100
AcDbEntity
  8
0
 62
     3
100
AcDbCircle
 10
87.40346771909996
 20
32.70314025879998
 30
0.0
 40
1.0
100
AcDbArc
 50
270.0000179861
 51
0.0
  0
LINE
  5
3C
330
2
100
AcDbEntity
  8
0
 62
     3
100
AcDbLine
 10
85.80344635679997
 20
39.20314025879999
 30
0.0
 11
91.55344635679998
 21
39.20314025879999
 31
0.0
  0
ARC
  5
3D
330
2
100
AcDbEntity
  8
0
 62
     3
100
AcDbCircle
 10
86.90346771909998
 20
45.7031402588
 30
0.0
 40
1.0
100
AcDbArc
 50
0.0
 51
89.99998201389999
  0
ARC
  5
3E
330
2
100
AcDbEntity
  8
0
 62
     3
100
AcDbCircle
 10
87.40346771909996
 20
45.7031402588
 30
0.0
 40
1.0
100
AcDbArc
 50
0.0
 51
89.99998201389999
  0
LINE
  5
3F
330
2
100
AcDbEntity
  8
0
 62
     3
100
AcDbLine
 10
47.30343109799997
 20
86.70314025879999
 30
0.0
 11
97.5034585638
 21
86.70314025879999
 31
0.0
  0
LINE
  5
40
330
2
100
AcDbEntity
  8
0
 62
     3
100
AcDbLine
 10
47.30343109799997
 20
29.7031402588
 30
0.0
 11
97.5034585638
 21
29.7031402588
 31
0.0
  0
LINE
  5
41
330
2
100
AcDbEntity
  8
0
 62
     3
100
AcDbLine
 10
51.30349213319999
 20
67.70314025880001
 30
0.0
 11
92.40345246029994
 21
67.70314025880001
 31
0.0
  0
LINE
  5
42
330
2
100
AcDbEntity
  8
0
 62
     3
100
AcDbLine
 10
51.30349213319999
 20
48.70314025879999
 30
0.0
 11
93.50351959900001
 21
48.70314025879999
 31
0.0
  0
LINE
  5
43
330
2
100
AcDbEntity
  8
0
 62
     3
100
AcDbLine
 10
48.1034341498
 20
114.2803964952
 30
0.0
 11
96.70345551209996
 21
114.2803964952
 31
0.0
  0
LINE
  5
44
330
2
100
AcDbEntity
  8
0
 62
     3
100
AcDbLine
 10
55.30344635679997
 20
121.0803995469
 30
0.0
 11
89.5034585638
 21
121.0803995469
 31
0.0
  0
LINE
  5
45
330
2
100
AcDbEntity
  8
0
 62
     3
100
AcDbLine
 10
56.9034372015
 20
51.70314025879999
 30
0.0
 11
56.9034372015
 21
64.7031402588
 31
0.0
  0
LINE
  5
46
330
2
100
AcDbEntity
  8
0
 62
     3
100
AcDbLine
 10
56.40343720149999
 20
51.70314025879999
 30
0.0
 11
56.40343720149999
 21
64.7031402588
 31
0.0
  0
LINE
  5
47
330
2
100
AcDbEntity
  8
0
 62
     3
100
AcDbLine
 10
47.10343414979999
 20
48.9031524658
 30
0.0
 11
47.10343414979999
 21
67.50314331050001
 31
0.0
  0
ARC
  5
48
330
2
100
AcDbEntity
  8
0
 62
     3
100
AcDbCircle
 10
57.4034372015
 20
51.70314025879999
 30
0.0
 40
1.0
100
AcDbArc
 50
179.9999640277999
 51
270.0000006831999
  0
ARC
  5
49
330
2
100
AcDbEntity
  8
0
 62
     3
100
AcDbCircle
 10
57.9034372015
 20
51.70314025879999
 30
0.0
 40
1.0
100
AcDbArc
 50
179.9999640277999
 51
270.0000006831999
  0
ARC
  5
4A
330
2
100
AcDbEntity
  8
0
 62
     3
100
AcDbCircle
 10
57.4034372015
 20
32.70314025879998
 30
0.0
 40
1.0
100
AcDbArc
 50
179.9999640277999
 51
270.0000006831999
  0
ARC
  5
4B
330
2
100
AcDbEntity
  8
0
 62
     3
100
AcDbCircle
 10
57.9034372015
 20
32.70314025879998
 30
0.0
 40
1.0
100
AcDbArc
 50
179.9999640277999
 51
270.0000006831999
  0
ARC
  5
4C
330
2
100
AcDbEntity
  8
0
 62
     3
100
AcDbCircle
 10
57.9034372015
 20
45.7031402588
 30
0.0
 40
1.0
100
AcDbArc
 50
89.99998201389999
 51
179.9999640277999
  0
ARC
  5
4D
330
2
100
AcDbEntity
  8
0
 62
     3
100
AcDbCircle
 10
57.4034372015
 20
45.7031402588
 30
0.0
 40
1.0
100
AcDbArc
 50
89.99998201389999
 51
179.9999640277999
  0
LINE
  5
4E
330
2
100
AcDbEntity
  8
0
 62
     3
100
AcDbLine
 10
53.20348602969996
 20
39.20314025879999
 30
0.0
 11
65.90343720149999
 21
39.20314025879999
 31
0.0
  0
LINE
  5
4F
330
2
100
AcDbEntity
  8
0
 62
     3
100
AcDbLine
 10
47.30343109799997
 20
49.8031463623
 30
0.0
 11
52.4034372015
 21
49.8031463623
 31
0.0
  0
LINE
  5
50
330
2
100
AcDbEntity
  8
0
 62
     3
100
AcDbLine
 10
47.30343109799997
 20
47.60314941409999
 30
0.0
 11
52.4034372015
 21
47.60314941409999
 31
0.0
  0
ARC
  5
51
330
2
100
AcDbEntity
  8
0
 62
     3
100
AcDbCircle
 10
49.9034372015
 20
38.8031463623
 30
0.0
 40
9.0
100
AcDbArc
 50
260.3479771416
 51
269.9999087031
  0
LINE
  5
52
330
2
100
AcDbEntity
  8
0
 62
     3
100
AcDbLine
 10
47.10343414979999
 20
39.20314025879999
 30
0.0
 11
52.4034372015
 21
39.20314025879999
 31
0.0
  0
LINE
  5
53
330
2
100
AcDbEntity
  8
0
 62
     3
100
AcDbLine
 10
47.30343109799997
 20
30.80314636229999
 30
0.0
 11
52.4034372015
 21
30.80314636229999
 31
0.0
  0
LINE
  5
54
330
2
100
AcDbEntity
  8
0
 62
     3
100
AcDbLine
 10
47.10343414979999
 20
29.90315246579999
 30
0.0
 11
47.10343414979999
 21
48.5031433105
 31
0.0
  0
ARC
  5
55
330
2
100
AcDbEntity
  8
0
 62
     3
100
AcDbCircle
 10
47.30343109799997
 20
31.0031433105
 30
0.0
 40
0.1999999881
100
AcDbArc
 50
179.9999640277999
 51
270.0000006831999
  0
ARC
  5
56
330
2
100
AcDbEntity
  8
0
 62
     3
100
AcDbCircle
 10
47.30343109799997
 20
29.90315246579999
 30
0.0
 40
0.1999999881
100
AcDbArc
 50
179.9999640277999
 51
270.0000006831999
  0
ARC
  5
57
330
2
100
AcDbEntity
  8
0
 62
     3
100
AcDbCircle
 10
49.85344940859997
 20
30.80314636229999
 30
0.0
 40
1.6999998093
100
AcDbArc
 50
179.9999093863
 51
210.883456662
  0
LINE
  5
58
330
2
100
AcDbEntity
  8
0
 62
     3
100
AcDbLine
 10
47.30343109799997
 20
48.70314025879999
 30
0.0
 11
48.50350434019997
 21
48.70314025879999
 31
0.0
  0
ARC
  5
59
330
2
100
AcDbEntity
  8
0
 62
     3
100
AcDbCircle
 10
47.30343109799997
 20
48.9031524658
 30
0.0
 40
0.1999999881
100
AcDbArc
 50
179.9999640277999
 51
270.0000006831999
  0
ARC
  5
5A
330
2
100
AcDbEntity
  8
0
 62
     3
100
AcDbCircle
 10
47.30343109799997
 20
50.0031433105
 30
0.0
 40
0.1999999881
100
AcDbArc
 50
179.9999640277999
 51
270.0000006831999
  0
ARC
  5
5B
330
2
100
AcDbEntity
  8
0
 62
     3
100
AcDbCircle
 10
47.30343109799997
 20
47.403137207
 30
0.0
 40
0.1999999881
100
AcDbArc
 50
89.99998201389999
 51
179.9999640277999
  0
ARC
  5
5C
330
2
100
AcDbEntity
  8
0
 62
     3
100
AcDbCircle
 10
47.30343109799997
 20
48.5031433105
 30
0.0
 40
0.1999999881
100
AcDbArc
 50
89.99998201389999
 51
179.9999640277999
  0
LINE
  5
5D
330
2
100
AcDbEntity
  8
0
 62
     3
100
AcDbLine
 10
48.50350434019997
 20
49.8031463623
 30
0.0
 11
48.50350434019997
 21
47.60313415529997
 31
0.0
  0
LINE
  5
5E
330
2
100
AcDbEntity
  8
0
 62
     3
100
AcDbLine
 10
53.0034127875
 20
37.00317382809998
 30
0.0
 11
53.0034127875
 21
41.40319824219999
 31
0.0
  0
LINE
  5
5F
330
2
100
AcDbEntity
  8
0
 62
     3
100
AcDbLine
 10
53.20348602969996
 20
35.20318603519999
 30
0.0
 11
53.20348602969996
 21
43.2031860352
 31
0.0
  0
LINE
  5
60
330
2
100
AcDbEntity
  8
0
 62
     3
100
AcDbLine
 10
52.60344940859997
 20
41.40319824219999
 30
0.0
 11
52.60344940859997
 21
37.00317382809998
 31
0.0
  0
LINE
  5
61
330
2
100
AcDbEntity
  8
0
 62
     3
100
AcDbLine
 10
52.4034372015
 20
43.2031860352
 30
0.0
 11
52.4034372015
 21
35.20318603519999
 31
0.0
  0
LINE
  5
62
330
2
100
AcDbEntity
  8
0
 62
     3
100
AcDbLine
 10
53.25344330499999
 20
42.45314025879999
 30
0.0
 11
53.25344330499999
 21
35.9531402588
 31
0.0
  0
LINE
  5
63
330
2
100
AcDbEntity
  8
0
 62
     3
100
AcDbLine
 10
56.9034372015
 20
32.70314025879998
 30
0.0
 11
56.9034372015
 21
45.7031402588
 31
0.0
  0
LINE
  5
64
330
2
100
AcDbEntity
  8
0
 62
     3
100
AcDbLine
 10
56.40343720149999
 20
32.70314025879998
 30
0.0
 11
56.40343720149999
 21
45.7031402588
 31
0.0
  0
ARC
  5
65
330
2
100
AcDbEntity
  8
0
 62
     3
100
AcDbCircle
 10
49.95348602969997
 20
30.80314636229999
 30
0.0
 40
1.6999998093
100
AcDbArc
 50
329.1163605168
 51
359.9999360237998
  0
ARC
  5
66
330
2
100
AcDbEntity
  8
0
 62
     3
100
AcDbCircle
 10
49.9034372015
 20
38.8031463623
 30
0.0
 40
9.0
100
AcDbArc
 50
270.0000179861
 51
279.6519495475
  0
LINE
  5
67
330
2
100
AcDbEntity
  8
0
 62
     3
100
AcDbLine
 10
52.4034372015
 20
30.80314636229999
 30
0.0
 11
52.4034372015
 21
29.7031402588
 31
0.0
  0
LINE
  5
68
330
2
100
AcDbEntity
  8
0
 62
     3
100
AcDbLine
 10
53.20350579039999
 20
36.0032528715
 30
0.0
 11
53.00348882059997
 21
37.0032826475
 31
0.0
  0
LINE
  5
69
330
2
100
AcDbEntity
  8
0
 62
     3
100
AcDbLine
 10
53.00329071719996
 20
37.00312805179999
 30
0.0
 11
52.60332733830001
 21
37.00312805179999
 31
0.0
  0
LINE
  5
6A
330
2
100
AcDbEntity
  8
0
 62
     3
100
AcDbLine
 10
53.20348602969996
 20
35.9531402588
 30
0.0
 11
53.25344330499999
 21
35.9531402588
 31
0.0
  0
LINE
  5
6B
330
2
100
AcDbEntity
  8
0
 62
     3
100
AcDbLine
 10
53.20336395929996
 20
36.00312805179999
 30
0.0
 11
52.40331513119997
 21
36.00312805179999
 31
0.0
  0
LINE
  5
6C
330
2
100
AcDbEntity
  8
0
 62
     3
100
AcDbLine
 10
53.20336395929996
 20
35.2032012939
 30
0.0
 11
52.40331513119997
 21
35.2032012939
 31
0.0
  0
LINE
  5
6D
330
2
100
AcDbEntity
  8
0
 62
     3
100
AcDbLine
 10
52.60321014789997
 20
37.00314242469999
 30
0.0
 11
52.40319171919997
 21
36.0031129527
 31
0.0
  0
LINE
  5
6E
330
2
100
AcDbEntity
  8
0
 62
     3
100
AcDbLine
 10
53.20348602969996
 20
42.45314025879999
 30
0.0
 11
53.25344330499999
 21
42.45314025879999
 31
0.0
  0
LINE
  5
6F
330
2
100
AcDbEntity
  8
0
 62
     3
100
AcDbLine
 10
53.00312368809997
 20
41.4033426014
 30
0.0
 11
53.20313014609997
 21
42.4033122238
 31
0.0
  0
LINE
  5
70
330
2
100
AcDbEntity
  8
0
 62
     3
100
AcDbLine
 10
53.00329071719996
 20
41.4031524658
 30
0.0
 11
52.60332733830001
 21
41.4031524658
 31
0.0
  0
LINE
  5
71
330
2
100
AcDbEntity
  8
0
 62
     3
100
AcDbLine
 10
52.40330158009996
 20
42.4031286958
 30
0.0
 11
52.60331782039997
 21
41.4030987982
 31
0.0
  0
LINE
  5
72
330
2
100
AcDbEntity
  8
0
 62
     3
100
AcDbLine
 10
53.20336395929996
 20
43.2032012939
 30
0.0
 11
52.40331513119997
 21
43.2032012939
 31
0.0
  0
LINE
  5
73
330
2
100
AcDbEntity
  8
0
 62
     3
100
AcDbLine
 10
53.20336395929996
 20
42.40315246579998
 30
0.0
 11
52.40331513119997
 21
42.40315246579998
 31
0.0
  0
LINE
  5
74
330
2
100
AcDbEntity
  8
0
 62
     3
100
AcDbLine
 10
51.30349213319999
 20
49.8031463623
 30
0.0
 11
51.30349213319999
 21
47.60313415529997
 31
0.0
  0
LINE
  5
75
330
2
100
AcDbEntity
  8
0
 62
     3
100
AcDbLine
 10
52.4034372015
 20
47.60314941409999
 30
0.0
 11
52.4034372015
 21
49.8031463623
 31
0.0
  0
LINE
  5
76
330
2
100
AcDbEntity
  8
0
 62
     3
100
AcDbLine
 10
65.90343720149999
 20
42.45314025879999
 30
0.0
 11
85.90345246029997
 21
42.45314025879999
 31
0.0
  0
LINE
  5
77
330
2
100
AcDbEntity
  8
0
 62
     3
100
AcDbLine
 10
65.90343720149999
 20
35.9531402588
 30
0.0
 11
85.90345246029997
 21
35.9531402588
 31
0.0
  0
LINE
  5
78
330
2
100
AcDbEntity
  8
0
 62
     3
100
AcDbLine
 10
57.4034372015
 20
50.7031402588
 30
0.0
 11
87.40346771909996
 21
50.7031402588
 31
0.0
  0
LINE
  5
79
330
2
100
AcDbEntity
  8
0
 62
     3
100
AcDbLine
 10
57.4034372015
 20
31.70314025879998
 30
0.0
 11
87.40346771909996
 21
31.70314025879998
 31
0.0
  0
LINE
  5
7A
330
2
100
AcDbEntity
  8
0
 62
     3
100
AcDbLine
 10
57.4034372015
 20
46.70314025879997
 30
0.0
 11
87.40346771909996
 21
46.70314025879997
 31
0.0
  0
LINE
  5
7B
330
2
100
AcDbEntity
  8
0
 62
     3
100
AcDbLine
 10
66.00344330499999
 20
42.45314025879999
 30
0.0
 11
66.00344330499999
 21
35.9531402588
 31
0.0
  0
LINE
  5
7C
330
2
100
AcDbEntity
  8
0
 62
     3
100
AcDbLine
 10
65.90343720149999
 20
35.9531402588
 30
0.0
 11
65.90343720149999
 21
42.45314025879999
 31
0.0
  0
LINE
  5
7D
330
2
100
AcDbEntity
  8
0
 62
     3
100
AcDbLine
 10
85.80344635679997
 20
42.45314025879999
 30
0.0
 11
85.80344635679997
 21
35.9531402588
 31
0.0
  0
LINE
  5
7E
330
2
100
AcDbEntity
  8
0
 62
     3
100
AcDbLine
 10
85.90345246029997
 20
35.9531402588
 30
0.0
 11
85.90345246029997
 21
42.45314025879999
 31
0.0
  0
ARC
  5
7F
330
2
100
AcDbEntity
  8
0
 62
     3
100
AcDbCircle
 10
57.8084359808
 20
110.2803964952
 30
0.0
 40
1.0
100
AcDbArc
 50
185.7106205333999
 51
270.0000179861
  0
ARC
  5
80
330
2
100
AcDbEntity
  8
0
 62
     3
100
AcDbCircle
 10
57.4034372015
 20
83.70314025879997
 30
0.0
 40
1.0
100
AcDbArc
 50
89.99998201389999
 51
179.9999640277999
  0
ARC
  5
81
330
2
100
AcDbEntity
  8
0
 62
     3
100
AcDbCircle
 10
57.9034372015
 20
83.70314025879997
 30
0.0
 40
1.0
100
AcDbArc
 50
89.99998201389999
 51
179.9999640277999
  0
ARC
  5
82
330
2
100
AcDbEntity
  8
0
 62
     3
100
AcDbCircle
 10
57.4034372015
 20
70.70314025880001
 30
0.0
 40
1.0
100
AcDbArc
 50
179.9999640277999
 51
270.0000006831999
  0
ARC
  5
83
330
2
100
AcDbEntity
  8
0
 62
     3
100
AcDbCircle
 10
57.9034372015
 20
70.70314025880001
 30
0.0
 40
1.0
100
AcDbArc
 50
179.9999640277999
 51
270.0000006831999
  0
ARC
  5
84
330
2
100
AcDbEntity
  8
0
 62
     3
100
AcDbCircle
 10
57.4034372015
 20
64.7031402588
 30
0.0
 40
1.0
100
AcDbArc
 50
89.99998201389999
 51
179.9999640277999
  0
ARC
  5
85
330
2
100
AcDbEntity
  8
0
 62
     3
100
AcDbCircle
 10
57.9034372015
 20
64.7031402588
 30
0.0
 40
1.0
100
AcDbArc
 50
89.99998201389999
 51
179.9999640277999
  0
LINE
  5
86
330
2
100
AcDbEntity
  8
0
 62
     3
100
AcDbLine
 10
53.20348602969996
 20
58.20314025880001
 30
0.0
 11
65.90343720149999
 21
58.20314025880001
 31
0.0
  0
LINE
  5
87
330
2
100
AcDbEntity
  8
0
 62
     3
100
AcDbLine
 10
53.20348602969996
 20
77.2031402588
 30
0.0
 11
65.90343720149999
 21
77.2031402588
 31
0.0
  0
LINE
  5
88
330
2
100
AcDbEntity
  8
0
 62
     3
100
AcDbLine
 10
52.60344940859997
 20
79.40319824220001
 30
0.0
 11
52.60344940859997
 21
75.0031738281
 31
0.0
  0
LINE
  5
89
330
2
100
AcDbEntity
  8
0
 62
     3
100
AcDbLine
 10
53.0034127875
 20
75.0031738281
 30
0.0
 11
53.0034127875
 21
79.40319824220001
 31
0.0
  0
LINE
  5
8A
330
2
100
AcDbEntity
  8
0
 62
     3
100
AcDbLine
 10
53.25344330499999
 20
80.45314025879997
 30
0.0
 11
53.25344330499999
 21
73.95314025880002
 31
0.0
  0
LINE
  5
8B
330
2
100
AcDbEntity
  8
0
 62
     3
100
AcDbLine
 10
56.40343720149999
 20
83.70314025879997
 30
0.0
 11
56.40343720149999
 21
70.70314025880001
 31
0.0
  0
LINE
  5
8C
330
2
100
AcDbEntity
  8
0
 62
     3
100
AcDbLine
 10
56.9034372015
 20
83.70314025879997
 30
0.0
 11
56.9034372015
 21
70.70314025880001
 31
0.0
  0
LINE
  5
8D
330
2
100
AcDbEntity
  8
0
 62
     3
100
AcDbLine
 10
52.4034372015
 20
73.2031860352
 30
0.0
 11
52.4034372015
 21
81.20318603520003
 31
0.0
  0
LINE
  5
8E
330
2
100
AcDbEntity
  8
0
 62
     3
100
AcDbLine
 10
53.20348602969996
 20
73.2031860352
 30
0.0
 11
53.20348602969996
 21
81.20318603520003
 31
0.0
  0
LINE
  5
8F
330
2
100
AcDbEntity
  8
0
 62
     3
100
AcDbLine
 10
47.10343414979999
 20
86.50314331049999
 30
0.0
 11
47.10343414979999
 21
67.9031524658
 31
0.0
  0
LINE
  5
90
330
2
100
AcDbEntity
  8
0
 62
     3
100
AcDbLine
 10
47.10343414979999
 20
58.20314025880001
 30
0.0
 11
52.4034372015
 21
58.20314025880001
 31
0.0
  0
LINE
  5
91
330
2
100
AcDbEntity
  8
0
 62
     3
100
AcDbLine
 10
47.30343109799997
 20
68.8031463623
 30
0.0
 11
52.4034372015
 21
68.8031463623
 31
0.0
  0
LINE
  5
92
330
2
100
AcDbEntity
  8
0
 62
     3
100
AcDbLine
 10
47.30343109799997
 20
66.6031494141
 30
0.0
 11
52.4034372015
 21
66.6031494141
 31
0.0
  0
LINE
  5
93
330
2
100
AcDbEntity
  8
0
 62
     3
100
AcDbLine
 10
47.30343109799997
 20
67.70314025880001
 30
0.0
 11
48.50350434019997
 21
67.70314025880001
 31
0.0
  0
ARC
  5
94
330
2
100
AcDbEntity
  8
0
 62
     3
100
AcDbCircle
 10
47.30343109799997
 20
67.9031524658
 30
0.0
 40
0.1999999881
100
AcDbArc
 50
179.9999640277999
 51
270.0000006831999
  0
ARC
  5
95
330
2
100
AcDbEntity
  8
0
 62
     3
100
AcDbCircle
 10
47.30343109799997
 20
69.00314331050001
 30
0.0
 40
0.1999999881
100
AcDbArc
 50
179.9999640277999
 51
270.0000006831999
  0
ARC
  5
96
330
2
100
AcDbEntity
  8
0
 62
     3
100
AcDbCircle
 10
47.30343109799997
 20
67.50314331050001
 30
0.0
 40
0.1999999881
100
AcDbArc
 50
89.99998201389999
 51
179.9999640277999
  0
ARC
  5
97
330
2
100
AcDbEntity
  8
0
 62
     3
100
AcDbCircle
 10
47.30343109799997
 20
66.403137207
 30
0.0
 40
0.1999999881
100
AcDbArc
 50
89.99998201389999
 51
179.9999640277999
  0
LINE
  5
98
330
2
100
AcDbEntity
  8
0
 62
     3
100
AcDbLine
 10
48.50350434019997
 20
68.8031463623
 30
0.0
 11
48.50350434019997
 21
66.6031341553
 31
0.0
  0
LINE
  5
99
330
2
100
AcDbEntity
  8
0
 62
     3
100
AcDbLine
 10
52.60344940859997
 20
60.4031982422
 30
0.0
 11
52.60344940859997
 21
56.00317382810001
 31
0.0
  0
LINE
  5
9A
330
2
100
AcDbEntity
  8
0
 62
     3
100
AcDbLine
 10
53.20348602969996
 20
54.20318603520001
 30
0.0
 11
53.20348602969996
 21
62.2031860352
 31
0.0
  0
LINE
  5
9B
330
2
100
AcDbEntity
  8
0
 62
     3
100
AcDbLine
 10
53.0034127875
 20
56.00317382810001
 30
0.0
 11
53.0034127875
 21
60.4031982422
 31
0.0
  0
LINE
  5
9C
330
2
100
AcDbEntity
  8
0
 62
     3
100
AcDbLine
 10
52.4034372015
 20
54.20318603520001
 30
0.0
 11
52.4034372015
 21
62.2031860352
 31
0.0
  0
LINE
  5
9D
330
2
100
AcDbEntity
  8
0
 62
     3
100
AcDbLine
 10
53.25344330499999
 20
54.95314025879999
 30
0.0
 11
53.25344330499999
 21
61.45314025880001
 31
0.0
  0
LINE
  5
9E
330
2
100
AcDbEntity
  8
0
 62
     3
100
AcDbLine
 10
53.00329071719996
 20
56.0031280518
 30
0.0
 11
52.60332733830001
 21
56.0031280518
 31
0.0
  0
LINE
  5
9F
330
2
100
AcDbEntity
  8
0
 62
     3
100
AcDbLine
 10
53.20351105059998
 20
55.0032573721
 30
0.0
 11
53.00349408079998
 21
56.0032871481
 31
0.0
  0
LINE
  5
A0
330
2
100
AcDbEntity
  8
0
 62
     3
100
AcDbLine
 10
53.20348602969996
 20
54.95314025879999
 30
0.0
 11
53.25344330499999
 21
54.95314025879999
 31
0.0
  0
LINE
  5
A1
330
2
100
AcDbEntity
  8
0
 62
     3
100
AcDbLine
 10
53.20336395929996
 20
54.2032012939
 30
0.0
 11
52.40331513119997
 21
54.2032012939
 31
0.0
  0
LINE
  5
A2
330
2
100
AcDbEntity
  8
0
 62
     3
100
AcDbLine
 10
52.60321806170001
 20
56.00315156649999
 30
0.0
 11
52.40319963299999
 21
55.0031220944
 31
0.0
  0
LINE
  5
A3
330
2
100
AcDbEntity
  8
0
 62
     3
100
AcDbLine
 10
53.20336395929996
 20
55.0031280518
 30
0.0
 11
52.40331513119997
 21
55.0031280518
 31
0.0
  0
LINE
  5
A4
330
2
100
AcDbEntity
  8
0
 62
     3
100
AcDbLine
 10
53.00329071719996
 20
60.4031524658
 30
0.0
 11
52.60332733830001
 21
60.4031524658
 31
0.0
  0
LINE
  5
A5
330
2
100
AcDbEntity
  8
0
 62
     3
100
AcDbLine
 10
53.00313422059995
 20
60.40336483529999
 30
0.0
 11
53.2031406786
 21
61.40333445759999
 31
0.0
  0
LINE
  5
A6
330
2
100
AcDbEntity
  8
0
 62
     3
100
AcDbLine
 10
53.20348602969996
 20
61.45314025880001
 30
0.0
 11
53.25344330499999
 21
61.45314025880001
 31
0.0
  0
LINE
  5
A7
330
2
100
AcDbEntity
  8
0
 62
     3
100
AcDbLine
 10
53.20336395929996
 20
61.40315246580001
 30
0.0
 11
52.40331513119997
 21
61.40315246580001
 31
0.0
  0
LINE
  5
A8
330
2
100
AcDbEntity
  8
0
 62
     3
100
AcDbLine
 10
53.20336395929996
 20
62.2032012939
 30
0.0
 11
52.40331513119997
 21
62.2032012939
 31
0.0
  0
LINE
  5
A9
330
2
100
AcDbEntity
  8
0
 62
     3
100
AcDbLine
 10
52.40330564799997
 20
61.40312975939999
 30
0.0
 11
52.6033218883
 21
60.4030998618
 31
0.0
  0
LINE
  5
AA
330
2
100
AcDbEntity
  8
0
 62
     3
100
AcDbLine
 10
51.30349213319999
 20
68.8031463623
 30
0.0
 11
51.30349213319999
 21
66.6031341553
 31
0.0
  0
LINE
  5
AB
330
2
100
AcDbEntity
  8
0
 62
     3
100
AcDbLine
 10
52.4034372015
 20
66.6031494141
 30
0.0
 11
52.4034372015
 21
68.8031463623
 31
0.0
  0
LINE
  5
AC
330
2
100
AcDbEntity
  8
0
 62
     3
100
AcDbLine
 10
53.00329071719996
 20
75.0031280518
 30
0.0
 11
52.60332733830001
 21
75.0031280518
 31
0.0
  0
LINE
  5
AD
330
2
100
AcDbEntity
  8
0
 62
     3
100
AcDbLine
 10
53.20348602969996
 20
73.95314025880002
 30
0.0
 11
53.25344330499999
 21
73.95314025880002
 31
0.0
  0
LINE
  5
AE
330
2
100
AcDbEntity
  8
0
 62
     3
100
AcDbLine
 10
53.20336395929996
 20
73.20320129390001
 30
0.0
 11
52.40331513119997
 21
73.20320129390001
 31
0.0
  0
LINE
  5
AF
330
2
100
AcDbEntity
  8
0
 62
     3
100
AcDbLine
 10
53.20336395929996
 20
74.0031280518
 30
0.0
 11
52.40331513119997
 21
74.0031280518
 31
0.0
  0
LINE
  5
B0
330
2
100
AcDbEntity
  8
0
 62
     3
100
AcDbLine
 10
52.60320764639999
 20
75.00314686819999
 30
0.0
 11
52.40318921769997
 21
74.0031173961
 31
0.0
  0
LINE
  5
B1
330
2
100
AcDbEntity
  8
0
 62
     3
100
AcDbLine
 10
53.20350434099998
 20
74.0032439176
 30
0.0
 11
53.00348737119998
 21
75.00327369359999
 31
0.0
  0
LINE
  5
B2
330
2
100
AcDbEntity
  8
0
 62
     3
100
AcDbLine
 10
47.30343109799997
 20
85.6031494141
 30
0.0
 11
52.4034372015
 21
85.6031494141
 31
0.0
  0
LINE
  5
B3
330
2
100
AcDbEntity
  8
0
 62
     3
100
AcDbLine
 10
51.30343109799998
 20
86.00308227540001
 30
0.0
 11
48.50344330499999
 21
86.00308227540001
 31
0.0
  0
LINE
  5
B4
330
2
100
AcDbEntity
  8
0
 62
     3
100
AcDbLine
 10
47.10343414979999
 20
77.2031402588
 30
0.0
 11
52.4034372015
 21
77.2031402588
 31
0.0
  0
ARC
  5
B5
330
2
100
AcDbEntity
  8
0
 62
     3
100
AcDbCircle
 10
47.30343109799997
 20
86.50314331049999
 30
0.0
 40
0.1999999881
100
AcDbArc
 50
89.99998201389999
 51
179.9999640277999
  0
ARC
  5
B6
330
2
100
AcDbEntity
  8
0
 62
     3
100
AcDbCircle
 10
47.30343109799997
 20
85.40313720700002
 30
0.0
 40
0.1999999881
100
AcDbArc
 50
89.99998201389999
 51
179.9999640277999
  0
LINE
  5
B7
330
2
100
AcDbEntity
  8
0
 62
     3
100
AcDbLine
 10
48.50350434019997
 20
86.00309753419997
 30
0.0
 11
48.50350434019997
 21
85.60313415530002
 31
0.0
  0
LINE
  5
B8
330
2
100
AcDbEntity
  8
0
 62
     3
100
AcDbLine
 10
52.4034372015
 20
85.6031494141
 30
0.0
 11
52.4034372015
 21
86.70314025879999
 31
0.0
  0
LINE
  5
B9
330
2
100
AcDbEntity
  8
0
 62
     3
100
AcDbLine
 10
53.20348602969996
 20
80.45314025879997
 30
0.0
 11
53.25344330499999
 21
80.45314025879997
 31
0.0
  0
LINE
  5
BA
330
2
100
AcDbEntity
  8
0
 62
     3
100
AcDbLine
 10
53.00329071719996
 20
79.4031524658
 30
0.0
 11
52.60332733830001
 21
79.4031524658
 31
0.0
  0
LINE
  5
BB
330
2
100
AcDbEntity
  8
0
 62
     3
100
AcDbLine
 10
53.00312380519997
 20
79.40336013699999
 30
0.0
 11
53.2031302632
 21
80.40332975930001
 31
0.0
  0
LINE
  5
BC
330
2
100
AcDbEntity
  8
0
 62
     3
100
AcDbLine
 10
53.20336395929996
 20
80.4031524658
 30
0.0
 11
52.40331513119997
 21
80.4031524658
 31
0.0
  0
LINE
  5
BD
330
2
100
AcDbEntity
  8
0
 62
     3
100
AcDbLine
 10
52.40329475339996
 20
80.40312783030001
 30
0.0
 11
52.6033109938
 21
79.4030979327
 31
0.0
  0
LINE
  5
BE
330
2
100
AcDbEntity
  8
0
 62
     3
100
AcDbLine
 10
51.30349213319999
 20
86.00309753419997
 30
0.0
 11
51.30349213319999
 21
85.60313415530002
 31
0.0
  0
LINE
  5
BF
330
2
100
AcDbEntity
  8
0
 62
     3
100
AcDbLine
 10
53.20336395929996
 20
81.2032012939
 30
0.0
 11
52.40331513119997
 21
81.2032012939
 31
0.0
  0
ARC
  5
C0
330
2
100
AcDbEntity
  8
0
 62
     3
100
AcDbCircle
 10
55.30344635679997
 20
123.0803842880998
 30
0.0
 40
2.0
100
AcDbArc
 50
179.9999640277999
 51
270.0000006831999
  0
LINE
  5
C1
330
2
100
AcDbEntity
  8
0
 62
     3
100
AcDbLine
 10
49.9034372015
 20
120.2803964952
 30
0.0
 11
47.10343414979999
 21
120.2803964952
 31
0.0
  0
LINE
  5
C2
330
2
100
AcDbEntity
  8
0
  6
CENTER
 62
     3
100
AcDbLine
 10
53.16349274349996
 20
117.2803964952
 30
0.0
 11
47.60117584899997
 21
117.2803964952
 31
0.0
  0
CIRCLE
  5
C3
330
2
100
AcDbEntity
  8
0
 62
     3
100
AcDbCircle
 10
49.9034372015
 20
117.2803964952
 30
0.0
 40
1.1999998093
  0
ARC
  5
C4
330
2
100
AcDbEntity
  8
0
 62
     3
100
AcDbCircle
 10
48.1034341498
 20
115.2803964952
 30
0.0
 40
1.0
100
AcDbArc
 50
179.9999640277999
 51
270.0000006831999
  0
LINE
  5
C5
330
2
100
AcDbEntity
  8
0
 62
     3
100
AcDbLine
 10
53.20344025329998
 20
114.3298197129
 30
0.0
 11
53.20344025329998
 21
105.7803964952
 31
0.0
  0
LINE
  5
C6
330
2
100
AcDbEntity
  8
0
 62
     3
100
AcDbLine
 10
52.4034372015
 20
114.2453470566999
 30
0.0
 11
52.4034372015
 21
105.7803964952
 31
0.0
  0
LINE
  5
C7
330
2
100
AcDbEntity
  8
0
 62
     3
100
AcDbLine
 10
53.20343110719996
 20
105.7804180491999
 30
0.0
 11
53.00343191509996
 21
104.7804158273997
 31
0.0
  0
LINE
  5
C8
330
2
100
AcDbEntity
  8
0
 62
     3
100
AcDbLine
 10
52.60343414979999
 20
104.7803964952
 30
0.0
 11
53.00344330499999
 21
104.7803964952
 31
0.0
  0
LINE
  5
C9
330
2
100
AcDbEntity
  8
0
 62
     3
100
AcDbLine
 10
52.40342894519997
 20
105.7804129690999
 30
0.0
 11
52.60342819809998
 21
104.7804107473
 31
0.0
  0
LINE
  5
CA
330
2
100
AcDbEntity
  8
0
 62
     3
100
AcDbLine
 10
52.4034372015
 20
105.7803964952
 30
0.0
 11
53.20344025329998
 21
105.7803964952
 31
0.0
  0
LINE
  5
CB
330
2
100
AcDbEntity
  8
0
 62
     3
100
AcDbLine
 10
52.9034372015
 20
117.2803964952
 30
0.0
 11
52.9034372015
 21
114.2803964952
 31
0.0
  0
LINE
  5
CC
330
2
100
AcDbEntity
  8
0
  6
CENTER
 62
     3
100
AcDbLine
 10
49.9034372015
 20
119.847611461
 30
0.0
 11
49.9034372015
 21
114.9209909776
 31
0.0
  0
LINE
  5
CD
330
2
100
AcDbEntity
  8
0
 62
     3
100
AcDbLine
 10
52.4034372015
 20
112.7803964952
 30
0.0
 11
53.20344025329998
 21
112.7803964952
 31
0.0
  0
ARC
  5
CE
330
2
100
AcDbEntity
  8
0
 62
     3
100
AcDbCircle
 10
49.9034372015
 20
117.2803964952
 30
0.0
 40
3.0
100
AcDbArc
 50
0.0
 51
89.99998201389999
  0
ARC
  5
CF
330
2
100
AcDbEntity
  8
0
 62
     3
100
AcDbCircle
 10
55.49845368099997
 20
113.2803964952
 30
0.0
 40
1.0
100
AcDbArc
 50
5.710591391499997
 51
89.99998201389999
  0
LINE
  5
D0
330
2
100
AcDbEntity
  8
0
 62
     3
100
AcDbLine
 10
56.4934838282
 20
113.3798996347999
 30
0.0
 11
56.81338329139999
 21
110.1809042361
 31
0.0
  0
LINE
  5
D1
330
2
100
AcDbEntity
  8
0
 62
     3
100
AcDbLine
 10
53.30344635679996
 20
142.780411754
 30
0.0
 11
53.30344635679996
 21
123.0803842880998
 31
0.0
  0
LINE
  5
D2
330
2
100
AcDbEntity
  8
0
 62
     3
100
AcDbLine
 10
85.90345246029997
 20
73.95314025880002
 30
0.0
 11
65.90343720149999
 21
73.95314025880002
 31
0.0
  0
LINE
  5
D3
330
2
100
AcDbEntity
  8
0
 62
     3
100
AcDbLine
 10
65.90343720149999
 20
80.45314025879997
 30
0.0
 11
85.90345246029997
 21
80.45314025879997
 31
0.0
  0
LINE
  5
D4
330
2
100
AcDbEntity
  8
0
 62
     3
100
AcDbLine
 10
65.90343720149999
 20
54.95314025879999
 30
0.0
 11
85.90345246029997
 21
54.95314025879999
 31
0.0
  0
LINE
  5
D5
330
2
100
AcDbEntity
  8
0
 62
     3
100
AcDbLine
 10
65.90343720149999
 20
61.45314025880001
 30
0.0
 11
85.90345246029997
 21
61.45314025880001
 31
0.0
  0
LINE
  5
D6
330
2
100
AcDbEntity
  8
0
 62
     3
100
AcDbLine
 10
57.4034372015
 20
84.70314025879998
 30
0.0
 11
87.40346771909996
 21
84.70314025879998
 31
0.0
  0
LINE
  5
D7
330
2
100
AcDbEntity
  8
0
 62
     3
100
AcDbLine
 10
57.4034372015
 20
69.7031402588
 30
0.0
 11
87.40346771909996
 21
69.7031402588
 31
0.0
  0
LINE
  5
D8
330
2
100
AcDbEntity
  8
0
 62
     3
100
AcDbLine
 10
57.4034372015
 20
65.70314025880001
 30
0.0
 11
87.40346771909996
 21
65.70314025880001
 31
0.0
  0
LINE
  5
D9
330
2
100
AcDbEntity
  8
0
 62
     3
100
AcDbLine
 10
65.90343720149999
 20
80.45314025879997
 30
0.0
 11
65.90343720149999
 21
73.95314025880002
 31
0.0
  0
LINE
  5
DA
330
2
100
AcDbEntity
  8
0
 62
     3
100
AcDbLine
 10
66.00344330499999
 20
80.45314025879997
 30
0.0
 11
66.00344330499999
 21
73.95314025880002
 31
0.0
  0
LINE
  5
DB
330
2
100
AcDbEntity
  8
0
 62
     3
100
AcDbLine
 10
66.00344330499999
 20
61.45314025880001
 30
0.0
 11
66.00344330499999
 21
54.95314025879999
 31
0.0
  0
LINE
  5
DC
330
2
100
AcDbEntity
  8
0
 62
     3
100
AcDbLine
 10
65.90343720149999
 20
54.95314025879999
 30
0.0
 11
65.90343720149999
 21
61.45314025880001
 31
0.0
  0
LINE
  5
DD
330
2
100
AcDbEntity
  8
0
 62
     3
100
AcDbLine
 10
85.90345246029997
 20
80.45314025879997
 30
0.0
 11
85.90345246029997
 21
73.95314025880002
 31
0.0
  0
LINE
  5
DE
330
2
100
AcDbEntity
  8
0
 62
     3
100
AcDbLine
 10
85.80344635679997
 20
80.45314025879997
 30
0.0
 11
85.80344635679997
 21
73.95314025880002
 31
0.0
  0
LINE
  5
DF
330
2
100
AcDbEntity
  8
0
 62
     3
100
AcDbLine
 10
85.80344635679997
 20
61.45314025880001
 30
0.0
 11
85.80344635679997
 21
54.95314025879999
 31
0.0
  0
LINE
  5
E0
330
2
100
AcDbEntity
  8
0
 62
     3
100
AcDbLine
 10
85.90345246029997
 20
54.95314025879999
 30
0.0
 11
85.90345246029997
 21
61.45314025880001
 31
0.0
  0
LINE
  5
E1
330
2
100
AcDbEntity
  8
0
 62
     3
100
AcDbLine
 10
57.8084359808
 20
109.2803964952
 30
0.0
 11
86.9984689398
 21
109.2803964952
 31
0.0
  0
LINE
  5
E2
330
2
100
AcDbEntity
  8
0
 62
     3
100
AcDbLine
 10
97.70345551209999
 20
48.9031524658
 30
0.0
 11
97.70345551209999
 21
67.50314331050001
 31
0.0
  0
LINE
  5
E3
330
2
100
AcDbEntity
  8
0
 62
     3
100
AcDbLine
 10
88.40346771909997
 20
51.70314025879999
 30
0.0
 11
88.40346771909997
 21
64.7031402588
 31
0.0
  0
LINE
  5
E4
330
2
100
AcDbEntity
  8
0
 62
     3
100
AcDbLine
 10
87.9034677191
 20
51.70314025879999
 30
0.0
 11
87.9034677191
 21
64.7031402588
 31
0.0
  0
LINE
  5
E5
330
2
100
AcDbEntity
  8
0
 62
     3
100
AcDbLine
 10
92.40345246029994
 20
49.8031463623
 30
0.0
 11
97.5034585638
 21
49.8031463623
 31
0.0
  0
LINE
  5
E6
330
2
100
AcDbEntity
  8
0
 62
     3
100
AcDbLine
 10
92.40345246029994
 20
47.60314941409999
 30
0.0
 11
97.5034585638
 21
47.60314941409999
 31
0.0
  0
ARC
  5
E7
330
2
100
AcDbEntity
  8
0
 62
     3
100
AcDbCircle
 10
94.90345246029994
 20
38.8031463623
 30
0.0
 40
9.0
100
AcDbArc
 50
270.0000179861
 51
279.6519495475
  0
LINE
  5
E8
330
2
100
AcDbEntity
  8
0
 62
     3
100
AcDbLine
 10
92.40345246029994
 20
30.80314636229999
 30
0.0
 11
97.5034585638
 21
30.80314636229999
 31
0.0
  0
LINE
  5
E9
330
2
100
AcDbEntity
  8
0
 62
     3
100
AcDbLine
 10
92.40345246029994
 20
39.20314025879999
 30
0.0
 11
97.70345551209999
 21
39.20314025879999
 31
0.0
  0
LINE
  5
EA
330
2
100
AcDbEntity
  8
0
 62
     3
100
AcDbLine
 10
92.20344025329998
 20
41.40319824219999
 30
0.0
 11
92.20344025329998
 21
37.00317382809998
 31
0.0
  0
LINE
  5
EB
330
2
100
AcDbEntity
  8
0
 62
     3
100
AcDbLine
 10
92.40345246029994
 20
43.2031860352
 30
0.0
 11
92.40345246029994
 21
35.20318603519999
 31
0.0
  0
LINE
  5
EC
330
2
100
AcDbEntity
  8
0
 62
     3
100
AcDbLine
 10
91.80347687439995
 20
37.00317382809998
 30
0.0
 11
91.80347687439995
 21
41.40319824219999
 31
0.0
  0
LINE
  5
ED
330
2
100
AcDbEntity
  8
0
 62
     3
100
AcDbLine
 10
91.60340363219999
 20
35.20318603519999
 30
0.0
 11
91.60340363219999
 21
43.2031860352
 31
0.0
  0
LINE
  5
EE
330
2
100
AcDbEntity
  8
0
 62
     3
100
AcDbLine
 10
91.55344635679998
 20
42.45314025879999
 30
0.0
 11
91.55344635679998
 21
35.9531402588
 31
0.0
  0
LINE
  5
EF
330
2
100
AcDbEntity
  8
0
 62
     3
100
AcDbLine
 10
88.40346771909997
 20
45.7031402588
 30
0.0
 11
88.40346771909997
 21
32.70314025879998
 31
0.0
  0
LINE
  5
F0
330
2
100
AcDbEntity
  8
0
 62
     3
100
AcDbLine
 10
87.9034677191
 20
32.70314025879998
 30
0.0
 11
87.9034677191
 21
45.7031402588
 31
0.0
  0
ARC
  5
F1
330
2
100
AcDbEntity
  8
0
 62
     3
100
AcDbCircle
 10
94.85346466740001
 20
30.80314636229999
 30
0.0
 40
1.6999998093
100
AcDbArc
 50
179.9999093863
 51
210.883456662
  0
LINE
  5
F2
330
2
100
AcDbEntity
  8
0
 62
     3
100
AcDbLine
 10
92.40345246029994
 20
30.80314636229999
 30
0.0
 11
92.40345246029994
 21
29.7031402588
 31
0.0
  0
ARC
  5
F3
330
2
100
AcDbEntity
  8
0
 62
     3
100
AcDbCircle
 10
94.90345246029994
 20
38.8031463623
 30
0.0
 40
9.0
100
AcDbArc
 50
260.3479771416
 51
269.9999087031
  0
LINE
  5
F4
330
2
100
AcDbEntity
  8
0
 62
     3
100
AcDbLine
 10
92.2033365458
 20
37.0031158407
 30
0.0
 11
92.40334081559998
 21
36.0031457928
 31
0.0
  0
LINE
  5
F5
330
2
100
AcDbEntity
  8
0
 62
     3
100
AcDbLine
 10
91.60337976859995
 20
36.00310811239999
 30
0.0
 11
91.80338476780001
 21
37.00307803859999
 31
0.0
  0
LINE
  5
F6
330
2
100
AcDbEntity
  8
0
 62
     3
100
AcDbLine
 10
91.55344635679998
 20
35.9531402588
 30
0.0
 11
91.60340363219999
 21
35.9531402588
 31
0.0
  0
LINE
  5
F7
330
2
100
AcDbEntity
  8
0
 62
     3
100
AcDbLine
 10
91.80335480409999
 20
37.00312805179999
 30
0.0
 11
92.203318183
 21
37.00312805179999
 31
0.0
  0
LINE
  5
F8
330
2
100
AcDbEntity
  8
0
 62
     3
100
AcDbLine
 10
91.60328156189995
 20
36.00312805179999
 30
0.0
 11
92.40333038999999
 21
36.00312805179999
 31
0.0
  0
LINE
  5
F9
330
2
100
AcDbEntity
  8
0
 62
     3
100
AcDbLine
 10
91.60328156189995
 20
35.2032012939
 30
0.0
 11
92.40333038999999
 21
35.2032012939
 31
0.0
  0
LINE
  5
FA
330
2
100
AcDbEntity
  8
0
 62
     3
100
AcDbLine
 10
92.40331745439998
 20
42.40311822949999
 30
0.0
 11
92.20330048459995
 21
41.40308845349999
 31
0.0
  0
LINE
  5
FB
330
2
100
AcDbEntity
  8
0
 62
     3
100
AcDbLine
 10
91.80334323049999
 20
41.4030635992
 30
0.0
 11
91.60332699009995
 21
42.40309349679999
 31
0.0
  0
LINE
  5
FC
330
2
100
AcDbEntity
  8
0
 62
     3
100
AcDbLine
 10
91.55344635679998
 20
42.45314025879999
 30
0.0
 11
91.60340363219999
 21
42.45314025879999
 31
0.0
  0
LINE
  5
FD
330
2
100
AcDbEntity
  8
0
 62
     3
100
AcDbLine
 10
91.80335480409999
 20
41.4031524658
 30
0.0
 11
92.203318183
 21
41.4031524658
 31
0.0
  0
LINE
  5
FE
330
2
100
AcDbEntity
  8
0
 62
     3
100
AcDbLine
 10
91.60328156189995
 20
43.2032012939
 30
0.0
 11
92.40333038999999
 21
43.2032012939
 31
0.0
  0
LINE
  5
FF
330
2
100
AcDbEntity
  8
0
 62
     3
100
AcDbLine
 10
91.60328156189995
 20
42.40315246579998
 30
0.0
 11
92.40333038999999
 21
42.40315246579998
 31
0.0
  0
LINE
  5
100
330
2
100
AcDbEntity
  8
0
 62
     3
100
AcDbLine
 10
92.40345246029994
 20
47.60314941409999
 30
0.0
 11
92.40345246029994
 21
49.8031463623
 31
0.0
  0
LINE
  5
101
330
2
100
AcDbEntity
  8
0
 62
     3
100
AcDbLine
 10
93.50351959900001
 20
49.8031463623
 30
0.0
 11
93.50351959900001
 21
47.60313415529997
 31
0.0
  0
LINE
  5
102
330
2
100
AcDbEntity
  8
0
 62
     3
100
AcDbLine
 10
97.70345551209999
 20
29.90315246579999
 30
0.0
 11
97.70345551209999
 21
48.5031433105
 31
0.0
  0
ARC
  5
103
330
2
100
AcDbEntity
  8
0
 62
     3
100
AcDbCircle
 10
94.95350128839998
 20
30.80314636229999
 30
0.0
 40
1.6999998093
100
AcDbArc
 50
329.1163605168
 51
359.9999360237998
  0
ARC
  5
104
330
2
100
AcDbEntity
  8
0
 62
     3
100
AcDbCircle
 10
97.5034585638
 20
31.0031433105
 30
0.0
 40
0.1999999881
100
AcDbArc
 50
270.0000179861
 51
0.0
  0
ARC
  5
105
330
2
100
AcDbEntity
  8
0
 62
     3
100
AcDbCircle
 10
97.5034585638
 20
29.90315246579999
 30
0.0
 40
0.1999999881
100
AcDbArc
 50
270.0000179861
 51
0.0
  0
LINE
  5
106
330
2
100
AcDbEntity
  8
0
 62
     3
100
AcDbLine
 10
96.30350739199998
 20
48.70314025879999
 30
0.0
 11
97.5034585638
 21
48.70314025879999
 31
0.0
  0
LINE
  5
107
330
2
100
AcDbEntity
  8
0
 62
     3
100
AcDbLine
 10
96.30350739199998
 20
49.8031463623
 30
0.0
 11
96.30350739199998
 21
47.60313415529997
 31
0.0
  0
ARC
  5
108
330
2
100
AcDbEntity
  8
0
 62
     3
100
AcDbCircle
 10
97.5034585638
 20
48.9031524658
 30
0.0
 40
0.1999999881
100
AcDbArc
 50
270.0000179861
 51
0.0
  0
ARC
  5
109
330
2
100
AcDbEntity
  8
0
 62
     3
100
AcDbCircle
 10
97.5034585638
 20
50.0031433105
 30
0.0
 40
0.1999999881
100
AcDbArc
 50
270.0000179861
 51
0.0
  0
ARC
  5
10A
330
2
100
AcDbEntity
  8
0
 62
     3
100
AcDbCircle
 10
97.5034585638
 20
47.403137207
 30
0.0
 40
0.1999999881
100
AcDbArc
 50
0.0
 51
89.99998201389999
  0
ARC
  5
10B
330
2
100
AcDbEntity
  8
0
 62
     3
100
AcDbCircle
 10
97.5034585638
 20
48.5031433105
 30
0.0
 40
0.1999999881
100
AcDbArc
 50
0.0
 51
89.99998201389999
  0
LINE
  5
10C
330
2
100
AcDbEntity
  8
0
 62
     3
100
AcDbLine
 10
92.20344025329998
 20
79.40319824220001
 30
0.0
 11
92.20344025329998
 21
75.0031738281
 31
0.0
  0
LINE
  5
10D
330
2
100
AcDbEntity
  8
0
 62
     3
100
AcDbLine
 10
91.80347687439995
 20
75.0031738281
 30
0.0
 11
91.80347687439995
 21
79.40319824220001
 31
0.0
  0
LINE
  5
10E
330
2
100
AcDbEntity
  8
0
 62
     3
100
AcDbLine
 10
91.55344635679998
 20
80.45314025879997
 30
0.0
 11
91.55344635679998
 21
73.95314025880002
 31
0.0
  0
LINE
  5
10F
330
2
100
AcDbEntity
  8
0
 62
     3
100
AcDbLine
 10
88.40346771909997
 20
83.70314025879997
 30
0.0
 11
88.40346771909997
 21
70.70314025880001
 31
0.0
  0
LINE
  5
110
330
2
100
AcDbEntity
  8
0
 62
     3
100
AcDbLine
 10
92.40345246029994
 20
73.2031860352
 30
0.0
 11
92.40345246029994
 21
81.20318603520003
 31
0.0
  0
LINE
  5
111
330
2
100
AcDbEntity
  8
0
 62
     3
100
AcDbLine
 10
91.60340363219999
 20
73.2031860352
 30
0.0
 11
91.60340363219999
 21
81.20318603520003
 31
0.0
  0
LINE
  5
112
330
2
100
AcDbEntity
  8
0
 62
     3
100
AcDbLine
 10
97.70345551209999
 20
86.50314331049999
 30
0.0
 11
97.70345551209999
 21
67.9031524658
 31
0.0
  0
LINE
  5
113
330
2
100
AcDbEntity
  8
0
 62
     3
100
AcDbLine
 10
87.9034677191
 20
83.70314025879997
 30
0.0
 11
87.9034677191
 21
70.70314025880001
 31
0.0
  0
LINE
  5
114
330
2
100
AcDbEntity
  8
0
 62
     3
100
AcDbLine
 10
92.40345246029994
 20
68.8031463623
 30
0.0
 11
97.5034585638
 21
68.8031463623
 31
0.0
  0
LINE
  5
115
330
2
100
AcDbEntity
  8
0
 62
     3
100
AcDbLine
 10
92.40345246029994
 20
66.6031494141
 30
0.0
 11
97.5034585638
 21
66.6031494141
 31
0.0
  0
LINE
  5
116
330
2
100
AcDbEntity
  8
0
 62
     3
100
AcDbLine
 10
92.40345246029994
 20
58.20314025880001
 30
0.0
 11
97.70345551209999
 21
58.20314025880001
 31
0.0
  0
LINE
  5
117
330
2
100
AcDbEntity
  8
0
 62
     3
100
AcDbLine
 10
91.60340363219999
 20
54.20318603520001
 30
0.0
 11
91.60340363219999
 21
62.2031860352
 31
0.0
  0
LINE
  5
118
330
2
100
AcDbEntity
  8
0
 62
     3
100
AcDbLine
 10
91.80347687439995
 20
56.00317382810001
 30
0.0
 11
91.80347687439995
 21
60.4031982422
 31
0.0
  0
LINE
  5
119
330
2
100
AcDbEntity
  8
0
 62
     3
100
AcDbLine
 10
92.20344025329998
 20
60.4031982422
 30
0.0
 11
92.20344025329998
 21
56.00317382810001
 31
0.0
  0
LINE
  5
11A
330
2
100
AcDbEntity
  8
0
 62
     3
100
AcDbLine
 10
91.55344635679998
 20
54.95314025879999
 30
0.0
 11
91.55344635679998
 21
61.45314025880001
 31
0.0
  0
LINE
  5
11B
330
2
100
AcDbEntity
  8
0
 62
     3
100
AcDbLine
 10
92.40345246029994
 20
54.20318603520001
 30
0.0
 11
92.40345246029994
 21
62.2031860352
 31
0.0
  0
LINE
  5
11C
330
2
100
AcDbEntity
  8
0
 62
     3
100
AcDbLine
 10
92.20334061370001
 20
56.00311690419999
 30
0.0
 11
92.40334488349999
 21
55.0031468564
 31
0.0
  0
LINE
  5
11D
330
2
100
AcDbEntity
  8
0
 62
     3
100
AcDbLine
 10
91.6033715158
 20
55.0030976505
 30
0.0
 11
91.803376515
 21
56.00306757680001
 31
0.0
  0
LINE
  5
11E
330
2
100
AcDbEntity
  8
0
 62
     3
100
AcDbLine
 10
91.55344635679998
 20
54.95314025879999
 30
0.0
 11
91.60340363219999
 21
54.95314025879999
 31
0.0
  0
LINE
  5
11F
330
2
100
AcDbEntity
  8
0
 62
     3
100
AcDbLine
 10
91.60328156189995
 20
54.2032012939
 30
0.0
 11
92.40333038999999
 21
54.2032012939
 31
0.0
  0
LINE
  5
120
330
2
100
AcDbEntity
  8
0
 62
     3
100
AcDbLine
 10
91.60328156189995
 20
55.0031280518
 30
0.0
 11
92.40333038999999
 21
55.0031280518
 31
0.0
  0
LINE
  5
121
330
2
100
AcDbEntity
  8
0
 62
     3
100
AcDbLine
 10
91.80335480409999
 20
56.0031280518
 30
0.0
 11
92.203318183
 21
56.0031280518
 31
0.0
  0
LINE
  5
122
330
2
100
AcDbEntity
  8
0
 62
     3
100
AcDbLine
 10
92.40331219419999
 20
61.40312273010001
 30
0.0
 11
92.20329522439998
 21
60.40309295410001
 31
0.0
  0
LINE
  5
123
330
2
100
AcDbEntity
  8
0
 62
     3
100
AcDbLine
 10
91.80334729839994
 20
60.40306466279997
 30
0.0
 11
91.60333105799995
 21
61.4030945604
 31
0.0
  0
LINE
  5
124
330
2
100
AcDbEntity
  8
0
 62
     3
100
AcDbLine
 10
91.55344635679998
 20
61.45314025880001
 30
0.0
 11
91.60340363219999
 21
61.45314025880001
 31
0.0
  0
LINE
  5
125
330
2
100
AcDbEntity
  8
0
 62
     3
100
AcDbLine
 10
91.60328156189995
 20
61.40315246580001
 30
0.0
 11
92.40333038999999
 21
61.40315246580001
 31
0.0
  0
LINE
  5
126
330
2
100
AcDbEntity
  8
0
 62
     3
100
AcDbLine
 10
91.60328156189995
 20
62.2032012939
 30
0.0
 11
92.40333038999999
 21
62.2032012939
 31
0.0
  0
LINE
  5
127
330
2
100
AcDbEntity
  8
0
 62
     3
100
AcDbLine
 10
91.80335480409999
 20
60.4031524658
 30
0.0
 11
92.203318183
 21
60.4031524658
 31
0.0
  0
LINE
  5
128
330
2
100
AcDbEntity
  8
0
 62
     3
100
AcDbLine
 10
92.40345246029994
 20
66.6031494141
 30
0.0
 11
92.40345246029994
 21
68.8031463623
 31
0.0
  0
LINE
  5
129
330
2
100
AcDbEntity
  8
0
 62
     3
100
AcDbLine
 10
93.50351959900001
 20
68.8031463623
 30
0.0
 11
93.50351959900001
 21
66.6031341553
 31
0.0
  0
LINE
  5
12A
330
2
100
AcDbEntity
  8
0
 62
     3
100
AcDbLine
 10
92.2033446816
 20
75.0031179678
 30
0.0
 11
92.4033489514
 21
74.00314792
 31
0.0
  0
LINE
  5
12B
330
2
100
AcDbEntity
  8
0
 62
     3
100
AcDbLine
 10
91.55344635679998
 20
73.95314025880002
 30
0.0
 11
91.60340363219999
 21
73.95314025880002
 31
0.0
  0
LINE
  5
12C
330
2
100
AcDbEntity
  8
0
 62
     3
100
AcDbLine
 10
91.603381218
 20
74.00309915850001
 30
0.0
 11
91.8033862172
 21
75.0030690847
 31
0.0
  0
LINE
  5
12D
330
2
100
AcDbEntity
  8
0
 62
     3
100
AcDbLine
 10
91.60328156189995
 20
73.20320129390001
 30
0.0
 11
92.40333038999999
 21
73.20320129390001
 31
0.0
  0
LINE
  5
12E
330
2
100
AcDbEntity
  8
0
 62
     3
100
AcDbLine
 10
91.60328156189995
 20
74.0031280518
 30
0.0
 11
92.40333038999999
 21
74.0031280518
 31
0.0
  0
LINE
  5
12F
330
2
100
AcDbEntity
  8
0
 62
     3
100
AcDbLine
 10
91.80335480409999
 20
75.0031280518
 30
0.0
 11
92.203318183
 21
75.0031280518
 31
0.0
  0
LINE
  5
130
330
2
100
AcDbEntity
  8
0
 62
     3
100
AcDbLine
 10
96.30350739199998
 20
67.70314025880001
 30
0.0
 11
97.5034585638
 21
67.70314025880001
 31
0.0
  0
LINE
  5
131
330
2
100
AcDbEntity
  8
0
 62
     3
100
AcDbLine
 10
96.30350739199998
 20
68.8031463623
 30
0.0
 11
96.30350739199998
 21
66.6031341553
 31
0.0
  0
ARC
  5
132
330
2
100
AcDbEntity
  8
0
 62
     3
100
AcDbCircle
 10
97.5034585638
 20
67.9031524658
 30
0.0
 40
0.1999999881
100
AcDbArc
 50
270.0000179861
 51
0.0
  0
ARC
  5
133
330
2
100
AcDbEntity
  8
0
 62
     3
100
AcDbCircle
 10
97.5034585638
 20
69.00314331050001
 30
0.0
 40
0.1999999881
100
AcDbArc
 50
270.0000179861
 51
0.0
  0
ARC
  5
134
330
2
100
AcDbEntity
  8
0
 62
     3
100
AcDbCircle
 10
97.5034585638
 20
67.50314331050001
 30
0.0
 40
0.1999999881
100
AcDbArc
 50
0.0
 51
89.99998201389999
  0
ARC
  5
135
330
2
100
AcDbEntity
  8
0
 62
     3
100
AcDbCircle
 10
97.5034585638
 20
66.403137207
 30
0.0
 40
0.1999999881
100
AcDbArc
 50
0.0
 51
89.99998201389999
  0
LINE
  5
136
330
2
100
AcDbEntity
  8
0
 62
     3
100
AcDbLine
 10
92.40345246029994
 20
77.2031402588
 30
0.0
 11
97.70345551209999
 21
77.2031402588
 31
0.0
  0
LINE
  5
137
330
2
100
AcDbEntity
  8
0
 62
     3
100
AcDbLine
 10
92.40345246029994
 20
85.6031494141
 30
0.0
 11
97.5034585638
 21
85.6031494141
 31
0.0
  0
LINE
  5
138
330
2
100
AcDbEntity
  8
0
 62
     3
100
AcDbLine
 10
96.30344635679998
 20
86.00308227540001
 30
0.0
 11
93.5034585638
 21
86.00308227540001
 31
0.0
  0
LINE
  5
139
330
2
100
AcDbEntity
  8
0
 62
     3
100
AcDbLine
 10
92.40345246029994
 20
85.6031494141
 30
0.0
 11
92.40345246029994
 21
86.70314025879999
 31
0.0
  0
LINE
  5
13A
330
2
100
AcDbEntity
  8
0
 62
     3
100
AcDbLine
 10
92.40332189650001
 20
80.40312423799999
 30
0.0
 11
92.20330492669999
 21
79.403094462
 31
0.0
  0
LINE
  5
13B
330
2
100
AcDbEntity
  8
0
 62
     3
100
AcDbLine
 10
91.55344635679998
 20
80.45314025879997
 30
0.0
 11
91.60340363219999
 21
80.45314025879997
 31
0.0
  0
LINE
  5
13C
330
2
100
AcDbEntity
  8
0
 62
     3
100
AcDbLine
 10
91.80335136629995
 20
79.4030657264
 30
0.0
 11
91.60333512589998
 21
80.403095624
 31
0.0
  0
LINE
  5
13D
330
2
100
AcDbEntity
  8
0
 62
     3
100
AcDbLine
 10
91.60328156189995
 20
80.4031524658
 30
0.0
 11
92.40333038999999
 21
80.4031524658
 31
0.0
  0
LINE
  5
13E
330
2
100
AcDbEntity
  8
0
 62
     3
100
AcDbLine
 10
91.80335480409999
 20
79.4031524658
 30
0.0
 11
92.203318183
 21
79.4031524658
 31
0.0
  0
LINE
  5
13F
330
2
100
AcDbEntity
  8
0
 62
     3
100
AcDbLine
 10
91.60328156189995
 20
81.2032012939
 30
0.0
 11
92.40333038999999
 21
81.2032012939
 31
0.0
  0
LINE
  5
140
330
2
100
AcDbEntity
  8
0
 62
     3
100
AcDbLine
 10
93.50351959900001
 20
86.00309753419997
 30
0.0
 11
93.50351959900001
 21
85.60313415530002
 31
0.0
  0
ARC
  5
141
330
2
100
AcDbEntity
  8
0
 62
     3
100
AcDbCircle
 10
97.5034585638
 20
86.50314331049999
 30
0.0
 40
0.1999999881
100
AcDbArc
 50
0.0
 51
89.99998201389999
  0
LINE
  5
142
330
2
100
AcDbEntity
  8
0
 62
     3
100
AcDbLine
 10
96.30350739199998
 20
86.00309753419997
 30
0.0
 11
96.30350739199998
 21
85.60313415530002
 31
0.0
  0
ARC
  5
143
330
2
100
AcDbEntity
  8
0
 62
     3
100
AcDbCircle
 10
97.5034585638
 20
85.40313720700002
 30
0.0
 40
0.1999999881
100
AcDbArc
 50
0.0
 51
89.99998201389999
  0
ARC
  5
144
330
2
100
AcDbEntity
  8
0
 62
     3
100
AcDbCircle
 10
89.5034585638
 20
123.0803842880998
 30
0.0
 40
2.0
100
AcDbArc
 50
270.0000179861
 51
0.0
  0
LINE
  5
145
330
2
100
AcDbEntity
  8
0
 62
     3
100
AcDbLine
 10
97.70345551209999
 20
120.2803964952
 30
0.0
 11
94.90345246029994
 21
120.2803964952
 31
0.0
  0
LINE
  5
146
330
2
100
AcDbEntity
  8
0
  6
CENTER
 62
     3
100
AcDbLine
 10
97.42354828549999
 20
117.2803964952
 30
0.0
 11
92.0996347113
 21
117.2803964952
 31
0.0
  0
CIRCLE
  5
147
330
2
100
AcDbEntity
  8
0
 62
     3
100
AcDbCircle
 10
94.90345246029994
 20
117.2803964952
 30
0.0
 40
1.1999998093
  0
LINE
  5
148
330
2
100
AcDbEntity
  8
0
 62
     3
100
AcDbLine
 10
92.40345246029994
 20
114.2462625839999
 30
0.0
 11
92.40345246029994
 21
105.7804117539999
 31
0.0
  0
LINE
  5
149
330
2
100
AcDbEntity
  8
0
 62
     3
100
AcDbLine
 10
91.60344940859998
 20
114.2462625839999
 30
0.0
 11
91.60344940859998
 21
105.7804117539999
 31
0.0
  0
LINE
  5
14A
330
2
100
AcDbEntity
  8
0
 62
     3
100
AcDbLine
 10
92.40342253809997
 20
105.7804186390999
 30
0.0
 11
92.20342213019998
 21
104.7804166604997
 31
0.0
  0
LINE
  5
14B
330
2
100
AcDbEntity
  8
0
 62
     3
100
AcDbLine
 10
91.60345002399996
 20
105.7804332961999
 30
0.0
 11
91.80345037110001
 21
104.7804313175999
 31
0.0
  0
LINE
  5
14C
330
2
100
AcDbEntity
  8
0
 62
     3
100
AcDbLine
 10
91.60344940859998
 20
105.7804117539999
 30
0.0
 11
92.40345246029994
 21
105.7804117539999
 31
0.0
  0
LINE
  5
14D
330
2
100
AcDbEntity
  8
0
 62
     3
100
AcDbLine
 10
91.8034463568
 20
104.7804117539999
 30
0.0
 11
92.20344025329998
 21
104.7804117539999
 31
0.0
  0
LINE
  5
14E
330
2
100
AcDbEntity
  8
0
  6
CENTER
 62
     3
100
AcDbLine
 10
88.40345246029997
 20
119.6092233995
 30
0.0
 11
88.40345246029997
 21
114.6826029161
 31
0.0
  0
LINE
  5
14F
330
2
100
AcDbEntity
  8
0
 62
     3
100
AcDbLine
 10
88.313398617
 20
113.3799070453
 30
0.0
 11
87.99349763549999
 21
110.1808964634999
 31
0.0
  0
ARC
  5
150
330
2
100
AcDbEntity
  8
0
 62
     3
100
AcDbCircle
 10
89.30845123959999
 20
113.2803964952
 30
0.0
 40
1.0
100
AcDbArc
 50
89.99998201389999
 51
174.2893794665999
  0
CIRCLE
  5
151
330
2
100
AcDbEntity
  8
0
 62
     3
100
AcDbCircle
 10
88.40345246029997
 20
116.7803964952
 30
0.0
 40
0.6999999881
  0
LINE
  5
152
330
2
100
AcDbEntity
  8
0
 62
     3
100
AcDbLine
 10
91.90345246029995
 20
117.2803964952
 30
0.0
 11
91.90345246029995
 21
114.2803964952
 31
0.0
  0
LINE
  5
153
330
2
100
AcDbEntity
  8
0
  6
CENTER
 62
     3
100
AcDbLine
 10
94.90345246029994
 20
120.8806009629
 30
0.0
 11
94.90345246029994
 21
114.6031504014
 31
0.0
  0
LINE
  5
154
330
2
100
AcDbEntity
  8
0
 62
     3
100
AcDbLine
 10
91.60344940859998
 20
112.7803964952
 30
0.0
 11
92.40345246029994
 21
112.7803964952
 31
0.0
  0
ARC
  5
155
330
2
100
AcDbEntity
  8
0
 62
     3
100
AcDbCircle
 10
94.90345246029994
 20
117.2803964952
 30
0.0
 40
3.0
100
AcDbArc
 50
89.99998201389999
 51
179.9999640277999
  0
ARC
  5
156
330
2
100
AcDbEntity
  8
0
 62
     3
100
AcDbCircle
 10
96.70345551209996
 20
115.2803964952
 30
0.0
 40
1.0
100
AcDbArc
 50
270.0000179861
 51
0.0
  0
LINE
  5
157
330
2
100
AcDbEntity
  8
0
 62
     3
100
AcDbLine
 10
91.50345856379995
 20
142.780411754
 30
0.0
 11
91.50345856379995
 21
123.0803842880998
 31
0.0
  0
LINE
  5
158
330
2
100
AcDbEntity
  8
0
100
AcDbLine
 10
210.0
 20
297.0
 30
0.0
 11
0.0
 21
297.0
 31
0.0
  0
LINE
  5
15C
330
2
100
AcDbEntity
  8
0
 62
     3
100
AcDbLine
 10
73.50866181089998
 20
230.4303436279
 30
0.0
 11
97.5034585638
 21
230.4303436279
 31
0.0
  0
LINE
  5
15D
330
2
100
AcDbEntity
  8
0
 62
     3
100
AcDbLine
 10
82.94713837339998
 20
239.9303436279
 30
0.0
 11
90.50345856379999
 21
239.9303436279
 31
0.0
  0
LINE
  5
15E
330
2
100
AcDbEntity
  8
0
 62
     3
100
AcDbLine
 10
82.94713837339998
 20
220.9303436279
 30
0.0
 11
90.50345856379999
 21
220.9303436279
 31
0.0
  0
LINE
  5
15F
330
2
100
AcDbEntity
  8
0
 62
     3
100
AcDbLine
 10
82.94713837339998
 20
201.9303436279
 30
0.0
 11
90.50345856379999
 21
201.9303436279
 31
0.0
  0
LINE
  5
160
330
2
100
AcDbEntity
  8
0
 62
     3
100
AcDbLine
 10
73.50866181089998
 20
211.4303436279
 30
0.0
 11
97.5034585638
 21
211.4303436279
 31
0.0
  0
LINE
  5
161
330
2
100
AcDbEntity
  8
0
 62
     3
100
AcDbLine
 10
85.13187653259995
 20
154.280411754
 30
0.0
 11
90.90345246029995
 21
154.280411754
 31
0.0
  0
LINE
  5
162
330
2
100
AcDbEntity
  8
0
  6
CENTER
 62
     3
100
AcDbLine
 10
77.90342869159998
 20
150.7803998008
 30
0.0
 11
88.38755341169997
 21
168.9760891212999
 31
0.0
  0
ARC
  5
163
330
2
100
AcDbEntity
  8
0
  6
PHANTOM
 62
     3
100
AcDbCircle
 10
77.9034372015
 20
150.780411754
 30
0.0
 40
21.0
100
AcDbArc
 50
60.04998499399999
 51
116.4499715371
  0
LINE
  5
165
330
2
100
AcDbEntity
  8
0
 62
     3
100
AcDbLine
 10
47.30344635679997
 20
192.4303436279
 30
0.0
 11
97.5034585638
 21
192.4303436279
 31
0.0
  0
LINE
  5
166
330
2
100
AcDbEntity
  8
0
 62
     3
100
AcDbLine
 10
55.30344635679997
 20
144.780411754
 30
0.0
 11
89.5034585638
 21
144.780411754
 31
0.0
  0
LINE
  5
167
330
2
100
AcDbEntity
  8
0
  6
PHANTOM
 62
     3
100
AcDbLine
 10
45.36310822199999
 20
155.5304117539999
 30
0.0
 11
100.4617715520999
 21
155.5304117539999
 31
0.0
  0
LINE
  5
168
330
2
100
AcDbEntity
  8
0
 62
     3
100
AcDbLine
 10
47.30344635679997
 20
249.4303436279
 30
0.0
 11
97.5034585638
 21
249.4303436279
 31
0.0
  0
ARC
  5
169
330
2
100
AcDbEntity
  8
0
 62
     3
100
AcDbCircle
 10
77.90345246029997
 20
239.9303436279
 30
0.0
 40
7.5
100
AcDbArc
 50
234.1283015973
 51
147.0668682275
  0
LINE
  5
16A
330
2
100
AcDbEntity
  8
0
 62
     3
100
AcDbLine
 10
86.95345551209999
 20
237.9303436279
 30
0.0
 11
86.95345551209999
 21
222.9303436279
 31
0.0
  0
LINE
  5
16B
330
2
100
AcDbEntity
  8
0
 62
     3
100
AcDbLine
 10
66.7086587592
 20
236.7303466797
 30
0.0
 11
66.7086587592
 21
224.1303405761999
 31
0.0
  0
LINE
  5
16C
330
2
100
AcDbEntity
  8
0
 62
     3
100
AcDbLine
 10
73.50866181089998
 20
236.7303466797
 30
0.0
 11
73.50866181089998
 21
224.1303405761999
 31
0.0
  0
LINE
  5
16D
330
2
100
AcDbEntity
  8
0
  6
CENTER
 62
     3
100
AcDbLine
 10
77.9034372015
 20
251.8937988280999
 30
0.0
 11
77.9034372015
 21
189.9515461116999
 31
0.0
  0
LINE
  5
16E
330
2
100
AcDbEntity
  8
0
 62
     3
100
AcDbLine
 10
53.80344635679996
 20
236.9303436279
 30
0.0
 11
53.80344635679996
 21
235.9303436279
 31
0.0
  0
LINE
  5
16F
330
2
100
AcDbEntity
  8
0
 62
     3
100
AcDbLine
 10
53.90346771909998
 20
230.4522399902
 30
0.0
 11
53.90346771909998
 21
236.9303436279
 31
0.0
  0
LINE
  5
170
330
2
100
AcDbEntity
  8
0
 62
     3
100
AcDbLine
 10
48.80344635679996
 20
236.9303436279
 30
0.0
 11
48.80344635679996
 21
235.9303436279
 31
0.0
  0
LINE
  5
171
330
2
100
AcDbEntity
  8
0
 62
     3
100
AcDbLine
 10
47.10344940859997
 20
230.6303405761999
 30
0.0
 11
47.10344940859997
 21
249.2303466797
 31
0.0
  0
LINE
  5
172
330
2
100
AcDbEntity
  8
0
 62
     3
100
AcDbLine
 10
48.70345551209999
 20
236.9303436279
 30
0.0
 11
48.70345551209999
 21
223.9303436279
 31
0.0
  0
LINE
  5
173
330
2
100
AcDbEntity
  8
0
  6
CENTER
 62
     3
100
AcDbLine
 10
51.30344635679996
 20
244.9303436279
 30
0.0
 11
51.30344635679996
 21
196.9303436279
 31
0.0
  0
LINE
  5
174
330
2
100
AcDbEntity
  8
0
 62
     3
100
AcDbLine
 10
54.30344635679997
 20
220.9303436279
 30
0.0
 11
66.60866791439997
 21
220.9303436279
 31
0.0
  0
LINE
  5
175
330
2
100
AcDbEntity
  8
0
 62
     3
100
AcDbLine
 10
47.30344635679997
 20
211.4303436279
 30
0.0
 11
66.7086587592
 21
211.4303436279
 31
0.0
  0
LINE
  5
176
330
2
100
AcDbEntity
  8
0
 62
     3
100
AcDbLine
 10
54.30344635679997
 20
201.9303436279
 30
0.0
 11
66.60866791439997
 21
201.9303436279
 31
0.0
  0
LINE
  5
177
330
2
100
AcDbEntity
  8
0
  6
CENTER
 62
     3
100
AcDbLine
 10
62.14263397889999
 20
150.7803964952
 30
0.0
 11
57.29548126889998
 21
150.7803964952
 31
0.0
  0
LINE
  5
178
330
2
100
AcDbEntity
  8
0
 62
     3
100
AcDbLine
 10
53.90345246029998
 20
154.280411754
 30
0.0
 11
70.67501312929997
 21
154.280411754
 31
0.0
  0
LINE
  5
179
330
2
100
AcDbEntity
  8
0
 62
     3
100
AcDbLine
 10
47.30344635679997
 20
230.4303436279
 30
0.0
 11
66.7086587592
 21
230.4303436279
 31
0.0
  0
LINE
  5
17A
330
2
100
AcDbEntity
  8
0
  6
CENTER
 62
     3
100
AcDbLine
 10
54.19648224549999
 20
149.0803995469
 30
0.0
 11
47.76011139589996
 21
149.0803995469
 31
0.0
  0
LINE
  5
17B
330
2
100
AcDbEntity
  8
0
 62
     3
100
AcDbLine
 10
48.70344025329998
 20
154.4804087021999
 30
0.0
 11
53.90345246029998
 21
154.4804087021999
 31
0.0
  0
CIRCLE
  5
17C
330
2
100
AcDbEntity
  8
0
 62
     3
100
AcDbCircle
 10
51.30344635679996
 20
149.0803995469
 30
0.0
 40
2.024999618499998
  0
ARC
  5
17D
330
2
100
AcDbEntity
  8
0
  6
PHANTOM
 62
     3
100
AcDbCircle
 10
51.30344635679996
 20
151.3637247421999
 30
0.0
 40
5.8333330154
100
AcDbArc
 50
74.13285151530002
 51
105.8671125125
  0
LINE
  5
17E
330
2
100
AcDbEntity
  8
0
  6
PHANTOM
 62
     3
100
AcDbLine
 10
49.04379873599999
 20
156.1410470877
 30
0.0
 11
49.01179630879997
 21
155.5304044028
 31
0.0
  0
ARC
  5
17F
330
2
100
AcDbEntity
  8
0
 62
     3
100
AcDbCircle
 10
48.1034341498
 20
153.280411754
 30
0.0
 40
1.0
100
AcDbArc
 50
89.99998201389999
 51
179.9999640277999
  0
LINE
  5
180
330
2
100
AcDbEntity
  8
0
 62
     3
100
AcDbLine
 10
48.70344025329998
 20
154.4804087021999
 30
0.0
 11
48.70344025329998
 21
154.280411754
 31
0.0
  0
LINE
  5
181
330
2
100
AcDbEntity
  8
0
 62
     3
100
AcDbLine
 10
48.1034341498
 20
154.280411754
 30
0.0
 11
48.70344025329998
 21
154.280411754
 31
0.0
  0
ARC
  5
182
330
2
100
AcDbEntity
  8
0
  6
PHANTOM
 62
     3
100
AcDbCircle
 10
49.95919281679996
 20
156.0930643418999
 30
0.0
 40
0.9166666864999999
100
AcDbArc
 50
105.8671125125
 51
176.9999810198
  0
LINE
  5
183
330
2
100
AcDbEntity
  8
0
  6
PHANTOM
 62
     3
100
AcDbLine
 10
53.56314288459998
 20
156.1410534303
 30
0.0
 11
53.59514531179996
 21
155.5304107453
 31
0.0
  0
LINE
  5
184
330
2
100
AcDbEntity
  8
0
  6
CENTER
 62
     3
100
AcDbLine
 10
51.30344635679996
 20
158.2307901719
 30
0.0
 11
51.30344635679996
 21
145.2131662705999
 31
0.0
  0
CIRCLE
  5
185
330
2
100
AcDbEntity
  8
0
 62
     3
100
AcDbCircle
 10
51.30344635679996
 20
149.0803995469
 30
0.0
 40
1.1999998093
  0
LINE
  5
186
330
2
100
AcDbEntity
  8
0
 62
     3
100
AcDbLine
 10
53.90345246029998
 20
154.4804087021999
 30
0.0
 11
53.90345246029998
 21
154.280411754
 31
0.0
  0
ARC
  5
187
330
2
100
AcDbEntity
  8
0
  6
PHANTOM
 62
     3
100
AcDbCircle
 10
52.64769989679996
 20
156.0930643418999
 30
0.0
 40
0.9166666864999999
100
AcDbArc
 50
2.9999992297
 51
74.13285151530002
  0
LINE
  5
188
330
2
100
AcDbEntity
  8
0
 62
     3
100
AcDbLine
 10
53.90346771909998
 20
211.4522399901999
 30
0.0
 11
53.90346771909998
 21
217.9303436279
 31
0.0
  0
LINE
  5
189
330
2
100
AcDbEntity
  8
0
 62
     3
100
AcDbLine
 10
48.70345551209999
 20
217.9303436279
 30
0.0
 11
48.70345551209999
 21
204.9303436279
 31
0.0
  0
LINE
  5
18A
330
2
100
AcDbEntity
  8
0
 62
     3
100
AcDbLine
 10
47.10344940859997
 20
211.6303405761999
 30
0.0
 11
47.10344940859997
 21
230.2303466796999
 31
0.0
  0
LINE
  5
18B
330
2
100
AcDbEntity
  8
0
  6
CENTER
 62
     3
100
AcDbLine
 10
53.30344635679996
 20
201.9303436279
 30
0.0
 11
49.30344635679997
 21
201.9303436279
 31
0.0
  0
LINE
  5
18C
330
2
100
AcDbEntity
  8
0
 62
     3
100
AcDbLine
 10
53.80344635679996
 20
205.9303436279
 30
0.0
 11
48.80344635679996
 21
205.9303436279
 31
0.0
  0
LINE
  5
18D
330
2
100
AcDbEntity
  8
0
 62
     3
100
AcDbLine
 10
53.80344635679996
 20
197.9303436279
 30
0.0
 11
48.80344635679996
 21
197.9303436279
 31
0.0
  0
LINE
  5
18E
330
2
100
AcDbEntity
  8
0
 62
     3
100
AcDbLine
 10
48.70345551209999
 20
206.0303497313999
 30
0.0
 11
53.90346771909998
 21
206.0303497313999
 31
0.0
  0
LINE
  5
18F
330
2
100
AcDbEntity
  8
0
 62
     3
100
AcDbLine
 10
48.70345551209999
 20
197.8303375243999
 30
0.0
 11
53.90346771909998
 21
197.8303375243999
 31
0.0
  0
CIRCLE
  5
190
330
2
100
AcDbEntity
  8
0
 62
     3
100
AcDbCircle
 10
51.30344635679996
 20
201.9303436279
 30
0.0
 40
1.5
  0
LINE
  5
191
330
2
100
AcDbEntity
  8
0
 62
     3
100
AcDbLine
 10
48.30344635679996
 20
204.9303436279
 30
0.0
 11
48.30344635679996
 21
198.9303436279
 31
0.0
  0
LINE
  5
192
330
2
100
AcDbEntity
  8
0
 62
     3
100
AcDbLine
 10
48.20345551209999
 20
205.0303497313999
 30
0.0
 11
48.20345551209999
 21
198.8303375243999
 31
0.0
  0
LINE
  5
193
330
2
100
AcDbEntity
  8
0
 62
     3
100
AcDbLine
 10
47.10344940859997
 20
192.6303405761999
 30
0.0
 11
47.10344940859997
 21
211.2303466796999
 31
0.0
  0
LINE
  5
194
330
2
100
AcDbEntity
  8
0
 62
     3
100
AcDbLine
 10
48.70345551209999
 20
192.4311218261999
 30
0.0
 11
48.70345551209999
 21
198.9303436279
 31
0.0
  0
ARC
  5
195
330
2
100
AcDbEntity
  8
0
 62
     3
100
AcDbCircle
 10
47.30344635679997
 20
192.6303405761999
 30
0.0
 40
0.1999999881
100
AcDbArc
 50
179.9999640277999
 51
270.0000006831999
  0
LINE
  5
196
330
2
100
AcDbEntity
  8
0
 62
     3
100
AcDbLine
 10
48.80344635679996
 20
198.9303436279
 30
0.0
 11
48.80344635679996
 21
197.9303436279
 31
0.0
  0
LINE
  5
197
330
2
100
AcDbEntity
  8
0
 62
     3
100
AcDbLine
 10
48.80344635679996
 20
198.9303436279
 30
0.0
 11
48.30344635679996
 21
198.9303436279
 31
0.0
  0
LINE
  5
198
330
2
100
AcDbEntity
  8
0
 62
     3
100
AcDbLine
 10
48.20345551209999
 20
198.8303375243999
 30
0.0
 11
48.70345551209999
 21
198.8303375243999
 31
0.0
  0
LINE
  5
199
330
2
100
AcDbEntity
  8
0
 62
     3
100
AcDbLine
 10
47.10344940859997
 20
201.9303436279
 30
0.0
 11
48.30344635679996
 21
201.9303436279
 31
0.0
  0
LINE
  5
19A
330
2
100
AcDbEntity
  8
0
 62
     3
100
AcDbLine
 10
48.80344635679996
 20
205.9303436279
 30
0.0
 11
48.80344635679996
 21
204.9303436279
 31
0.0
  0
LINE
  5
19B
330
2
100
AcDbEntity
  8
0
 62
     3
100
AcDbLine
 10
48.80344635679996
 20
204.9303436279
 30
0.0
 11
48.30344635679996
 21
204.9303436279
 31
0.0
  0
LINE
  5
19C
330
2
100
AcDbEntity
  8
0
 62
     3
100
AcDbLine
 10
48.20345551209999
 20
205.0303497313999
 30
0.0
 11
48.70345551209999
 21
205.0303497313999
 31
0.0
  0
ARC
  5
19D
330
2
100
AcDbEntity
  8
0
 62
     3
100
AcDbCircle
 10
47.30344635679997
 20
211.2303466796999
 30
0.0
 40
0.1999999881
100
AcDbArc
 50
89.99998201389999
 51
179.9999640277999
  0
ARC
  5
19E
330
2
100
AcDbEntity
  8
0
 62
     3
100
AcDbCircle
 10
47.30344635679997
 20
211.6303405761999
 30
0.0
 40
0.1999999881
100
AcDbArc
 50
179.9999640277999
 51
270.0000006831999
  0
LINE
  5
19F
330
2
100
AcDbEntity
  8
0
 62
     3
100
AcDbLine
 10
54.40346771909998
 20
205.0303497313999
 30
0.0
 11
54.40346771909998
 21
198.8303375243999
 31
0.0
  0
LINE
  5
1A0
330
2
100
AcDbEntity
  8
0
 62
     3
100
AcDbLine
 10
52.45345551209999
 20
202.3652801513999
 30
0.0
 11
52.45345551209999
 21
201.4954071045
 31
0.0
  0
LINE
  5
1A1
330
2
100
AcDbEntity
  8
0
 62
     3
100
AcDbLine
 10
54.30344635679997
 20
204.9303436279
 30
0.0
 11
54.30344635679997
 21
198.9303436279
 31
0.0
  0
LINE
  5
1A2
330
2
100
AcDbEntity
  8
0
 62
     3
100
AcDbLine
 10
50.15343720149999
 20
202.3652801513999
 30
0.0
 11
50.15343720149999
 21
201.4954071045
 31
0.0
  0
CIRCLE
  5
1A3
330
2
100
AcDbEntity
  8
0
 62
     3
100
AcDbCircle
 10
51.30344635679996
 20
201.9303436279
 30
0.0
 40
1.229499816899999
  0
LINE
  5
1A4
330
2
100
AcDbEntity
  8
0
 62
     3
100
AcDbLine
 10
53.90346771909998
 20
192.4522399902
 30
0.0
 11
53.90346771909998
 21
198.9303436279
 31
0.0
  0
LINE
  5
1A5
330
2
100
AcDbEntity
  8
0
 62
     3
100
AcDbLine
 10
53.80344635679996
 20
198.9303436279
 30
0.0
 11
53.80344635679996
 21
197.9303436279
 31
0.0
  0
LINE
  5
1A6
330
2
100
AcDbEntity
  8
0
 62
     3
100
AcDbLine
 10
54.30344635679997
 20
198.9303436279
 30
0.0
 11
53.80344635679996
 21
198.9303436279
 31
0.0
  0
LINE
  5
1A7
330
2
100
AcDbEntity
  8
0
 62
     3
100
AcDbLine
 10
53.90346771909998
 20
198.8303375243999
 30
0.0
 11
54.40346771909998
 21
198.8303375243999
 31
0.0
  0
LINE
  5
1A8
330
2
100
AcDbEntity
  8
0
 62
     3
100
AcDbLine
 10
53.90346771909998
 20
211.4507293701
 30
0.0
 11
53.90346771909998
 21
204.9303436279
 31
0.0
  0
LINE
  5
1A9
330
2
100
AcDbEntity
  8
0
 62
     3
100
AcDbLine
 10
54.30344635679997
 20
204.9303436279
 30
0.0
 11
53.80344635679996
 21
204.9303436279
 31
0.0
  0
LINE
  5
1AA
330
2
100
AcDbEntity
  8
0
 62
     3
100
AcDbLine
 10
53.80344635679996
 20
205.9303436279
 30
0.0
 11
53.80344635679996
 21
204.9303436279
 31
0.0
  0
LINE
  5
1AB
330
2
100
AcDbEntity
  8
0
 62
     3
100
AcDbLine
 10
53.90346771909998
 20
205.0303497313999
 30
0.0
 11
54.40346771909998
 21
205.0303497313999
 31
0.0
  0
LINE
  5
1AC
330
2
100
AcDbEntity
  8
0
 62
     3
100
AcDbLine
 10
48.70345551209999
 20
235.8303375244
 30
0.0
 11
53.90346771909998
 21
235.8303375244
 31
0.0
  0
LINE
  5
1AD
330
2
100
AcDbEntity
  8
0
 62
     3
100
AcDbLine
 10
53.80344635679996
 20
235.9303436279
 30
0.0
 11
48.80344635679996
 21
235.9303436279
 31
0.0
  0
LINE
  5
1AE
330
2
100
AcDbEntity
  8
0
  6
CENTER
 62
     3
100
AcDbLine
 10
53.30344635679996
 20
220.9303436279
 30
0.0
 11
49.30344635679997
 21
220.9303436279
 31
0.0
  0
LINE
  5
1AF
330
2
100
AcDbEntity
  8
0
 62
     3
100
AcDbLine
 10
53.80344635679996
 20
224.9303436279
 30
0.0
 11
48.80344635679996
 21
224.9303436279
 31
0.0
  0
LINE
  5
1B0
330
2
100
AcDbEntity
  8
0
 62
     3
100
AcDbLine
 10
53.80344635679996
 20
216.9303436279
 30
0.0
 11
48.80344635679996
 21
216.9303436279
 31
0.0
  0
LINE
  5
1B1
330
2
100
AcDbEntity
  8
0
 62
     3
100
AcDbLine
 10
48.70345551209999
 20
225.0303497313999
 30
0.0
 11
53.90346771909998
 21
225.0303497313999
 31
0.0
  0
LINE
  5
1B2
330
2
100
AcDbEntity
  8
0
 62
     3
100
AcDbLine
 10
48.70345551209999
 20
216.8303375244
 30
0.0
 11
53.90346771909998
 21
216.8303375244
 31
0.0
  0
CIRCLE
  5
1B3
330
2
100
AcDbEntity
  8
0
 62
     3
100
AcDbCircle
 10
51.30344635679996
 20
220.9303436279
 30
0.0
 40
1.5
  0
LINE
  5
1B4
330
2
100
AcDbEntity
  8
0
 62
     3
100
AcDbLine
 10
48.80344635679996
 20
224.9303436279
 30
0.0
 11
48.80344635679996
 21
223.9303436279
 31
0.0
  0
LINE
  5
1B5
330
2
100
AcDbEntity
  8
0
 62
     3
100
AcDbLine
 10
48.30344635679996
 20
223.9303436279
 30
0.0
 11
48.30344635679996
 21
217.9303436279
 31
0.0
  0
LINE
  5
1B6
330
2
100
AcDbEntity
  8
0
 62
     3
100
AcDbLine
 10
48.20345551209999
 20
224.0303497313999
 30
0.0
 11
48.20345551209999
 21
217.8303375243999
 31
0.0
  0
LINE
  5
1B7
330
2
100
AcDbEntity
  8
0
 62
     3
100
AcDbLine
 10
48.80344635679996
 20
217.9303436279
 30
0.0
 11
48.80344635679996
 21
216.9303436279
 31
0.0
  0
LINE
  5
1B8
330
2
100
AcDbEntity
  8
0
 62
     3
100
AcDbLine
 10
48.80344635679996
 20
217.9303436279
 30
0.0
 11
48.30344635679996
 21
217.9303436279
 31
0.0
  0
LINE
  5
1B9
330
2
100
AcDbEntity
  8
0
 62
     3
100
AcDbLine
 10
48.20345551209999
 20
217.8303375243999
 30
0.0
 11
48.70345551209999
 21
217.8303375243999
 31
0.0
  0
LINE
  5
1BA
330
2
100
AcDbEntity
  8
0
 62
     3
100
AcDbLine
 10
47.10344940859997
 20
220.9303436279
 30
0.0
 11
48.30344635679996
 21
220.9303436279
 31
0.0
  0
LINE
  5
1BB
330
2
100
AcDbEntity
  8
0
 62
     3
100
AcDbLine
 10
48.80344635679996
 20
223.9303436279
 30
0.0
 11
48.30344635679996
 21
223.9303436279
 31
0.0
  0
LINE
  5
1BC
330
2
100
AcDbEntity
  8
0
 62
     3
100
AcDbLine
 10
48.20345551209999
 20
224.0303497313999
 30
0.0
 11
48.70345551209999
 21
224.0303497313999
 31
0.0
  0
ARC
  5
1BD
330
2
100
AcDbEntity
  8
0
 62
     3
100
AcDbCircle
 10
47.30344635679997
 20
230.2303466796999
 30
0.0
 40
0.1999999881
100
AcDbArc
 50
89.99998201389999
 51
179.9999640277999
  0
ARC
  5
1BE
330
2
100
AcDbEntity
  8
0
 62
     3
100
AcDbCircle
 10
47.30344635679997
 20
230.6303405761999
 30
0.0
 40
0.1999999881
100
AcDbArc
 50
179.9999640277999
 51
270.0000006831999
  0
LINE
  5
1BF
330
2
100
AcDbEntity
  8
0
 62
     3
100
AcDbLine
 10
53.80344635679996
 20
224.9303436279
 30
0.0
 11
53.80344635679996
 21
223.9303436279
 31
0.0
  0
LINE
  5
1C0
330
2
100
AcDbEntity
  8
0
 62
     3
100
AcDbLine
 10
53.90346771909998
 20
230.4507293701
 30
0.0
 11
53.90346771909998
 21
223.9303436279
 31
0.0
  0
CIRCLE
  5
1C1
330
2
100
AcDbEntity
  8
0
 62
     3
100
AcDbCircle
 10
51.30344635679996
 20
220.9303436279
 30
0.0
 40
1.229499816899999
  0
LINE
  5
1C2
330
2
100
AcDbEntity
  8
0
 62
     3
100
AcDbLine
 10
50.15343720149999
 20
221.3652801513999
 30
0.0
 11
50.15343720149999
 21
220.4954071044999
 31
0.0
  0
LINE
  5
1C3
330
2
100
AcDbEntity
  8
0
 62
     3
100
AcDbLine
 10
52.45345551209999
 20
221.3652801513999
 30
0.0
 11
52.45345551209999
 21
220.4954071044999
 31
0.0
  0
LINE
  5
1C4
330
2
100
AcDbEntity
  8
0
 62
     3
100
AcDbLine
 10
54.30344635679997
 20
223.9303436279
 30
0.0
 11
54.30344635679997
 21
217.9303436279
 31
0.0
  0
LINE
  5
1C5
330
2
100
AcDbEntity
  8
0
 62
     3
100
AcDbLine
 10
54.40346771909998
 20
224.0303497313999
 30
0.0
 11
54.40346771909998
 21
217.8303375243999
 31
0.0
  0
LINE
  5
1C6
330
2
100
AcDbEntity
  8
0
 62
     3
100
AcDbLine
 10
53.80344635679996
 20
217.9303436279
 30
0.0
 11
53.80344635679996
 21
216.9303436279
 31
0.0
  0
LINE
  5
1C7
330
2
100
AcDbEntity
  8
0
 62
     3
100
AcDbLine
 10
54.30344635679997
 20
217.9303436279
 30
0.0
 11
53.80344635679996
 21
217.9303436279
 31
0.0
  0
LINE
  5
1C8
330
2
100
AcDbEntity
  8
0
 62
     3
100
AcDbLine
 10
53.90346771909998
 20
217.8303375243999
 30
0.0
 11
54.40346771909998
 21
217.8303375243999
 31
0.0
  0
LINE
  5
1C9
330
2
100
AcDbEntity
  8
0
 62
     3
100
AcDbLine
 10
54.30344635679997
 20
223.9303436279
 30
0.0
 11
53.80344635679996
 21
223.9303436279
 31
0.0
  0
LINE
  5
1CA
330
2
100
AcDbEntity
  8
0
 62
     3
100
AcDbLine
 10
53.90346771909998
 20
224.0303497313999
 30
0.0
 11
54.40346771909998
 21
224.0303497313999
 31
0.0
  0
ARC
  5
1CB
330
2
100
AcDbEntity
  8
0
 62
     3
100
AcDbCircle
 10
70.10863739679996
 20
166.4485636093999
 30
0.0
 40
2.5
100
AcDbArc
 50
216.2362658966
 51
143.7637341033999
  0
LINE
  5
1CC
330
2
100
AcDbEntity
  8
0
 62
     3
100
AcDbLine
 10
72.89486690819998
 20
157.4804087021998
 30
0.0
 11
70.54732536989999
 21
162.1991561446998
 31
0.0
  0
LINE
  5
1CD
330
2
100
AcDbEntity
  8
0
  6
CENTER
 62
     3
100
AcDbLine
 10
68.5497000298
 20
169.5822138958
 30
0.0
 11
77.90345425219998
 21
150.7804250888
 31
0.0
  0
LINE
  5
1CE
330
2
100
AcDbEntity
  8
0
 62
     3
100
AcDbLine
 10
70.4034372015
 20
157.4804087021998
 30
0.0
 11
85.40345246029998
 21
157.4804087021998
 31
0.0
  0
LINE
  5
1CF
330
2
100
AcDbEntity
  8
0
 62
     3
100
AcDbLine
 10
68.85344940859997
 20
153.8804025987
 30
0.0
 11
75.90343720149999
 21
153.8804025987
 31
0.0
  0
LINE
  5
1D0
330
2
100
AcDbEntity
  8
0
  6
CENTER
 62
     3
100
AcDbLine
 10
68.5496863683
 20
169.5822070991999
 30
0.0
 11
77.9034405907
 21
150.7804182923
 31
0.0
  0
ARC
  5
1D1
330
2
100
AcDbEntity
  8
0
 62
     3
100
AcDbCircle
 10
70.10863739679996
 20
166.4485636093999
 30
0.0
 40
3.5
100
AcDbArc
 50
3.369580765699998
 51
229.5304741528
  0
ARC
  5
1D2
330
2
100
AcDbEntity
  8
0
 62
     3
100
AcDbCircle
 10
71.59023529719998
 20
167.0525980333
 30
0.0
 40
0.1999999881
100
AcDbArc
 50
285.0000423092
 51
22.18075246169996
  0
CIRCLE
  5
1D3
330
2
100
AcDbEntity
  8
0
 62
     3
100
AcDbCircle
 10
70.10863739679996
 20
166.4485636093999
 30
0.0
 40
1.399999618499998
  0
CIRCLE
  5
1D4
330
2
100
AcDbEntity
  8
0
 62
     3
100
AcDbCircle
 10
70.10863739679996
 20
166.4485636093999
 30
0.0
 40
1.5
  0
CIRCLE
  5
1D5
330
2
100
AcDbEntity
  8
0
 62
     3
100
AcDbCircle
 10
59.9034372015
 20
150.7803964952
 30
0.0
 40
1.0999994278
  0
LINE
  5
1D6
330
2
100
AcDbEntity
  8
0
  6
CENTER
 62
     3
100
AcDbLine
 10
59.9034372015
 20
153.3803720811
 30
0.0
 11
59.9034372015
 21
148.6921396592
 31
0.0
  0
CIRCLE
  5
1D7
330
2
100
AcDbEntity
  8
0
 62
     3
100
AcDbCircle
 10
59.9034372015
 20
150.7803964952
 30
0.0
 40
0.6999999881
  0
LINE
  5
1D8
330
2
100
AcDbEntity
  8
0
 62
     3
100
AcDbLine
 10
70.4034372015
 20
157.4804087021998
 30
0.0
 11
70.4034372015
 21
154.280411754
 31
0.0
  0
LINE
  5
1D9
330
2
100
AcDbEntity
  8
0
 62
     3
100
AcDbLine
 10
71.20344025329997
 20
149.3804025987
 30
0.0
 11
66.20344025329997
 21
149.3804025987
 31
0.0
  0
LINE
  5
1DA
330
2
100
AcDbEntity
  8
0
 62
     3
100
AcDbLine
 10
66.20344025329997
 20
149.3804025987
 30
0.0
 11
66.20344025329997
 21
144.780411754
 31
0.0
  0
LINE
  5
1DB
330
2
100
AcDbEntity
  8
0
 62
     3
100
AcDbLine
 10
71.20344025329997
 20
149.3804025987
 30
0.0
 11
71.20344025329997
 21
144.780411754
 31
0.0
  0
LINE
  5
1DC
330
2
100
AcDbEntity
  8
0
 62
     3
100
AcDbLine
 10
68.85344940859997
 20
154.280411754
 30
0.0
 11
68.85344940859997
 21
153.8804025987
 31
0.0
  0
LINE
  5
1DD
330
2
100
AcDbEntity
  8
0
 62
     3
100
AcDbLine
 10
70.67501312929997
 20
154.280411754
 30
0.0
 11
70.67501312929997
 21
153.8804025987
 31
0.0
  0
LINE
  5
1DE
330
2
100
AcDbEntity
  8
0
 62
     3
100
AcDbLine
 10
68.20172535609997
 20
165.2822015902
 30
0.0
 11
68.94646512339997
 21
165.4817540111
 31
0.0
  0
LINE
  5
1DF
330
2
100
AcDbEntity
  8
0
 62
     3
100
AcDbLine
 10
70.01012255779997
 20
161.9319170455
 30
0.0
 11
67.83698433639997
 21
163.7859525172999
 31
0.0
  0
ARC
  5
1E0
330
2
100
AcDbEntity
  8
0
 62
     3
100
AcDbCircle
 10
68.25348908139996
 20
165.089005504
 30
0.0
 40
0.1999999881
100
AcDbArc
 50
105.0000063369999
 51
216.2362485938
  0
LINE
  5
1E1
330
2
100
AcDbEntity
  8
0
 62
     3
100
AcDbLine
 10
72.2247282148
 20
157.4804087021998
 30
0.0
 11
70.01013952939999
 21
161.9319102093
 31
0.0
  0
ARC
  5
1E2
330
2
100
AcDbEntity
  8
0
 62
     3
100
AcDbCircle
 10
70.10863739679996
 20
166.4485636093999
 30
0.0
 40
1.799999237099997
100
AcDbArc
 50
277.1807871057998
 51
337.8192441232
  0
LINE
  5
1E3
330
2
100
AcDbEntity
  8
0
 62
     3
100
AcDbLine
 10
70.54732536989999
 20
162.1991561446998
 30
0.0
 11
70.01013952939999
 21
161.9319102093
 31
0.0
  0
LINE
  5
1E4
330
2
100
AcDbEntity
  8
0
 62
     3
100
AcDbLine
 10
70.10863739679996
 20
164.8611002305
 30
0.0
 11
70.10863739679996
 21
164.9404154161
 31
0.0
  0
ARC
  5
1E5
330
2
100
AcDbEntity
  8
0
 62
     3
100
AcDbCircle
 10
70.30863434509999
 20
164.8611002305
 30
0.0
 40
0.1999999881
100
AcDbArc
 50
179.9999640277999
 51
277.1807151615
  0
LINE
  5
1E6
330
2
100
AcDbEntity
  8
0
 62
     3
100
AcDbLine
 10
71.54341933929998
 20
166.8330258484
 30
0.0
 11
71.64200756199997
 21
166.8594424833
 31
0.0
  0
LINE
  5
1E7
330
2
100
AcDbEntity
  8
0
 62
     3
100
AcDbLine
 10
71.56121206529997
 20
166.0593598594999
 30
0.0
 11
71.6419957473
 21
166.037713937
 31
0.0
  0
ARC
  5
1E8
330
2
100
AcDbEntity
  8
0
 62
     3
100
AcDbCircle
 10
71.59023529719998
 20
165.8445291855999
 30
0.0
 40
0.1999999881
100
AcDbArc
 50
337.8192441232
 51
74.99995769080006
  0
LINE
  5
1E9
330
2
100
AcDbEntity
  8
0
 62
     3
100
AcDbLine
 10
68.20171354139997
 20
167.6149548300999
 30
0.0
 11
68.9712882849
 21
167.4087478973
 31
0.0
  0
ARC
  5
1EA
330
2
100
AcDbEntity
  8
0
 62
     3
100
AcDbCircle
 10
68.25348908139996
 20
167.8081217149
 30
0.0
 40
0.1999999881
100
AcDbArc
 50
143.7637341033999
 51
254.9999763602
  0
ARC
  5
1EB
330
2
100
AcDbEntity
  8
0
 62
     3
100
AcDbCircle
 10
70.10863739679996
 20
166.4485636093999
 30
0.0
 40
1.799999237099997
100
AcDbArc
 50
22.1807524617
 51
82.81921289420003
  0
LINE
  5
1EC
330
2
100
AcDbEntity
  8
0
 62
     3
100
AcDbLine
 10
70.10863739679996
 20
167.9590006211
 30
0.0
 11
70.10863739679996
 21
168.0360269882999
 31
0.0
  0
ARC
  5
1ED
330
2
100
AcDbEntity
  8
0
 62
     3
100
AcDbCircle
 10
70.30863434509999
 20
168.0360269882999
 30
0.0
 40
0.1999999881
100
AcDbArc
 50
82.81921289420003
 51
179.9999640277999
  0
LINE
  5
1EE
330
2
100
AcDbEntity
  8
0
  6
CENTER
 62
     3
100
AcDbLine
 10
77.90342194269995
 20
173.8069689159999
 30
0.0
 11
77.90342194269995
 21
145.6555490831
 31
0.0
  0
LINE
  5
1EF
330
2
100
AcDbEntity
  8
0
 62
     3
100
AcDbLine
 10
79.9034372015
 20
153.8804025987
 30
0.0
 11
86.95345551209999
 21
153.8804025987
 31
0.0
  0
LINE
  5
1F0
330
2
100
AcDbEntity
  8
0
 62
     3
100
AcDbLine
 10
75.90343720149999
 20
154.280411754
 30
0.0
 11
79.9034372015
 21
154.280411754
 31
0.0
  0
LINE
  5
1F1
330
2
100
AcDbEntity
  8
0
 62
     3
100
AcDbLine
 10
75.90343720149999
 20
154.280411754
 30
0.0
 11
75.90343720149999
 21
153.8804025987
 31
0.0
  0
LINE
  5
1F2
330
2
100
AcDbEntity
  8
0
 62
     3
100
AcDbLine
 10
79.9034372015
 20
154.280411754
 30
0.0
 11
79.9034372015
 21
153.8804025987
 31
0.0
  0
LINE
  5
1F3
330
2
100
AcDbEntity
  8
0
 62
     3
100
AcDbLine
 10
76.91576723939997
 20
157.4804087021998
 30
0.0
 11
73.7704950591
 21
163.8026589434
 31
0.0
  0
LINE
  5
1F4
330
2
100
AcDbEntity
  8
0
 62
     3
100
AcDbLine
 10
76.24561150329999
 20
157.4804087021998
 30
0.0
 11
73.23329555709998
 21
163.5354062114998
 31
0.0
  0
LINE
  5
1F5
330
2
100
AcDbEntity
  8
0
 62
     3
100
AcDbLine
 10
73.7704950591
 20
163.8026589434
 30
0.0
 11
73.23329555709998
 21
163.5354062114998
 31
0.0
  0
LINE
  5
1F6
330
2
100
AcDbEntity
  8
0
 62
     3
100
AcDbLine
 10
73.7704912415
 20
163.8026524688999
 30
0.0
 11
73.60259165849999
 21
166.654296557
 31
0.0
  0
LINE
  5
1F7
330
2
100
AcDbEntity
  8
0
 62
     3
100
AcDbLine
 10
85.40345246029998
 20
157.4804087021998
 30
0.0
 11
85.40345246029998
 21
154.280411754
 31
0.0
  0
LINE
  5
1F8
330
2
100
AcDbEntity
  8
0
 62
     3
100
AcDbLine
 10
85.13187653259995
 20
154.280411754
 30
0.0
 11
85.13187653259995
 21
153.8804025987
 31
0.0
  0
LINE
  5
1F9
330
2
100
AcDbEntity
  8
0
 62
     3
100
AcDbLine
 10
86.95345551209999
 20
154.280411754
 30
0.0
 11
86.95345551209999
 21
153.8804025987
 31
0.0
  0
LINE
  5
1FA
330
2
100
AcDbEntity
  8
0
 62
     3
100
AcDbLine
 10
72.60866791439998
 20
198.4803466797
 30
0.0
 11
67.60866791439998
 21
198.4803466797
 31
0.0
  0
LINE
  5
1FB
330
2
100
AcDbEntity
  8
0
 62
     3
100
AcDbLine
 10
72.60866791439998
 20
198.8803405761999
 30
0.0
 11
67.60866791439998
 21
198.8803405761999
 31
0.0
  0
LINE
  5
1FC
330
2
100
AcDbEntity
  8
0
 62
     3
100
AcDbLine
 10
66.60866791439997
 20
223.9303436279
 30
0.0
 11
82.67653900819999
 21
223.9303436279
 31
0.0
  0
LINE
  5
1FD
330
2
100
AcDbEntity
  8
0
 62
     3
100
AcDbLine
 10
66.60866791439997
 20
217.9303436279
 30
0.0
 11
82.67653900819999
 21
217.9303436279
 31
0.0
  0
LINE
  5
1FE
330
2
100
AcDbEntity
  8
0
 62
     3
100
AcDbLine
 10
66.60866791439997
 20
204.9303436279
 30
0.0
 11
82.67653900819999
 21
204.9303436279
 31
0.0
  0
LINE
  5
1FF
330
2
100
AcDbEntity
  8
0
 62
     3
100
AcDbLine
 10
83.60344940859999
 20
224.1303405761999
 30
0.0
 11
66.7086587592
 21
224.1303405761999
 31
0.0
  0
LINE
  5
200
330
2
100
AcDbEntity
  8
0
 62
     3
100
AcDbLine
 10
83.60344940859999
 20
205.1303405761999
 30
0.0
 11
66.7086587592
 21
205.1303405761999
 31
0.0
  0
LINE
  5
201
330
2
100
AcDbEntity
  8
0
 62
     3
100
AcDbLine
 10
83.60344940859999
 20
217.7303466796999
 30
0.0
 11
66.7086587592
 21
217.7303466796999
 31
0.0
  0
LINE
  5
202
330
2
100
AcDbEntity
  8
0
 62
     3
100
AcDbLine
 10
82.67653900819999
 20
198.9303436279
 30
0.0
 11
66.60866791439997
 21
198.9303436279
 31
0.0
  0
ARC
  5
203
330
2
100
AcDbEntity
  8
0
 62
     3
100
AcDbCircle
 10
77.90345246029997
 20
220.9303436279
 30
0.0
 40
7.5
100
AcDbArc
 50
234.1283015973
 51
125.8716984026999
  0
ARC
  5
204
330
2
100
AcDbEntity
  8
0
 62
     3
100
AcDbCircle
 10
77.90345246029997
 20
201.9303436279
 30
0.0
 40
7.5
100
AcDbArc
 50
212.9331317724999
 51
125.8716984026999
  0
LINE
  5
205
330
2
100
AcDbEntity
  8
0
 62
     3
100
AcDbLine
 10
66.7086587592
 20
217.7303466796999
 30
0.0
 11
66.7086587592
 21
205.1303405761999
 31
0.0
  0
LINE
  5
206
330
2
100
AcDbEntity
  8
0
 62
     3
100
AcDbLine
 10
66.60866791439997
 20
204.9303436279
 30
0.0
 11
66.60866791439997
 21
198.9303436279
 31
0.0
  0
LINE
  5
207
330
2
100
AcDbEntity
  8
0
 62
     3
100
AcDbLine
 10
68.70864517179999
 20
197.4303572216
 30
0.0
 11
68.60864722359997
 21
197.5303551783
 31
0.0
  0
LINE
  5
208
330
2
100
AcDbEntity
  8
0
 62
     3
100
AcDbLine
 10
71.60866791439997
 20
198.4303436279
 30
0.0
 11
68.60866791439997
 21
198.4303436279
 31
0.0
  0
LINE
  5
209
330
2
100
AcDbEntity
  8
0
 62
     3
100
AcDbLine
 10
71.60866791439997
 20
197.5303497313999
 30
0.0
 11
68.60866791439997
 21
197.5303497313999
 31
0.0
  0
LINE
  5
20A
330
2
100
AcDbEntity
  8
0
 62
     3
100
AcDbLine
 10
68.60866791439997
 20
198.4303436279
 30
0.0
 11
68.60866791439997
 21
197.5303497313999
 31
0.0
  0
LINE
  5
20B
330
2
100
AcDbEntity
  8
0
 62
     3
100
AcDbLine
 10
67.60866791439998
 20
198.8803405761999
 30
0.0
 11
67.60866791439998
 21
198.4803466797
 31
0.0
  0
LINE
  5
20C
330
2
100
AcDbEntity
  8
0
 62
     3
100
AcDbLine
 10
68.85344940859997
 20
192.4303436279
 30
0.0
 11
68.85344940859997
 21
197.4303436279
 31
0.0
  0
LINE
  5
20D
330
2
100
AcDbEntity
  8
0
 62
     3
100
AcDbLine
 10
71.50866181089998
 20
197.4303436279
 30
0.0
 11
68.7086587592
 21
197.4303436279
 31
0.0
  0
LINE
  5
20E
330
2
100
AcDbEntity
  8
0
 62
     3
100
AcDbLine
 10
69.10866791439997
 20
198.9329071044998
 30
0.0
 11
69.10866791439997
 21
198.8803405761999
 31
0.0
  0
LINE
  5
20F
330
2
100
AcDbEntity
  8
0
 62
     3
100
AcDbLine
 10
68.85344940859997
 20
198.4303436279
 30
0.0
 11
68.85344940859997
 21
198.4803466797
 31
0.0
  0
LINE
  5
210
330
2
100
AcDbEntity
  8
0
 62
     3
100
AcDbLine
 10
69.10866791439997
 20
198.4803466797
 30
0.0
 11
69.10866791439997
 21
198.4352722167997
 31
0.0
  0
LINE
  5
211
330
2
100
AcDbEntity
  8
0
 62
     3
100
AcDbLine
 10
68.85344940859997
 20
198.8803405761999
 30
0.0
 11
68.85344940859997
 21
198.9303436279
 31
0.0
  0
LINE
  5
212
330
2
100
AcDbEntity
  8
0
 62
     3
100
AcDbLine
 10
72.05341921449996
 20
198.8803489704
 30
0.0
 11
72.00342024039997
 21
198.9303479488
 31
0.0
  0
LINE
  5
213
330
2
100
AcDbEntity
  8
0
 62
     3
100
AcDbLine
 10
71.60866791439997
 20
198.4303436279
 30
0.0
 11
71.60866791439997
 21
197.5303497313999
 31
0.0
  0
LINE
  5
214
330
2
100
AcDbEntity
  8
0
 62
     3
100
AcDbLine
 10
71.60865053479999
 20
197.5303550518999
 30
0.0
 11
71.50864178849997
 21
197.430346314
 31
0.0
  0
LINE
  5
215
330
2
100
AcDbEntity
  8
0
 62
     3
100
AcDbLine
 10
71.10866791439997
 20
198.4803466797
 30
0.0
 11
71.10866791439997
 21
198.4258880615
 31
0.0
  0
LINE
  5
216
330
2
100
AcDbEntity
  8
0
 62
     3
100
AcDbLine
 10
71.10866791439997
 20
198.9329071044998
 30
0.0
 11
71.10866791439997
 21
198.8803405761999
 31
0.0
  0
LINE
  5
217
330
2
100
AcDbEntity
  8
0
 62
     3
100
AcDbLine
 10
68.60866791439997
 20
205.1303405761999
 30
0.0
 11
68.60866791439997
 21
204.9303436279
 31
0.0
  0
LINE
  5
218
330
2
100
AcDbEntity
  8
0
 62
     3
100
AcDbLine
 10
71.60866791439997
 20
205.1303405761999
 30
0.0
 11
71.60866791439997
 21
204.9303436279
 31
0.0
  0
LINE
  5
219
330
2
100
AcDbEntity
  8
0
 62
     3
100
AcDbLine
 10
72.20344176799997
 20
205.130360304
 30
0.0
 11
72.00344587149999
 21
204.9303643906998
 31
0.0
  0
LINE
  5
21A
330
2
100
AcDbEntity
  8
0
 62
     3
100
AcDbLine
 10
66.60866791439997
 20
223.9303436279
 30
0.0
 11
66.60866791439997
 21
217.9303436279
 31
0.0
  0
LINE
  5
21B
330
2
100
AcDbEntity
  8
0
 62
     3
100
AcDbLine
 10
68.60866791439997
 20
217.9303436279
 30
0.0
 11
68.60866791439997
 21
217.7303466796999
 31
0.0
  0
LINE
  5
21C
330
2
100
AcDbEntity
  8
0
 62
     3
100
AcDbLine
 10
68.60866791439997
 20
224.1303405761999
 30
0.0
 11
68.60866791439997
 21
223.9303436279
 31
0.0
  0
LINE
  5
21D
330
2
100
AcDbEntity
  8
0
 62
     3
100
AcDbLine
 10
72.20348167519998
 20
217.7303082688998
 30
0.0
 11
72.00357209549998
 21
217.9302178654
 31
0.0
  0
LINE
  5
21E
330
2
100
AcDbEntity
  8
0
 62
     3
100
AcDbLine
 10
71.60866791439997
 20
217.9303436279
 30
0.0
 11
71.60866791439997
 21
217.7303466796999
 31
0.0
  0
LINE
  5
21F
330
2
100
AcDbEntity
  8
0
 62
     3
100
AcDbLine
 10
72.20354886319999
 20
224.1302517999
 30
0.0
 11
72.0035529667
 21
223.9302558866
 31
0.0
  0
LINE
  5
220
330
2
100
AcDbEntity
  8
0
 62
     3
100
AcDbLine
 10
71.60866791439997
 20
224.1303405761999
 30
0.0
 11
71.60866791439997
 21
223.9303436279
 31
0.0
  0
LINE
  5
221
330
2
100
AcDbEntity
  8
0
 62
     3
100
AcDbLine
 10
79.90345246029997
 20
213.7019348145
 30
0.0
 11
79.90345246029997
 21
209.1587524413998
 31
0.0
  0
LINE
  5
222
330
2
100
AcDbEntity
  8
0
 62
     3
100
AcDbLine
 10
75.90345246029997
 20
213.7019348145
 30
0.0
 11
75.90345246029997
 21
209.1587524413998
 31
0.0
  0
LINE
  5
223
330
2
100
AcDbEntity
  8
0
 62
     3
100
AcDbLine
 10
86.95345551209999
 20
218.9303436279
 30
0.0
 11
86.95345551209999
 21
203.9303436279
 31
0.0
  0
LINE
  5
224
330
2
100
AcDbEntity
  8
0
 62
     3
100
AcDbLine
 10
73.50866181089998
 20
217.7303466796999
 30
0.0
 11
73.50866181089998
 21
205.1303405761999
 31
0.0
  0
LINE
  5
225
330
2
100
AcDbEntity
  8
0
 62
     3
100
AcDbLine
 10
72.60866791439998
 20
198.7303466797
 30
0.0
 11
83.60344940859999
 21
198.7303466797
 31
0.0
  0
LINE
  5
226
330
2
100
AcDbEntity
  8
0
 62
     3
100
AcDbLine
 10
77.28017670349998
 20
204.3303375244
 30
0.0
 11
77.28017670349998
 21
199.5303497313999
 31
0.0
  0
LINE
  5
227
330
2
100
AcDbEntity
  8
0
 62
     3
100
AcDbLine
 10
78.28783661559999
 20
204.4303436279
 30
0.0
 11
78.28783661559999
 21
199.4303436279
 31
0.0
  0
LINE
  5
228
330
2
100
AcDbEntity
  8
0
 62
     3
100
AcDbLine
 10
73.77050263119997
 20
204.9303436279
 30
0.0
 11
73.77050263119997
 21
198.9303436279
 31
0.0
  0
LINE
  5
229
330
2
100
AcDbEntity
  8
0
 62
     3
100
AcDbLine
 10
73.77050263119997
 20
199.5303497313999
 30
0.0
 11
77.28017670349998
 21
199.5303497313999
 31
0.0
  0
LINE
  5
22A
330
2
100
AcDbEntity
  8
0
 62
     3
100
AcDbLine
 10
75.90345246029997
 20
192.4303436279
 30
0.0
 11
75.90345246029997
 21
194.7019348145
 31
0.0
  0
LINE
  5
22B
330
2
100
AcDbEntity
  8
0
 62
     3
100
AcDbLine
 10
73.13034981939998
 20
198.9303651911999
 30
0.0
 11
73.23859319369998
 21
198.7303605333999
 31
0.0
  0
LINE
  5
22C
330
2
100
AcDbEntity
  8
0
 62
     3
100
AcDbLine
 10
72.60866791439998
 20
198.8803405761999
 30
0.0
 11
72.60866791439998
 21
198.4803466797
 31
0.0
  0
LINE
  5
22D
330
2
100
AcDbEntity
  8
0
 62
     3
100
AcDbLine
 10
79.90345246029997
 20
192.4303436279
 30
0.0
 11
79.90345246029997
 21
194.7019348145
 31
0.0
  0
LINE
  5
22E
330
2
100
AcDbEntity
  8
0
 62
     3
100
AcDbLine
 10
76.65878282849995
 20
198.9303402502
 30
0.0
 11
77.2801537524
 21
199.5303368989
 31
0.0
  0
LINE
  5
22F
330
2
100
AcDbEntity
  8
0
 62
     3
100
AcDbLine
 10
73.77050263119997
 20
204.3303375244
 30
0.0
 11
77.28017670349998
 21
204.3303375244
 31
0.0
  0
LINE
  5
230
330
2
100
AcDbEntity
  8
0
 62
     3
100
AcDbLine
 10
73.13035546809998
 20
204.930350945
 30
0.0
 11
73.23859884249998
 21
205.1303556029
 31
0.0
  0
LINE
  5
231
330
2
100
AcDbEntity
  8
0
 62
     3
100
AcDbLine
 10
76.65879530739998
 20
204.9303587109
 30
0.0
 11
77.28016623129997
 21
204.3303620622
 31
0.0
  0
LINE
  5
232
330
2
100
AcDbEntity
  8
0
 62
     3
100
AcDbLine
 10
82.02804047299997
 20
204.4303436279
 30
0.0
 11
82.02804047299997
 21
199.4303436279
 31
0.0
  0
LINE
  5
233
330
2
100
AcDbEntity
  8
0
 62
     3
100
AcDbLine
 10
82.94713837339998
 20
204.4303436279
 30
0.0
 11
82.94713837339998
 21
199.4303436279
 31
0.0
  0
LINE
  5
234
330
2
100
AcDbEntity
  8
0
 62
     3
100
AcDbLine
 10
84.30344635679999
 20
199.4303436279
 30
0.0
 11
84.30344635679999
 21
204.4303436279
 31
0.0
  0
LINE
  5
235
330
2
100
AcDbEntity
  8
0
 62
     3
100
AcDbLine
 10
82.94713837339998
 20
199.4303436279
 30
0.0
 11
84.30344635679999
 21
199.4303436279
 31
0.0
  0
LINE
  5
236
330
2
100
AcDbEntity
  8
0
 62
     3
100
AcDbLine
 10
83.60343519909999
 20
198.7303515626997
 30
0.0
 11
84.30344241589997
 21
199.4303588386
 31
0.0
  0
LINE
  5
237
330
2
100
AcDbEntity
  8
0
 62
     3
100
AcDbLine
 10
81.85793549249998
 20
199.9803466797
 30
0.0
 11
81.65792328549997
 21
199.9803466797
 31
0.0
  0
LINE
  5
238
330
2
100
AcDbEntity
  8
0
 62
     3
100
AcDbLine
 10
80.65792328549997
 20
199.9803466797
 30
0.0
 11
80.45794159609997
 21
199.9803466797
 31
0.0
  0
CIRCLE
  5
239
330
2
100
AcDbEntity
  8
0
 62
     3
100
AcDbCircle
 10
81.15792328549998
 20
199.9803466797
 30
0.0
 40
0.5
  0
CIRCLE
  5
23A
330
2
100
AcDbEntity
  8
0
 62
     3
100
AcDbCircle
 10
81.15792328549998
 20
199.9803466797
 30
0.0
 40
0.6999999881
  0
LINE
  5
23B
330
2
100
AcDbEntity
  8
0
 62
     3
100
AcDbLine
 10
82.56829334739999
 20
198.7303593757
 30
0.0
 11
82.94713063219999
 21
199.4303487916999
 31
0.0
  0
LINE
  5
23C
330
2
100
AcDbEntity
  8
0
 62
     3
100
AcDbLine
 10
86.95345551209999
 20
192.4303436279
 30
0.0
 11
86.95345551209999
 21
199.9303436279
 31
0.0
  0
LINE
  5
23D
330
2
100
AcDbEntity
  8
0
 62
     3
100
AcDbLine
 10
85.13186127379999
 20
199.9303436279
 30
0.0
 11
86.95345551209999
 21
199.9303436279
 31
0.0
  0
LINE
  5
23E
330
2
100
AcDbEntity
  8
0
 62
     3
100
AcDbLine
 10
83.60342035749999
 20
205.1303499872
 30
0.0
 11
84.3034275744
 21
204.4303427112998
 31
0.0
  0
LINE
  5
23F
330
2
100
AcDbEntity
  8
0
 62
     3
100
AcDbLine
 10
82.94713837339998
 20
204.4303436279
 30
0.0
 11
84.30344635679999
 21
204.4303436279
 31
0.0
  0
LINE
  5
240
330
2
100
AcDbEntity
  8
0
 62
     3
100
AcDbLine
 10
82.56831167989998
 20
205.1303369748
 30
0.0
 11
82.94714896469995
 21
204.4303475588999
 31
0.0
  0
LINE
  5
241
330
2
100
AcDbEntity
  8
0
 62
     3
100
AcDbLine
 10
85.13186127379999
 20
203.9303436279
 30
0.0
 11
86.95345551209999
 21
203.9303436279
 31
0.0
  0
LINE
  5
242
330
2
100
AcDbEntity
  8
0
 62
     3
100
AcDbLine
 10
73.77050263119997
 20
223.3303375244
 30
0.0
 11
77.28017670349998
 21
223.3303375244
 31
0.0
  0
LINE
  5
243
330
2
100
AcDbEntity
  8
0
 62
     3
100
AcDbLine
 10
73.77050263119997
 20
218.5303497313999
 30
0.0
 11
77.28017670349998
 21
218.5303497313999
 31
0.0
  0
LINE
  5
244
330
2
100
AcDbEntity
  8
0
 62
     3
100
AcDbLine
 10
73.77050263119997
 20
223.9303436279
 30
0.0
 11
73.77050263119997
 21
217.9303436279
 31
0.0
  0
LINE
  5
245
330
2
100
AcDbEntity
  8
0
 62
     3
100
AcDbLine
 10
73.13036734829998
 20
217.9303356262999
 30
0.0
 11
73.23866882429995
 21
217.7302236122
 31
0.0
  0
LINE
  5
246
330
2
100
AcDbEntity
  8
0
 62
     3
100
AcDbLine
 10
73.13034827109999
 20
223.9303504886998
 30
0.0
 11
73.23859164539998
 21
224.1303551466
 31
0.0
  0
LINE
  5
247
330
2
100
AcDbEntity
  8
0
 62
     3
100
AcDbLine
 10
77.28017670349998
 20
223.3303375244
 30
0.0
 11
77.28017670349998
 21
218.5303497313999
 31
0.0
  0
LINE
  5
248
330
2
100
AcDbEntity
  8
0
 62
     3
100
AcDbLine
 10
78.28783661559999
 20
223.4303436279
 30
0.0
 11
78.28783661559999
 21
218.4303436279
 31
0.0
  0
LINE
  5
249
330
2
100
AcDbEntity
  8
0
 62
     3
100
AcDbLine
 10
76.65877761179996
 20
217.9303456633999
 30
0.0
 11
77.28014853559996
 21
218.5303423121
 31
0.0
  0
LINE
  5
24A
330
2
100
AcDbEntity
  8
0
 62
     3
100
AcDbLine
 10
76.65881225609999
 20
223.9303103731
 30
0.0
 11
77.28015024979999
 21
223.3303455219
 31
0.0
  0
LINE
  5
24B
330
2
100
AcDbEntity
  8
0
 62
     3
100
AcDbLine
 10
75.90345246029997
 20
232.7019348145
 30
0.0
 11
75.90345246029997
 21
228.1587524413999
 31
0.0
  0
LINE
  5
24C
330
2
100
AcDbEntity
  8
0
 62
     3
100
AcDbLine
 10
79.90345246029997
 20
232.7019348145
 30
0.0
 11
79.90345246029997
 21
228.1587524413999
 31
0.0
  0
LINE
  5
24D
330
2
100
AcDbEntity
  8
0
 62
     3
100
AcDbLine
 10
83.60342115829999
 20
224.130349379
 30
0.0
 11
84.30342837519999
 21
223.4303421030999
 31
0.0
  0
LINE
  5
24E
330
2
100
AcDbEntity
  8
0
 62
     3
100
AcDbLine
 10
82.94713837339998
 20
223.4303436279
 30
0.0
 11
84.30344635679999
 21
223.4303436279
 31
0.0
  0
LINE
  5
24F
330
2
100
AcDbEntity
  8
0
 62
     3
100
AcDbLine
 10
82.94713837339998
 20
218.4303436279
 30
0.0
 11
84.30344635679999
 21
218.4303436279
 31
0.0
  0
LINE
  5
250
330
2
100
AcDbEntity
  8
0
 62
     3
100
AcDbLine
 10
83.6034343983
 20
217.7303509545
 30
0.0
 11
84.30344161519997
 21
218.4303582304
 31
0.0
  0
LINE
  5
251
330
2
100
AcDbEntity
  8
0
 62
     3
100
AcDbLine
 10
82.02804047299997
 20
223.4303436279
 30
0.0
 11
82.02804047299997
 21
218.4303436279
 31
0.0
  0
LINE
  5
252
330
2
100
AcDbEntity
  8
0
 62
     3
100
AcDbLine
 10
82.94713837339998
 20
223.4303436279
 30
0.0
 11
82.94713837339998
 21
218.4303436279
 31
0.0
  0
CIRCLE
  5
253
330
2
100
AcDbEntity
  8
0
 62
     3
100
AcDbCircle
 10
81.15792328549998
 20
218.9803466797
 30
0.0
 40
0.5
  0
CIRCLE
  5
254
330
2
100
AcDbEntity
  8
0
 62
     3
100
AcDbCircle
 10
81.15792328549998
 20
218.9803466797
 30
0.0
 40
0.6999999881
  0
LINE
  5
255
330
2
100
AcDbEntity
  8
0
 62
     3
100
AcDbLine
 10
82.56830737159999
 20
217.7303640802999
 30
0.0
 11
82.94714465639998
 21
218.4303534961999
 31
0.0
  0
LINE
  5
256
330
2
100
AcDbEntity
  8
0
 62
     3
100
AcDbLine
 10
81.85793549249998
 20
218.9803466797
 30
0.0
 11
81.65792328549997
 21
218.9803466797
 31
0.0
  0
LINE
  5
257
330
2
100
AcDbEntity
  8
0
 62
     3
100
AcDbLine
 10
80.65792328549997
 20
218.9803466797
 30
0.0
 11
80.45794159609997
 21
218.9803466797
 31
0.0
  0
LINE
  5
258
330
2
100
AcDbEntity
  8
0
 62
     3
100
AcDbLine
 10
82.56833480799997
 20
224.1302750356
 30
0.0
 11
82.94715756739998
 21
223.4303124586999
 31
0.0
  0
LINE
  5
259
330
2
100
AcDbEntity
  8
0
 62
     3
100
AcDbLine
 10
84.30344635679999
 20
218.4303436279
 30
0.0
 11
84.30344635679999
 21
223.4303436279
 31
0.0
  0
LINE
  5
25A
330
2
100
AcDbEntity
  8
0
 62
     3
100
AcDbLine
 10
85.13186127379999
 20
218.9303436279
 30
0.0
 11
86.95345551209999
 21
218.9303436279
 31
0.0
  0
LINE
  5
25B
330
2
100
AcDbEntity
  8
0
 62
     3
100
AcDbLine
 10
85.13186127379999
 20
222.9303436279
 30
0.0
 11
86.95345551209999
 21
222.9303436279
 31
0.0
  0
LINE
  5
25C
330
2
100
AcDbEntity
  8
0
 62
     3
100
AcDbLine
 10
54.30344635679997
 20
239.9303436279
 30
0.0
 11
66.60866791439997
 21
239.9303436279
 31
0.0
  0
CIRCLE
  5
25D
330
2
100
AcDbEntity
  8
0
 62
     3
100
AcDbCircle
 10
51.30344635679996
 20
239.9303436279
 30
0.0
 40
1.5
  0
LINE
  5
25E
330
2
100
AcDbEntity
  8
0
  6
CENTER
 62
     3
100
AcDbLine
 10
53.30344635679996
 20
239.9303436279
 30
0.0
 11
49.30344635679997
 21
239.9303436279
 31
0.0
  0
LINE
  5
25F
330
2
100
AcDbEntity
  8
0
 62
     3
100
AcDbLine
 10
48.70345551209999
 20
244.0303497313999
 30
0.0
 11
53.90346771909998
 21
244.0303497313999
 31
0.0
  0
LINE
  5
260
330
2
100
AcDbEntity
  8
0
 62
     3
100
AcDbLine
 10
53.80344635679996
 20
243.9303436279
 30
0.0
 11
48.80344635679996
 21
243.9303436279
 31
0.0
  0
LINE
  5
261
330
2
100
AcDbEntity
  8
0
 62
     3
100
AcDbLine
 10
48.70345551209999
 20
249.4507293700999
 30
0.0
 11
48.70345551209999
 21
242.9303436279
 31
0.0
  0
LINE
  5
262
330
2
100
AcDbEntity
  8
0
 62
     3
100
AcDbLine
 10
48.30344635679996
 20
242.9303436279
 30
0.0
 11
48.30344635679996
 21
236.9303436279
 31
0.0
  0
LINE
  5
263
330
2
100
AcDbEntity
  8
0
 62
     3
100
AcDbLine
 10
48.20345551209999
 20
236.8303375243999
 30
0.0
 11
48.20345551209999
 21
243.0303497313999
 31
0.0
  0
LINE
  5
264
330
2
100
AcDbEntity
  8
0
 62
     3
100
AcDbLine
 10
47.10344940859997
 20
239.9303436279
 30
0.0
 11
48.30344635679996
 21
239.9303436279
 31
0.0
  0
LINE
  5
265
330
2
100
AcDbEntity
  8
0
 62
     3
100
AcDbLine
 10
48.80344635679996
 20
236.9303436279
 30
0.0
 11
48.30344635679996
 21
236.9303436279
 31
0.0
  0
LINE
  5
266
330
2
100
AcDbEntity
  8
0
 62
     3
100
AcDbLine
 10
48.20345551209999
 20
236.8303375243999
 30
0.0
 11
48.70345551209999
 21
236.8303375243999
 31
0.0
  0
LINE
  5
267
330
2
100
AcDbEntity
  8
0
 62
     3
100
AcDbLine
 10
48.80344635679996
 20
243.9303436279
 30
0.0
 11
48.80344635679996
 21
242.9303436279
 31
0.0
  0
LINE
  5
268
330
2
100
AcDbEntity
  8
0
 62
     3
100
AcDbLine
 10
48.20345551209999
 20
243.0303497313999
 30
0.0
 11
48.70345551209999
 21
243.0303497313999
 31
0.0
  0
LINE
  5
269
330
2
100
AcDbEntity
  8
0
 62
     3
100
AcDbLine
 10
48.80344635679996
 20
242.9303436279
 30
0.0
 11
48.30344635679996
 21
242.9303436279
 31
0.0
  0
ARC
  5
26A
330
2
100
AcDbEntity
  8
0
 62
     3
100
AcDbCircle
 10
47.30344635679997
 20
249.2303466797
 30
0.0
 40
0.1999999881
100
AcDbArc
 50
89.99998201389999
 51
179.9999640277999
  0
LINE
  5
26B
330
2
100
AcDbEntity
  8
0
 62
     3
100
AcDbLine
 10
53.90346771909998
 20
249.4507293700999
 30
0.0
 11
53.90346771909998
 21
242.9303436279
 31
0.0
  0
CIRCLE
  5
26C
330
2
100
AcDbEntity
  8
0
 62
     3
100
AcDbCircle
 10
51.30344635679996
 20
239.9303436279
 30
0.0
 40
1.229499816899999
  0
LINE
  5
26D
330
2
100
AcDbEntity
  8
0
 62
     3
100
AcDbLine
 10
50.15343720149999
 20
240.3652801513999
 30
0.0
 11
50.15343720149999
 21
239.4954071044999
 31
0.0
  0
LINE
  5
26E
330
2
100
AcDbEntity
  8
0
 62
     3
100
AcDbLine
 10
52.45345551209999
 20
240.3652801513999
 30
0.0
 11
52.45345551209999
 21
239.4954071044999
 31
0.0
  0
LINE
  5
26F
330
2
100
AcDbEntity
  8
0
 62
     3
100
AcDbLine
 10
54.30344635679997
 20
242.9303436279
 30
0.0
 11
54.30344635679997
 21
236.9303436279
 31
0.0
  0
LINE
  5
270
330
2
100
AcDbEntity
  8
0
 62
     3
100
AcDbLine
 10
54.40346771909998
 20
236.8303375243999
 30
0.0
 11
54.40346771909998
 21
243.0303497313999
 31
0.0
  0
LINE
  5
271
330
2
100
AcDbEntity
  8
0
 62
     3
100
AcDbLine
 10
54.30344635679997
 20
236.9303436279
 30
0.0
 11
53.80344635679996
 21
236.9303436279
 31
0.0
  0
LINE
  5
272
330
2
100
AcDbEntity
  8
0
 62
     3
100
AcDbLine
 10
53.90346771909998
 20
236.8303375243999
 30
0.0
 11
54.40346771909998
 21
236.8303375243999
 31
0.0
  0
LINE
  5
273
330
2
100
AcDbEntity
  8
0
 62
     3
100
AcDbLine
 10
54.30344635679997
 20
242.9303436279
 30
0.0
 11
53.80344635679996
 21
242.9303436279
 31
0.0
  0
LINE
  5
274
330
2
100
AcDbEntity
  8
0
 62
     3
100
AcDbLine
 10
53.80344635679996
 20
243.9303436279
 30
0.0
 11
53.80344635679996
 21
242.9303436279
 31
0.0
  0
LINE
  5
275
330
2
100
AcDbEntity
  8
0
 62
     3
100
AcDbLine
 10
53.90346771909998
 20
243.0303497313999
 30
0.0
 11
54.40346771909998
 21
243.0303497313999
 31
0.0
  0
LINE
  5
276
330
2
100
AcDbEntity
  8
0
 62
     3
100
AcDbLine
 10
72.60866791439998
 20
242.9803466797
 30
0.0
 11
67.60866791439998
 21
242.9803466797
 31
0.0
  0
LINE
  5
277
330
2
100
AcDbEntity
  8
0
 62
     3
100
AcDbLine
 10
72.60866791439998
 20
243.3803405761999
 30
0.0
 11
67.60866791439998
 21
243.3803405761999
 31
0.0
  0
LINE
  5
278
330
2
100
AcDbEntity
  8
0
 62
     3
100
AcDbLine
 10
83.60344940859999
 20
236.7303466797
 30
0.0
 11
66.7086587592
 21
236.7303466797
 31
0.0
  0
LINE
  5
279
330
2
100
AcDbEntity
  8
0
 62
     3
100
AcDbLine
 10
82.67653900819999
 20
242.9303436279
 30
0.0
 11
66.60866791439997
 21
242.9303436279
 31
0.0
  0
LINE
  5
27A
330
2
100
AcDbEntity
  8
0
 62
     3
100
AcDbLine
 10
66.60866791439997
 20
236.9303436279
 30
0.0
 11
82.67653900819999
 21
236.9303436279
 31
0.0
  0
LINE
  5
27B
330
2
100
AcDbEntity
  8
0
 62
     3
100
AcDbLine
 10
68.85344940859997
 20
249.4303436279
 30
0.0
 11
68.85344940859997
 21
244.4303436279
 31
0.0
  0
LINE
  5
27C
330
2
100
AcDbEntity
  8
0
 62
     3
100
AcDbLine
 10
68.7087770973
 20
244.4302460054999
 30
0.0
 11
68.60875756989996
 21
244.3302264697
 31
0.0
  0
LINE
  5
27D
330
2
100
AcDbEntity
  8
0
 62
     3
100
AcDbLine
 10
71.60866791439997
 20
244.3303527832
 30
0.0
 11
68.60866791439997
 21
244.3303527832
 31
0.0
  0
LINE
  5
27E
330
2
100
AcDbEntity
  8
0
 62
     3
100
AcDbLine
 10
71.60866791439997
 20
243.4303436279
 30
0.0
 11
68.60866791439997
 21
243.4303436279
 31
0.0
  0
LINE
  5
27F
330
2
100
AcDbEntity
  8
0
 62
     3
100
AcDbLine
 10
66.60866791439997
 20
242.9303436279
 30
0.0
 11
66.60866791439997
 21
236.9303436279
 31
0.0
  0
LINE
  5
280
330
2
100
AcDbEntity
  8
0
 62
     3
100
AcDbLine
 10
68.60866791439997
 20
236.9303436279
 30
0.0
 11
68.60866791439997
 21
236.7303466797
 31
0.0
  0
LINE
  5
281
330
2
100
AcDbEntity
  8
0
 62
     3
100
AcDbLine
 10
68.60866791439997
 20
244.3303375244
 30
0.0
 11
68.60866791439997
 21
243.4303436279
 31
0.0
  0
LINE
  5
282
330
2
100
AcDbEntity
  8
0
 62
     3
100
AcDbLine
 10
67.60866791439998
 20
243.3803405761999
 30
0.0
 11
67.60866791439998
 21
242.9803466797
 31
0.0
  0
LINE
  5
283
330
2
100
AcDbEntity
  8
0
 62
     3
100
AcDbLine
 10
71.60866791439997
 20
236.9303436279
 30
0.0
 11
71.60866791439997
 21
236.7303466797
 31
0.0
  0
LINE
  5
284
330
2
100
AcDbEntity
  8
0
 62
     3
100
AcDbLine
 10
72.20346089679998
 20
236.7303292399
 30
0.0
 11
72.00355131709997
 21
236.9302388364
 31
0.0
  0
LINE
  5
285
330
2
100
AcDbEntity
  8
0
 62
     3
100
AcDbLine
 10
71.50866181089998
 20
244.4303436279
 30
0.0
 11
68.7086587592
 21
244.4303436279
 31
0.0
  0
LINE
  5
286
330
2
100
AcDbEntity
  8
0
 62
     3
100
AcDbLine
 10
68.85344940859997
 20
243.4303436279
 30
0.0
 11
68.85344940859997
 21
243.3803405761999
 31
0.0
  0
LINE
  5
287
330
2
100
AcDbEntity
  8
0
 62
     3
100
AcDbLine
 10
69.10866791439997
 20
243.4303436279
 30
0.0
 11
69.10866791439997
 21
243.3803405761999
 31
0.0
  0
LINE
  5
288
330
2
100
AcDbEntity
  8
0
 62
     3
100
AcDbLine
 10
69.10866791439997
 20
242.9803466797
 30
0.0
 11
69.10866791439997
 21
242.9303436279
 31
0.0
  0
LINE
  5
289
330
2
100
AcDbEntity
  8
0
 62
     3
100
AcDbLine
 10
68.85344940859997
 20
242.9803466797
 30
0.0
 11
68.85344940859997
 21
242.9303436279
 31
0.0
  0
LINE
  5
28A
330
2
100
AcDbEntity
  8
0
 62
     3
100
AcDbLine
 10
71.508654559
 20
244.4303442416999
 30
0.0
 11
71.60878198239998
 21
244.3302168099
 31
0.0
  0
LINE
  5
28B
330
2
100
AcDbEntity
  8
0
 62
     3
100
AcDbLine
 10
71.60878246029999
 20
244.3302265960999
 30
0.0
 11
71.50865502849999
 21
244.4303540195
 31
0.0
  0
LINE
  5
28C
330
2
100
AcDbEntity
  8
0
 62
     3
100
AcDbLine
 10
71.60866791439997
 20
244.3303375244
 30
0.0
 11
71.60866791439997
 21
243.4303436279
 31
0.0
  0
LINE
  5
28D
330
2
100
AcDbEntity
  8
0
 62
     3
100
AcDbLine
 10
72.0535295608
 20
242.9802758359
 30
0.0
 11
72.00353058669998
 21
242.9302768576
 31
0.0
  0
LINE
  5
28E
330
2
100
AcDbEntity
  8
0
 62
     3
100
AcDbLine
 10
71.10866791439997
 20
243.4295196533
 30
0.0
 11
71.10866791439997
 21
243.3803405761999
 31
0.0
  0
LINE
  5
28F
330
2
100
AcDbEntity
  8
0
 62
     3
100
AcDbLine
 10
71.10866791439997
 20
242.9803466797
 30
0.0
 11
71.10866791439997
 21
242.9404907227
 31
0.0
  0
ARC
  5
290
330
2
100
AcDbEntity
  8
0
 62
     3
100
AcDbCircle
 10
77.90345246029997
 20
239.9303436279
 30
0.0
 40
7.5
100
AcDbArc
 50
152.1818602931998
 51
152.6128725506
  0
LINE
  5
291
330
2
100
AcDbEntity
  8
0
 62
     3
100
AcDbLine
 10
72.60866791439998
 20
243.1303405761999
 30
0.0
 11
83.60344940859999
 21
243.1303405761999
 31
0.0
  0
LINE
  5
292
330
2
100
AcDbEntity
  8
0
 62
     3
100
AcDbLine
 10
79.90345246029997
 20
249.4303436279
 30
0.0
 11
79.90345246029997
 21
247.1587524414
 31
0.0
  0
LINE
  5
293
330
2
100
AcDbEntity
  8
0
 62
     3
100
AcDbLine
 10
75.90345246029997
 20
249.4303436279
 30
0.0
 11
75.90345246029997
 21
247.1587524414
 31
0.0
  0
LINE
  5
294
330
2
100
AcDbEntity
  8
0
 62
     3
100
AcDbLine
 10
73.77050263119997
 20
242.3303375244
 30
0.0
 11
77.28017670349998
 21
242.3303375244
 31
0.0
  0
LINE
  5
295
330
2
100
AcDbEntity
  8
0
 62
     3
100
AcDbLine
 10
73.77050263119997
 20
237.5303497313999
 30
0.0
 11
77.28017670349998
 21
237.5303497313999
 31
0.0
  0
LINE
  5
296
330
2
100
AcDbEntity
  8
0
 62
     3
100
AcDbLine
 10
73.77050263119997
 20
242.9303436279
 30
0.0
 11
73.77050263119997
 21
236.9303436279
 31
0.0
  0
LINE
  5
297
330
2
100
AcDbEntity
  8
0
 62
     3
100
AcDbLine
 10
73.1303901766
 20
236.9302742292
 30
0.0
 11
73.23857544929999
 21
236.7303769275999
 31
0.0
  0
LINE
  5
298
330
2
100
AcDbEntity
  8
0
 62
     3
100
AcDbLine
 10
73.13034833669998
 20
242.930363452
 30
0.0
 11
73.23859171099996
 21
243.1303681097999
 31
0.0
  0
LINE
  5
299
330
2
100
AcDbEntity
  8
0
 62
     3
100
AcDbLine
 10
72.60866791439998
 20
243.3803405761999
 30
0.0
 11
72.60866791439998
 21
242.9803466797
 31
0.0
  0
LINE
  5
29A
330
2
100
AcDbEntity
  8
0
 62
     3
100
AcDbLine
 10
77.28017670349998
 20
242.3303375244
 30
0.0
 11
77.28017670349998
 21
237.5303497313999
 31
0.0
  0
LINE
  5
29B
330
2
100
AcDbEntity
  8
0
 62
     3
100
AcDbLine
 10
78.28783661559999
 20
242.4303436279
 30
0.0
 11
78.28783661559999
 21
237.4303436279
 31
0.0
  0
LINE
  5
29C
330
2
100
AcDbEntity
  8
0
 62
     3
100
AcDbLine
 10
76.65879397089998
 20
236.9303506989
 30
0.0
 11
77.28016489479998
 21
237.5303473475999
 31
0.0
  0
LINE
  5
29D
330
2
100
AcDbEntity
  8
0
 62
     3
100
AcDbLine
 10
76.65891626349996
 20
242.9302203938999
 30
0.0
 11
77.28028718739999
 21
242.3302237452
 31
0.0
  0
LINE
  5
29E
330
2
100
AcDbEntity
  8
0
 62
     3
100
AcDbLine
 10
86.95345551209999
 20
249.4303436279
 30
0.0
 11
86.95345551209999
 21
241.9303436279
 31
0.0
  0
LINE
  5
29F
330
2
100
AcDbEntity
  8
0
 62
     3
100
AcDbLine
 10
82.94713837339998
 20
242.4303436279
 30
0.0
 11
84.30344635679999
 21
242.4303436279
 31
0.0
  0
LINE
  5
2A0
330
2
100
AcDbEntity
  8
0
 62
     3
100
AcDbLine
 10
83.60352985499998
 20
243.1302408749
 30
0.0
 11
84.3035586511
 21
242.4302120197999
 31
0.0
  0
LINE
  5
2A1
330
2
100
AcDbEntity
  8
0
 62
     3
100
AcDbLine
 10
83.60346596629998
 20
236.7303179774999
 30
0.0
 11
84.30347318309998
 21
237.4303252534
 31
0.0
  0
LINE
  5
2A2
330
2
100
AcDbEntity
  8
0
 62
     3
100
AcDbLine
 10
82.94713837339998
 20
237.4303436279
 30
0.0
 11
84.30344635679999
 21
237.4303436279
 31
0.0
  0
LINE
  5
2A3
330
2
100
AcDbEntity
  8
0
 62
     3
100
AcDbLine
 10
82.94713837339998
 20
237.4303436279
 30
0.0
 11
82.94713837339998
 21
242.4303436279
 31
0.0
  0
LINE
  5
2A4
330
2
100
AcDbEntity
  8
0
 62
     3
100
AcDbLine
 10
82.02804047299997
 20
242.4303436279
 30
0.0
 11
82.02804047299997
 21
237.4303436279
 31
0.0
  0
LINE
  5
2A5
330
2
100
AcDbEntity
  8
0
 62
     3
100
AcDbLine
 10
81.85793549249998
 20
237.9803466797
 30
0.0
 11
81.65792328549997
 21
237.9803466797
 31
0.0
  0
LINE
  5
2A6
330
2
100
AcDbEntity
  8
0
 62
     3
100
AcDbLine
 10
80.65792328549997
 20
237.9803466797
 30
0.0
 11
80.45794159609997
 21
237.9803466797
 31
0.0
  0
CIRCLE
  5
2A7
330
2
100
AcDbEntity
  8
0
 62
     3
100
AcDbCircle
 10
81.15792328549998
 20
237.9803466797
 30
0.0
 40
0.5
  0
CIRCLE
  5
2A8
330
2
100
AcDbEntity
  8
0
 62
     3
100
AcDbCircle
 10
81.15792328549998
 20
237.9803466797
 30
0.0
 40
0.6999999881
  0
LINE
  5
2A9
330
2
100
AcDbEntity
  8
0
 62
     3
100
AcDbLine
 10
82.5683079763
 20
236.7303760475
 30
0.0
 11
82.94714526109999
 21
237.4303654634998
 31
0.0
  0
LINE
  5
2AA
330
2
100
AcDbEntity
  8
0
 62
     3
100
AcDbLine
 10
82.56835625859997
 20
243.1302121886
 30
0.0
 11
82.94717901799998
 21
242.4302496116998
 31
0.0
  0
LINE
  5
2AB
330
2
100
AcDbEntity
  8
0
 62
     3
100
AcDbLine
 10
84.30344635679999
 20
242.4303436279
 30
0.0
 11
84.30344635679999
 21
237.4303436279
 31
0.0
  0
LINE
  5
2AC
330
2
100
AcDbEntity
  8
0
 62
     3
100
AcDbLine
 10
85.13186127379999
 20
237.9303436279
 30
0.0
 11
86.95345551209999
 21
237.9303436279
 31
0.0
  0
LINE
  5
2AD
330
2
100
AcDbEntity
  8
0
 62
     3
100
AcDbLine
 10
85.13186127379999
 20
241.9303436279
 30
0.0
 11
86.95345551209999
 21
241.9303436279
 31
0.0
  0
LINE
  5
2AE
330
2
100
AcDbEntity
  8
0
 62
     3
100
AcDbLine
 10
96.0034585638
 20
236.9303436279
 30
0.0
 11
96.0034585638
 21
235.9303436279
 31
0.0
  0
LINE
  5
2AF
330
2
100
AcDbEntity
  8
0
 62
     3
100
AcDbLine
 10
97.70345551209999
 20
230.6303405761999
 30
0.0
 11
97.70345551209999
 21
249.2303466797
 31
0.0
  0
LINE
  5
2B0
330
2
100
AcDbEntity
  8
0
 62
     3
100
AcDbLine
 10
91.0034585638
 20
236.9303436279
 30
0.0
 11
91.0034585638
 21
235.9303436279
 31
0.0
  0
LINE
  5
2B1
330
2
100
AcDbEntity
  8
0
 62
     3
100
AcDbLine
 10
90.90345246029995
 20
230.4433746338
 30
0.0
 11
90.90345246029995
 21
236.9303436279
 31
0.0
  0
LINE
  5
2B2
330
2
100
AcDbEntity
  8
0
 62
     3
100
AcDbLine
 10
96.10344940860001
 20
236.9303436279
 30
0.0
 11
96.10344940860001
 21
223.9303436279
 31
0.0
  0
LINE
  5
2B3
330
2
100
AcDbEntity
  8
0
  6
CENTER
 62
     3
100
AcDbLine
 10
93.5034585638
 20
244.9303436279
 30
0.0
 11
93.5034585638
 21
196.9303436279
 31
0.0
  0
ARC
  5
2B4
330
2
100
AcDbEntity
  8
0
  6
PHANTOM
 62
     3
100
AcDbCircle
 10
93.5034585638
 20
151.3637247421999
 30
0.0
 40
5.8333330154
100
AcDbArc
 50
74.13285151530002
 51
105.8671125125
  0
CIRCLE
  5
2B5
330
2
100
AcDbEntity
  8
0
 62
     3
100
AcDbCircle
 10
93.5034585638
 20
149.0803995469
 30
0.0
 40
2.024999618499998
  0
LINE
  5
2B6
330
2
100
AcDbEntity
  8
0
  6
CENTER
 62
     3
100
AcDbLine
 10
96.70839935970001
 20
149.0803995469
 30
0.0
 11
89.71578461360001
 21
149.0803995469
 31
0.0
  0
LINE
  5
2B7
330
2
100
AcDbEntity
  8
0
 62
     3
100
AcDbLine
 10
90.90345246029995
 20
154.4804087021999
 30
0.0
 11
96.10344940860001
 21
154.4804087021999
 31
0.0
  0
LINE
  5
2B8
330
2
100
AcDbEntity
  8
0
  6
PHANTOM
 62
     3
100
AcDbLine
 10
91.24376674309996
 20
156.1410437279998
 30
0.0
 11
91.21176431589994
 21
155.5304010429999
 31
0.0
  0
LINE
  5
2B9
330
2
100
AcDbEntity
  8
0
  6
CENTER
 62
     3
100
AcDbLine
 10
93.5034585638
 20
158.1782999376
 30
0.0
 11
93.5034585638
 21
144.8541422227
 31
0.0
  0
LINE
  5
2BA
330
2
100
AcDbEntity
  8
0
 62
     3
100
AcDbLine
 10
90.90345246029995
 20
154.4804087021999
 30
0.0
 11
90.90345246029995
 21
154.280411754
 31
0.0
  0
CIRCLE
  5
2BB
330
2
100
AcDbEntity
  8
0
 62
     3
100
AcDbCircle
 10
93.5034585638
 20
149.0803995469
 30
0.0
 40
1.1999998093
  0
ARC
  5
2BC
330
2
100
AcDbEntity
  8
0
  6
PHANTOM
 62
     3
100
AcDbCircle
 10
92.15918976499999
 20
156.0930643418999
 30
0.0
 40
0.9166666864999999
100
AcDbArc
 50
105.8671125125
 51
176.9999810198
  0
LINE
  5
2BD
330
2
100
AcDbEntity
  8
0
  6
PHANTOM
 62
     3
100
AcDbLine
 10
95.7630812146
 20
156.1410399549999
 30
0.0
 11
95.79508364179998
 21
155.53039727
 31
0.0
  0
ARC
  5
2BE
330
2
100
AcDbEntity
  8
0
 62
     3
100
AcDbCircle
 10
96.70345551209996
 20
153.280411754
 30
0.0
 40
1.0
100
AcDbArc
 50
0.0
 51
89.99998201389999
  0
LINE
  5
2BF
330
2
100
AcDbEntity
  8
0
 62
     3
100
AcDbLine
 10
96.10344940860001
 20
154.4804087021999
 30
0.0
 11
96.10344940860001
 21
154.280411754
 31
0.0
  0
LINE
  5
2C0
330
2
100
AcDbEntity
  8
0
 62
     3
100
AcDbLine
 10
96.10344940860001
 20
154.280411754
 30
0.0
 11
96.70345551209996
 21
154.280411754
 31
0.0
  0
ARC
  5
2C1
330
2
100
AcDbEntity
  8
0
  6
PHANTOM
 62
     3
100
AcDbCircle
 10
94.84769684509995
 20
156.0930643418999
 30
0.0
 40
0.9166666864999999
100
AcDbArc
 50
2.9999992297
 51
74.13285151530002
  0
LINE
  5
2C2
330
2
100
AcDbEntity
  8
0
 62
     3
100
AcDbLine
 10
90.90345246029995
 20
211.4433746338
 30
0.0
 11
90.90345246029995
 21
217.9303436279
 31
0.0
  0
LINE
  5
2C3
330
2
100
AcDbEntity
  8
0
 62
     3
100
AcDbLine
 10
96.10344940860001
 20
217.9303436279
 30
0.0
 11
96.10344940860001
 21
204.9303436279
 31
0.0
  0
LINE
  5
2C4
330
2
100
AcDbEntity
  8
0
 62
     3
100
AcDbLine
 10
97.70345551209999
 20
211.6303405761999
 30
0.0
 11
97.70345551209999
 21
230.2303466796999
 31
0.0
  0
LINE
  5
2C5
330
2
100
AcDbEntity
  8
0
  6
CENTER
 62
     3
100
AcDbLine
 10
95.50345856379999
 20
201.9303436279
 30
0.0
 11
91.50345856379995
 21
201.9303436279
 31
0.0
  0
LINE
  5
2C6
330
2
100
AcDbEntity
  8
0
 62
     3
100
AcDbLine
 10
96.0034585638
 20
197.9303436279
 30
0.0
 11
91.0034585638
 21
197.9303436279
 31
0.0
  0
LINE
  5
2C7
330
2
100
AcDbEntity
  8
0
 62
     3
100
AcDbLine
 10
96.0034585638
 20
205.9303436279
 30
0.0
 11
91.0034585638
 21
205.9303436279
 31
0.0
  0
LINE
  5
2C8
330
2
100
AcDbEntity
  8
0
 62
     3
100
AcDbLine
 10
90.90345246029995
 20
197.8303375243999
 30
0.0
 11
96.10344940860001
 21
197.8303375243999
 31
0.0
  0
LINE
  5
2C9
330
2
100
AcDbEntity
  8
0
 62
     3
100
AcDbLine
 10
90.90345246029995
 20
206.0303497313999
 30
0.0
 11
96.10344940860001
 21
206.0303497313999
 31
0.0
  0
LINE
  5
2CA
330
2
100
AcDbEntity
  8
0
 62
     3
100
AcDbLine
 10
94.65346771909999
 20
202.3652801513999
 30
0.0
 11
94.65346771909999
 21
201.4954071045
 31
0.0
  0
LINE
  5
2CB
330
2
100
AcDbEntity
  8
0
 62
     3
100
AcDbLine
 10
92.35344940860001
 20
202.3652801513999
 30
0.0
 11
92.35344940860001
 21
201.4954071045
 31
0.0
  0
CIRCLE
  5
2CC
330
2
100
AcDbEntity
  8
0
 62
     3
100
AcDbCircle
 10
93.5034585638
 20
201.9303436279
 30
0.0
 40
1.5
  0
CIRCLE
  5
2CD
330
2
100
AcDbEntity
  8
0
 62
     3
100
AcDbCircle
 10
93.5034585638
 20
201.9303436279
 30
0.0
 40
1.229499816899999
  0
LINE
  5
2CE
330
2
100
AcDbEntity
  8
0
 62
     3
100
AcDbLine
 10
90.50345856379999
 20
204.9303436279
 30
0.0
 11
90.50345856379999
 21
198.9303436279
 31
0.0
  0
LINE
  5
2CF
330
2
100
AcDbEntity
  8
0
 62
     3
100
AcDbLine
 10
90.40345246029998
 20
205.0303497313999
 30
0.0
 11
90.40345246029998
 21
198.8303375243999
 31
0.0
  0
LINE
  5
2D0
330
2
100
AcDbEntity
  8
0
 62
     3
100
AcDbLine
 10
90.90345246029995
 20
192.4433746338
 30
0.0
 11
90.90345246029995
 21
198.9303436279
 31
0.0
  0
LINE
  5
2D1
330
2
100
AcDbEntity
  8
0
 62
     3
100
AcDbLine
 10
91.0034585638
 20
198.9303436279
 30
0.0
 11
90.50345856379999
 21
198.9303436279
 31
0.0
  0
LINE
  5
2D2
330
2
100
AcDbEntity
  8
0
 62
     3
100
AcDbLine
 10
91.0034585638
 20
198.9303436279
 30
0.0
 11
91.0034585638
 21
197.9303436279
 31
0.0
  0
LINE
  5
2D3
330
2
100
AcDbEntity
  8
0
 62
     3
100
AcDbLine
 10
90.40345246029998
 20
198.8303375243999
 30
0.0
 11
90.90345246029995
 21
198.8303375243999
 31
0.0
  0
LINE
  5
2D4
330
2
100
AcDbEntity
  8
0
 62
     3
100
AcDbLine
 10
90.90345246029995
 20
211.4347686767998
 30
0.0
 11
90.90345246029995
 21
204.9303436279
 31
0.0
  0
LINE
  5
2D5
330
2
100
AcDbEntity
  8
0
 62
     3
100
AcDbLine
 10
91.0034585638
 20
204.9303436279
 30
0.0
 11
90.50345856379999
 21
204.9303436279
 31
0.0
  0
LINE
  5
2D6
330
2
100
AcDbEntity
  8
0
 62
     3
100
AcDbLine
 10
91.0034585638
 20
205.9303436279
 30
0.0
 11
91.0034585638
 21
204.9303436279
 31
0.0
  0
LINE
  5
2D7
330
2
100
AcDbEntity
  8
0
 62
     3
100
AcDbLine
 10
90.40345246029998
 20
205.0303497313999
 30
0.0
 11
90.90345246029995
 21
205.0303497313999
 31
0.0
  0
LINE
  5
2D8
330
2
100
AcDbEntity
  8
0
 62
     3
100
AcDbLine
 10
96.50345856379999
 20
204.9303436279
 30
0.0
 11
96.50345856379999
 21
198.9303436279
 31
0.0
  0
LINE
  5
2D9
330
2
100
AcDbEntity
  8
0
 62
     3
100
AcDbLine
 10
96.60344940859999
 20
205.0303497313999
 30
0.0
 11
96.60344940859999
 21
198.8303375243999
 31
0.0
  0
LINE
  5
2DA
330
2
100
AcDbEntity
  8
0
 62
     3
100
AcDbLine
 10
97.70345551209999
 20
192.6303405761999
 30
0.0
 11
97.70345551209999
 21
211.2303466796999
 31
0.0
  0
LINE
  5
2DB
330
2
100
AcDbEntity
  8
0
 62
     3
100
AcDbLine
 10
96.10344940860001
 20
192.4188385009999
 30
0.0
 11
96.10344940860001
 21
198.9303436279
 31
0.0
  0
ARC
  5
2DC
330
2
100
AcDbEntity
  8
0
 62
     3
100
AcDbCircle
 10
97.5034585638
 20
192.6303405761999
 30
0.0
 40
0.1999999881
100
AcDbArc
 50
270.0000179861
 51
0.0
  0
LINE
  5
2DD
330
2
100
AcDbEntity
  8
0
 62
     3
100
AcDbLine
 10
96.0034585638
 20
198.9303436279
 30
0.0
 11
96.0034585638
 21
197.9303436279
 31
0.0
  0
LINE
  5
2DE
330
2
100
AcDbEntity
  8
0
 62
     3
100
AcDbLine
 10
96.50345856379999
 20
198.9303436279
 30
0.0
 11
96.0034585638
 21
198.9303436279
 31
0.0
  0
LINE
  5
2DF
330
2
100
AcDbEntity
  8
0
 62
     3
100
AcDbLine
 10
96.10344940860001
 20
198.8303375243999
 30
0.0
 11
96.60344940859999
 21
198.8303375243999
 31
0.0
  0
LINE
  5
2E0
330
2
100
AcDbEntity
  8
0
 62
     3
100
AcDbLine
 10
96.50345856379999
 20
201.9303436279
 30
0.0
 11
97.70345551209999
 21
201.9303436279
 31
0.0
  0
LINE
  5
2E1
330
2
100
AcDbEntity
  8
0
 62
     3
100
AcDbLine
 10
96.50345856379999
 20
204.9303436279
 30
0.0
 11
96.0034585638
 21
204.9303436279
 31
0.0
  0
LINE
  5
2E2
330
2
100
AcDbEntity
  8
0
 62
     3
100
AcDbLine
 10
96.0034585638
 20
205.9303436279
 30
0.0
 11
96.0034585638
 21
204.9303436279
 31
0.0
  0
LINE
  5
2E3
330
2
100
AcDbEntity
  8
0
 62
     3
100
AcDbLine
 10
96.10344940860001
 20
205.0303497313999
 30
0.0
 11
96.60344940859999
 21
205.0303497313999
 31
0.0
  0
ARC
  5
2E4
330
2
100
AcDbEntity
  8
0
 62
     3
100
AcDbCircle
 10
97.5034585638
 20
211.2303466796999
 30
0.0
 40
0.1999999881
100
AcDbArc
 50
0.0
 51
89.99998201389999
  0
ARC
  5
2E5
330
2
100
AcDbEntity
  8
0
 62
     3
100
AcDbCircle
 10
97.5034585638
 20
211.6303405761999
 30
0.0
 40
0.1999999881
100
AcDbArc
 50
270.0000179861
 51
0.0
  0
LINE
  5
2E6
330
2
100
AcDbEntity
  8
0
 62
     3
100
AcDbLine
 10
96.0034585638
 20
235.9303436279
 30
0.0
 11
91.0034585638
 21
235.9303436279
 31
0.0
  0
LINE
  5
2E7
330
2
100
AcDbEntity
  8
0
 62
     3
100
AcDbLine
 10
90.90345246029995
 20
235.8303375244
 30
0.0
 11
96.10344940860001
 21
235.8303375244
 31
0.0
  0
LINE
  5
2E8
330
2
100
AcDbEntity
  8
0
  6
CENTER
 62
     3
100
AcDbLine
 10
95.50345856379999
 20
220.9303436279
 30
0.0
 11
91.50345856379995
 21
220.9303436279
 31
0.0
  0
LINE
  5
2E9
330
2
100
AcDbEntity
  8
0
 62
     3
100
AcDbLine
 10
96.0034585638
 20
216.9303436279
 30
0.0
 11
91.0034585638
 21
216.9303436279
 31
0.0
  0
LINE
  5
2EA
330
2
100
AcDbEntity
  8
0
 62
     3
100
AcDbLine
 10
96.0034585638
 20
224.9303436279
 30
0.0
 11
91.0034585638
 21
224.9303436279
 31
0.0
  0
LINE
  5
2EB
330
2
100
AcDbEntity
  8
0
 62
     3
100
AcDbLine
 10
90.90345246029995
 20
216.8303375244
 30
0.0
 11
96.10344940860001
 21
216.8303375244
 31
0.0
  0
LINE
  5
2EC
330
2
100
AcDbEntity
  8
0
 62
     3
100
AcDbLine
 10
90.90345246029995
 20
225.0303497313999
 30
0.0
 11
96.10344940860001
 21
225.0303497313999
 31
0.0
  0
LINE
  5
2ED
330
2
100
AcDbEntity
  8
0
 62
     3
100
AcDbLine
 10
91.0034585638
 20
224.9303436279
 30
0.0
 11
91.0034585638
 21
223.9303436279
 31
0.0
  0
LINE
  5
2EE
330
2
100
AcDbEntity
  8
0
 62
     3
100
AcDbLine
 10
90.90345246029995
 20
230.4347686768
 30
0.0
 11
90.90345246029995
 21
223.9303436279
 31
0.0
  0
LINE
  5
2EF
330
2
100
AcDbEntity
  8
0
 62
     3
100
AcDbLine
 10
90.50345856379999
 20
223.9303436279
 30
0.0
 11
90.50345856379999
 21
217.9303436279
 31
0.0
  0
LINE
  5
2F0
330
2
100
AcDbEntity
  8
0
 62
     3
100
AcDbLine
 10
90.40345246029998
 20
224.0303497313999
 30
0.0
 11
90.40345246029998
 21
217.8303375243999
 31
0.0
  0
LINE
  5
2F1
330
2
100
AcDbEntity
  8
0
 62
     3
100
AcDbLine
 10
91.0034585638
 20
217.9303436279
 30
0.0
 11
90.50345856379999
 21
217.9303436279
 31
0.0
  0
LINE
  5
2F2
330
2
100
AcDbEntity
  8
0
 62
     3
100
AcDbLine
 10
91.0034585638
 20
217.9303436279
 30
0.0
 11
91.0034585638
 21
216.9303436279
 31
0.0
  0
LINE
  5
2F3
330
2
100
AcDbEntity
  8
0
 62
     3
100
AcDbLine
 10
90.40345246029998
 20
217.8303375243999
 30
0.0
 11
90.90345246029995
 21
217.8303375243999
 31
0.0
  0
LINE
  5
2F4
330
2
100
AcDbEntity
  8
0
 62
     3
100
AcDbLine
 10
91.0034585638
 20
223.9303436279
 30
0.0
 11
90.50345856379999
 21
223.9303436279
 31
0.0
  0
LINE
  5
2F5
330
2
100
AcDbEntity
  8
0
 62
     3
100
AcDbLine
 10
90.40345246029998
 20
224.0303497313999
 30
0.0
 11
90.90345246029995
 21
224.0303497313999
 31
0.0
  0
CIRCLE
  5
2F6
330
2
100
AcDbEntity
  8
0
 62
     3
100
AcDbCircle
 10
93.5034585638
 20
220.9303436279
 30
0.0
 40
1.5
  0
CIRCLE
  5
2F7
330
2
100
AcDbEntity
  8
0
 62
     3
100
AcDbCircle
 10
93.5034585638
 20
220.9303436279
 30
0.0
 40
1.229499816899999
  0
LINE
  5
2F8
330
2
100
AcDbEntity
  8
0
 62
     3
100
AcDbLine
 10
92.35344940860001
 20
221.3652801513999
 30
0.0
 11
92.35344940860001
 21
220.4954071044999
 31
0.0
  0
LINE
  5
2F9
330
2
100
AcDbEntity
  8
0
 62
     3
100
AcDbLine
 10
94.65346771909999
 20
221.3652801513999
 30
0.0
 11
94.65346771909999
 21
220.4954071044999
 31
0.0
  0
LINE
  5
2FA
330
2
100
AcDbEntity
  8
0
 62
     3
100
AcDbLine
 10
96.0034585638
 20
224.9303436279
 30
0.0
 11
96.0034585638
 21
223.9303436279
 31
0.0
  0
LINE
  5
2FB
330
2
100
AcDbEntity
  8
0
 62
     3
100
AcDbLine
 10
96.50345856379999
 20
223.9303436279
 30
0.0
 11
96.50345856379999
 21
217.9303436279
 31
0.0
  0
LINE
  5
2FC
330
2
100
AcDbEntity
  8
0
 62
     3
100
AcDbLine
 10
96.60344940859999
 20
224.0303497313999
 30
0.0
 11
96.60344940859999
 21
217.8303375243999
 31
0.0
  0
LINE
  5
2FD
330
2
100
AcDbEntity
  8
0
 62
     3
100
AcDbLine
 10
96.0034585638
 20
217.9303436279
 30
0.0
 11
96.0034585638
 21
216.9303436279
 31
0.0
  0
LINE
  5
2FE
330
2
100
AcDbEntity
  8
0
 62
     3
100
AcDbLine
 10
96.50345856379999
 20
217.9303436279
 30
0.0
 11
96.0034585638
 21
217.9303436279
 31
0.0
  0
LINE
  5
2FF
330
2
100
AcDbEntity
  8
0
 62
     3
100
AcDbLine
 10
96.10344940860001
 20
217.8303375243999
 30
0.0
 11
96.60344940859999
 21
217.8303375243999
 31
0.0
  0
LINE
  5
300
330
2
100
AcDbEntity
  8
0
 62
     3
100
AcDbLine
 10
96.50345856379999
 20
220.9303436279
 30
0.0
 11
97.70345551209999
 21
220.9303436279
 31
0.0
  0
LINE
  5
301
330
2
100
AcDbEntity
  8
0
 62
     3
100
AcDbLine
 10
96.50345856379999
 20
223.9303436279
 30
0.0
 11
96.0034585638
 21
223.9303436279
 31
0.0
  0
LINE
  5
302
330
2
100
AcDbEntity
  8
0
 62
     3
100
AcDbLine
 10
96.10344940860001
 20
224.0303497313999
 30
0.0
 11
96.60344940859999
 21
224.0303497313999
 31
0.0
  0
ARC
  5
303
330
2
100
AcDbEntity
  8
0
 62
     3
100
AcDbCircle
 10
97.5034585638
 20
230.2303466796999
 30
0.0
 40
0.1999999881
100
AcDbArc
 50
0.0
 51
89.99998201389999
  0
ARC
  5
304
330
2
100
AcDbEntity
  8
0
 62
     3
100
AcDbCircle
 10
97.5034585638
 20
230.6303405761999
 30
0.0
 40
0.1999999881
100
AcDbArc
 50
270.0000179861
 51
0.0
  0
LINE
  5
305
330
2
100
AcDbEntity
  8
0
  6
CENTER
 62
     3
100
AcDbLine
 10
95.50345856379999
 20
239.9303436279
 30
0.0
 11
91.50345856379995
 21
239.9303436279
 31
0.0
  0
LINE
  5
306
330
2
100
AcDbEntity
  8
0
 62
     3
100
AcDbLine
 10
90.90345246029995
 20
244.0303497313999
 30
0.0
 11
96.10344940860001
 21
244.0303497313999
 31
0.0
  0
LINE
  5
307
330
2
100
AcDbEntity
  8
0
 62
     3
100
AcDbLine
 10
96.0034585638
 20
243.9303436279
 30
0.0
 11
91.0034585638
 21
243.9303436279
 31
0.0
  0
LINE
  5
308
330
2
100
AcDbEntity
  8
0
 62
     3
100
AcDbLine
 10
90.90345246029995
 20
249.4347686768
 30
0.0
 11
90.90345246029995
 21
242.9303436279
 31
0.0
  0
LINE
  5
309
330
2
100
AcDbEntity
  8
0
 62
     3
100
AcDbLine
 10
90.40345246029998
 20
243.0303497313999
 30
0.0
 11
90.40345246029998
 21
236.8303375243999
 31
0.0
  0
LINE
  5
30A
330
2
100
AcDbEntity
  8
0
 62
     3
100
AcDbLine
 10
90.50345856379999
 20
242.9303436279
 30
0.0
 11
90.50345856379999
 21
236.9303436279
 31
0.0
  0
LINE
  5
30B
330
2
100
AcDbEntity
  8
0
 62
     3
100
AcDbLine
 10
90.40345246029998
 20
236.8303375243999
 30
0.0
 11
90.90345246029995
 21
236.8303375243999
 31
0.0
  0
LINE
  5
30C
330
2
100
AcDbEntity
  8
0
 62
     3
100
AcDbLine
 10
91.0034585638
 20
236.9303436279
 30
0.0
 11
90.50345856379999
 21
236.9303436279
 31
0.0
  0
LINE
  5
30D
330
2
100
AcDbEntity
  8
0
 62
     3
100
AcDbLine
 10
90.40345246029998
 20
243.0303497313999
 30
0.0
 11
90.90345246029995
 21
243.0303497313999
 31
0.0
  0
LINE
  5
30E
330
2
100
AcDbEntity
  8
0
 62
     3
100
AcDbLine
 10
91.0034585638
 20
242.9303436279
 30
0.0
 11
90.50345856379999
 21
242.9303436279
 31
0.0
  0
LINE
  5
30F
330
2
100
AcDbEntity
  8
0
 62
     3
100
AcDbLine
 10
91.0034585638
 20
243.9303436279
 30
0.0
 11
91.0034585638
 21
242.9303436279
 31
0.0
  0
CIRCLE
  5
310
330
2
100
AcDbEntity
  8
0
 62
     3
100
AcDbCircle
 10
93.5034585638
 20
239.9303436279
 30
0.0
 40
1.229499816899999
  0
CIRCLE
  5
311
330
2
100
AcDbEntity
  8
0
 62
     3
100
AcDbCircle
 10
93.5034585638
 20
239.9303436279
 30
0.0
 40
1.5
  0
LINE
  5
312
330
2
100
AcDbEntity
  8
0
 62
     3
100
AcDbLine
 10
92.35344940860001
 20
240.3652801513999
 30
0.0
 11
92.35344940860001
 21
239.4954071044999
 31
0.0
  0
LINE
  5
313
330
2
100
AcDbEntity
  8
0
 62
     3
100
AcDbLine
 10
94.65346771909999
 20
240.3652801513999
 30
0.0
 11
94.65346771909999
 21
239.4954071044999
 31
0.0
  0
LINE
  5
314
330
2
100
AcDbEntity
  8
0
 62
     3
100
AcDbLine
 10
96.10344940860001
 20
249.4347686768
 30
0.0
 11
96.10344940860001
 21
242.9303436279
 31
0.0
  0
LINE
  5
315
330
2
100
AcDbEntity
  8
0
 62
     3
100
AcDbLine
 10
96.60344940859999
 20
243.0303497313999
 30
0.0
 11
96.60344940859999
 21
236.8303375243999
 31
0.0
  0
LINE
  5
316
330
2
100
AcDbEntity
  8
0
 62
     3
100
AcDbLine
 10
96.50345856379999
 20
242.9303436279
 30
0.0
 11
96.50345856379999
 21
236.9303436279
 31
0.0
  0
LINE
  5
317
330
2
100
AcDbEntity
  8
0
 62
     3
100
AcDbLine
 10
96.50345856379999
 20
239.9303436279
 30
0.0
 11
97.70345551209999
 21
239.9303436279
 31
0.0
  0
LINE
  5
318
330
2
100
AcDbEntity
  8
0
 62
     3
100
AcDbLine
 10
96.10344940860001
 20
236.8303375243999
 30
0.0
 11
96.60344940859999
 21
236.8303375243999
 31
0.0
  0
LINE
  5
319
330
2
100
AcDbEntity
  8
0
 62
     3
100
AcDbLine
 10
96.50345856379999
 20
236.9303436279
 30
0.0
 11
96.0034585638
 21
236.9303436279
 31
0.0
  0
LINE
  5
31A
330
2
100
AcDbEntity
  8
0
 62
     3
100
AcDbLine
 10
96.10344940860001
 20
243.0303497313999
 30
0.0
 11
96.60344940859999
 21
243.0303497313999
 31
0.0
  0
LINE
  5
31B
330
2
100
AcDbEntity
  8
0
 62
     3
100
AcDbLine
 10
96.50345856379999
 20
242.9303436279
 30
0.0
 11
96.0034585638
 21
242.9303436279
 31
0.0
  0
LINE
  5
31C
330
2
100
AcDbEntity
  8
0
 62
     3
100
AcDbLine
 10
96.0034585638
 20
243.9303436279
 30
0.0
 11
96.0034585638
 21
242.9303436279
 31
0.0
  0
ARC
  5
31D
330
2
100
AcDbEntity
  8
0
 62
     3
100
AcDbCircle
 10
97.5034585638
 20
249.2303466797
 30
0.0
 40
0.1999999881
100
AcDbArc
 50
0.0
 51
89.99998201389999
  0
TEXT
  5
333
330
2
100
AcDbEntity
  8
0
 62
     7
100
AcDbText
 10
146.0
 20
110.0000029552498
 30
0.0
 40
2.999994089499998
  1
NRAS3100F
 11
146.0
 21
111.4999999999999
 31
0.0
100
AcDbText
 73
     2
  0
TEXT
  5
334
330
2
100
AcDbEntity
  8
0
 62
     7
100
AcDbText
 10
146.0
 20
115.0000029552499
 30
0.0
 40
2.999994089499998
  1
NRAS3100
 11
146.0
 21
116.5
 31
0.0
100
AcDbText
 73
     2
  0
ENDSEC
  0
SECTION
  2
OBJECTS
  0
DICTIONARY
  5
7
330
0
100
AcDbDictionary
281
     1
  3
ACAD_GROUP
350
1F
  3
ACAD_LAYOUT
350
B
  3
ACAD_MLINESTYLE
350
20
  3
ACAD_PLOTSETTINGS
350
21
  3
ACAD_PLOTSTYLENAME
350
6
  3
AcDbVariableDictionary
350
335
  0
DICTIONARY
  5
1F
102
{ACAD_REACTORS
330
7
102
}
330
7
100
AcDbDictionary
281
     1
  0
DICTIONARY
  5
B
102
{ACAD_REACTORS
330
7
102
}
330
7
100
AcDbDictionary
281
     1
  3
Model
350
A
  3
ﾚｲｱｳﾄ1
350
F
  0
DICTIONARY
  5
20
102
{ACAD_REACTORS
330
7
102
}
330
7
100
AcDbDictionary
281
     1
  3
Standard
350
22
  0
DICTIONARY
  5
21
102
{ACAD_REACTORS
330
7
102
}
330
7
100
AcDbDictionary
281
     1
  0
ACDBDICTIONARYWDFLT
  5
6
102
{ACAD_REACTORS
330
7
102
}
330
7
100
AcDbDictionary
281
     1
  3
Normal
350
5
100
AcDbDictionaryWithDefault
340
5
  0
DICTIONARY
  5
335
102
{ACAD_REACTORS
330
7
102
}
330
7
100
AcDbDictionary
281
     1
  3
DIMASSOC
350
336
  0
LAYOUT
  5
A
102
{ACAD_REACTORS
330
B
102
}
330
B
100
AcDbPlotSettings
  1

  2
C:\Program Files\AutoCAD 2000i\plotters\DWF Classic.pc3
  4

  6

 40
0.0
 41
0.0
 42
0.0
 43
0.0
 44
0.0
 45
0.0
 46
0.0
 47
0.0
 48
0.0
 49
0.0
140
0.0
141
0.0
142
1.0
143
1.0
 70
  1712
 72
     0
 73
     0
 74
     0
  7

 75
     0
147
1.0
148
0.0
149
0.0
100
AcDbLayout
  1
Model
 70
     1
 71
     0
 10
0.0
 20
0.0
 11
12.0
 21
9.0
 12
0.0
 22
0.0
 32
0.0
 14
0.0
 24
0.0
 34
0.0
 15
0.0
 25
0.0
 35
0.0
146
0.0
 13
0.0
 23
0.0
 33
0.0
 16
1.0
 26
0.0
 36
0.0
 17
0.0
 27
1.0
 37
0.0
 76
     0
330
2
  0
LAYOUT
  5
F
102
{ACAD_REACTORS
330
B
102
}
330
B
100
AcDbPlotSettings
  1

  2
C:\Program Files\AutoCAD 2000i\plotters\DWF Classic.pc3
  4

  6

 40
0.0
 41
0.0
 42
0.0
 43
0.0
 44
0.0
 45
0.0
 46
0.0
 47
0.0
 48
0.0
 49
0.0
140
0.0
141
0.0
142
1.0
143
1.0
 70
   688
 72
     0
 73
     0
 74
     5
  7

 75
    16
147
1.0
148
0.0
149
0.0
100
AcDbLayout
  1
ﾚｲｱｳﾄ1
 70
     1
 71
     1
 10
0.0
 20
0.0
 11
12.0
 21
9.0
 12
0.0
 22
0.0
 32
0.0
 14
1.000000000000000E+20
 24
1.000000000000000E+20
 34
1.000000000000000E+20
 15
-1.000000000000000E+20
 25
-1.000000000000000E+20
 35
-1.000000000000000E+20
146
0.0
 13
0.0
 23
0.0
 33
0.0
 16
1.0
 26
0.0
 36
0.0
 17
0.0
 27
1.0
 37
0.0
 76
     0
330
C
  0
MLINESTYLE
  5
22
102
{ACAD_REACTORS
330
20
102
}
330
20
100
AcDbMlineStyle
  2
STANDARD
 70
     0
  3

 62
   256
 51
90.0
 52
90.0
 71
     2
 49
0.5
 62
   256
  6
BYLAYER
 49
-0.5
 62
   256
  6
BYLAYER
  0
ACDBPLACEHOLDER
  5
5
102
{ACAD_REACTORS
330
6
102
}
330
6
  0
DICTIONARYVAR
  5
336
102
{ACAD_REACTORS
330
335
102
}
330
335
100
DictionaryVariables
280
     0
  1
1
  0
ENDSEC
  0
EOF
