  0
SECTION
  2
HEADER
  9
$ACADVER
  1
AC1015
  9
$ACADMAINTVER
 70
    13
  9
$DWGCODEPAGE
  3
ANSI_932
  9
$INSBASE
 10
0.0
 20
0.0
 30
0.0
  9
$EXTMIN
 10
-0.0096142389935494
 20
-0.0006579613101394
 30
-0.0000000349181948
  9
$EXTMAX
 10
210.0160905439458
 20
297.0040927271929
 30
0.0000000814935747
  9
$LIMMIN
 10
-188.2366455077999
 20
-3.174999999999998
  9
$LIMMAX
 10
3.174999999999998
 20
291.2585876465
  9
$ORTHOMODE
 70
     0
  9
$REGENMODE
 70
     1
  9
$FILLMODE
 70
     1
  9
$QTEXTMODE
 70
     0
  9
$MIRRTEXT
 70
     0
  9
$LTSCALE
 40
1.0
  9
$ATTMODE
 70
     1
  9
$TEXTSIZE
 40
2.999994039499997
  9
$TRACEWID
 40
0.05
  9
$TEXTSTYLE
  7
STANDARD
  9
$CLAYER
  8
0
  9
$CELTYPE
  6
ByLayer
  9
$CECOLOR
 62
   256
  9
$CELTSCALE
 40
1.0
  9
$DISPSILH
 70
     0
  9
$DIMSCALE
 40
1.0
  9
$DIMASZ
 40
1.9727878465
  9
$DIMEXO
 40
2.539999961899999
  9
$DIMDLI
 40
0.38
  9
$DIMRND
 40
0.0
  9
$DIMDLE
 40
0.0
  9
$DIMEXE
 40
3.809999942799997
  9
$DIMTP
 40
0.0
  9
$DIMTM
 40
0.0
  9
$DIMTXT
 40
2.999994039499997
  9
$DIMCEN
 40
0.09
  9
$DIMTSZ
 40
0.0
  9
$DIMTOL
 70
     0
  9
$DIMLIM
 70
     0
  9
$DIMTIH
 70
     0
  9
$DIMTOH
 70
     1
  9
$DIMSE1
 70
     0
  9
$DIMSE2
 70
     0
  9
$DIMTAD
 70
     0
  9
$DIMZIN
 70
     0
  9
$DIMBLK
  1

  9
$DIMASO
 70
     1
  9
$DIMSHO
 70
     0
  9
$DIMPOST
  1

  9
$DIMAPOST
  1

  9
$DIMALT
 70
     0
  9
$DIMALTD
 70
     2
  9
$DIMALTF
 40
25.4
  9
$DIMLFAC
 40
1.0
  9
$DIMTOFL
 70
     0
  9
$DIMTVP
 40
0.0
  9
$DIMTIX
 70
     0
  9
$DIMSOXD
 70
     0
  9
$DIMSAH
 70
     0
  9
$DIMBLK1
  1

  9
$DIMBLK2
  1

  9
$DIMSTYLE
  2
Standard
  9
$DIMCLRD
 70
     0
  9
$DIMCLRE
 70
     0
  9
$DIMCLRT
 70
     0
  9
$DIMTFAC
 40
1.0
  9
$DIMGAP
 40
0.09
  9
$DIMJUST
 70
     0
  9
$DIMSD1
 70
     0
  9
$DIMSD2
 70
     0
  9
$DIMTOLJ
 70
     1
  9
$DIMTZIN
 70
     0
  9
$DIMALTZ
 70
     0
  9
$DIMALTTZ
 70
     0
  9
$DIMUPT
 70
     0
  9
$DIMDEC
 70
     4
  9
$DIMTDEC
 70
     4
  9
$DIMALTU
 70
     2
  9
$DIMALTTD
 70
     2
  9
$DIMTXSTY
  7
STANDARD
  9
$DIMAUNIT
 70
     0
  9
$DIMADEC
 70
     0
  9
$DIMALTRND
 40
0.0
  9
$DIMAZIN
 70
     0
  9
$DIMDSEP
 70
    46
  9
$DIMATFIT
 70
     3
  9
$DIMFRAC
 70
     0
  9
$DIMLDRBLK
  1

  9
$DIMLUNIT
 70
     2
  9
$DIMLWD
 70
    -2
  9
$DIMLWE
 70
    -2
  9
$DIMTMOVE
 70
     0
  9
$LUNITS
 70
     2
  9
$LUPREC
 70
     3
  9
$SKETCHINC
 40
0.1
  9
$FILLETRAD
 40
0.0625
  9
$AUNITS
 70
     0
  9
$AUPREC
 70
     0
  9
$MENU
  1
ACAD
  9
$ELEVATION
 40
0.0
  9
$PELEVATION
 40
0.0
  9
$THICKNESS
 40
0.0
  9
$LIMCHECK
 70
     0
  9
$CHAMFERA
 40
0.0
  9
$CHAMFERB
 40
0.0
  9
$CHAMFERC
 40
0.0
  9
$CHAMFERD
 40
0.0
  9
$SKPOLY
 70
     0
  9
$TDCREATE
 40
2452527.704861111
  9
$TDUCREATE
 40
2452527.329861111
  9
$TDUPDATE
 40
2453339.676795428
  9
$TDUUPDATE
 40
2453339.301795428
  9
$TDINDWG
 40
0.0022491667
  9
$TDUSRTIMER
 40
0.0022466319
  9
$USRTIMER
 70
     1
  9
$ANGBASE
 50
0.0
  9
$ANGDIR
 70
     0
  9
$PDMODE
 70
     0
  9
$PDSIZE
 40
0.0
  9
$PLINEWID
 40
0.0
  9
$SPLFRAME
 70
     0
  9
$SPLINETYPE
 70
     6
  9
$SPLINESEGS
 70
     8
  9
$HANDSEED
  5
27A
  9
$SURFTAB1
 70
     6
  9
$SURFTAB2
 70
     6
  9
$SURFTYPE
 70
     6
  9
$SURFU
 70
     6
  9
$SURFV
 70
     6
  9
$UCSBASE
  2

  9
$UCSNAME
  2

  9
$UCSORG
 10
0.0
 20
0.0
 30
0.0
  9
$UCSXDIR
 10
1.0
 20
0.0
 30
0.0
  9
$UCSYDIR
 10
0.0
 20
1.0
 30
0.0
  9
$UCSORTHOREF
  2

  9
$UCSORTHOVIEW
 70
     0
  9
$UCSORGTOP
 10
0.0
 20
0.0
 30
0.0
  9
$UCSORGBOTTOM
 10
0.0
 20
0.0
 30
0.0
  9
$UCSORGLEFT
 10
0.0
 20
0.0
 30
0.0
  9
$UCSORGRIGHT
 10
0.0
 20
0.0
 30
0.0
  9
$UCSORGFRONT
 10
0.0
 20
0.0
 30
0.0
  9
$UCSORGBACK
 10
0.0
 20
0.0
 30
0.0
  9
$PUCSBASE
  2

  9
$PUCSNAME
  2

  9
$PUCSORG
 10
0.0
 20
0.0
 30
0.0
  9
$PUCSXDIR
 10
1.0
 20
0.0
 30
0.0
  9
$PUCSYDIR
 10
0.0
 20
1.0
 30
0.0
  9
$PUCSORTHOREF
  2

  9
$PUCSORTHOVIEW
 70
     0
  9
$PUCSORGTOP
 10
0.0
 20
0.0
 30
0.0
  9
$PUCSORGBOTTOM
 10
0.0
 20
0.0
 30
0.0
  9
$PUCSORGLEFT
 10
0.0
 20
0.0
 30
0.0
  9
$PUCSORGRIGHT
 10
0.0
 20
0.0
 30
0.0
  9
$PUCSORGFRONT
 10
0.0
 20
0.0
 30
0.0
  9
$PUCSORGBACK
 10
0.0
 20
0.0
 30
0.0
  9
$USERI1
 70
     8
  9
$USERI2
 70
     0
  9
$USERI3
 70
     0
  9
$USERI4
 70
     0
  9
$USERI5
 70
     0
  9
$USERR1
 40
0.0
  9
$USERR2
 40
0.0
  9
$USERR3
 40
0.0
  9
$USERR4
 40
0.0
  9
$USERR5
 40
0.0
  9
$WORLDVIEW
 70
     1
  9
$SHADEDGE
 70
     3
  9
$SHADEDIF
 70
    70
  9
$TILEMODE
 70
     1
  9
$MAXACTVP
 70
    64
  9
$PINSBASE
 10
0.0
 20
0.0
 30
0.0
  9
$PLIMCHECK
 70
     0
  9
$PEXTMIN
 10
1.000000000000000E+20
 20
1.000000000000000E+20
 30
1.000000000000000E+20
  9
$PEXTMAX
 10
-1.000000000000000E+20
 20
-1.000000000000000E+20
 30
-1.000000000000000E+20
  9
$PLIMMIN
 10
0.0
 20
0.0
  9
$PLIMMAX
 10
12.0
 20
9.0
  9
$UNITMODE
 70
     0
  9
$VISRETAIN
 70
     1
  9
$PLINEGEN
 70
     0
  9
$PSLTSCALE
 70
     1
  9
$TREEDEPTH
 70
  3020
  9
$CMLSTYLE
  2
Standard
  9
$CMLJUST
 70
     0
  9
$CMLSCALE
 40
1.0
  9
$PROXYGRAPHICS
 70
     1
  9
$MEASUREMENT
 70
     0
  9
$CELWEIGHT
370
    -1
  9
$ENDCAPS
280
     0
  9
$JOINSTYLE
280
     0
  9
$LWDISPLAY
290
     0
  9
$INSUNITS
 70
     0
  9
$HYPERLINKBASE
  1

  9
$STYLESHEET
  1

  9
$XEDIT
290
     1
  9
$CEPSNTYPE
380
     0
  9
$PSTYLEMODE
290
     1
  9
$FINGERPRINTGUID
  2
{572763B1-A032-43F2-9B63-8CEC0071AFDD}
  9
$VERSIONGUID
  2
{62F95422-0931-4443-8F05-A231A7DECF57}
  9
$EXTNAMES
290
     1
  9
$PSVPSCALE
 40
0.0
  9
$OLESTARTUP
290
     0
  0
ENDSEC
  0
SECTION
  2
CLASSES
  0
CLASS
  1
ACDBDICTIONARYWDFLT
  2
AcDbDictionaryWithDefault
  3
AutoCAD 2000
 90
        0
280
     0
281
     0
  0
CLASS
  1
ACDBPLACEHOLDER
  2
AcDbPlaceHolder
  3
AutoCAD 2000
 90
        0
280
     0
281
     0
  0
CLASS
  1
LAYOUT
  2
AcDbLayout
  3
AutoCAD 2000
 90
        0
280
     0
281
     0
  0
CLASS
  1
DICTIONARYVAR
  2
AcDbDictionaryVar
  3
AutoCAD 2000
 90
        0
280
     0
281
     0
  0
ENDSEC
  0
SECTION
  2
TABLES
  0
TABLE
  2
VPORT
  5
19
330
0
100
AcDbSymbolTable
 70
     2
  0
VPORT
  5
279
330
19
100
AcDbSymbolTableRecord
100
AcDbViewportTableRecord
  2
*Active
 70
     0
 10
0.0
 20
0.0
 11
1.0
 21
1.0
 12
105.0032381524762
 22
148.5017173829414
 13
0.0
 23
0.0
 14
1.0
 24
1.0
 15
0.0
 25
0.0
 16
0.0
 26
0.0
 36
1.0
 17
0.0
 27
0.0
 37
0.0
 40
301.3405864649776
 41
2.407317073170731
 42
50.0
 43
0.0
 44
0.0
 50
0.0
 51
0.0
 71
     0
 72
   100
 73
     1
 74
     1
 75
     0
 76
     0
 77
     0
 78
     0
281
     0
 65
     1
110
0.0
120
0.0
130
0.0
111
1.0
121
0.0
131
0.0
112
0.0
122
1.0
132
0.0
 79
     0
146
0.0
  0
ENDTAB
  0
TABLE
  2
LTYPE
  5
14
330
0
100
AcDbSymbolTable
 70
     3
  0
LTYPE
  5
15
330
14
100
AcDbSymbolTableRecord
100
AcDbLinetypeTableRecord
  2
ByBlock
 70
     0
  3

 72
    65
 73
     0
 40
0.0
  0
LTYPE
  5
16
330
14
100
AcDbSymbolTableRecord
100
AcDbLinetypeTableRecord
  2
ByLayer
 70
     0
  3

 72
    65
 73
     0
 40
0.0
  0
LTYPE
  5
8
330
14
100
AcDbSymbolTableRecord
100
AcDbLinetypeTableRecord
  2
Continuous
 70
     0
  3
Solid line
 72
    65
 73
     0
 40
0.0
  0
LTYPE
  5
85
330
14
100
AcDbSymbolTableRecord
100
AcDbLinetypeTableRecord
  2
CENTER
 70
     0
  3
Center
 72
    65
 73
     4
 40
9.100006759199999
 49
6.5000119209
 74
     0
 49
-0.7999984026000001
 74
     0
 49
0.9999980329999999
 74
     0
 49
-0.7999984026000001
 74
     0
  0
LTYPE
  5
114
330
14
100
AcDbSymbolTableRecord
100
AcDbLinetypeTableRecord
  2
PHANTOM
 70
     0
  3
Phantom
 72
    65
 73
     6
 40
9.499981462999999
 49
4.799990654
 74
     0
 49
-0.8999982475999999
 74
     0
 49
0.9999980329999999
 74
     0
 49
-0.8999982475999999
 74
     0
 49
0.9999980329999999
 74
     0
 49
-0.8999982475999999
 74
     0
  0
ENDTAB
  0
TABLE
  2
LAYER
  5
10
330
0
100
AcDbSymbolTable
 70
     1
  0
LAYER
  5
4
330
10
100
AcDbSymbolTableRecord
100
AcDbLayerTableRecord
  2
0
 70
     0
 62
     7
  6
Continuous
370
    -3
390
5
  0
ENDTAB
  0
TABLE
  2
STYLE
  5
11
330
0
100
AcDbSymbolTable
 70
     1
  0
STYLE
  5
12
330
11
100
AcDbSymbolTableRecord
100
AcDbTextStyleTableRecord
  2
STANDARD
 70
     0
 40
0.0
 41
1.0
 50
0.0
 71
     0
 42
2.999994039499997
  3
romans.shx
  4
bigfont.shx
  0
ENDTAB
  0
TABLE
  2
VIEW
  5
17
330
0
100
AcDbSymbolTable
 70
     0
  0
ENDTAB
  0
TABLE
  2
UCS
  5
18
330
0
100
AcDbSymbolTable
 70
     0
  0
ENDTAB
  0
TABLE
  2
APPID
  5
1B
330
0
100
AcDbSymbolTable
 70
     1
  0
APPID
  5
1C
330
1B
100
AcDbSymbolTableRecord
100
AcDbRegAppTableRecord
  2
ACAD
 70
     0
  0
ENDTAB
  0
TABLE
  2
DIMSTYLE
  5
1D
330
0
100
AcDbSymbolTable
 70
     1
100
AcDbDimStyleTable
 71
     0
  0
DIMSTYLE
105
23
330
1D
100
AcDbSymbolTableRecord
100
AcDbDimStyleTableRecord
  2
Standard
 70
     0
340
12
  0
ENDTAB
  0
TABLE
  2
BLOCK_RECORD
  5
1
330
0
100
AcDbSymbolTable
 70
     1
  0
BLOCK_RECORD
  5
2
330
1
100
AcDbSymbolTableRecord
100
AcDbBlockTableRecord
  2
*Model_Space
340
A
  0
BLOCK_RECORD
  5
C
330
1
100
AcDbSymbolTableRecord
100
AcDbBlockTableRecord
  2
*Paper_Space
340
F
  0
ENDTAB
  0
ENDSEC
  0
SECTION
  2
BLOCKS
  0
BLOCK
  5
3
330
2
100
AcDbEntity
  8
0
100
AcDbBlockBegin
  2
*Model_Space
 70
     2
 10
0.0
 20
0.0
 30
0.0
  3
*Model_Space
  1

  0
ENDBLK
  5
9
330
2
100
AcDbEntity
  8
0
100
AcDbBlockEnd
  0
BLOCK
  5
D
330
C
100
AcDbEntity
 67
     1
  8
0
100
AcDbBlockBegin
  2
*Paper_Space
 70
     0
 10
0.0
 20
0.0
 30
0.0
  3
*Paper_Space
  1

  0
ENDBLK
  5
E
330
C
100
AcDbEntity
 67
     1
  8
0
100
AcDbBlockEnd
  0
ENDSEC
  0
SECTION
  2
ENTITIES
  0
LINE
  5
24
330
2
100
AcDbEntity
  8
0
100
AcDbLine
 10
210.0
 20
0.0
 30
0.0
 11
210.0
 21
297.0
 31
0.0
  0
ARC
  5
25
330
2
100
AcDbEntity
  8
0
 62
     3
100
AcDbCircle
 10
90.85012763649999
 20
143.3622416620998
 30
0.0
 40
2.0
100
AcDbArc
 50
0.0
 51
89.99998201389999
  0
ARC
  5
26
330
2
100
AcDbEntity
  8
0
 62
     3
100
AcDbCircle
 10
56.65011542949997
 20
143.3622416620998
 30
0.0
 40
2.0
100
AcDbArc
 50
89.99998201389999
 51
179.9999640277999
  0
LINE
  5
27
330
2
100
AcDbEntity
  8
0
100
AcDbLine
 10
0.0
 20
297.0
 30
0.0
 11
0.0
 21
0.0
 31
0.0
  0
LINE
  5
28
330
2
100
AcDbEntity
  8
0
 62
     3
100
AcDbLine
 10
99.05012458480001
 20
153.8622416620999
 30
0.0
 11
99.05012458480001
 21
115.8622264032999
 31
0.0
  0
LINE
  5
29
330
2
100
AcDbEntity
  8
0
 62
     3
100
AcDbLine
 10
48.45010322249999
 20
153.8622416620999
 30
0.0
 11
48.45010322249999
 21
115.8622264032999
 31
0.0
  0
TEXT
  5
2A
330
2
100
AcDbEntity
  8
0
 62
     5
100
AcDbText
 10
145.0
 20
10.0
 30
0.0
 40
5.0
  1
ＭＡ４－Ｃ０００７１Ｂ
 41
0.8443967743953095
 72
     5
 11
199.0413935612998
 21
10.0
 31
0.0
100
AcDbText
  0
LINE
  5
2B
330
2
100
AcDbEntity
  8
0
100
AcDbLine
 10
0.0
 20
0.0
 30
0.0
 11
210.0
 21
0.0
 31
0.0
  0
LINE
  5
2C
330
2
100
AcDbEntity
  8
0
 62
     3
100
AcDbLine
 10
67.25010627419999
 20
51.70217696479999
 30
0.0
 11
87.25012153299999
 21
51.70217696479999
 31
0.0
  0
LINE
  5
2D
330
2
100
AcDbEntity
  8
0
 62
     3
100
AcDbLine
 10
87.25012153299999
 20
64.20217696479999
 30
0.0
 11
67.25010627419999
 21
64.20217696479999
 31
0.0
  0
LINE
  5
2E
330
2
100
AcDbEntity
  8
0
 62
     3
100
AcDbLine
 10
67.25010627419999
 20
70.70217696479999
 30
0.0
 11
87.25012153299999
 21
70.70217696479999
 31
0.0
  0
LINE
  5
2F
330
2
100
AcDbEntity
  8
0
 62
     3
100
AcDbLine
 10
67.25010627419999
 20
45.20217696479999
 30
0.0
 11
87.25012153299999
 21
45.20217696479999
 31
0.0
  0
LINE
  5
30
330
2
100
AcDbEntity
  8
0
 62
     3
100
AcDbLine
 10
48.6501001707
 20
38.95217696479999
 30
0.0
 11
98.85012763649999
 21
38.95217696479999
 31
0.0
  0
LINE
  5
31
330
2
100
AcDbEntity
  8
0
 62
     3
100
AcDbLine
 10
58.7501062742
 20
40.95217696479998
 30
0.0
 11
88.75013679179998
 21
40.95217696479998
 31
0.0
  0
LINE
  5
32
330
2
100
AcDbEntity
  8
0
 62
     3
100
AcDbLine
 10
58.7501062742
 20
55.95217696479999
 30
0.0
 11
88.75013679179998
 21
55.95217696479999
 31
0.0
  0
LINE
  5
33
330
2
100
AcDbEntity
  8
0
 62
     3
100
AcDbLine
 10
52.65016120589996
 20
57.95217696479999
 30
0.0
 11
94.85018867169999
 21
57.95217696479999
 31
0.0
  0
LINE
  5
34
330
2
100
AcDbEntity
  8
0
 62
     3
100
AcDbLine
 10
59.15510505349996
 20
109.8622264033
 30
0.0
 11
88.34513801249999
 21
109.8622264033
 31
0.0
  0
LINE
  5
35
330
2
100
AcDbEntity
  8
0
 62
     3
100
AcDbLine
 10
49.45010322249999
 20
114.8622264032999
 30
0.0
 11
98.0501245848
 21
114.8622264032999
 31
0.0
  0
LINE
  5
36
330
2
100
AcDbEntity
  8
0
 62
     3
100
AcDbLine
 10
56.65011542949997
 20
121.662229455
 30
0.0
 11
90.85012763649999
 21
121.662229455
 31
0.0
  0
LINE
  5
37
330
2
100
AcDbEntity
  8
0
 62
     3
100
AcDbLine
 10
58.7501062742
 20
74.952161706
 30
0.0
 11
88.75013679179998
 21
74.952161706
 31
0.0
  0
LINE
  5
38
330
2
100
AcDbEntity
  8
0
 62
     3
100
AcDbLine
 10
48.6501001707
 20
76.952161706
 30
0.0
 11
98.85012763649999
 21
76.952161706
 31
0.0
  0
LINE
  5
39
330
2
100
AcDbEntity
  8
0
 62
     3
100
AcDbLine
 10
58.7501062742
 20
59.9521769648
 30
0.0
 11
88.75013679179998
 21
59.9521769648
 31
0.0
  0
LINE
  5
3A
330
2
100
AcDbEntity
  8
0
 62
     3
100
AcDbLine
 10
53.7501062742
 20
52.45222274119999
 30
0.0
 11
53.7501062742
 21
44.45222274119998
 31
0.0
  0
LINE
  5
3B
330
2
100
AcDbEntity
  8
0
 62
     3
100
AcDbLine
 10
48.45011848129999
 20
39.152173913
 30
0.0
 11
48.45011848129999
 21
57.75216475779998
 31
0.0
  0
LINE
  5
3C
330
2
100
AcDbEntity
  8
0
 62
     3
100
AcDbLine
 10
58.25010627419999
 20
41.95217696479999
 30
0.0
 11
58.25010627419999
 21
54.9521769648
 31
0.0
  0
LINE
  5
3D
330
2
100
AcDbEntity
  8
0
 62
     3
100
AcDbLine
 10
57.75010627419999
 20
41.95217696479999
 30
0.0
 11
57.75010627419999
 21
54.9521769648
 31
0.0
  0
LINE
  5
3E
330
2
100
AcDbEntity
  8
0
 62
     3
100
AcDbLine
 10
54.55015510229998
 20
44.45222274119998
 30
0.0
 11
54.55015510229998
 21
52.45222274119999
 31
0.0
  0
LINE
  5
3F
330
2
100
AcDbEntity
  8
0
 62
     3
100
AcDbLine
 10
54.55015510229998
 20
48.45217696479999
 30
0.0
 11
67.25010627419999
 21
48.45217696479999
 31
0.0
  0
LINE
  5
40
330
2
100
AcDbEntity
  8
0
 62
     3
100
AcDbLine
 10
48.45011848129999
 20
48.45217696479999
 30
0.0
 11
53.7501062742
 21
48.45217696479999
 31
0.0
  0
ARC
  5
41
330
2
100
AcDbEntity
  8
0
 62
     3
100
AcDbCircle
 10
51.20011848129998
 20
40.05218306829999
 30
0.0
 40
1.6999998093
100
AcDbArc
 50
179.9999093863
 51
210.883456662
  0
LINE
  5
42
330
2
100
AcDbEntity
  8
0
 62
     3
100
AcDbLine
 10
48.6501001707
 20
40.05216780949999
 30
0.0
 11
53.7501062742
 21
40.05216780949999
 31
0.0
  0
ARC
  5
43
330
2
100
AcDbEntity
  8
0
 62
     3
100
AcDbCircle
 10
48.6501001707
 20
40.25218001659999
 30
0.0
 40
0.1999999881
100
AcDbArc
 50
179.9999640277999
 51
270.0000006831999
  0
ARC
  5
44
330
2
100
AcDbEntity
  8
0
 62
     3
100
AcDbCircle
 10
48.6501001707
 20
39.152173913
 30
0.0
 40
0.1999999881
100
AcDbArc
 50
179.9999640277999
 51
270.0000006831999
  0
ARC
  5
45
330
2
100
AcDbEntity
  8
0
 62
     3
100
AcDbCircle
 10
51.2501062742
 20
48.05218306829999
 30
0.0
 40
9.0
100
AcDbArc
 50
270.0000179861
 51
279.6519495475
  0
ARC
  5
46
330
2
100
AcDbEntity
  8
0
 62
     3
100
AcDbCircle
 10
51.2501062742
 20
48.05218306829999
 30
0.0
 40
9.0
100
AcDbArc
 50
260.3479771416
 51
269.9999087031
  0
ARC
  5
47
330
2
100
AcDbEntity
  8
0
 62
     3
100
AcDbCircle
 10
51.30015510229998
 20
40.05218306829999
 30
0.0
 40
1.6999998093
100
AcDbArc
 50
329.1163605168
 51
359.9999360237998
  0
LINE
  5
48
330
2
100
AcDbEntity
  8
0
 62
     3
100
AcDbLine
 10
53.7501062742
 20
40.05216780949999
 30
0.0
 11
53.7501062742
 21
38.95217696479999
 31
0.0
  0
LINE
  5
49
330
2
100
AcDbEntity
  8
0
 62
     3
100
AcDbLine
 10
54.35008186019995
 20
46.2522105341
 30
0.0
 11
54.35008186019995
 21
50.65223494819999
 31
0.0
  0
LINE
  5
4A
330
2
100
AcDbEntity
  8
0
 62
     3
100
AcDbLine
 10
53.9501184813
 20
50.65223494819999
 30
0.0
 11
53.9501184813
 21
46.2522105341
 31
0.0
  0
LINE
  5
4B
330
2
100
AcDbEntity
  8
0
 62
     3
100
AcDbLine
 10
54.60011237769998
 20
51.70217696479999
 30
0.0
 11
54.60011237769998
 21
45.20217696479999
 31
0.0
  0
LINE
  5
4C
330
2
100
AcDbEntity
  8
0
 62
     3
100
AcDbLine
 10
54.34995978979998
 20
46.25216475779999
 30
0.0
 11
53.94999641089999
 21
46.25216475779999
 31
0.0
  0
LINE
  5
4D
330
2
100
AcDbEntity
  8
0
 62
     3
100
AcDbLine
 10
54.55015510229998
 20
45.20217696479999
 30
0.0
 11
54.60011237769998
 21
45.20217696479999
 31
0.0
  0
LINE
  5
4E
330
2
100
AcDbEntity
  8
0
 62
     3
100
AcDbLine
 10
54.55003303199998
 20
45.25216475779997
 30
0.0
 11
53.74998420389999
 21
45.25216475779997
 31
0.0
  0
LINE
  5
4F
330
2
100
AcDbEntity
  8
0
 62
     3
100
AcDbLine
 10
54.55003303199998
 20
44.45223799999999
 30
0.0
 11
53.74998420389999
 21
44.45223799999999
 31
0.0
  0
LINE
  5
50
330
2
100
AcDbEntity
  8
0
 62
     3
100
AcDbLine
 10
54.55019243619998
 20
45.2522877295
 30
0.0
 11
54.35017546639997
 21
46.2523175055
 31
0.0
  0
LINE
  5
51
330
2
100
AcDbEntity
  8
0
 62
     3
100
AcDbLine
 10
53.94989295479999
 20
46.2521695256
 30
0.0
 11
53.74987452609996
 21
45.2521400535
 31
0.0
  0
LINE
  5
52
330
2
100
AcDbEntity
  8
0
 62
     3
100
AcDbLine
 10
54.55015510229998
 20
51.70217696479999
 30
0.0
 11
54.60011237769998
 21
51.70217696479999
 31
0.0
  0
LINE
  5
53
330
2
100
AcDbEntity
  8
0
 62
     3
100
AcDbLine
 10
53.74997782239997
 20
51.6521699893
 30
0.0
 11
53.94999406269995
 21
50.65214009179999
 31
0.0
  0
LINE
  5
54
330
2
100
AcDbEntity
  8
0
 62
     3
100
AcDbLine
 10
54.34980911359996
 20
50.65238279439999
 30
0.0
 11
54.54981557159999
 21
51.6523524167
 31
0.0
  0
LINE
  5
55
330
2
100
AcDbEntity
  8
0
 62
     3
100
AcDbLine
 10
54.34995978979998
 20
50.65218917180001
 30
0.0
 11
53.94999641089999
 21
50.65218917180001
 31
0.0
  0
LINE
  5
56
330
2
100
AcDbEntity
  8
0
 62
     3
100
AcDbLine
 10
54.55003303199998
 20
51.6521891718
 30
0.0
 11
53.74998420389999
 21
51.6521891718
 31
0.0
  0
ARC
  5
57
330
2
100
AcDbEntity
  8
0
 62
     3
100
AcDbCircle
 10
59.25010627419999
 20
41.95217696479999
 30
0.0
 40
1.0
100
AcDbArc
 50
179.9999640277999
 51
270.0000006831999
  0
ARC
  5
58
330
2
100
AcDbEntity
  8
0
 62
     3
100
AcDbCircle
 10
58.7501062742
 20
41.95217696479999
 30
0.0
 40
1.0
100
AcDbArc
 50
179.9999640277999
 51
270.0000006831999
  0
LINE
  5
59
330
2
100
AcDbEntity
  8
0
 62
     3
100
AcDbLine
 10
67.3501123777
 20
51.70217696479999
 30
0.0
 11
67.3501123777
 21
45.20217696479999
 31
0.0
  0
LINE
  5
5A
330
2
100
AcDbEntity
  8
0
 62
     3
100
AcDbLine
 10
67.25010627419999
 20
45.20217696479999
 30
0.0
 11
67.25010627419999
 21
51.70217696479999
 31
0.0
  0
ARC
  5
5B
330
2
100
AcDbEntity
  8
0
 62
     3
100
AcDbCircle
 10
56.84512275369996
 20
113.8622264032999
 30
0.0
 40
1.0
100
AcDbArc
 50
5.710591391499997
 51
89.99998201389999
  0
LINE
  5
5C
330
2
100
AcDbEntity
  8
0
 62
     3
100
AcDbLine
 10
54.55015510229998
 20
67.45217696479999
 30
0.0
 11
67.25010627419999
 21
67.45217696479999
 31
0.0
  0
LINE
  5
5D
330
2
100
AcDbEntity
  8
0
 62
     3
100
AcDbLine
 10
48.45011848129999
 20
76.7521647578
 30
0.0
 11
48.45011848129999
 21
58.152173913
 31
0.0
  0
LINE
  5
5E
330
2
100
AcDbEntity
  8
0
 62
     3
100
AcDbLine
 10
48.6501001707
 20
57.95217696479999
 30
0.0
 11
49.85017341289998
 21
57.95217696479999
 31
0.0
  0
LINE
  5
5F
330
2
100
AcDbEntity
  8
0
 62
     3
100
AcDbLine
 10
48.6501001707
 20
56.8521708613
 30
0.0
 11
53.7501062742
 21
56.8521708613
 31
0.0
  0
LINE
  5
60
330
2
100
AcDbEntity
  8
0
 62
     3
100
AcDbLine
 10
48.6501001707
 20
59.05216780949999
 30
0.0
 11
53.7501062742
 21
59.05216780949999
 31
0.0
  0
LINE
  5
61
330
2
100
AcDbEntity
  8
0
 62
     3
100
AcDbLine
 10
48.45011848129999
 20
67.45217696479999
 30
0.0
 11
53.7501062742
 21
67.45217696479999
 31
0.0
  0
ARC
  5
62
330
2
100
AcDbEntity
  8
0
 62
     3
100
AcDbCircle
 10
48.6501001707
 20
57.75216475779998
 30
0.0
 40
0.1999999881
100
AcDbArc
 50
89.99998201389999
 51
179.9999640277999
  0
ARC
  5
63
330
2
100
AcDbEntity
  8
0
 62
     3
100
AcDbCircle
 10
48.6501001707
 20
56.652173913
 30
0.0
 40
0.1999999881
100
AcDbArc
 50
89.99998201389999
 51
179.9999640277999
  0
ARC
  5
64
330
2
100
AcDbEntity
  8
0
 62
     3
100
AcDbCircle
 10
48.6501001707
 20
58.152173913
 30
0.0
 40
0.1999999881
100
AcDbArc
 50
179.9999640277999
 51
270.0000006831999
  0
ARC
  5
65
330
2
100
AcDbEntity
  8
0
 62
     3
100
AcDbCircle
 10
48.6501001707
 20
59.25218001659999
 30
0.0
 40
0.1999999881
100
AcDbArc
 50
179.9999640277999
 51
270.0000006831999
  0
LINE
  5
66
330
2
100
AcDbEntity
  8
0
 62
     3
100
AcDbLine
 10
53.7501062742
 20
63.45222274120001
 30
0.0
 11
53.7501062742
 21
71.4522227412
 31
0.0
  0
LINE
  5
67
330
2
100
AcDbEntity
  8
0
 62
     3
100
AcDbLine
 10
54.55015510229998
 20
63.45222274120001
 30
0.0
 11
54.55015510229998
 21
71.4522227412
 31
0.0
  0
LINE
  5
68
330
2
100
AcDbEntity
  8
0
 62
     3
100
AcDbLine
 10
52.65016120589996
 20
59.05216780949999
 30
0.0
 11
52.65016120589996
 21
56.8521708613
 31
0.0
  0
LINE
  5
69
330
2
100
AcDbEntity
  8
0
 62
     3
100
AcDbLine
 10
49.85017341289998
 20
59.05216780949999
 30
0.0
 11
49.85017341289998
 21
56.8521708613
 31
0.0
  0
LINE
  5
6A
330
2
100
AcDbEntity
  8
0
 62
     3
100
AcDbLine
 10
53.7501062742
 20
56.8521708613
 30
0.0
 11
53.7501062742
 21
59.05216780949999
 31
0.0
  0
LINE
  5
6B
330
2
100
AcDbEntity
  8
0
 62
     3
100
AcDbLine
 10
54.55003303199998
 20
52.452238
 30
0.0
 11
53.74998420389999
 21
52.452238
 31
0.0
  0
LINE
  5
6C
330
2
100
AcDbEntity
  8
0
 62
     3
100
AcDbLine
 10
54.55003303199998
 20
63.45223799999999
 30
0.0
 11
53.74998420389999
 21
63.45223799999999
 31
0.0
  0
LINE
  5
6D
330
2
100
AcDbEntity
  8
0
 62
     3
100
AcDbLine
 10
54.60011237769998
 20
70.70217696479999
 30
0.0
 11
54.60011237769998
 21
64.20217696479999
 31
0.0
  0
LINE
  5
6E
330
2
100
AcDbEntity
  8
0
 62
     3
100
AcDbLine
 10
53.9501184813
 20
69.6522349482
 30
0.0
 11
53.9501184813
 21
65.2522105341
 31
0.0
  0
LINE
  5
6F
330
2
100
AcDbEntity
  8
0
 62
     3
100
AcDbLine
 10
54.35008186019995
 20
65.2522105341
 30
0.0
 11
54.35008186019995
 21
69.6522349482
 31
0.0
  0
LINE
  5
70
330
2
100
AcDbEntity
  8
0
 62
     3
100
AcDbLine
 10
54.55015510229998
 20
64.20217696479999
 30
0.0
 11
54.60011237769998
 21
64.20217696479999
 31
0.0
  0
LINE
  5
71
330
2
100
AcDbEntity
  8
0
 62
     3
100
AcDbLine
 10
53.94989750189997
 20
65.2521618346
 30
0.0
 11
53.7498790732
 21
64.25213236250001
 31
0.0
  0
LINE
  5
72
330
2
100
AcDbEntity
  8
0
 62
     3
100
AcDbLine
 10
54.34995978979998
 20
65.2521647578
 30
0.0
 11
53.94999641089999
 21
65.2521647578
 31
0.0
  0
LINE
  5
73
330
2
100
AcDbEntity
  8
0
 62
     3
100
AcDbLine
 10
54.55003303199998
 20
64.2521647578
 30
0.0
 11
53.74998420389999
 21
64.2521647578
 31
0.0
  0
LINE
  5
74
330
2
100
AcDbEntity
  8
0
 62
     3
100
AcDbLine
 10
54.55018273389999
 20
64.25228923739999
 30
0.0
 11
54.35016576409998
 21
65.25231901339999
 31
0.0
  0
LINE
  5
75
330
2
100
AcDbEntity
  8
0
 62
     3
100
AcDbLine
 10
54.55015510229998
 20
70.70217696479999
 30
0.0
 11
54.60011237769998
 21
70.70217696479999
 31
0.0
  0
LINE
  5
76
330
2
100
AcDbEntity
  8
0
 62
     3
100
AcDbLine
 10
54.55003303199998
 20
70.65218917180001
 30
0.0
 11
53.74998420389999
 21
70.65218917180001
 31
0.0
  0
LINE
  5
77
330
2
100
AcDbEntity
  8
0
 62
     3
100
AcDbLine
 10
54.55003303199998
 20
71.452238
 30
0.0
 11
53.74998420389999
 21
71.452238
 31
0.0
  0
LINE
  5
78
330
2
100
AcDbEntity
  8
0
 62
     3
100
AcDbLine
 10
54.34995978979998
 20
69.6521891718
 30
0.0
 11
53.94999641089999
 21
69.6521891718
 31
0.0
  0
LINE
  5
79
330
2
100
AcDbEntity
  8
0
 62
     3
100
AcDbLine
 10
54.34981366069999
 20
69.6523751034
 30
0.0
 11
54.54982011869997
 21
70.65234472569999
 31
0.0
  0
LINE
  5
7A
330
2
100
AcDbEntity
  8
0
 62
     3
100
AcDbLine
 10
53.74998488289998
 20
70.6521560905
 30
0.0
 11
53.95000112329999
 21
69.65212619289999
 31
0.0
  0
LINE
  5
7B
330
2
100
AcDbEntity
  8
0
 62
     3
100
AcDbLine
 10
48.6501001707
 20
75.8521708613
 30
0.0
 11
53.7501062742
 21
75.8521708613
 31
0.0
  0
ARC
  5
7C
330
2
100
AcDbEntity
  8
0
 62
     3
100
AcDbCircle
 10
48.6501001707
 20
76.7521647578
 30
0.0
 40
0.1999999881
100
AcDbArc
 50
89.99998201389999
 51
179.9999640277999
  0
ARC
  5
7D
330
2
100
AcDbEntity
  8
0
 62
     3
100
AcDbCircle
 10
48.6501001707
 20
75.65215865430001
 30
0.0
 40
0.1999999881
100
AcDbArc
 50
89.99998201389999
 51
179.9999640277999
  0
LINE
  5
7E
330
2
100
AcDbEntity
  8
0
 62
     3
100
AcDbLine
 10
52.6501001707
 20
76.25210372259998
 30
0.0
 11
49.85011237769999
 21
76.25210372259998
 31
0.0
  0
LINE
  5
7F
330
2
100
AcDbEntity
  8
0
 62
     3
100
AcDbLine
 10
49.85017341289998
 20
76.2521189814
 30
0.0
 11
49.85017341289998
 21
75.8521556025
 31
0.0
  0
LINE
  5
80
330
2
100
AcDbEntity
  8
0
 62
     3
100
AcDbLine
 10
52.65016120589996
 20
76.2521189814
 30
0.0
 11
52.65016120589996
 21
75.8521556025
 31
0.0
  0
LINE
  5
81
330
2
100
AcDbEntity
  8
0
 62
     3
100
AcDbLine
 10
53.7501062742
 20
75.8521708613
 30
0.0
 11
53.7501062742
 21
76.952161706
 31
0.0
  0
ARC
  5
82
330
2
100
AcDbEntity
  8
0
 62
     3
100
AcDbCircle
 10
51.2501062742
 20
117.8622264032999
 30
0.0
 40
3.0
100
AcDbArc
 50
0.0
 51
89.99998201389999
  0
LINE
  5
83
330
2
100
AcDbEntity
  8
0
 62
     3
100
AcDbLine
 10
51.2501062742
 20
120.8622264032999
 30
0.0
 11
48.45010322249999
 21
120.8622264032999
 31
0.0
  0
LINE
  5
84
330
2
100
AcDbEntity
  8
0
  6
CENTER
 62
     3
100
AcDbLine
 10
54.51016181619997
 20
117.8622264032999
 30
0.0
 11
48.94784492169997
 21
117.8622264032999
 31
0.0
  0
ARC
  5
86
330
2
100
AcDbEntity
  8
0
 62
     3
100
AcDbCircle
 10
49.45010322249999
 20
115.8622264032999
 30
0.0
 40
1.0
100
AcDbArc
 50
179.9999640277999
 51
270.0000006831999
  0
LINE
  5
87
330
2
100
AcDbEntity
  8
0
 62
     3
100
AcDbLine
 10
54.55010932599996
 20
114.9116496211
 30
0.0
 11
54.55010932599996
 21
106.3622264032999
 31
0.0
  0
LINE
  5
88
330
2
100
AcDbEntity
  8
0
 62
     3
100
AcDbLine
 10
53.7501062742
 20
114.8271769647999
 30
0.0
 11
53.7501062742
 21
106.3622264032999
 31
0.0
  0
LINE
  5
89
330
2
100
AcDbEntity
  8
0
 62
     3
100
AcDbLine
 10
54.5501001799
 20
106.3622479573
 30
0.0
 11
54.35010098779997
 21
105.3622457354999
 31
0.0
  0
LINE
  5
8A
330
2
100
AcDbEntity
  8
0
 62
     3
100
AcDbLine
 10
53.75009801779999
 20
106.3622428771999
 30
0.0
 11
53.9500972708
 21
105.3622406554
 31
0.0
  0
LINE
  5
8B
330
2
100
AcDbEntity
  8
0
 62
     3
100
AcDbLine
 10
53.95010322249999
 20
105.3622264032999
 30
0.0
 11
54.35011237769998
 21
105.3622264032999
 31
0.0
  0
LINE
  5
8C
330
2
100
AcDbEntity
  8
0
 62
     3
100
AcDbLine
 10
53.7501062742
 20
106.3622264032999
 30
0.0
 11
54.55010932599996
 21
106.3622264032999
 31
0.0
  0
CIRCLE
  5
8D
330
2
100
AcDbEntity
  8
0
 62
     3
100
AcDbCircle
 10
51.2501062742
 20
117.8622264032999
 30
0.0
 40
1.1999998093
  0
LINE
  5
8E
330
2
100
AcDbEntity
  8
0
  6
CENTER
 62
     3
100
AcDbLine
 10
51.2501062742
 20
120.4294413691
 30
0.0
 11
51.2501062742
 21
115.5028208857
 31
0.0
  0
LINE
  5
8F
330
2
100
AcDbEntity
  8
0
 62
     3
100
AcDbLine
 10
54.25010627419999
 20
117.8622264032999
 30
0.0
 11
54.25010627419999
 21
114.8622264032999
 31
0.0
  0
LINE
  5
90
330
2
100
AcDbEntity
  8
0
 62
     3
100
AcDbLine
 10
53.7501062742
 20
113.3622264033
 30
0.0
 11
54.55010932599996
 21
113.3622264033
 31
0.0
  0
LINE
  5
91
330
2
100
AcDbEntity
  8
0
 62
     3
100
AcDbLine
 10
54.65011542949998
 20
143.3622416620998
 30
0.0
 11
54.65011542949998
 21
123.6622141962
 31
0.0
  0
ARC
  5
92
330
2
100
AcDbEntity
  8
0
 62
     3
100
AcDbCircle
 10
56.65011542949997
 20
123.6622141962
 30
0.0
 40
2.0
100
AcDbArc
 50
179.9999640277999
 51
270.0000006831999
  0
ARC
  5
93
330
2
100
AcDbEntity
  8
0
 62
     3
100
AcDbCircle
 10
58.7501062742
 20
73.952161706
 30
0.0
 40
1.0
100
AcDbArc
 50
89.99998201389999
 51
179.9999640277999
  0
ARC
  5
94
330
2
100
AcDbEntity
  8
0
 62
     3
100
AcDbCircle
 10
59.25010627419999
 20
73.952161706
 30
0.0
 40
1.0
100
AcDbArc
 50
89.99998201389999
 51
179.9999640277999
  0
LINE
  5
95
330
2
100
AcDbEntity
  8
0
 62
     3
100
AcDbLine
 10
57.75010627419999
 20
73.952161706
 30
0.0
 11
57.75010627419999
 21
60.95217696479998
 31
0.0
  0
LINE
  5
96
330
2
100
AcDbEntity
  8
0
 62
     3
100
AcDbLine
 10
58.25010627419999
 20
73.952161706
 30
0.0
 11
58.25010627419999
 21
60.95217696479998
 31
0.0
  0
ARC
  5
97
330
2
100
AcDbEntity
  8
0
 62
     3
100
AcDbCircle
 10
59.25010627419999
 20
54.9521769648
 30
0.0
 40
1.0
100
AcDbArc
 50
89.99998201389999
 51
179.9999640277999
  0
ARC
  5
98
330
2
100
AcDbEntity
  8
0
 62
     3
100
AcDbCircle
 10
58.7501062742
 20
54.9521769648
 30
0.0
 40
1.0
100
AcDbArc
 50
89.99998201389999
 51
179.9999640277999
  0
ARC
  5
99
330
2
100
AcDbEntity
  8
0
 62
     3
100
AcDbCircle
 10
59.25010627419999
 20
60.95217696479998
 30
0.0
 40
1.0
100
AcDbArc
 50
179.9999640277999
 51
270.0000006831999
  0
ARC
  5
9A
330
2
100
AcDbEntity
  8
0
 62
     3
100
AcDbCircle
 10
58.7501062742
 20
60.95217696479998
 30
0.0
 40
1.0
100
AcDbArc
 50
179.9999640277999
 51
270.0000006831999
  0
LINE
  5
9B
330
2
100
AcDbEntity
  8
0
 62
     3
100
AcDbLine
 10
67.25010627419999
 20
70.70217696479999
 30
0.0
 11
67.25010627419999
 21
64.20217696479999
 31
0.0
  0
LINE
  5
9C
330
2
100
AcDbEntity
  8
0
 62
     3
100
AcDbLine
 10
67.3501123777
 20
70.70217696479999
 30
0.0
 11
67.3501123777
 21
64.20217696479999
 31
0.0
  0
ARC
  5
9D
330
2
100
AcDbEntity
  8
0
 62
     3
100
AcDbCircle
 10
59.15510505349996
 20
110.8622264033
 30
0.0
 40
1.0
100
AcDbArc
 50
185.7106205333999
 51
270.0000179861
  0
LINE
  5
9E
330
2
100
AcDbEntity
  8
0
 62
     3
100
AcDbLine
 10
57.84015290089996
 20
113.9617295429
 30
0.0
 11
58.16005236409998
 21
110.7627341441999
 31
0.0
  0
LINE
  5
9F
330
2
100
AcDbEntity
  8
0
 62
     3
100
AcDbLine
 10
89.75013679179999
 20
54.9521769648
 30
0.0
 11
89.75013679179999
 21
41.95217696479999
 31
0.0
  0
LINE
  5
A0
330
2
100
AcDbEntity
  8
0
 62
     3
100
AcDbLine
 10
93.750121533
 20
52.45222274119999
 30
0.0
 11
93.750121533
 21
44.45222274119998
 31
0.0
  0
LINE
  5
A1
330
2
100
AcDbEntity
  8
0
 62
     3
100
AcDbLine
 10
99.05012458480001
 20
39.152173913
 30
0.0
 11
99.05012458480001
 21
57.75216475779998
 31
0.0
  0
LINE
  5
A2
330
2
100
AcDbEntity
  8
0
 62
     3
100
AcDbLine
 10
89.25013679179995
 20
41.95217696479999
 30
0.0
 11
89.25013679179995
 21
54.9521769648
 31
0.0
  0
LINE
  5
A3
330
2
100
AcDbEntity
  8
0
 62
     3
100
AcDbLine
 10
92.9500727049
 20
44.45222274119998
 30
0.0
 11
92.9500727049
 21
52.45222274119999
 31
0.0
  0
LINE
  5
A4
330
2
100
AcDbEntity
  8
0
 62
     3
100
AcDbLine
 10
93.750121533
 20
48.45217696479999
 30
0.0
 11
99.05012458480001
 21
48.45217696479999
 31
0.0
  0
LINE
  5
A5
330
2
100
AcDbEntity
  8
0
 62
     3
100
AcDbLine
 10
93.750121533
 20
40.05216780949999
 30
0.0
 11
98.85012763649999
 21
40.05216780949999
 31
0.0
  0
LINE
  5
A6
330
2
100
AcDbEntity
  8
0
 62
     3
100
AcDbLine
 10
93.750121533
 20
40.05216780949999
 30
0.0
 11
93.750121533
 21
38.95217696479999
 31
0.0
  0
LINE
  5
A7
330
2
100
AcDbEntity
  8
0
 62
     3
100
AcDbLine
 10
87.1501154295
 20
48.45217696479999
 30
0.0
 11
92.90011542949995
 21
48.45217696479999
 31
0.0
  0
LINE
  5
A8
330
2
100
AcDbEntity
  8
0
 62
     3
100
AcDbLine
 10
87.25012153299999
 20
45.20217696479999
 30
0.0
 11
87.25012153299999
 21
51.70217696479999
 31
0.0
  0
LINE
  5
A9
330
2
100
AcDbEntity
  8
0
 62
     3
100
AcDbLine
 10
87.1501154295
 20
51.70217696479999
 30
0.0
 11
87.1501154295
 21
45.20217696479999
 31
0.0
  0
ARC
  5
AA
330
2
100
AcDbEntity
  8
0
 62
     3
100
AcDbCircle
 10
88.75013679179998
 20
41.95217696479999
 30
0.0
 40
1.0
100
AcDbArc
 50
270.0000179861
 51
0.0
  0
ARC
  5
AB
330
2
100
AcDbEntity
  8
0
 62
     3
100
AcDbCircle
 10
88.25013679179994
 20
41.95217696479999
 30
0.0
 40
1.0
100
AcDbArc
 50
270.0000179861
 51
0.0
  0
LINE
  5
AC
330
2
100
AcDbEntity
  8
0
 62
     3
100
AcDbLine
 10
93.550109326
 20
50.65223494819999
 30
0.0
 11
93.550109326
 21
46.2522105341
 31
0.0
  0
LINE
  5
AD
330
2
100
AcDbEntity
  8
0
 62
     3
100
AcDbLine
 10
93.15014594709998
 20
46.2522105341
 30
0.0
 11
93.15014594709998
 21
50.65223494819999
 31
0.0
  0
LINE
  5
AE
330
2
100
AcDbEntity
  8
0
 62
     3
100
AcDbLine
 10
92.90011542949995
 20
51.70217696479999
 30
0.0
 11
92.90011542949995
 21
45.20217696479999
 31
0.0
  0
LINE
  5
AF
330
2
100
AcDbEntity
  8
0
 62
     3
100
AcDbLine
 10
93.15002387679998
 20
46.25216475779999
 30
0.0
 11
93.54998725569997
 21
46.25216475779999
 31
0.0
  0
LINE
  5
B0
330
2
100
AcDbEntity
  8
0
 62
     3
100
AcDbLine
 10
92.90011542949995
 20
45.20217696479999
 30
0.0
 11
92.9500727049
 21
45.20217696479999
 31
0.0
  0
LINE
  5
B1
330
2
100
AcDbEntity
  8
0
 62
     3
100
AcDbLine
 10
92.94995063459998
 20
45.25216475779997
 30
0.0
 11
93.74999946269999
 21
45.25216475779997
 31
0.0
  0
LINE
  5
B2
330
2
100
AcDbEntity
  8
0
 62
     3
100
AcDbLine
 10
92.94995063459998
 20
44.45223799999999
 30
0.0
 11
93.74999946269999
 21
44.45223799999999
 31
0.0
  0
LINE
  5
B3
330
2
100
AcDbEntity
  8
0
 62
     3
100
AcDbLine
 10
93.54999782570001
 20
46.2521541416
 30
0.0
 11
93.7500020955
 21
45.2521840938
 31
0.0
  0
LINE
  5
B4
330
2
100
AcDbEntity
  8
0
 62
     3
100
AcDbLine
 10
92.95006167999998
 20
45.25214112979999
 30
0.0
 11
93.1500666792
 21
46.2521110561
 31
0.0
  0
LINE
  5
B5
330
2
100
AcDbEntity
  8
0
 62
     3
100
AcDbLine
 10
92.90011542949995
 20
51.70217696479999
 30
0.0
 11
92.9500727049
 21
51.70217696479999
 31
0.0
  0
LINE
  5
B6
330
2
100
AcDbEntity
  8
0
 62
     3
100
AcDbLine
 10
93.15002387679998
 20
50.65218917180001
 30
0.0
 11
93.54998725569997
 21
50.65218917180001
 31
0.0
  0
LINE
  5
B7
330
2
100
AcDbEntity
  8
0
 62
     3
100
AcDbLine
 10
93.7500023585
 20
51.65216620939999
 30
0.0
 11
93.54998538869995
 21
50.6521364334
 31
0.0
  0
LINE
  5
B8
330
2
100
AcDbEntity
  8
0
 62
     3
100
AcDbLine
 10
93.15000451039995
 20
50.6521019002
 30
0.0
 11
92.94998826999998
 21
51.65213179770001
 31
0.0
  0
LINE
  5
B9
330
2
100
AcDbEntity
  8
0
 62
     3
100
AcDbLine
 10
92.94995063459998
 20
51.6521891718
 30
0.0
 11
93.74999946269999
 21
51.6521891718
 31
0.0
  0
ARC
  5
BA
330
2
100
AcDbEntity
  8
0
 62
     3
100
AcDbCircle
 10
96.250121533
 20
48.05218306829999
 30
0.0
 40
9.0
100
AcDbArc
 50
270.0000179861
 51
279.6519495475
  0
ARC
  5
BB
330
2
100
AcDbEntity
  8
0
 62
     3
100
AcDbCircle
 10
96.250121533
 20
48.05218306829999
 30
0.0
 40
9.0
100
AcDbArc
 50
260.3479771416
 51
269.9999087031
  0
ARC
  5
BC
330
2
100
AcDbEntity
  8
0
 62
     3
100
AcDbCircle
 10
96.20013374
 20
40.05218306829999
 30
0.0
 40
1.6999998093
100
AcDbArc
 50
179.9999093863
 51
210.883456662
  0
ARC
  5
BD
330
2
100
AcDbEntity
  8
0
 62
     3
100
AcDbCircle
 10
96.30017036109995
 20
40.05218306829999
 30
0.0
 40
1.6999998093
100
AcDbArc
 50
329.1163605168
 51
359.9999360237998
  0
ARC
  5
BE
330
2
100
AcDbEntity
  8
0
 62
     3
100
AcDbCircle
 10
98.85012763649999
 20
40.25218001659999
 30
0.0
 40
0.1999999881
100
AcDbArc
 50
270.0000179861
 51
0.0
  0
ARC
  5
BF
330
2
100
AcDbEntity
  8
0
 62
     3
100
AcDbCircle
 10
98.85012763649999
 20
39.152173913
 30
0.0
 40
0.1999999881
100
AcDbArc
 50
270.0000179861
 51
0.0
  0
LINE
  5
C0
330
2
100
AcDbEntity
  8
0
 62
     3
100
AcDbLine
 10
99.05012458480001
 20
76.7521647578
 30
0.0
 11
99.05012458480001
 21
58.152173913
 31
0.0
  0
ARC
  5
C1
330
2
100
AcDbEntity
  8
0
 62
     3
100
AcDbCircle
 10
88.75013679179998
 20
73.952161706
 30
0.0
 40
1.0
100
AcDbArc
 50
0.0
 51
89.99998201389999
  0
ARC
  5
C2
330
2
100
AcDbEntity
  8
0
 62
     3
100
AcDbCircle
 10
88.25013679179994
 20
73.952161706
 30
0.0
 40
1.0
100
AcDbArc
 50
0.0
 51
89.99998201389999
  0
LINE
  5
C3
330
2
100
AcDbEntity
  8
0
 62
     3
100
AcDbLine
 10
93.750121533
 20
56.8521708613
 30
0.0
 11
98.85012763649999
 21
56.8521708613
 31
0.0
  0
LINE
  5
C4
330
2
100
AcDbEntity
  8
0
 62
     3
100
AcDbLine
 10
93.750121533
 20
67.45217696479999
 30
0.0
 11
99.05012458480001
 21
67.45217696479999
 31
0.0
  0
LINE
  5
C5
330
2
100
AcDbEntity
  8
0
 62
     3
100
AcDbLine
 10
93.750121533
 20
59.05216780949999
 30
0.0
 11
98.85012763649999
 21
59.05216780949999
 31
0.0
  0
LINE
  5
C6
330
2
100
AcDbEntity
  8
0
 62
     3
100
AcDbLine
 10
89.75013679179999
 20
73.952161706
 30
0.0
 11
89.75013679179999
 21
60.95217696479998
 31
0.0
  0
LINE
  5
C7
330
2
100
AcDbEntity
  8
0
 62
     3
100
AcDbLine
 10
89.25013679179995
 20
73.952161706
 30
0.0
 11
89.25013679179995
 21
60.95217696479998
 31
0.0
  0
LINE
  5
C8
330
2
100
AcDbEntity
  8
0
 62
     3
100
AcDbLine
 10
93.750121533
 20
63.45222274120001
 30
0.0
 11
93.750121533
 21
71.4522227412
 31
0.0
  0
LINE
  5
C9
330
2
100
AcDbEntity
  8
0
 62
     3
100
AcDbLine
 10
92.9500727049
 20
63.45222274120001
 30
0.0
 11
92.9500727049
 21
71.4522227412
 31
0.0
  0
ARC
  5
CA
330
2
100
AcDbEntity
  8
0
 62
     3
100
AcDbCircle
 10
88.25013679179994
 20
54.9521769648
 30
0.0
 40
1.0
100
AcDbArc
 50
0.0
 51
89.99998201389999
  0
ARC
  5
CB
330
2
100
AcDbEntity
  8
0
 62
     3
100
AcDbCircle
 10
88.75013679179998
 20
54.9521769648
 30
0.0
 40
1.0
100
AcDbArc
 50
0.0
 51
89.99998201389999
  0
ARC
  5
CC
330
2
100
AcDbEntity
  8
0
 62
     3
100
AcDbCircle
 10
88.75013679179998
 20
60.95217696479998
 30
0.0
 40
1.0
100
AcDbArc
 50
270.0000179861
 51
0.0
  0
ARC
  5
CD
330
2
100
AcDbEntity
  8
0
 62
     3
100
AcDbCircle
 10
88.25013679179994
 20
60.95217696479998
 30
0.0
 40
1.0
100
AcDbArc
 50
270.0000179861
 51
0.0
  0
LINE
  5
CE
330
2
100
AcDbEntity
  8
0
 62
     3
100
AcDbLine
 10
93.750121533
 20
56.8521708613
 30
0.0
 11
93.750121533
 21
59.05216780949999
 31
0.0
  0
LINE
  5
CF
330
2
100
AcDbEntity
  8
0
 62
     3
100
AcDbLine
 10
92.94995063459998
 20
52.452238
 30
0.0
 11
93.74999946269999
 21
52.452238
 31
0.0
  0
LINE
  5
D0
330
2
100
AcDbEntity
  8
0
 62
     3
100
AcDbLine
 10
92.94995063459998
 20
63.45223799999999
 30
0.0
 11
93.74999946269999
 21
63.45223799999999
 31
0.0
  0
LINE
  5
D1
330
2
100
AcDbEntity
  8
0
 62
     3
100
AcDbLine
 10
87.1501154295
 20
67.45217696479999
 30
0.0
 11
92.90011542949995
 21
67.45217696479999
 31
0.0
  0
LINE
  5
D2
330
2
100
AcDbEntity
  8
0
 62
     3
100
AcDbLine
 10
87.25012153299999
 20
70.70217696479999
 30
0.0
 11
87.25012153299999
 21
64.20217696479999
 31
0.0
  0
LINE
  5
D3
330
2
100
AcDbEntity
  8
0
 62
     3
100
AcDbLine
 10
87.1501154295
 20
70.70217696479999
 30
0.0
 11
87.1501154295
 21
64.20217696479999
 31
0.0
  0
LINE
  5
D4
330
2
100
AcDbEntity
  8
0
 62
     3
100
AcDbLine
 10
92.90011542949995
 20
70.70217696479999
 30
0.0
 11
92.90011542949995
 21
64.20217696479999
 31
0.0
  0
LINE
  5
D5
330
2
100
AcDbEntity
  8
0
 62
     3
100
AcDbLine
 10
93.15014594709998
 20
65.2522105341
 30
0.0
 11
93.15014594709998
 21
69.6522349482
 31
0.0
  0
LINE
  5
D6
330
2
100
AcDbEntity
  8
0
 62
     3
100
AcDbLine
 10
93.550109326
 20
69.6522349482
 30
0.0
 11
93.550109326
 21
65.2522105341
 31
0.0
  0
LINE
  5
D7
330
2
100
AcDbEntity
  8
0
 62
     3
100
AcDbLine
 10
92.90011542949995
 20
64.20217696479999
 30
0.0
 11
92.9500727049
 21
64.20217696479999
 31
0.0
  0
LINE
  5
D8
330
2
100
AcDbEntity
  8
0
 62
     3
100
AcDbLine
 10
92.94995063459998
 20
64.2521647578
 30
0.0
 11
93.74999946269999
 21
64.2521647578
 31
0.0
  0
LINE
  5
D9
330
2
100
AcDbEntity
  8
0
 62
     3
100
AcDbLine
 10
92.95005641979999
 20
64.25214563039999
 30
0.0
 11
93.15006141899996
 21
65.25211555670001
 31
0.0
  0
LINE
  5
DA
330
2
100
AcDbEntity
  8
0
 62
     3
100
AcDbLine
 10
93.55000488619998
 20
65.25214024270001
 30
0.0
 11
93.75000915599995
 21
64.2521701949
 31
0.0
  0
LINE
  5
DB
330
2
100
AcDbEntity
  8
0
 62
     3
100
AcDbLine
 10
93.15002387679998
 20
65.2521647578
 30
0.0
 11
93.54998725569997
 21
65.2521647578
 31
0.0
  0
LINE
  5
DC
330
2
100
AcDbEntity
  8
0
 62
     3
100
AcDbLine
 10
92.90011542949995
 20
70.70217696479999
 30
0.0
 11
92.9500727049
 21
70.70217696479999
 31
0.0
  0
LINE
  5
DD
330
2
100
AcDbEntity
  8
0
 62
     3
100
AcDbLine
 10
92.94995063459998
 20
70.65218917180001
 30
0.0
 11
93.74999946269999
 21
70.65218917180001
 31
0.0
  0
LINE
  5
DE
330
2
100
AcDbEntity
  8
0
 62
     3
100
AcDbLine
 10
92.94995063459998
 20
71.452238
 30
0.0
 11
93.74999946269999
 21
71.452238
 31
0.0
  0
LINE
  5
DF
330
2
100
AcDbEntity
  8
0
 62
     3
100
AcDbLine
 10
93.15001157089998
 20
69.6520880013
 30
0.0
 11
92.94999533049999
 21
70.6521178989
 31
0.0
  0
LINE
  5
E0
330
2
100
AcDbEntity
  8
0
 62
     3
100
AcDbLine
 10
93.74999709829998
 20
70.65217070999998
 30
0.0
 11
93.54998012849998
 21
69.6521409339
 31
0.0
  0
LINE
  5
E1
330
2
100
AcDbEntity
  8
0
 62
     3
100
AcDbLine
 10
93.15002387679998
 20
69.6521891718
 30
0.0
 11
93.54998725569997
 21
69.6521891718
 31
0.0
  0
LINE
  5
E2
330
2
100
AcDbEntity
  8
0
 62
     3
100
AcDbLine
 10
97.65017646469999
 20
57.95217696479999
 30
0.0
 11
98.85012763649999
 21
57.95217696479999
 31
0.0
  0
LINE
  5
E3
330
2
100
AcDbEntity
  8
0
 62
     3
100
AcDbLine
 10
97.65017646469999
 20
59.05216780949999
 30
0.0
 11
97.65017646469999
 21
56.8521708613
 31
0.0
  0
LINE
  5
E4
330
2
100
AcDbEntity
  8
0
 62
     3
100
AcDbLine
 10
94.85018867169999
 20
59.05216780949999
 30
0.0
 11
94.85018867169999
 21
56.8521708613
 31
0.0
  0
ARC
  5
E5
330
2
100
AcDbEntity
  8
0
 62
     3
100
AcDbCircle
 10
98.85012763649999
 20
57.75216475779998
 30
0.0
 40
0.1999999881
100
AcDbArc
 50
0.0
 51
89.99998201389999
  0
ARC
  5
E6
330
2
100
AcDbEntity
  8
0
 62
     3
100
AcDbCircle
 10
98.85012763649999
 20
56.652173913
 30
0.0
 40
0.1999999881
100
AcDbArc
 50
0.0
 51
89.99998201389999
  0
ARC
  5
E7
330
2
100
AcDbEntity
  8
0
 62
     3
100
AcDbCircle
 10
98.85012763649999
 20
58.152173913
 30
0.0
 40
0.1999999881
100
AcDbArc
 50
270.0000179861
 51
0.0
  0
ARC
  5
E8
330
2
100
AcDbEntity
  8
0
 62
     3
100
AcDbCircle
 10
98.85012763649999
 20
59.25218001659999
 30
0.0
 40
0.1999999881
100
AcDbArc
 50
270.0000179861
 51
0.0
  0
LINE
  5
E9
330
2
100
AcDbEntity
  8
0
 62
     3
100
AcDbLine
 10
93.750121533
 20
75.8521708613
 30
0.0
 11
98.85012763649999
 21
75.8521708613
 31
0.0
  0
LINE
  5
EA
330
2
100
AcDbEntity
  8
0
 62
     3
100
AcDbLine
 10
93.750121533
 20
75.8521708613
 30
0.0
 11
93.750121533
 21
76.952161706
 31
0.0
  0
LINE
  5
EB
330
2
100
AcDbEntity
  8
0
 62
     3
100
AcDbLine
 10
97.6501154295
 20
76.25210372259998
 30
0.0
 11
94.85012763649999
 21
76.25210372259998
 31
0.0
  0
LINE
  5
EC
330
2
100
AcDbEntity
  8
0
 62
     3
100
AcDbLine
 10
94.85018867169999
 20
76.2521189814
 30
0.0
 11
94.85018867169999
 21
75.8521556025
 31
0.0
  0
LINE
  5
ED
330
2
100
AcDbEntity
  8
0
 62
     3
100
AcDbLine
 10
97.65017646469999
 20
76.2521189814
 30
0.0
 11
97.65017646469999
 21
75.8521556025
 31
0.0
  0
ARC
  5
EE
330
2
100
AcDbEntity
  8
0
 62
     3
100
AcDbCircle
 10
98.85012763649999
 20
76.7521647578
 30
0.0
 40
0.1999999881
100
AcDbArc
 50
0.0
 51
89.99998201389999
  0
ARC
  5
EF
330
2
100
AcDbEntity
  8
0
 62
     3
100
AcDbCircle
 10
98.85012763649999
 20
75.65215865430001
 30
0.0
 40
0.1999999881
100
AcDbArc
 50
0.0
 51
89.99998201389999
  0
LINE
  5
F0
330
2
100
AcDbEntity
  8
0
  6
CENTER
 62
     3
100
AcDbLine
 10
96.250121533
 20
121.4624308711
 30
0.0
 11
96.250121533
 21
115.1849803095
 31
0.0
  0
ARC
  5
F1
330
2
100
AcDbEntity
  8
0
 62
     3
100
AcDbCircle
 10
96.250121533
 20
117.8622264032999
 30
0.0
 40
3.0
100
AcDbArc
 50
89.99998201389999
 51
179.9999640277999
  0
LINE
  5
F2
330
2
100
AcDbEntity
  8
0
  6
CENTER
 62
     3
100
AcDbLine
 10
98.77021735820001
 20
117.8622264032999
 30
0.0
 11
93.44630378399999
 21
117.8622264032999
 31
0.0
  0
LINE
  5
F3
330
2
100
AcDbEntity
  8
0
 62
     3
100
AcDbLine
 10
92.9501184813
 20
114.8280924920999
 30
0.0
 11
92.9501184813
 21
106.3622416620999
 31
0.0
  0
LINE
  5
F4
330
2
100
AcDbEntity
  8
0
 62
     3
100
AcDbLine
 10
93.750121533
 20
114.8280924920999
 30
0.0
 11
93.750121533
 21
106.3622416620999
 31
0.0
  0
LINE
  5
F5
330
2
100
AcDbEntity
  8
0
 62
     3
100
AcDbLine
 10
93.7500916107
 20
106.3622485472
 30
0.0
 11
93.55009120289995
 21
105.3622465686
 31
0.0
  0
LINE
  5
F6
330
2
100
AcDbEntity
  8
0
 62
     3
100
AcDbLine
 10
92.9501190967
 20
106.3622632043
 30
0.0
 11
93.1501194438
 21
105.3622612257
 31
0.0
  0
LINE
  5
F7
330
2
100
AcDbEntity
  8
0
 62
     3
100
AcDbLine
 10
92.9501184813
 20
106.3622416620999
 30
0.0
 11
93.750121533
 21
106.3622416620999
 31
0.0
  0
LINE
  5
F8
330
2
100
AcDbEntity
  8
0
 62
     3
100
AcDbLine
 10
93.15011542950001
 20
105.3622416620999
 30
0.0
 11
93.550109326
 21
105.3622416620999
 31
0.0
  0
LINE
  5
F9
330
2
100
AcDbEntity
  8
0
  6
CENTER
 62
     3
100
AcDbLine
 10
92.01599067359998
 20
117.3622264033
 30
0.0
 11
88.04292243629999
 21
117.3622264033
 31
0.0
  0
CIRCLE
  5
FA
330
2
100
AcDbEntity
  8
0
 62
     3
100
AcDbCircle
 10
89.75012153299999
 20
117.3622264033
 30
0.0
 40
1.0999994278
  0
LINE
  5
FB
330
2
100
AcDbEntity
  8
0
  6
CENTER
 62
     3
100
AcDbLine
 10
89.75012153299999
 20
120.1910533076
 30
0.0
 11
89.75012153299999
 21
115.2644328242
 31
0.0
  0
ARC
  5
FC
330
2
100
AcDbEntity
  8
0
 62
     3
100
AcDbCircle
 10
88.34513801249999
 20
110.8622264033
 30
0.0
 40
1.0
100
AcDbArc
 50
270.0000179861
 51
354.2894051934999
  0
LINE
  5
FD
330
2
100
AcDbEntity
  8
0
 62
     3
100
AcDbLine
 10
89.6600676897
 20
113.9617369534
 30
0.0
 11
89.34016670819998
 21
110.7627263716999
 31
0.0
  0
ARC
  5
FE
330
2
100
AcDbEntity
  8
0
 62
     3
100
AcDbCircle
 10
90.65512031229998
 20
113.8622264032999
 30
0.0
 40
1.0
100
AcDbArc
 50
89.99998201389999
 51
174.2893794665999
  0
CIRCLE
  5
FF
330
2
100
AcDbEntity
  8
0
 62
     3
100
AcDbCircle
 10
89.75012153299999
 20
117.3622264033
 30
0.0
 40
0.6999999881
  0
LINE
  5
100
330
2
100
AcDbEntity
  8
0
 62
     3
100
AcDbLine
 10
93.25012153299999
 20
117.8622264032999
 30
0.0
 11
93.25012153299999
 21
114.8622264032999
 31
0.0
  0
LINE
  5
101
330
2
100
AcDbEntity
  8
0
 62
     3
100
AcDbLine
 10
92.9501184813
 20
113.3622264033
 30
0.0
 11
93.750121533
 21
113.3622264033
 31
0.0
  0
LINE
  5
102
330
2
100
AcDbEntity
  8
0
 62
     3
100
AcDbLine
 10
99.05012458480001
 20
120.8622264032999
 30
0.0
 11
96.250121533
 21
120.8622264032999
 31
0.0
  0
ARC
  5
103
330
2
100
AcDbEntity
  8
0
 62
     3
100
AcDbCircle
 10
98.0501245848
 20
115.8622264032999
 30
0.0
 40
1.0
100
AcDbArc
 50
270.0000179861
 51
0.0
  0
CIRCLE
  5
104
330
2
100
AcDbEntity
  8
0
 62
     3
100
AcDbCircle
 10
96.250121533
 20
117.8622264032999
 30
0.0
 40
1.1999998093
  0
LINE
  5
105
330
2
100
AcDbEntity
  8
0
 62
     3
100
AcDbLine
 10
92.8501276365
 20
143.3622416620998
 30
0.0
 11
92.8501276365
 21
123.6622141962
 31
0.0
  0
ARC
  5
106
330
2
100
AcDbEntity
  8
0
 62
     3
100
AcDbCircle
 10
90.85012763649999
 20
123.6622141962
 30
0.0
 40
2.0
100
AcDbArc
 50
270.0000179861
 51
0.0
  0
LINE
  5
107
330
2
100
AcDbEntity
  8
0
100
AcDbLine
 10
210.0
 20
297.0
 30
0.0
 11
0.0
 21
297.0
 31
0.0
  0
LINE
  5
10B
330
2
100
AcDbEntity
  8
0
 62
     3
100
AcDbLine
 10
86.47853034649997
 20
226.9101695184999
 30
0.0
 11
88.30012458479997
 21
226.9101695184999
 31
0.0
  0
LINE
  5
10C
330
2
100
AcDbEntity
  8
0
 62
     3
100
AcDbLine
 10
86.47853034649997
 20
222.9101695185
 30
0.0
 11
88.30012458479997
 21
222.9101695185
 31
0.0
  0
LINE
  5
10D
330
2
100
AcDbEntity
  8
0
 62
     3
100
AcDbLine
 10
86.47853034649997
 20
207.9101695184998
 30
0.0
 11
88.30012458479997
 21
207.9101695184998
 31
0.0
  0
LINE
  5
10E
330
2
100
AcDbEntity
  8
0
 62
     3
100
AcDbLine
 10
86.47853034649997
 20
203.9101695184998
 30
0.0
 11
88.30012458479997
 21
203.9101695184998
 31
0.0
  0
LINE
  5
10F
330
2
100
AcDbEntity
  8
0
 62
     3
100
AcDbLine
 10
81.25010627420001
 20
154.4622325068
 30
0.0
 11
88.30012458479997
 21
154.4622325068
 31
0.0
  0
LINE
  5
110
330
2
100
AcDbEntity
  8
0
 62
     3
100
AcDbLine
 10
74.8553156248
 20
215.4101695185
 30
0.0
 11
98.85012763649999
 21
215.4101695185
 31
0.0
  0
LINE
  5
111
330
2
100
AcDbEntity
  8
0
 62
     3
100
AcDbLine
 10
86.47854560529998
 20
154.8622416620998
 30
0.0
 11
92.25012153299999
 21
154.8622416620998
 31
0.0
  0
LINE
  5
112
330
2
100
AcDbEntity
  8
0
  6
CENTER
 62
     3
100
AcDbLine
 10
79.25009776429995
 20
151.3622297089
 30
0.0
 11
89.7342224844
 21
169.5579190293998
 31
0.0
  0
ARC
  5
113
330
2
100
AcDbEntity
  8
0
  6
PHANTOM
 62
     3
100
AcDbCircle
 10
79.25010627419998
 20
151.3622416620999
 30
0.0
 40
21.0
100
AcDbArc
 50
60.04998499399999
 51
116.4499715371
  0
LINE
  5
115
330
2
100
AcDbEntity
  8
0
 62
     3
100
AcDbLine
 10
84.29380744609998
 20
224.9101695185
 30
0.0
 11
91.85012763649998
 21
224.9101695185
 31
0.0
  0
LINE
  5
116
330
2
100
AcDbEntity
  8
0
 62
     3
100
AcDbLine
 10
84.29380744609998
 20
205.9101695184998
 30
0.0
 11
91.85012763649998
 21
205.9101695184998
 31
0.0
  0
LINE
  5
117
330
2
100
AcDbEntity
  8
0
 62
     3
100
AcDbLine
 10
56.65011542949997
 20
145.3622416620999
 30
0.0
 11
90.85012763649999
 21
145.3622416620999
 31
0.0
  0
LINE
  5
118
330
2
100
AcDbEntity
  8
0
  6
PHANTOM
 62
     3
100
AcDbLine
 10
46.70977729469996
 20
156.1122416621
 30
0.0
 11
101.8084406247999
 21
156.1122416621
 31
0.0
  0
LINE
  5
119
330
2
100
AcDbEntity
  8
0
 62
     3
100
AcDbLine
 10
48.6501001707
 20
234.4101695185
 30
0.0
 11
98.85012763649999
 21
234.4101695185
 31
0.0
  0
LINE
  5
11A
330
2
100
AcDbEntity
  8
0
 62
     3
100
AcDbLine
 10
48.6501001707
 20
196.4101695185
 30
0.0
 11
98.85012763649999
 21
196.4101695185
 31
0.0
  0
LINE
  5
11B
330
2
100
AcDbEntity
  8
0
  6
CENTER
 62
     3
100
AcDbLine
 10
79.25010627419998
 20
237.3264598016999
 30
0.0
 11
79.25010627419998
 21
187.8940409784999
 31
0.0
  0
LINE
  5
11C
330
2
100
AcDbEntity
  8
0
 62
     3
100
AcDbLine
 10
55.250121533
 20
154.8622416620998
 30
0.0
 11
72.02168220199999
 21
154.8622416620998
 31
0.0
  0
LINE
  5
11D
330
2
100
AcDbEntity
  8
0
 62
     3
100
AcDbLine
 10
55.6501001707
 20
224.9101695185
 30
0.0
 11
67.95532172829999
 21
224.9101695185
 31
0.0
  0
LINE
  5
11E
330
2
100
AcDbEntity
  8
0
 62
     3
100
AcDbLine
 10
48.6501001707
 20
215.4101695185
 30
0.0
 11
68.05531257310001
 21
215.4101695185
 31
0.0
  0
LINE
  5
11F
330
2
100
AcDbEntity
  8
0
 62
     3
100
AcDbLine
 10
55.6501001707
 20
205.9101695184998
 30
0.0
 11
67.95532172829999
 21
205.9101695184998
 31
0.0
  0
LINE
  5
120
330
2
100
AcDbEntity
  8
0
 62
     3
100
AcDbLine
 10
49.45010322249999
 20
154.8622416620998
 30
0.0
 11
50.05010932599997
 21
154.8622416620998
 31
0.0
  0
LINE
  5
121
330
2
100
AcDbEntity
  8
0
  6
CENTER
 62
     3
100
AcDbLine
 10
55.5431513182
 20
149.6622294549998
 30
0.0
 11
49.10678046859999
 21
149.6622294549998
 31
0.0
  0
ARC
  5
122
330
2
100
AcDbEntity
  8
0
 62
     3
100
AcDbCircle
 10
49.45010322249999
 20
153.8622416620999
 30
0.0
 40
1.0
100
AcDbArc
 50
89.99998201389999
 51
179.9999640277999
  0
LINE
  5
123
330
2
100
AcDbEntity
  8
0
  6
CENTER
 62
     3
100
AcDbLine
 10
52.65011542949998
 20
158.8126200799998
 30
0.0
 11
52.65011542949998
 21
145.7949961787
 31
0.0
  0
LINE
  5
124
330
2
100
AcDbEntity
  8
0
 62
     3
100
AcDbLine
 10
50.05010932599997
 20
155.0622386102999
 30
0.0
 11
55.250121533
 21
155.0622386102999
 31
0.0
  0
CIRCLE
  5
125
330
2
100
AcDbEntity
  8
0
 62
     3
100
AcDbCircle
 10
52.65011542949998
 20
149.6622294549998
 30
0.0
 40
1.1999998093
  0
CIRCLE
  5
126
330
2
100
AcDbEntity
  8
0
 62
     3
100
AcDbCircle
 10
52.65011542949998
 20
149.6622294549998
 30
0.0
 40
2.024999618499998
  0
LINE
  5
127
330
2
100
AcDbEntity
  8
0
 62
     3
100
AcDbLine
 10
50.05010932599997
 20
155.0622386102999
 30
0.0
 11
50.05010932599997
 21
154.8622416620998
 31
0.0
  0
LINE
  5
128
330
2
100
AcDbEntity
  8
0
 62
     3
100
AcDbLine
 10
55.250121533
 20
155.0622386102999
 30
0.0
 11
55.250121533
 21
154.8622416620998
 31
0.0
  0
ARC
  5
129
330
2
100
AcDbEntity
  8
0
  6
PHANTOM
 62
     3
100
AcDbCircle
 10
52.65011542949998
 20
151.9455546503
 30
0.0
 40
5.8333330154
100
AcDbArc
 50
74.13285151530002
 51
105.8671125125
  0
LINE
  5
12A
330
2
100
AcDbEntity
  8
0
  6
PHANTOM
 62
     3
100
AcDbLine
 10
50.39046780859999
 20
156.7228769957999
 30
0.0
 11
50.3584653815
 21
156.1122343108999
 31
0.0
  0
ARC
  5
12B
330
2
100
AcDbEntity
  8
0
  6
PHANTOM
 62
     3
100
AcDbCircle
 10
51.30586188949997
 20
156.67489425
 30
0.0
 40
0.9166666864999999
100
AcDbArc
 50
105.8671125125
 51
176.9999810198
  0
LINE
  5
12C
330
2
100
AcDbEntity
  8
0
  6
PHANTOM
 62
     3
100
AcDbLine
 10
54.90981195729998
 20
156.7228833384
 30
0.0
 11
54.94181438449999
 21
156.1122406533999
 31
0.0
  0
ARC
  5
12D
330
2
100
AcDbEntity
  8
0
  6
PHANTOM
 62
     3
100
AcDbCircle
 10
53.99436896949999
 20
156.67489425
 30
0.0
 40
0.9166666864999999
100
AcDbArc
 50
2.9999992297
 51
74.13285151530002
  0
LINE
  5
12E
330
2
100
AcDbEntity
  8
0
 62
     3
100
AcDbLine
 10
55.250121533
 20
215.4305552607
 30
0.0
 11
55.250121533
 21
208.9101695185
 31
0.0
  0
LINE
  5
12F
330
2
100
AcDbEntity
  8
0
 62
     3
100
AcDbLine
 10
50.05010932599997
 20
221.9101695185
 30
0.0
 11
50.05010932599997
 21
208.9101695185
 31
0.0
  0
LINE
  5
130
330
2
100
AcDbEntity
  8
0
 62
     3
100
AcDbLine
 10
48.45010322249999
 20
196.6101664668
 30
0.0
 11
48.45010322249999
 21
215.2101725702999
 31
0.0
  0
LINE
  5
131
330
2
100
AcDbEntity
  8
0
  6
CENTER
 62
     3
100
AcDbLine
 10
52.6501001707
 20
231.6712321406
 30
0.0
 11
52.6501001707
 21
200.9101695185
 31
0.0
  0
LINE
  5
132
330
2
100
AcDbEntity
  8
0
 62
     3
100
AcDbLine
 10
48.45010322249999
 20
205.9101695184998
 30
0.0
 11
49.6501001707
 21
205.9101695184998
 31
0.0
  0
ARC
  5
133
330
2
100
AcDbEntity
  8
0
 62
     3
100
AcDbCircle
 10
48.6501001707
 20
196.6101664668
 30
0.0
 40
0.1999999881
100
AcDbArc
 50
179.9999640277999
 51
270.0000006831999
  0
LINE
  5
134
330
2
100
AcDbEntity
  8
0
 62
     3
100
AcDbLine
 10
55.250121533
 20
196.4320658808
 30
0.0
 11
55.250121533
 21
202.9101695185
 31
0.0
  0
LINE
  5
135
330
2
100
AcDbEntity
  8
0
 62
     3
100
AcDbLine
 10
50.05010932599997
 20
196.4109477168
 30
0.0
 11
50.05010932599997
 21
202.9101695185
 31
0.0
  0
LINE
  5
136
330
2
100
AcDbEntity
  8
0
 62
     3
100
AcDbLine
 10
55.1501001707
 20
209.9101695184999
 30
0.0
 11
50.1501001707
 21
209.9101695184999
 31
0.0
  0
LINE
  5
137
330
2
100
AcDbEntity
  8
0
 62
     3
100
AcDbLine
 10
50.05010932599997
 20
210.010175622
 30
0.0
 11
55.250121533
 21
210.010175622
 31
0.0
  0
LINE
  5
138
330
2
100
AcDbEntity
  8
0
  6
CENTER
 62
     3
100
AcDbLine
 10
54.6501001707
 20
205.9101695184998
 30
0.0
 11
50.6501001707
 21
205.9101695184998
 31
0.0
  0
LINE
  5
139
330
2
100
AcDbEntity
  8
0
 62
     3
100
AcDbLine
 10
55.1501001707
 20
201.9101695184999
 30
0.0
 11
50.1501001707
 21
201.9101695184999
 31
0.0
  0
LINE
  5
13A
330
2
100
AcDbEntity
  8
0
 62
     3
100
AcDbLine
 10
50.05010932599997
 20
201.810163415
 30
0.0
 11
55.250121533
 21
201.810163415
 31
0.0
  0
CIRCLE
  5
13B
330
2
100
AcDbEntity
  8
0
 62
     3
100
AcDbCircle
 10
52.6501001707
 20
205.9101695184998
 30
0.0
 40
1.5
  0
CIRCLE
  5
13C
330
2
100
AcDbEntity
  8
0
 62
     3
100
AcDbCircle
 10
52.6501001707
 20
205.9101695184998
 30
0.0
 40
1.229499816899999
  0
LINE
  5
13D
330
2
100
AcDbEntity
  8
0
 62
     3
100
AcDbLine
 10
49.6501001707
 20
208.9101695185
 30
0.0
 11
49.6501001707
 21
202.9101695185
 31
0.0
  0
LINE
  5
13E
330
2
100
AcDbEntity
  8
0
 62
     3
100
AcDbLine
 10
49.55010932599996
 20
209.010175622
 30
0.0
 11
49.55010932599996
 21
202.8101634149999
 31
0.0
  0
LINE
  5
13F
330
2
100
AcDbEntity
  8
0
 62
     3
100
AcDbLine
 10
50.1501001707
 20
202.9101695185
 30
0.0
 11
50.1501001707
 21
201.9101695184999
 31
0.0
  0
LINE
  5
140
330
2
100
AcDbEntity
  8
0
 62
     3
100
AcDbLine
 10
50.1501001707
 20
202.9101695185
 30
0.0
 11
49.6501001707
 21
202.9101695185
 31
0.0
  0
LINE
  5
141
330
2
100
AcDbEntity
  8
0
 62
     3
100
AcDbLine
 10
49.55010932599996
 20
202.8101634149999
 30
0.0
 11
50.05010932599997
 21
202.8101634149999
 31
0.0
  0
LINE
  5
142
330
2
100
AcDbEntity
  8
0
 62
     3
100
AcDbLine
 10
51.50009101539999
 20
206.3451060418997
 30
0.0
 11
51.50009101539999
 21
205.4752329950999
 31
0.0
  0
LINE
  5
143
330
2
100
AcDbEntity
  8
0
 62
     3
100
AcDbLine
 10
50.1501001707
 20
209.9101695184999
 30
0.0
 11
50.1501001707
 21
208.9101695185
 31
0.0
  0
LINE
  5
144
330
2
100
AcDbEntity
  8
0
 62
     3
100
AcDbLine
 10
50.1501001707
 20
208.9101695185
 30
0.0
 11
49.6501001707
 21
208.9101695185
 31
0.0
  0
LINE
  5
145
330
2
100
AcDbEntity
  8
0
 62
     3
100
AcDbLine
 10
49.55010932599996
 20
209.010175622
 30
0.0
 11
50.05010932599997
 21
209.010175622
 31
0.0
  0
LINE
  5
146
330
2
100
AcDbEntity
  8
0
 62
     3
100
AcDbLine
 10
55.6501001707
 20
208.9101695185
 30
0.0
 11
55.6501001707
 21
202.9101695185
 31
0.0
  0
LINE
  5
147
330
2
100
AcDbEntity
  8
0
 62
     3
100
AcDbLine
 10
55.75012153300001
 20
209.010175622
 30
0.0
 11
55.75012153300001
 21
202.8101634149999
 31
0.0
  0
LINE
  5
148
330
2
100
AcDbEntity
  8
0
 62
     3
100
AcDbLine
 10
53.80010932599997
 20
206.3451060418997
 30
0.0
 11
53.80010932599997
 21
205.4752329950999
 31
0.0
  0
LINE
  5
149
330
2
100
AcDbEntity
  8
0
 62
     3
100
AcDbLine
 10
55.1501001707
 20
202.9101695185
 30
0.0
 11
55.1501001707
 21
201.9101695184999
 31
0.0
  0
LINE
  5
14A
330
2
100
AcDbEntity
  8
0
 62
     3
100
AcDbLine
 10
55.6501001707
 20
202.9101695185
 30
0.0
 11
55.1501001707
 21
202.9101695185
 31
0.0
  0
LINE
  5
14B
330
2
100
AcDbEntity
  8
0
 62
     3
100
AcDbLine
 10
55.250121533
 20
202.8101634149999
 30
0.0
 11
55.75012153300001
 21
202.8101634149999
 31
0.0
  0
LINE
  5
14C
330
2
100
AcDbEntity
  8
0
 62
     3
100
AcDbLine
 10
55.1501001707
 20
209.9101695184999
 30
0.0
 11
55.1501001707
 21
208.9101695185
 31
0.0
  0
LINE
  5
14D
330
2
100
AcDbEntity
  8
0
 62
     3
100
AcDbLine
 10
55.6501001707
 20
208.9101695185
 30
0.0
 11
55.1501001707
 21
208.9101695185
 31
0.0
  0
LINE
  5
14E
330
2
100
AcDbEntity
  8
0
 62
     3
100
AcDbLine
 10
55.250121533
 20
209.010175622
 30
0.0
 11
55.75012153300001
 21
209.010175622
 31
0.0
  0
LINE
  5
14F
330
2
100
AcDbEntity
  8
0
 62
     3
100
AcDbLine
 10
48.45010322249999
 20
224.9101695185
 30
0.0
 11
49.6501001707
 21
224.9101695185
 31
0.0
  0
LINE
  5
150
330
2
100
AcDbEntity
  8
0
 62
     3
100
AcDbLine
 10
48.45010322249999
 20
215.6101664667998
 30
0.0
 11
48.45010322249999
 21
234.2101725702999
 31
0.0
  0
ARC
  5
151
330
2
100
AcDbEntity
  8
0
 62
     3
100
AcDbCircle
 10
48.6501001707
 20
215.2101725702999
 30
0.0
 40
0.1999999881
100
AcDbArc
 50
89.99998201389999
 51
179.9999640277999
  0
ARC
  5
152
330
2
100
AcDbEntity
  8
0
 62
     3
100
AcDbCircle
 10
48.6501001707
 20
215.6101664667998
 30
0.0
 40
0.1999999881
100
AcDbArc
 50
179.9999640277999
 51
270.0000006831999
  0
ARC
  5
153
330
2
100
AcDbEntity
  8
0
 62
     3
100
AcDbCircle
 10
48.6501001707
 20
234.2101725702999
 30
0.0
 40
0.1999999881
100
AcDbArc
 50
89.99998201389999
 51
179.9999640277999
  0
LINE
  5
154
330
2
100
AcDbEntity
  8
0
 62
     3
100
AcDbLine
 10
55.6501001707
 20
227.9101695185
 30
0.0
 11
55.6501001707
 21
221.9101695185
 31
0.0
  0
LINE
  5
155
330
2
100
AcDbEntity
  8
0
 62
     3
100
AcDbLine
 10
55.75012153300001
 20
221.8101634149999
 30
0.0
 11
55.75012153300001
 21
228.010175622
 31
0.0
  0
LINE
  5
156
330
2
100
AcDbEntity
  8
0
 62
     3
100
AcDbLine
 10
53.80010932599997
 20
225.3451060418999
 30
0.0
 11
53.80010932599997
 21
224.4752329950999
 31
0.0
  0
LINE
  5
157
330
2
100
AcDbEntity
  8
0
 62
     3
100
AcDbLine
 10
51.50009101539999
 20
225.3451060418999
 30
0.0
 11
51.50009101539999
 21
224.4752329950999
 31
0.0
  0
LINE
  5
158
330
2
100
AcDbEntity
  8
0
 62
     3
100
AcDbLine
 10
49.6501001707
 20
227.9101695185
 30
0.0
 11
49.6501001707
 21
221.9101695185
 31
0.0
  0
LINE
  5
159
330
2
100
AcDbEntity
  8
0
 62
     3
100
AcDbLine
 10
49.55010932599996
 20
221.8101634149999
 30
0.0
 11
49.55010932599996
 21
228.010175622
 31
0.0
  0
CIRCLE
  5
15A
330
2
100
AcDbEntity
  8
0
 62
     3
100
AcDbCircle
 10
52.6501001707
 20
224.9101695185
 30
0.0
 40
1.5
  0
CIRCLE
  5
15B
330
2
100
AcDbEntity
  8
0
 62
     3
100
AcDbCircle
 10
52.6501001707
 20
224.9101695185
 30
0.0
 40
1.229499816899999
  0
LINE
  5
15C
330
2
100
AcDbEntity
  8
0
 62
     3
100
AcDbLine
 10
50.05010932599997
 20
220.810163415
 30
0.0
 11
55.250121533
 21
220.810163415
 31
0.0
  0
LINE
  5
15D
330
2
100
AcDbEntity
  8
0
 62
     3
100
AcDbLine
 10
55.1501001707
 20
220.9101695185
 30
0.0
 11
50.1501001707
 21
220.9101695185
 31
0.0
  0
LINE
  5
15E
330
2
100
AcDbEntity
  8
0
 62
     3
100
AcDbLine
 10
50.1501001707
 20
221.9101695185
 30
0.0
 11
50.1501001707
 21
220.9101695185
 31
0.0
  0
LINE
  5
15F
330
2
100
AcDbEntity
  8
0
 62
     3
100
AcDbLine
 10
49.55010932599996
 20
221.8101634149999
 30
0.0
 11
50.05010932599997
 21
221.8101634149999
 31
0.0
  0
LINE
  5
160
330
2
100
AcDbEntity
  8
0
 62
     3
100
AcDbLine
 10
50.1501001707
 20
221.9101695185
 30
0.0
 11
49.6501001707
 21
221.9101695185
 31
0.0
  0
LINE
  5
161
330
2
100
AcDbEntity
  8
0
 62
     3
100
AcDbLine
 10
55.250121533
 20
215.4320658808
 30
0.0
 11
55.250121533
 21
221.9101695185
 31
0.0
  0
LINE
  5
162
330
2
100
AcDbEntity
  8
0
 62
     3
100
AcDbLine
 10
55.1501001707
 20
221.9101695185
 30
0.0
 11
55.1501001707
 21
220.9101695185
 31
0.0
  0
LINE
  5
163
330
2
100
AcDbEntity
  8
0
 62
     3
100
AcDbLine
 10
55.250121533
 20
221.8101634149999
 30
0.0
 11
55.75012153300001
 21
221.8101634149999
 31
0.0
  0
LINE
  5
164
330
2
100
AcDbEntity
  8
0
 62
     3
100
AcDbLine
 10
55.6501001707
 20
221.9101695185
 30
0.0
 11
55.1501001707
 21
221.9101695185
 31
0.0
  0
LINE
  5
165
330
2
100
AcDbEntity
  8
0
  6
CENTER
 62
     3
100
AcDbLine
 10
54.6501001707
 20
224.9101695185
 30
0.0
 11
50.6501001707
 21
224.9101695185
 31
0.0
  0
LINE
  5
166
330
2
100
AcDbEntity
  8
0
 62
     3
100
AcDbLine
 10
50.05010932599997
 20
229.010175622
 30
0.0
 11
55.250121533
 21
229.010175622
 31
0.0
  0
LINE
  5
167
330
2
100
AcDbEntity
  8
0
 62
     3
100
AcDbLine
 10
55.1501001707
 20
228.9101695184999
 30
0.0
 11
50.1501001707
 21
228.9101695184999
 31
0.0
  0
LINE
  5
168
330
2
100
AcDbEntity
  8
0
 62
     3
100
AcDbLine
 10
50.05010932599997
 20
234.4305552607
 30
0.0
 11
50.05010932599997
 21
227.9101695185
 31
0.0
  0
LINE
  5
169
330
2
100
AcDbEntity
  8
0
 62
     3
100
AcDbLine
 10
50.1501001707
 20
228.9101695184999
 30
0.0
 11
50.1501001707
 21
227.9101695185
 31
0.0
  0
LINE
  5
16A
330
2
100
AcDbEntity
  8
0
 62
     3
100
AcDbLine
 10
49.55010932599996
 20
228.010175622
 30
0.0
 11
50.05010932599997
 21
228.010175622
 31
0.0
  0
LINE
  5
16B
330
2
100
AcDbEntity
  8
0
 62
     3
100
AcDbLine
 10
50.1501001707
 20
227.9101695185
 30
0.0
 11
49.6501001707
 21
227.9101695185
 31
0.0
  0
LINE
  5
16C
330
2
100
AcDbEntity
  8
0
 62
     3
100
AcDbLine
 10
55.250121533
 20
234.4305552607
 30
0.0
 11
55.250121533
 21
227.9101695185
 31
0.0
  0
LINE
  5
16D
330
2
100
AcDbEntity
  8
0
 62
     3
100
AcDbLine
 10
55.1501001707
 20
228.9101695184999
 30
0.0
 11
55.1501001707
 21
227.9101695185
 31
0.0
  0
LINE
  5
16E
330
2
100
AcDbEntity
  8
0
 62
     3
100
AcDbLine
 10
55.250121533
 20
228.010175622
 30
0.0
 11
55.75012153300001
 21
228.010175622
 31
0.0
  0
LINE
  5
16F
330
2
100
AcDbEntity
  8
0
 62
     3
100
AcDbLine
 10
55.6501001707
 20
227.9101695185
 30
0.0
 11
55.1501001707
 21
227.9101695185
 31
0.0
  0
ARC
  5
170
330
2
100
AcDbEntity
  8
0
 62
     3
100
AcDbCircle
 10
71.45530646949999
 20
167.0303935175
 30
0.0
 40
1.799999237099997
100
AcDbArc
 50
22.1807524617
 51
82.81921289420003
  0
ARC
  5
171
330
2
100
AcDbEntity
  8
0
 62
     3
100
AcDbCircle
 10
71.45530646949999
 20
167.0303935175
 30
0.0
 40
1.799999237099997
100
AcDbArc
 50
277.1807871057998
 51
337.8192441232
  0
CIRCLE
  5
172
330
2
100
AcDbEntity
  8
0
 62
     3
100
AcDbCircle
 10
71.45530646949999
 20
167.0303935175
 30
0.0
 40
1.399999618499998
  0
CIRCLE
  5
173
330
2
100
AcDbEntity
  8
0
 62
     3
100
AcDbCircle
 10
71.45530646949999
 20
167.0303935175
 30
0.0
 40
1.5
  0
ARC
  5
174
330
2
100
AcDbEntity
  8
0
 62
     3
100
AcDbCircle
 10
71.45530646949999
 20
167.0303935175
 30
0.0
 40
2.5
100
AcDbArc
 50
216.2362658966
 51
143.7637341033999
  0
LINE
  5
175
330
2
100
AcDbEntity
  8
0
 62
     3
100
AcDbLine
 10
72.55010932599998
 20
149.9622325068
 30
0.0
 11
67.55010932599997
 21
149.9622325068
 31
0.0
  0
LINE
  5
176
330
2
100
AcDbEntity
  8
0
 62
     3
100
AcDbLine
 10
73.57139728749998
 20
158.0622386103
 30
0.0
 11
71.35680860209998
 21
162.5137401174
 31
0.0
  0
LINE
  5
177
330
2
100
AcDbEntity
  8
0
 62
     3
100
AcDbLine
 10
74.24153598089998
 20
158.0622386103
 30
0.0
 11
71.89399444259999
 21
162.7809860528
 31
0.0
  0
LINE
  5
178
330
2
100
AcDbEntity
  8
0
  6
CENTER
 62
     3
100
AcDbLine
 10
69.89636910249998
 20
170.1640438039
 30
0.0
 11
79.25012332489998
 21
151.362254997
 31
0.0
  0
LINE
  5
179
330
2
100
AcDbEntity
  8
0
 62
     3
100
AcDbLine
 10
71.75010627419998
 20
158.0622386103
 30
0.0
 11
86.750121533
 21
158.0622386103
 31
0.0
  0
LINE
  5
17A
330
2
100
AcDbEntity
  8
0
 62
     3
100
AcDbLine
 10
70.2001184813
 20
154.4622325068
 30
0.0
 11
77.25010627419997
 21
154.4622325068
 31
0.0
  0
LINE
  5
17B
330
2
100
AcDbEntity
  8
0
  6
CENTER
 62
     3
100
AcDbLine
 10
69.89635544099996
 20
170.1640370072998
 30
0.0
 11
79.25010966339995
 21
151.3622482004
 31
0.0
  0
ARC
  5
17C
330
2
100
AcDbEntity
  8
0
 62
     3
100
AcDbCircle
 10
71.45530646949999
 20
167.0303935175
 30
0.0
 40
3.5
100
AcDbArc
 50
3.369580765699998
 51
229.5304741528
  0
CIRCLE
  5
17D
330
2
100
AcDbEntity
  8
0
 62
     3
100
AcDbCircle
 10
61.2501062742
 20
151.3622264032998
 30
0.0
 40
1.0999994278
  0
CIRCLE
  5
17E
330
2
100
AcDbEntity
  8
0
 62
     3
100
AcDbCircle
 10
61.2501062742
 20
151.3622264032998
 30
0.0
 40
0.6999999881
  0
LINE
  5
17F
330
2
100
AcDbEntity
  8
0
  6
CENTER
 62
     3
100
AcDbLine
 10
63.48930305159999
 20
151.3622264032998
 30
0.0
 11
58.6421503416
 21
151.3622264032998
 31
0.0
  0
LINE
  5
180
330
2
100
AcDbEntity
  8
0
  6
CENTER
 62
     3
100
AcDbLine
 10
61.2501062742
 20
153.9622019892
 30
0.0
 11
61.2501062742
 21
149.2739695672999
 31
0.0
  0
LINE
  5
181
330
2
100
AcDbEntity
  8
0
 62
     3
100
AcDbLine
 10
71.75010627419998
 20
158.0622386103
 30
0.0
 11
71.75010627419998
 21
154.8622416620998
 31
0.0
  0
LINE
  5
182
330
2
100
AcDbEntity
  8
0
 62
     3
100
AcDbLine
 10
67.55010932599997
 20
149.9622325068
 30
0.0
 11
67.55010932599997
 21
145.3622416620999
 31
0.0
  0
LINE
  5
183
330
2
100
AcDbEntity
  8
0
 62
     3
100
AcDbLine
 10
70.2001184813
 20
154.8622416620998
 30
0.0
 11
70.2001184813
 21
154.4622325068
 31
0.0
  0
LINE
  5
184
330
2
100
AcDbEntity
  8
0
 62
     3
100
AcDbLine
 10
69.54839442879997
 20
165.8640314982999
 30
0.0
 11
70.29313419609997
 21
166.0635839191999
 31
0.0
  0
LINE
  5
185
330
2
100
AcDbEntity
  8
0
 62
     3
100
AcDbLine
 10
71.35679163049998
 20
162.5137469536
 30
0.0
 11
69.1836534091
 21
164.3677824254
 31
0.0
  0
ARC
  5
186
330
2
100
AcDbEntity
  8
0
 62
     3
100
AcDbCircle
 10
69.6001581541
 20
165.6708354120999
 30
0.0
 40
0.1999999881
100
AcDbArc
 50
105.0000063369999
 51
216.2362485938
  0
LINE
  5
187
330
2
100
AcDbEntity
  8
0
 62
     3
100
AcDbLine
 10
71.89399444259999
 20
162.7809860528
 30
0.0
 11
71.35680860209998
 21
162.5137401174
 31
0.0
  0
LINE
  5
188
330
2
100
AcDbEntity
  8
0
 62
     3
100
AcDbLine
 10
71.45530646949999
 20
165.4429301386
 30
0.0
 11
71.45530646949999
 21
165.5222453242
 31
0.0
  0
ARC
  5
189
330
2
100
AcDbEntity
  8
0
 62
     3
100
AcDbCircle
 10
71.65530341779998
 20
165.4429301386
 30
0.0
 40
0.1999999881
100
AcDbArc
 50
179.9999640277999
 51
277.1807151615
  0
LINE
  5
18A
330
2
100
AcDbEntity
  8
0
 62
     3
100
AcDbLine
 10
69.54838261409998
 20
168.1967847381999
 30
0.0
 11
70.31795735759996
 21
167.9905778054
 31
0.0
  0
ARC
  5
18B
330
2
100
AcDbEntity
  8
0
 62
     3
100
AcDbCircle
 10
69.6001581541
 20
168.389951623
 30
0.0
 40
0.1999999881
100
AcDbArc
 50
143.7637341033999
 51
254.9999763602
  0
LINE
  5
18C
330
2
100
AcDbEntity
  8
0
 62
     3
100
AcDbLine
 10
71.45530646949999
 20
168.5408305293
 30
0.0
 11
71.45530646949999
 21
168.6178568963998
 31
0.0
  0
ARC
  5
18D
330
2
100
AcDbEntity
  8
0
 62
     3
100
AcDbCircle
 10
71.65530341779998
 20
168.6178568963998
 30
0.0
 40
0.1999999881
100
AcDbArc
 50
82.81921289420003
 51
179.9999640277999
  0
LINE
  5
18E
330
2
100
AcDbEntity
  8
0
 62
     3
100
AcDbLine
 10
75.1171603141
 20
164.3844823770999
 30
0.0
 11
74.94926073119998
 21
167.2361264650999
 31
0.0
  0
LINE
  5
18F
330
2
100
AcDbEntity
  8
0
  6
CENTER
 62
     3
100
AcDbLine
 10
79.25009101539997
 20
171.0451487665999
 30
0.0
 11
79.25009101539997
 21
146.2373789912
 31
0.0
  0
LINE
  5
190
330
2
100
AcDbEntity
  8
0
 62
     3
100
AcDbLine
 10
77.25010627419997
 20
154.8622416620998
 30
0.0
 11
81.25010627420001
 21
154.8622416620998
 31
0.0
  0
LINE
  5
191
330
2
100
AcDbEntity
  8
0
 62
     3
100
AcDbLine
 10
72.55010932599998
 20
149.9622325068
 30
0.0
 11
72.55010932599998
 21
145.3622416620999
 31
0.0
  0
LINE
  5
192
330
2
100
AcDbEntity
  8
0
 62
     3
100
AcDbLine
 10
72.02168220199999
 20
154.8622416620998
 30
0.0
 11
72.02168220199999
 21
154.4622325068
 31
0.0
  0
LINE
  5
193
330
2
100
AcDbEntity
  8
0
 62
     3
100
AcDbLine
 10
77.25010627419997
 20
154.8622416620998
 30
0.0
 11
77.25010627419997
 21
154.4622325068
 31
0.0
  0
LINE
  5
194
330
2
100
AcDbEntity
  8
0
 62
     3
100
AcDbLine
 10
78.26243631209997
 20
158.0622386103
 30
0.0
 11
75.11716413179995
 21
164.3844888515
 31
0.0
  0
LINE
  5
195
330
2
100
AcDbEntity
  8
0
 62
     3
100
AcDbLine
 10
77.59228057599997
 20
158.0622386103
 30
0.0
 11
74.57996462979996
 21
164.1172361196
 31
0.0
  0
LINE
  5
196
330
2
100
AcDbEntity
  8
0
 62
     3
100
AcDbLine
 10
72.90788113799997
 20
166.6411897676
 30
0.0
 11
72.98866482
 21
166.6195438451
 31
0.0
  0
ARC
  5
197
330
2
100
AcDbEntity
  8
0
 62
     3
100
AcDbCircle
 10
72.93690436989999
 20
166.4263590937
 30
0.0
 40
0.1999999881
100
AcDbArc
 50
337.8192441232
 51
74.99995769080006
  0
LINE
  5
198
330
2
100
AcDbEntity
  8
0
 62
     3
100
AcDbLine
 10
75.11716413179995
 20
164.3844888515
 30
0.0
 11
74.57996462979996
 21
164.1172361196
 31
0.0
  0
LINE
  5
199
330
2
100
AcDbEntity
  8
0
 62
     3
100
AcDbLine
 10
86.750121533
 20
158.0622386103
 30
0.0
 11
86.750121533
 21
154.8622416620998
 31
0.0
  0
LINE
  5
19A
330
2
100
AcDbEntity
  8
0
 62
     3
100
AcDbLine
 10
81.25010627420001
 20
154.8622416620998
 30
0.0
 11
81.25010627420001
 21
154.4622325068
 31
0.0
  0
LINE
  5
19B
330
2
100
AcDbEntity
  8
0
 62
     3
100
AcDbLine
 10
86.47854560529998
 20
154.8622416620998
 30
0.0
 11
86.47854560529998
 21
154.4622325068
 31
0.0
  0
LINE
  5
19C
330
2
100
AcDbEntity
  8
0
 62
     3
100
AcDbLine
 10
72.89008841199998
 20
167.4148557565
 30
0.0
 11
72.9886766347
 21
167.4412723913999
 31
0.0
  0
ARC
  5
19D
330
2
100
AcDbEntity
  8
0
 62
     3
100
AcDbCircle
 10
72.93690436989999
 20
167.6344279413999
 30
0.0
 40
0.1999999881
100
AcDbArc
 50
285.0000423092
 51
22.18075246169996
  0
LINE
  5
19E
330
2
100
AcDbEntity
  8
0
 62
     3
100
AcDbLine
 10
72.95532172829997
 20
229.3101786738
 30
0.0
 11
69.95532172829999
 21
229.3101786738
 31
0.0
  0
LINE
  5
19F
330
2
100
AcDbEntity
  8
0
 62
     3
100
AcDbLine
 10
72.95532172829997
 20
228.4101695184999
 30
0.0
 11
69.95532172829999
 21
228.4101695184999
 31
0.0
  0
LINE
  5
1A0
330
2
100
AcDbEntity
  8
0
 62
     3
100
AcDbLine
 10
72.8553156248
 20
229.4101695185
 30
0.0
 11
70.05531257310001
 21
229.4101695185
 31
0.0
  0
LINE
  5
1A1
330
2
100
AcDbEntity
  8
0
 62
     3
100
AcDbLine
 10
73.95532172829998
 20
227.9601725702999
 30
0.0
 11
68.95532172829999
 21
227.9601725702999
 31
0.0
  0
LINE
  5
1A2
330
2
100
AcDbEntity
  8
0
 62
     3
100
AcDbLine
 10
73.95532172829998
 20
228.3601664668
 30
0.0
 11
68.95532172829999
 21
228.3601664668
 31
0.0
  0
LINE
  5
1A3
330
2
100
AcDbEntity
  8
0
 62
     3
100
AcDbLine
 10
72.95532172829997
 20
202.4101695185
 30
0.0
 11
69.95532172829999
 21
202.4101695185
 31
0.0
  0
LINE
  5
1A4
330
2
100
AcDbEntity
  8
0
 62
     3
100
AcDbLine
 10
72.8553156248
 20
201.4101695184999
 30
0.0
 11
70.05531257310001
 21
201.4101695184999
 31
0.0
  0
LINE
  5
1A5
330
2
100
AcDbEntity
  8
0
 62
     3
100
AcDbLine
 10
72.95532172829997
 20
201.510175622
 30
0.0
 11
69.95532172829999
 21
201.510175622
 31
0.0
  0
LINE
  5
1A6
330
2
100
AcDbEntity
  8
0
 62
     3
100
AcDbLine
 10
73.95532172829998
 20
202.4601725703
 30
0.0
 11
68.95532172829999
 21
202.4601725703
 31
0.0
  0
LINE
  5
1A7
330
2
100
AcDbEntity
  8
0
 62
     3
100
AcDbLine
 10
73.95532172829998
 20
202.8601664667998
 30
0.0
 11
68.95532172829999
 21
202.8601664667998
 31
0.0
  0
LINE
  5
1A8
330
2
100
AcDbEntity
  8
0
 62
     3
100
AcDbLine
 10
84.95011848129998
 20
221.7101725702999
 30
0.0
 11
68.05531257310001
 21
221.7101725702999
 31
0.0
  0
LINE
  5
1A9
330
2
100
AcDbEntity
  8
0
 62
     3
100
AcDbLine
 10
84.95011848129998
 20
209.1101664667998
 30
0.0
 11
68.05531257310001
 21
209.1101664667998
 31
0.0
  0
LINE
  5
1AA
330
2
100
AcDbEntity
  8
0
 62
     3
100
AcDbLine
 10
84.02320808089998
 20
227.9101695185
 30
0.0
 11
67.95532172829999
 21
227.9101695185
 31
0.0
  0
LINE
  5
1AB
330
2
100
AcDbEntity
  8
0
 62
     3
100
AcDbLine
 10
84.02320808089998
 20
202.9101695185
 30
0.0
 11
67.95532172829999
 21
202.9101695185
 31
0.0
  0
ARC
  5
1AC
330
2
100
AcDbEntity
  8
0
 62
     3
100
AcDbCircle
 10
79.25012153299999
 20
205.9101695184998
 30
0.0
 40
7.5
100
AcDbArc
 50
212.9331317724999
 51
125.8716984026999
  0
LINE
  5
1AD
330
2
100
AcDbEntity
  8
0
 62
     3
100
AcDbLine
 10
67.95532172829999
 20
221.9101695185
 30
0.0
 11
84.02320808089998
 21
221.9101695185
 31
0.0
  0
LINE
  5
1AE
330
2
100
AcDbEntity
  8
0
 62
     3
100
AcDbLine
 10
67.95532172829999
 20
208.9101695185
 30
0.0
 11
84.02320808089998
 21
208.9101695185
 31
0.0
  0
ARC
  5
1AF
330
2
100
AcDbEntity
  8
0
 62
     3
100
AcDbCircle
 10
79.25012153299999
 20
224.9101695185
 30
0.0
 40
7.5
100
AcDbArc
 50
234.1283015973
 51
147.0668682275
  0
LINE
  5
1B0
330
2
100
AcDbEntity
  8
0
 62
     3
100
AcDbLine
 10
68.05531257310001
 20
221.7101725702999
 30
0.0
 11
68.05531257310001
 21
209.1101664667998
 31
0.0
  0
LINE
  5
1B1
330
2
100
AcDbEntity
  8
0
 62
     3
100
AcDbLine
 10
69.95532172829999
 20
202.4101695185
 30
0.0
 11
69.95532172829999
 21
201.510175622
 31
0.0
  0
LINE
  5
1B2
330
2
100
AcDbEntity
  8
0
 62
     3
100
AcDbLine
 10
70.0553073065
 20
201.4101759893998
 30
0.0
 11
69.95530935819999
 21
201.5101739461
 31
0.0
  0
LINE
  5
1B3
330
2
100
AcDbEntity
  8
0
 62
     3
100
AcDbLine
 10
70.20010322249999
 20
196.4101695185
 30
0.0
 11
70.20010322249999
 21
201.4101695184999
 31
0.0
  0
LINE
  5
1B4
330
2
100
AcDbEntity
  8
0
 62
     3
100
AcDbLine
 10
67.95532172829999
 20
208.9101695185
 30
0.0
 11
67.95532172829999
 21
202.9101695185
 31
0.0
  0
LINE
  5
1B5
330
2
100
AcDbEntity
  8
0
 62
     3
100
AcDbLine
 10
68.95532172829999
 20
202.8601664667998
 30
0.0
 11
68.95532172829999
 21
202.4601725703
 31
0.0
  0
LINE
  5
1B6
330
2
100
AcDbEntity
  8
0
 62
     3
100
AcDbLine
 10
70.45532172829997
 20
202.9127329950998
 30
0.0
 11
70.45532172829997
 21
202.8601664667998
 31
0.0
  0
LINE
  5
1B7
330
2
100
AcDbEntity
  8
0
 62
     3
100
AcDbLine
 10
70.45532172829997
 20
202.4601725703
 30
0.0
 11
70.45532172829997
 21
202.4150981074
 31
0.0
  0
LINE
  5
1B8
330
2
100
AcDbEntity
  8
0
 62
     3
100
AcDbLine
 10
70.20010322249999
 20
202.4101695185
 30
0.0
 11
70.20010322249999
 21
202.4601725703
 31
0.0
  0
LINE
  5
1B9
330
2
100
AcDbEntity
  8
0
 62
     3
100
AcDbLine
 10
70.20010322249999
 20
202.8601664667998
 30
0.0
 11
70.20010322249999
 21
202.9101695185
 31
0.0
  0
LINE
  5
1BA
330
2
100
AcDbEntity
  8
0
 62
     3
100
AcDbLine
 10
69.95532172829999
 20
209.1101664667998
 30
0.0
 11
69.95532172829999
 21
208.9101695185
 31
0.0
  0
LINE
  5
1BB
330
2
100
AcDbEntity
  8
0
 62
     3
100
AcDbLine
 10
67.95532172829999
 20
227.9101695185
 30
0.0
 11
67.95532172829999
 21
221.9101695185
 31
0.0
  0
LINE
  5
1BC
330
2
100
AcDbEntity
  8
0
 62
     3
100
AcDbLine
 10
69.95532172829999
 20
221.9101695185
 30
0.0
 11
69.95532172829999
 21
221.7101725702999
 31
0.0
  0
LINE
  5
1BD
330
2
100
AcDbEntity
  8
0
 62
     3
100
AcDbLine
 10
70.20010322249999
 20
234.4101695185
 30
0.0
 11
70.20010322249999
 21
229.4101695185
 31
0.0
  0
LINE
  5
1BE
330
2
100
AcDbEntity
  8
0
 62
     3
100
AcDbLine
 10
69.95532172829999
 20
229.310163415
 30
0.0
 11
69.95532172829999
 21
228.4101695184999
 31
0.0
  0
LINE
  5
1BF
330
2
100
AcDbEntity
  8
0
 62
     3
100
AcDbLine
 10
70.05533210429996
 20
229.4101954713
 30
0.0
 11
69.95531257689997
 21
229.3101759354
 31
0.0
  0
LINE
  5
1C0
330
2
100
AcDbEntity
  8
0
 62
     3
100
AcDbLine
 10
68.95532172829999
 20
228.3601664668
 30
0.0
 11
68.95532172829999
 21
227.9601725702999
 31
0.0
  0
LINE
  5
1C1
330
2
100
AcDbEntity
  8
0
 62
     3
100
AcDbLine
 10
70.45532172829997
 20
228.4101695184999
 30
0.0
 11
70.45532172829997
 21
228.3601664668
 31
0.0
  0
LINE
  5
1C2
330
2
100
AcDbEntity
  8
0
 62
     3
100
AcDbLine
 10
70.45532172829997
 20
227.9601725702999
 30
0.0
 11
70.45532172829997
 21
227.9101695185
 31
0.0
  0
LINE
  5
1C3
330
2
100
AcDbEntity
  8
0
 62
     3
100
AcDbLine
 10
70.20010322249999
 20
228.4101695184999
 30
0.0
 11
70.20010322249999
 21
228.3601664668
 31
0.0
  0
LINE
  5
1C4
330
2
100
AcDbEntity
  8
0
 62
     3
100
AcDbLine
 10
70.20010322249999
 20
227.9601725702999
 30
0.0
 11
70.20010322249999
 21
227.9101695185
 31
0.0
  0
LINE
  5
1C5
330
2
100
AcDbEntity
  8
0
 62
     3
100
AcDbLine
 10
74.8553156248
 20
221.7101725702999
 30
0.0
 11
74.8553156248
 21
209.1101664667998
 31
0.0
  0
LINE
  5
1C6
330
2
100
AcDbEntity
  8
0
 62
     3
100
AcDbLine
 10
73.95532172829998
 20
202.7101725702999
 30
0.0
 11
84.95011848129998
 21
202.7101725702999
 31
0.0
  0
LINE
  5
1C7
330
2
100
AcDbEntity
  8
0
 62
     3
100
AcDbLine
 10
72.95532172829997
 20
202.4101695185
 30
0.0
 11
72.95532172829997
 21
201.510175622
 31
0.0
  0
LINE
  5
1C8
330
2
100
AcDbEntity
  8
0
 62
     3
100
AcDbLine
 10
72.95531266939997
 20
201.5101738195999
 30
0.0
 11
72.85530392319998
 21
201.4101650818
 31
0.0
  0
LINE
  5
1C9
330
2
100
AcDbEntity
  8
0
 62
     3
100
AcDbLine
 10
77.25010627419997
 20
196.4101695185
 30
0.0
 11
77.25010627419997
 21
198.6817607049999
 31
0.0
  0
LINE
  5
1CA
330
2
100
AcDbEntity
  8
0
 62
     3
100
AcDbLine
 10
75.11715644509997
 20
208.310163415
 30
0.0
 11
78.62684577619998
 21
208.310163415
 31
0.0
  0
LINE
  5
1CB
330
2
100
AcDbEntity
  8
0
 62
     3
100
AcDbLine
 10
75.11715644509997
 20
203.510175622
 30
0.0
 11
78.62684577619998
 21
203.510175622
 31
0.0
  0
LINE
  5
1CC
330
2
100
AcDbEntity
  8
0
 62
     3
100
AcDbLine
 10
75.11715644509997
 20
208.9101695185
 30
0.0
 11
75.11715644509997
 21
202.9101695185
 31
0.0
  0
LINE
  5
1CD
330
2
100
AcDbEntity
  8
0
 62
     3
100
AcDbLine
 10
72.45532172829998
 20
202.4601725703
 30
0.0
 11
72.45532172829998
 21
202.4057139521
 31
0.0
  0
LINE
  5
1CE
330
2
100
AcDbEntity
  8
0
 62
     3
100
AcDbLine
 10
72.45532172829998
 20
202.9127329950998
 30
0.0
 11
72.45532172829998
 21
202.8601664667998
 31
0.0
  0
LINE
  5
1CF
330
2
100
AcDbEntity
  8
0
 62
     3
100
AcDbLine
 10
73.40008134909999
 20
202.8601677381999
 30
0.0
 11
73.350082375
 21
202.9101667165
 31
0.0
  0
LINE
  5
1D0
330
2
100
AcDbEntity
  8
0
 62
     3
100
AcDbLine
 10
74.47703150029997
 20
202.910190928
 30
0.0
 11
74.58527487459997
 21
202.7101862701
 31
0.0
  0
LINE
  5
1D1
330
2
100
AcDbEntity
  8
0
 62
     3
100
AcDbLine
 10
73.95532172829998
 20
202.8601664667998
 30
0.0
 11
73.95532172829998
 21
202.4601725703
 31
0.0
  0
LINE
  5
1D2
330
2
100
AcDbEntity
  8
0
 62
     3
100
AcDbLine
 10
72.95532172829997
 20
209.1101664667998
 30
0.0
 11
72.95532172829997
 21
208.9101695185
 31
0.0
  0
LINE
  5
1D3
330
2
100
AcDbEntity
  8
0
 62
     3
100
AcDbLine
 10
73.55009308049997
 20
209.1101688968999
 30
0.0
 11
73.35009718399999
 21
208.9101729835999
 31
0.0
  0
LINE
  5
1D4
330
2
100
AcDbEntity
  8
0
 62
     3
100
AcDbLine
 10
74.47699264199997
 20
208.9101719312
 30
0.0
 11
74.58523601629997
 21
209.1101765891
 31
0.0
  0
LINE
  5
1D5
330
2
100
AcDbEntity
  8
0
 62
     3
100
AcDbLine
 10
78.62684577619998
 20
208.310163415
 30
0.0
 11
78.62684577619998
 21
203.510175622
 31
0.0
  0
LINE
  5
1D6
330
2
100
AcDbEntity
  8
0
 62
     3
100
AcDbLine
 10
78.00544725419998
 20
202.9101666763
 30
0.0
 11
78.62681817809998
 21
203.5101633251
 31
0.0
  0
LINE
  5
1D7
330
2
100
AcDbEntity
  8
0
 62
     3
100
AcDbLine
 10
78.00546496459998
 20
208.9101807586
 30
0.0
 11
78.62683588849998
 21
208.3101841099
 31
0.0
  0
LINE
  5
1D8
330
2
100
AcDbEntity
  8
0
 62
     3
100
AcDbLine
 10
81.250121533
 20
196.4101695185
 30
0.0
 11
81.250121533
 21
198.6817607049999
 31
0.0
  0
CIRCLE
  5
1D9
330
2
100
AcDbEntity
  8
0
 62
     3
100
AcDbCircle
 10
82.50459235820001
 20
203.9601725703
 30
0.0
 40
0.6999999881
  0
LINE
  5
1DA
330
2
100
AcDbEntity
  8
0
 62
     3
100
AcDbLine
 10
83.20460456519999
 20
203.9601725703
 30
0.0
 11
83.0045923582
 21
203.9601725703
 31
0.0
  0
LINE
  5
1DB
330
2
100
AcDbEntity
  8
0
 62
     3
100
AcDbLine
 10
79.63450568829998
 20
208.4101695185
 30
0.0
 11
79.63450568829998
 21
203.4101695184999
 31
0.0
  0
CIRCLE
  5
1DC
330
2
100
AcDbEntity
  8
0
 62
     3
100
AcDbCircle
 10
82.50459235820001
 20
203.9601725703
 30
0.0
 40
0.5
  0
LINE
  5
1DD
330
2
100
AcDbEntity
  8
0
 62
     3
100
AcDbLine
 10
82.0045923582
 20
203.9601725703
 30
0.0
 11
81.80461066879997
 21
203.9601725703
 31
0.0
  0
LINE
  5
1DE
330
2
100
AcDbEntity
  8
0
 62
     3
100
AcDbLine
 10
83.37470954569999
 20
208.4101695185
 30
0.0
 11
83.37470954569999
 21
203.4101695184999
 31
0.0
  0
LINE
  5
1DF
330
2
100
AcDbEntity
  8
0
 62
     3
100
AcDbLine
 10
84.29380744609998
 20
208.4101695185
 30
0.0
 11
84.29380744609998
 21
203.4101695184999
 31
0.0
  0
LINE
  5
1E0
330
2
100
AcDbEntity
  8
0
 62
     3
100
AcDbLine
 10
85.65011542949999
 20
203.4101695184999
 30
0.0
 11
85.65011542949999
 21
208.4101695185
 31
0.0
  0
LINE
  5
1E1
330
2
100
AcDbEntity
  8
0
 62
     3
100
AcDbLine
 10
84.29380744609998
 20
203.4101695184999
 30
0.0
 11
85.65011542949999
 21
203.4101695184999
 31
0.0
  0
LINE
  5
1E2
330
2
100
AcDbEntity
  8
0
 62
     3
100
AcDbLine
 10
84.95008651159999
 20
202.7101601556
 30
0.0
 11
85.65010451810001
 21
203.410178221
 31
0.0
  0
LINE
  5
1E3
330
2
100
AcDbEntity
  8
0
 62
     3
100
AcDbLine
 10
83.9149642517
 20
202.7101790289
 30
0.0
 11
84.29380153649999
 21
203.4101684449
 31
0.0
  0
LINE
  5
1E4
330
2
100
AcDbEntity
  8
0
 62
     3
100
AcDbLine
 10
84.95009328169997
 20
209.1101795445998
 30
0.0
 11
85.65010049859997
 21
208.4101722687
 31
0.0
  0
LINE
  5
1E5
330
2
100
AcDbEntity
  8
0
 62
     3
100
AcDbLine
 10
84.29380744609998
 20
208.4101695185
 30
0.0
 11
85.65011542949999
 21
208.4101695185
 31
0.0
  0
LINE
  5
1E6
330
2
100
AcDbEntity
  8
0
 62
     3
100
AcDbLine
 10
83.91495718839998
 20
209.1101608845
 30
0.0
 11
84.2937944732
 21
208.4101714685
 31
0.0
  0
LINE
  5
1E7
330
2
100
AcDbEntity
  8
0
 62
     3
100
AcDbLine
 10
73.95532172829998
 20
228.1101664667998
 30
0.0
 11
84.95011848129998
 21
228.1101664667998
 31
0.0
  0
LINE
  5
1E8
330
2
100
AcDbEntity
  8
0
 62
     3
100
AcDbLine
 10
78.62684577619998
 20
227.310163415
 30
0.0
 11
78.62684577619998
 21
222.510175622
 31
0.0
  0
LINE
  5
1E9
330
2
100
AcDbEntity
  8
0
 62
     3
100
AcDbLine
 10
75.11715644509997
 20
227.9101695185
 30
0.0
 11
75.11715644509997
 21
221.9101695185
 31
0.0
  0
LINE
  5
1EA
330
2
100
AcDbEntity
  8
0
 62
     3
100
AcDbLine
 10
75.11715644509997
 20
222.510175622
 30
0.0
 11
78.62684577619998
 21
222.510175622
 31
0.0
  0
LINE
  5
1EB
330
2
100
AcDbEntity
  8
0
 62
     3
100
AcDbLine
 10
72.95532172829997
 20
221.9101695185
 30
0.0
 11
72.95532172829997
 21
221.7101725702999
 31
0.0
  0
LINE
  5
1EC
330
2
100
AcDbEntity
  8
0
 62
     3
100
AcDbLine
 10
73.55008986189996
 20
221.7101594054
 30
0.0
 11
73.35008317579998
 21
221.9101661084
 31
0.0
  0
LINE
  5
1ED
330
2
100
AcDbEntity
  8
0
 62
     3
100
AcDbLine
 10
74.477090928
 20
221.910079938
 30
0.0
 11
74.58527620069999
 21
221.7101826363998
 31
0.0
  0
LINE
  5
1EE
330
2
100
AcDbEntity
  8
0
 62
     3
100
AcDbLine
 10
77.25010627419997
 20
217.6817607049999
 30
0.0
 11
77.25010627419997
 21
213.138578332
 31
0.0
  0
LINE
  5
1EF
330
2
100
AcDbEntity
  8
0
 62
     3
100
AcDbLine
 10
78.00544165989999
 20
221.9101505135999
 30
0.0
 11
78.62681258379999
 21
222.5101471623
 31
0.0
  0
LINE
  5
1F0
330
2
100
AcDbEntity
  8
0
 62
     3
100
AcDbLine
 10
75.11715644509997
 20
227.310163415
 30
0.0
 11
78.62684577619998
 21
227.310163415
 31
0.0
  0
LINE
  5
1F1
330
2
100
AcDbEntity
  8
0
 62
     3
100
AcDbLine
 10
72.85538063039997
 20
229.4101204593
 30
0.0
 11
72.95533542029997
 21
229.3101656609997
 31
0.0
  0
LINE
  5
1F2
330
2
100
AcDbEntity
  8
0
 62
     3
100
AcDbLine
 10
72.95533746729998
 20
229.3101760618998
 30
0.0
 11
72.85538266899999
 21
229.4101308517999
 31
0.0
  0
LINE
  5
1F3
330
2
100
AcDbEntity
  8
0
 62
     3
100
AcDbLine
 10
72.95532172829997
 20
229.310163415
 30
0.0
 11
72.95532172829997
 21
228.4101695184999
 31
0.0
  0
LINE
  5
1F4
330
2
100
AcDbEntity
  8
0
 62
     3
100
AcDbLine
 10
72.45532172829998
 20
228.4093455439
 30
0.0
 11
72.45532172829998
 21
228.3601664668
 31
0.0
  0
LINE
  5
1F5
330
2
100
AcDbEntity
  8
0
 62
     3
100
AcDbLine
 10
72.45532172829998
 20
227.9601725702999
 30
0.0
 11
72.45532172829998
 21
227.9203166132
 31
0.0
  0
ARC
  5
1F6
330
2
100
AcDbEntity
  8
0
 62
     3
100
AcDbCircle
 10
79.25012153299999
 20
224.9101695185
 30
0.0
 40
7.5
100
AcDbArc
 50
152.1818602931998
 51
152.6128725506
  0
LINE
  5
1F7
330
2
100
AcDbEntity
  8
0
 62
     3
100
AcDbLine
 10
73.40025720129998
 20
227.9600526682
 30
0.0
 11
73.35025822719998
 21
227.9100536899
 31
0.0
  0
LINE
  5
1F8
330
2
100
AcDbEntity
  8
0
 62
     3
100
AcDbLine
 10
74.47701954659999
 20
227.910170369
 30
0.0
 11
74.58526292099998
 21
228.1101750268999
 31
0.0
  0
LINE
  5
1F9
330
2
100
AcDbEntity
  8
0
 62
     3
100
AcDbLine
 10
73.95532172829998
 20
228.3601664668
 30
0.0
 11
73.95532172829998
 21
227.9601725702999
 31
0.0
  0
LINE
  5
1FA
330
2
100
AcDbEntity
  8
0
 62
     3
100
AcDbLine
 10
78.0054701814
 20
227.9101861716998
 30
0.0
 11
78.62684110529997
 21
227.3101895229999
 31
0.0
  0
LINE
  5
1FB
330
2
100
AcDbEntity
  8
0
 62
     3
100
AcDbLine
 10
77.25010627419997
 20
234.4101695185
 30
0.0
 11
77.25010627419997
 21
232.138578332
 31
0.0
  0
LINE
  5
1FC
330
2
100
AcDbEntity
  8
0
 62
     3
100
AcDbLine
 10
85.65011542949999
 20
227.4101695185
 30
0.0
 11
85.65011542949999
 21
222.4101695184999
 31
0.0
  0
LINE
  5
1FD
330
2
100
AcDbEntity
  8
0
 62
     3
100
AcDbLine
 10
83.37470954569999
 20
227.4101695185
 30
0.0
 11
83.37470954569999
 21
222.4101695184999
 31
0.0
  0
LINE
  5
1FE
330
2
100
AcDbEntity
  8
0
 62
     3
100
AcDbLine
 10
84.29380744609998
 20
222.4101695184999
 30
0.0
 11
84.29380744609998
 21
227.4101695185
 31
0.0
  0
LINE
  5
1FF
330
2
100
AcDbEntity
  8
0
 62
     3
100
AcDbLine
 10
79.63450568829998
 20
227.4101695185
 30
0.0
 11
79.63450568829998
 21
222.4101695184999
 31
0.0
  0
CIRCLE
  5
200
330
2
100
AcDbEntity
  8
0
 62
     3
100
AcDbCircle
 10
82.50459235820001
 20
222.9601725703
 30
0.0
 40
0.6999999881
  0
LINE
  5
201
330
2
100
AcDbEntity
  8
0
 62
     3
100
AcDbLine
 10
83.20460456519999
 20
222.9601725703
 30
0.0
 11
83.0045923582
 21
222.9601725703
 31
0.0
  0
LINE
  5
202
330
2
100
AcDbEntity
  8
0
 62
     3
100
AcDbLine
 10
81.250121533
 20
217.6817607049999
 30
0.0
 11
81.250121533
 21
213.138578332
 31
0.0
  0
CIRCLE
  5
203
330
2
100
AcDbEntity
  8
0
 62
     3
100
AcDbCircle
 10
82.50459235820001
 20
222.9601725703
 30
0.0
 40
0.5
  0
LINE
  5
204
330
2
100
AcDbEntity
  8
0
 62
     3
100
AcDbLine
 10
82.0045923582
 20
222.9601725703
 30
0.0
 11
81.80461066879997
 21
222.9601725703
 31
0.0
  0
LINE
  5
205
330
2
100
AcDbEntity
  8
0
 62
     3
100
AcDbLine
 10
84.95010728999998
 20
221.7101811265
 30
0.0
 11
85.65011450689999
 21
222.4101884024
 31
0.0
  0
LINE
  5
206
330
2
100
AcDbEntity
  8
0
 62
     3
100
AcDbLine
 10
84.29380744609998
 20
222.4101695184999
 30
0.0
 11
85.65011542949999
 21
222.4101695184999
 31
0.0
  0
LINE
  5
207
330
2
100
AcDbEntity
  8
0
 62
     3
100
AcDbLine
 10
83.91496485639999
 20
221.7101909961999
 30
0.0
 11
84.29380214119998
 21
222.4101804122
 31
0.0
  0
LINE
  5
208
330
2
100
AcDbEntity
  8
0
 62
     3
100
AcDbLine
 10
81.250121533
 20
234.4101695185
 30
0.0
 11
81.250121533
 21
232.138578332
 31
0.0
  0
LINE
  5
209
330
2
100
AcDbEntity
  8
0
 62
     3
100
AcDbLine
 10
84.29380744609998
 20
227.4101695185
 30
0.0
 11
85.65011542949999
 21
227.4101695185
 31
0.0
  0
LINE
  5
20A
330
2
100
AcDbEntity
  8
0
 62
     3
100
AcDbLine
 10
84.95009408249998
 20
228.1101789363999
 30
0.0
 11
85.65010129939997
 21
227.4101716605
 31
0.0
  0
LINE
  5
20B
330
2
100
AcDbEntity
  8
0
 62
     3
100
AcDbLine
 10
83.91505715579999
 20
228.1100190800998
 30
0.0
 11
84.29387991519998
 21
227.4100565032
 31
0.0
  0
ARC
  5
20C
330
2
100
AcDbEntity
  8
0
  6
PHANTOM
 62
     3
100
AcDbCircle
 10
94.85012763649999
 20
151.9455546503
 30
0.0
 40
5.8333330154
100
AcDbArc
 50
74.13285151530002
 51
105.8671125125
  0
CIRCLE
  5
20D
330
2
100
AcDbEntity
  8
0
 62
     3
100
AcDbCircle
 10
94.85012763649999
 20
149.6622294549998
 30
0.0
 40
1.1999998093
  0
LINE
  5
20E
330
2
100
AcDbEntity
  8
0
  6
CENTER
 62
     3
100
AcDbLine
 10
98.05506843239999
 20
149.6622294549998
 30
0.0
 11
91.06245368629998
 21
149.6622294549998
 31
0.0
  0
LINE
  5
20F
330
2
100
AcDbEntity
  8
0
 62
     3
100
AcDbLine
 10
92.25012153299999
 20
155.0622386102999
 30
0.0
 11
97.45011848129999
 21
155.0622386102999
 31
0.0
  0
CIRCLE
  5
210
330
2
100
AcDbEntity
  8
0
 62
     3
100
AcDbCircle
 10
94.85012763649999
 20
149.6622294549998
 30
0.0
 40
2.024999618499998
  0
LINE
  5
211
330
2
100
AcDbEntity
  8
0
 62
     3
100
AcDbLine
 10
88.30012458479997
 20
154.8622416620998
 30
0.0
 11
88.30012458479997
 21
154.4622325068
 31
0.0
  0
LINE
  5
212
330
2
100
AcDbEntity
  8
0
 62
     3
100
AcDbLine
 10
92.25012153299999
 20
155.0622386102999
 30
0.0
 11
92.25012153299999
 21
154.8622416620998
 31
0.0
  0
ARC
  5
213
330
2
100
AcDbEntity
  8
0
  6
PHANTOM
 62
     3
100
AcDbCircle
 10
93.50585883769999
 20
156.67489425
 30
0.0
 40
0.9166666864999999
100
AcDbArc
 50
105.8671125125
 51
176.9999810198
  0
LINE
  5
214
330
2
100
AcDbEntity
  8
0
  6
PHANTOM
 62
     3
100
AcDbLine
 10
92.5904358158
 20
156.7228736361
 30
0.0
 11
92.55843338860001
 21
156.1122309511
 31
0.0
  0
LINE
  5
215
330
2
100
AcDbEntity
  8
0
  6
CENTER
 62
     3
100
AcDbLine
 10
94.85012763649999
 20
158.7601298456999
 30
0.0
 11
94.85012763649999
 21
145.4359721307999
 31
0.0
  0
ARC
  5
216
330
2
100
AcDbEntity
  8
0
 62
     3
100
AcDbCircle
 10
98.0501245848
 20
153.8622416620999
 30
0.0
 40
1.0
100
AcDbArc
 50
0.0
 51
89.99998201389999
  0
LINE
  5
217
330
2
100
AcDbEntity
  8
0
 62
     3
100
AcDbLine
 10
97.45011848129999
 20
155.0622386102999
 30
0.0
 11
97.45011848129999
 21
154.8622416620998
 31
0.0
  0
LINE
  5
218
330
2
100
AcDbEntity
  8
0
 62
     3
100
AcDbLine
 10
97.45011848129999
 20
154.8622416620998
 30
0.0
 11
98.0501245848
 21
154.8622416620998
 31
0.0
  0
LINE
  5
219
330
2
100
AcDbEntity
  8
0
  6
PHANTOM
 62
     3
100
AcDbLine
 10
97.1097502873
 20
156.7228698631
 30
0.0
 11
97.14175271450001
 21
156.1122271781
 31
0.0
  0
ARC
  5
21A
330
2
100
AcDbEntity
  8
0
  6
PHANTOM
 62
     3
100
AcDbCircle
 10
96.19436591780001
 20
156.67489425
 30
0.0
 40
0.9166666864999999
100
AcDbArc
 50
2.9999992297
 51
74.13285151530002
  0
LINE
  5
21B
330
2
100
AcDbEntity
  8
0
 62
     3
100
AcDbLine
 10
97.45011848129999
 20
221.9101695185
 30
0.0
 11
97.45011848129999
 21
208.9101695185
 31
0.0
  0
LINE
  5
21C
330
2
100
AcDbEntity
  8
0
 62
     3
100
AcDbLine
 10
92.25012153299999
 20
215.4145945673
 30
0.0
 11
92.25012153299999
 21
208.9101695185
 31
0.0
  0
LINE
  5
21D
330
2
100
AcDbEntity
  8
0
 62
     3
100
AcDbLine
 10
99.05012458480001
 20
196.6101664668
 30
0.0
 11
99.05012458480001
 21
215.2101725702999
 31
0.0
  0
LINE
  5
21E
330
2
100
AcDbEntity
  8
0
 62
     3
100
AcDbLine
 10
88.30012458479997
 20
222.9101695185
 30
0.0
 11
88.30012458479997
 21
207.9101695184998
 31
0.0
  0
LINE
  5
21F
330
2
100
AcDbEntity
  8
0
  6
CENTER
 62
     3
100
AcDbLine
 10
94.85012763649999
 20
230.8418101435
 30
0.0
 11
94.85012763649999
 21
200.9101695185
 31
0.0
  0
LINE
  5
220
330
2
100
AcDbEntity
  8
0
 62
     3
100
AcDbLine
 10
97.35012763649999
 20
209.9101695184999
 30
0.0
 11
92.35012763649999
 21
209.9101695184999
 31
0.0
  0
LINE
  5
221
330
2
100
AcDbEntity
  8
0
 62
     3
100
AcDbLine
 10
92.25012153299999
 20
210.010175622
 30
0.0
 11
97.45011848129999
 21
210.010175622
 31
0.0
  0
LINE
  5
222
330
2
100
AcDbEntity
  8
0
  6
CENTER
 62
     3
100
AcDbLine
 10
96.8501276365
 20
205.9101695184998
 30
0.0
 11
92.8501276365
 21
205.9101695184998
 31
0.0
  0
LINE
  5
223
330
2
100
AcDbEntity
  8
0
 62
     3
100
AcDbLine
 10
97.35012763649999
 20
201.9101695184999
 30
0.0
 11
92.35012763649999
 21
201.9101695184999
 31
0.0
  0
LINE
  5
224
330
2
100
AcDbEntity
  8
0
 62
     3
100
AcDbLine
 10
92.25012153299999
 20
201.810163415
 30
0.0
 11
97.45011848129999
 21
201.810163415
 31
0.0
  0
CIRCLE
  5
225
330
2
100
AcDbEntity
  8
0
 62
     3
100
AcDbCircle
 10
94.85012763649999
 20
205.9101695184998
 30
0.0
 40
1.5
  0
CIRCLE
  5
226
330
2
100
AcDbEntity
  8
0
 62
     3
100
AcDbCircle
 10
94.85012763649999
 20
205.9101695184998
 30
0.0
 40
1.229499816899999
  0
LINE
  5
227
330
2
100
AcDbEntity
  8
0
 62
     3
100
AcDbLine
 10
92.25012153299999
 20
196.4232005243997
 30
0.0
 11
92.25012153299999
 21
202.9101695185
 31
0.0
  0
LINE
  5
228
330
2
100
AcDbEntity
  8
0
 62
     3
100
AcDbLine
 10
88.30012458479997
 20
196.4101695185
 30
0.0
 11
88.30012458479997
 21
203.9101695184998
 31
0.0
  0
LINE
  5
229
330
2
100
AcDbEntity
  8
0
 62
     3
100
AcDbLine
 10
91.85012763649998
 20
208.9101695185
 30
0.0
 11
91.85012763649998
 21
202.9101695185
 31
0.0
  0
LINE
  5
22A
330
2
100
AcDbEntity
  8
0
 62
     3
100
AcDbLine
 10
91.750121533
 20
209.010175622
 30
0.0
 11
91.750121533
 21
202.8101634149999
 31
0.0
  0
LINE
  5
22B
330
2
100
AcDbEntity
  8
0
 62
     3
100
AcDbLine
 10
92.35012763649999
 20
202.9101695185
 30
0.0
 11
91.85012763649998
 21
202.9101695185
 31
0.0
  0
LINE
  5
22C
330
2
100
AcDbEntity
  8
0
 62
     3
100
AcDbLine
 10
92.35012763649999
 20
202.9101695185
 30
0.0
 11
92.35012763649999
 21
201.9101695184999
 31
0.0
  0
LINE
  5
22D
330
2
100
AcDbEntity
  8
0
 62
     3
100
AcDbLine
 10
91.750121533
 20
202.8101634149999
 30
0.0
 11
92.25012153299999
 21
202.8101634149999
 31
0.0
  0
LINE
  5
22E
330
2
100
AcDbEntity
  8
0
 62
     3
100
AcDbLine
 10
93.70011848129999
 20
206.3451060418997
 30
0.0
 11
93.70011848129999
 21
205.4752329950999
 31
0.0
  0
LINE
  5
22F
330
2
100
AcDbEntity
  8
0
 62
     3
100
AcDbLine
 10
92.35012763649999
 20
208.9101695185
 30
0.0
 11
91.85012763649998
 21
208.9101695185
 31
0.0
  0
LINE
  5
230
330
2
100
AcDbEntity
  8
0
 62
     3
100
AcDbLine
 10
92.35012763649999
 20
209.9101695184999
 30
0.0
 11
92.35012763649999
 21
208.9101695185
 31
0.0
  0
LINE
  5
231
330
2
100
AcDbEntity
  8
0
 62
     3
100
AcDbLine
 10
91.750121533
 20
209.010175622
 30
0.0
 11
92.25012153299999
 21
209.010175622
 31
0.0
  0
LINE
  5
232
330
2
100
AcDbEntity
  8
0
 62
     3
100
AcDbLine
 10
97.45011848129999
 20
196.3986643916
 30
0.0
 11
97.45011848129999
 21
202.9101695185
 31
0.0
  0
ARC
  5
233
330
2
100
AcDbEntity
  8
0
 62
     3
100
AcDbCircle
 10
98.85012763649999
 20
196.6101664668
 30
0.0
 40
0.1999999881
100
AcDbArc
 50
270.0000179861
 51
0.0
  0
LINE
  5
234
330
2
100
AcDbEntity
  8
0
 62
     3
100
AcDbLine
 10
97.8501276365
 20
205.9101695184998
 30
0.0
 11
99.05012458480001
 21
205.9101695184998
 31
0.0
  0
LINE
  5
235
330
2
100
AcDbEntity
  8
0
 62
     3
100
AcDbLine
 10
97.8501276365
 20
208.9101695185
 30
0.0
 11
97.8501276365
 21
202.9101695185
 31
0.0
  0
LINE
  5
236
330
2
100
AcDbEntity
  8
0
 62
     3
100
AcDbLine
 10
97.9501184813
 20
209.010175622
 30
0.0
 11
97.9501184813
 21
202.8101634149999
 31
0.0
  0
LINE
  5
237
330
2
100
AcDbEntity
  8
0
 62
     3
100
AcDbLine
 10
96.00013679180001
 20
206.3451060418997
 30
0.0
 11
96.00013679180001
 21
205.4752329950999
 31
0.0
  0
LINE
  5
238
330
2
100
AcDbEntity
  8
0
 62
     3
100
AcDbLine
 10
97.35012763649999
 20
202.9101695185
 30
0.0
 11
97.35012763649999
 21
201.9101695184999
 31
0.0
  0
LINE
  5
239
330
2
100
AcDbEntity
  8
0
 62
     3
100
AcDbLine
 10
97.8501276365
 20
202.9101695185
 30
0.0
 11
97.35012763649999
 21
202.9101695185
 31
0.0
  0
LINE
  5
23A
330
2
100
AcDbEntity
  8
0
 62
     3
100
AcDbLine
 10
97.45011848129999
 20
202.8101634149999
 30
0.0
 11
97.9501184813
 21
202.8101634149999
 31
0.0
  0
LINE
  5
23B
330
2
100
AcDbEntity
  8
0
 62
     3
100
AcDbLine
 10
97.8501276365
 20
208.9101695185
 30
0.0
 11
97.35012763649999
 21
208.9101695185
 31
0.0
  0
LINE
  5
23C
330
2
100
AcDbEntity
  8
0
 62
     3
100
AcDbLine
 10
97.35012763649999
 20
209.9101695184999
 30
0.0
 11
97.35012763649999
 21
208.9101695185
 31
0.0
  0
LINE
  5
23D
330
2
100
AcDbEntity
  8
0
 62
     3
100
AcDbLine
 10
97.45011848129999
 20
209.010175622
 30
0.0
 11
97.9501184813
 21
209.010175622
 31
0.0
  0
CIRCLE
  5
23E
330
2
100
AcDbEntity
  8
0
 62
     3
100
AcDbCircle
 10
94.85012763649999
 20
224.9101695185
 30
0.0
 40
1.229499816899999
  0
CIRCLE
  5
23F
330
2
100
AcDbEntity
  8
0
 62
     3
100
AcDbCircle
 10
94.85012763649999
 20
224.9101695185
 30
0.0
 40
1.5
  0
LINE
  5
240
330
2
100
AcDbEntity
  8
0
  6
CENTER
 62
     3
100
AcDbLine
 10
96.8501276365
 20
224.9101695185
 30
0.0
 11
92.8501276365
 21
224.9101695185
 31
0.0
  0
LINE
  5
241
330
2
100
AcDbEntity
  8
0
 62
     3
100
AcDbLine
 10
92.25012153299999
 20
229.010175622
 30
0.0
 11
97.45011848129999
 21
229.010175622
 31
0.0
  0
LINE
  5
242
330
2
100
AcDbEntity
  8
0
 62
     3
100
AcDbLine
 10
97.35012763649999
 20
220.9101695185
 30
0.0
 11
92.35012763649999
 21
220.9101695185
 31
0.0
  0
LINE
  5
243
330
2
100
AcDbEntity
  8
0
 62
     3
100
AcDbLine
 10
92.25012153299999
 20
220.810163415
 30
0.0
 11
97.45011848129999
 21
220.810163415
 31
0.0
  0
LINE
  5
244
330
2
100
AcDbEntity
  8
0
 62
     3
100
AcDbLine
 10
97.35012763649999
 20
228.9101695184999
 30
0.0
 11
92.35012763649999
 21
228.9101695184999
 31
0.0
  0
LINE
  5
245
330
2
100
AcDbEntity
  8
0
 62
     3
100
AcDbLine
 10
93.70011848129999
 20
225.3451060418999
 30
0.0
 11
93.70011848129999
 21
224.4752329950999
 31
0.0
  0
LINE
  5
246
330
2
100
AcDbEntity
  8
0
 62
     3
100
AcDbLine
 10
91.750121533
 20
228.010175622
 30
0.0
 11
91.750121533
 21
221.8101634149999
 31
0.0
  0
LINE
  5
247
330
2
100
AcDbEntity
  8
0
 62
     3
100
AcDbLine
 10
91.85012763649998
 20
227.9101695185
 30
0.0
 11
91.85012763649998
 21
221.9101695185
 31
0.0
  0
LINE
  5
248
330
2
100
AcDbEntity
  8
0
 62
     3
100
AcDbLine
 10
92.25012153299999
 20
215.4232005243998
 30
0.0
 11
92.25012153299999
 21
221.9101695185
 31
0.0
  0
LINE
  5
249
330
2
100
AcDbEntity
  8
0
 62
     3
100
AcDbLine
 10
91.750121533
 20
221.8101634149999
 30
0.0
 11
92.25012153299999
 21
221.8101634149999
 31
0.0
  0
LINE
  5
24A
330
2
100
AcDbEntity
  8
0
 62
     3
100
AcDbLine
 10
92.35012763649999
 20
221.9101695185
 30
0.0
 11
91.85012763649998
 21
221.9101695185
 31
0.0
  0
LINE
  5
24B
330
2
100
AcDbEntity
  8
0
 62
     3
100
AcDbLine
 10
92.35012763649999
 20
221.9101695185
 30
0.0
 11
92.35012763649999
 21
220.9101695185
 31
0.0
  0
LINE
  5
24C
330
2
100
AcDbEntity
  8
0
 62
     3
100
AcDbLine
 10
88.30012458479997
 20
234.4101695185
 30
0.0
 11
88.30012458479997
 21
226.9101695184999
 31
0.0
  0
LINE
  5
24D
330
2
100
AcDbEntity
  8
0
 62
     3
100
AcDbLine
 10
92.25012153299999
 20
234.4145945673
 30
0.0
 11
92.25012153299999
 21
227.9101695185
 31
0.0
  0
LINE
  5
24E
330
2
100
AcDbEntity
  8
0
 62
     3
100
AcDbLine
 10
91.750121533
 20
228.010175622
 30
0.0
 11
92.25012153299999
 21
228.010175622
 31
0.0
  0
LINE
  5
24F
330
2
100
AcDbEntity
  8
0
 62
     3
100
AcDbLine
 10
92.35012763649999
 20
227.9101695185
 30
0.0
 11
91.85012763649998
 21
227.9101695185
 31
0.0
  0
LINE
  5
250
330
2
100
AcDbEntity
  8
0
 62
     3
100
AcDbLine
 10
92.35012763649999
 20
228.9101695184999
 30
0.0
 11
92.35012763649999
 21
227.9101695185
 31
0.0
  0
LINE
  5
251
330
2
100
AcDbEntity
  8
0
 62
     3
100
AcDbLine
 10
97.9501184813
 20
228.010175622
 30
0.0
 11
97.9501184813
 21
221.8101634149999
 31
0.0
  0
LINE
  5
252
330
2
100
AcDbEntity
  8
0
 62
     3
100
AcDbLine
 10
97.8501276365
 20
227.9101695185
 30
0.0
 11
97.8501276365
 21
221.9101695185
 31
0.0
  0
LINE
  5
253
330
2
100
AcDbEntity
  8
0
 62
     3
100
AcDbLine
 10
96.00013679180001
 20
225.3451060418999
 30
0.0
 11
96.00013679180001
 21
224.4752329950999
 31
0.0
  0
LINE
  5
254
330
2
100
AcDbEntity
  8
0
 62
     3
100
AcDbLine
 10
99.05012458480001
 20
215.6101664667998
 30
0.0
 11
99.05012458480001
 21
234.2101725702999
 31
0.0
  0
LINE
  5
255
330
2
100
AcDbEntity
  8
0
 62
     3
100
AcDbLine
 10
97.45011848129999
 20
221.8101634149999
 30
0.0
 11
97.9501184813
 21
221.8101634149999
 31
0.0
  0
LINE
  5
256
330
2
100
AcDbEntity
  8
0
 62
     3
100
AcDbLine
 10
97.35012763649999
 20
221.9101695185
 30
0.0
 11
97.35012763649999
 21
220.9101695185
 31
0.0
  0
LINE
  5
257
330
2
100
AcDbEntity
  8
0
 62
     3
100
AcDbLine
 10
97.8501276365
 20
221.9101695185
 30
0.0
 11
97.35012763649999
 21
221.9101695185
 31
0.0
  0
ARC
  5
258
330
2
100
AcDbEntity
  8
0
 62
     3
100
AcDbCircle
 10
98.85012763649999
 20
215.2101725702999
 30
0.0
 40
0.1999999881
100
AcDbArc
 50
0.0
 51
89.99998201389999
  0
ARC
  5
259
330
2
100
AcDbEntity
  8
0
 62
     3
100
AcDbCircle
 10
98.85012763649999
 20
215.6101664667998
 30
0.0
 40
0.1999999881
100
AcDbArc
 50
270.0000179861
 51
0.0
  0
LINE
  5
25A
330
2
100
AcDbEntity
  8
0
 62
     3
100
AcDbLine
 10
97.8501276365
 20
224.9101695185
 30
0.0
 11
99.05012458480001
 21
224.9101695185
 31
0.0
  0
LINE
  5
25B
330
2
100
AcDbEntity
  8
0
 62
     3
100
AcDbLine
 10
97.45011848129999
 20
234.4145945673
 30
0.0
 11
97.45011848129999
 21
227.9101695185
 31
0.0
  0
LINE
  5
25C
330
2
100
AcDbEntity
  8
0
 62
     3
100
AcDbLine
 10
97.45011848129999
 20
228.010175622
 30
0.0
 11
97.9501184813
 21
228.010175622
 31
0.0
  0
LINE
  5
25D
330
2
100
AcDbEntity
  8
0
 62
     3
100
AcDbLine
 10
97.8501276365
 20
227.9101695185
 30
0.0
 11
97.35012763649999
 21
227.9101695185
 31
0.0
  0
LINE
  5
25E
330
2
100
AcDbEntity
  8
0
 62
     3
100
AcDbLine
 10
97.35012763649999
 20
228.9101695184999
 30
0.0
 11
97.35012763649999
 21
227.9101695185
 31
0.0
  0
ARC
  5
25F
330
2
100
AcDbEntity
  8
0
 62
     3
100
AcDbCircle
 10
98.85012763649999
 20
234.2101725702999
 30
0.0
 40
0.1999999881
100
AcDbArc
 50
0.0
 51
89.99998201389999
  0
TEXT
  5
275
330
2
100
AcDbEntity
  8
0
 62
     7
100
AcDbText
 10
146.0
 20
110.0000029552498
 30
0.0
 40
2.999994089499998
  1
NRAS2100F
 11
146.0
 21
111.4999999999999
 31
0.0
100
AcDbText
 73
     2
  0
TEXT
  5
276
330
2
100
AcDbEntity
  8
0
 62
     7
100
AcDbText
 10
146.0
 20
115.0000029552499
 30
0.0
 40
2.999994089499998
  1
NRAS2100
 11
146.0
 21
116.5
 31
0.0
100
AcDbText
 73
     2
  0
ENDSEC
  0
SECTION
  2
OBJECTS
  0
DICTIONARY
  5
7
330
0
100
AcDbDictionary
281
     1
  3
ACAD_GROUP
350
1F
  3
ACAD_LAYOUT
350
B
  3
ACAD_MLINESTYLE
350
20
  3
ACAD_PLOTSETTINGS
350
21
  3
ACAD_PLOTSTYLENAME
350
6
  3
AcDbVariableDictionary
350
277
  0
DICTIONARY
  5
1F
102
{ACAD_REACTORS
330
7
102
}
330
7
100
AcDbDictionary
281
     1
  0
DICTIONARY
  5
B
102
{ACAD_REACTORS
330
7
102
}
330
7
100
AcDbDictionary
281
     1
  3
Model
350
A
  3
ﾚｲｱｳﾄ1
350
F
  0
DICTIONARY
  5
20
102
{ACAD_REACTORS
330
7
102
}
330
7
100
AcDbDictionary
281
     1
  3
Standard
350
22
  0
DICTIONARY
  5
21
102
{ACAD_REACTORS
330
7
102
}
330
7
100
AcDbDictionary
281
     1
  0
ACDBDICTIONARYWDFLT
  5
6
102
{ACAD_REACTORS
330
7
102
}
330
7
100
AcDbDictionary
281
     1
  3
Normal
350
5
100
AcDbDictionaryWithDefault
340
5
  0
DICTIONARY
  5
277
102
{ACAD_REACTORS
330
7
102
}
330
7
100
AcDbDictionary
281
     1
  3
DIMASSOC
350
278
  0
LAYOUT
  5
A
102
{ACAD_REACTORS
330
B
102
}
330
B
100
AcDbPlotSettings
  1

  2
C:\Program Files\AutoCAD 2000i\plotters\DWF Classic.pc3
  4

  6

 40
0.0
 41
0.0
 42
0.0
 43
0.0
 44
0.0
 45
0.0
 46
0.0
 47
0.0
 48
0.0
 49
0.0
140
0.0
141
0.0
142
1.0
143
1.0
 70
  1712
 72
     0
 73
     0
 74
     0
  7

 75
     0
147
1.0
148
0.0
149
0.0
100
AcDbLayout
  1
Model
 70
     1
 71
     0
 10
0.0
 20
0.0
 11
12.0
 21
9.0
 12
0.0
 22
0.0
 32
0.0
 14
0.0
 24
0.0
 34
0.0
 15
0.0
 25
0.0
 35
0.0
146
0.0
 13
0.0
 23
0.0
 33
0.0
 16
1.0
 26
0.0
 36
0.0
 17
0.0
 27
1.0
 37
0.0
 76
     0
330
2
  0
LAYOUT
  5
F
102
{ACAD_REACTORS
330
B
102
}
330
B
100
AcDbPlotSettings
  1

  2
C:\Program Files\AutoCAD 2000i\plotters\DWF Classic.pc3
  4

  6

 40
0.0
 41
0.0
 42
0.0
 43
0.0
 44
0.0
 45
0.0
 46
0.0
 47
0.0
 48
0.0
 49
0.0
140
0.0
141
0.0
142
1.0
143
1.0
 70
   688
 72
     0
 73
     0
 74
     5
  7

 75
    16
147
1.0
148
0.0
149
0.0
100
AcDbLayout
  1
ﾚｲｱｳﾄ1
 70
     1
 71
     1
 10
0.0
 20
0.0
 11
12.0
 21
9.0
 12
0.0
 22
0.0
 32
0.0
 14
1.000000000000000E+20
 24
1.000000000000000E+20
 34
1.000000000000000E+20
 15
-1.000000000000000E+20
 25
-1.000000000000000E+20
 35
-1.000000000000000E+20
146
0.0
 13
0.0
 23
0.0
 33
0.0
 16
1.0
 26
0.0
 36
0.0
 17
0.0
 27
1.0
 37
0.0
 76
     0
330
C
  0
MLINESTYLE
  5
22
102
{ACAD_REACTORS
330
20
102
}
330
20
100
AcDbMlineStyle
  2
STANDARD
 70
     0
  3

 62
   256
 51
90.0
 52
90.0
 71
     2
 49
0.5
 62
   256
  6
BYLAYER
 49
-0.5
 62
   256
  6
BYLAYER
  0
ACDBPLACEHOLDER
  5
5
102
{ACAD_REACTORS
330
6
102
}
330
6
  0
DICTIONARYVAR
  5
278
102
{ACAD_REACTORS
330
277
102
}
330
277
100
DictionaryVariables
280
     0
  1
1
  0
ENDSEC
  0
EOF
