  0
SECTION
  2
HEADER
  9
$ACADVER
  1
AC1015
  9
$ACADMAINTVER
 70
    13
  9
$DWGCODEPAGE
  3
ANSI_932
  9
$INSBASE
 10
0.0
 20
0.0
 30
0.0
  9
$EXTMIN
 10
-0.0237168928761094
 20
-0.0006710197254733
 30
-0.0000000349181948
  9
$EXTMAX
 10
210.0279349170812
 20
297.0028578686817
 30
0.0000000814935747
  9
$LIMMIN
 10
-185.7278564452999
 20
-3.174999999999998
  9
$LIMMAX
 10
3.174999999999998
 20
291.2585876465
  9
$ORTHOMODE
 70
     0
  9
$REGENMODE
 70
     1
  9
$FILLMODE
 70
     1
  9
$QTEXTMODE
 70
     0
  9
$MIRRTEXT
 70
     0
  9
$LTSCALE
 40
1.0
  9
$ATTMODE
 70
     1
  9
$TEXTSIZE
 40
2.999994039499997
  9
$TRACEWID
 40
0.05
  9
$TEXTSTYLE
  7
STANDARD
  9
$CLAYER
  8
0
  9
$CELTYPE
  6
ByLayer
  9
$CECOLOR
 62
   256
  9
$CELTSCALE
 40
1.0
  9
$DISPSILH
 70
     0
  9
$DIMSCALE
 40
1.0
  9
$DIMASZ
 40
1.9727878465
  9
$DIMEXO
 40
2.539999961899999
  9
$DIMDLI
 40
0.38
  9
$DIMRND
 40
0.0
  9
$DIMDLE
 40
0.0
  9
$DIMEXE
 40
3.809999942799997
  9
$DIMTP
 40
0.0
  9
$DIMTM
 40
0.0
  9
$DIMTXT
 40
2.999994039499997
  9
$DIMCEN
 40
0.09
  9
$DIMTSZ
 40
0.0
  9
$DIMTOL
 70
     0
  9
$DIMLIM
 70
     0
  9
$DIMTIH
 70
     0
  9
$DIMTOH
 70
     1
  9
$DIMSE1
 70
     0
  9
$DIMSE2
 70
     0
  9
$DIMTAD
 70
     0
  9
$DIMZIN
 70
     0
  9
$DIMBLK
  1

  9
$DIMASO
 70
     1
  9
$DIMSHO
 70
     0
  9
$DIMPOST
  1

  9
$DIMAPOST
  1

  9
$DIMALT
 70
     0
  9
$DIMALTD
 70
     2
  9
$DIMALTF
 40
25.4
  9
$DIMLFAC
 40
1.0
  9
$DIMTOFL
 70
     0
  9
$DIMTVP
 40
0.0
  9
$DIMTIX
 70
     0
  9
$DIMSOXD
 70
     0
  9
$DIMSAH
 70
     0
  9
$DIMBLK1
  1

  9
$DIMBLK2
  1

  9
$DIMSTYLE
  2
Standard
  9
$DIMCLRD
 70
     0
  9
$DIMCLRE
 70
     0
  9
$DIMCLRT
 70
     0
  9
$DIMTFAC
 40
1.0
  9
$DIMGAP
 40
0.09
  9
$DIMJUST
 70
     0
  9
$DIMSD1
 70
     0
  9
$DIMSD2
 70
     0
  9
$DIMTOLJ
 70
     1
  9
$DIMTZIN
 70
     0
  9
$DIMALTZ
 70
     0
  9
$DIMALTTZ
 70
     0
  9
$DIMUPT
 70
     0
  9
$DIMDEC
 70
     4
  9
$DIMTDEC
 70
     4
  9
$DIMALTU
 70
     2
  9
$DIMALTTD
 70
     2
  9
$DIMTXSTY
  7
STANDARD
  9
$DIMAUNIT
 70
     0
  9
$DIMADEC
 70
     0
  9
$DIMALTRND
 40
0.0
  9
$DIMAZIN
 70
     0
  9
$DIMDSEP
 70
    46
  9
$DIMATFIT
 70
     3
  9
$DIMFRAC
 70
     0
  9
$DIMLDRBLK
  1

  9
$DIMLUNIT
 70
     2
  9
$DIMLWD
 70
    -2
  9
$DIMLWE
 70
    -2
  9
$DIMTMOVE
 70
     0
  9
$LUNITS
 70
     2
  9
$LUPREC
 70
     3
  9
$SKETCHINC
 40
0.1
  9
$FILLETRAD
 40
0.0625
  9
$AUNITS
 70
     0
  9
$AUPREC
 70
     0
  9
$MENU
  1
ACAD
  9
$ELEVATION
 40
0.0
  9
$PELEVATION
 40
0.0
  9
$THICKNESS
 40
0.0
  9
$LIMCHECK
 70
     0
  9
$CHAMFERA
 40
0.0
  9
$CHAMFERB
 40
0.0
  9
$CHAMFERC
 40
0.0
  9
$CHAMFERD
 40
0.0
  9
$SKPOLY
 70
     0
  9
$TDCREATE
 40
2452527.698182870
  9
$TDUCREATE
 40
2452527.323182870
  9
$TDUPDATE
 40
2453339.675966967
  9
$TDUUPDATE
 40
2453339.300966967
  9
$TDINDWG
 40
0.0023211458
  9
$TDUSRTIMER
 40
0.0023211458
  9
$USRTIMER
 70
     1
  9
$ANGBASE
 50
0.0
  9
$ANGDIR
 70
     0
  9
$PDMODE
 70
     0
  9
$PDSIZE
 40
0.0
  9
$PLINEWID
 40
0.0
  9
$SPLFRAME
 70
     0
  9
$SPLINETYPE
 70
     6
  9
$SPLINESEGS
 70
     8
  9
$HANDSEED
  5
1D2
  9
$SURFTAB1
 70
     6
  9
$SURFTAB2
 70
     6
  9
$SURFTYPE
 70
     6
  9
$SURFU
 70
     6
  9
$SURFV
 70
     6
  9
$UCSBASE
  2

  9
$UCSNAME
  2

  9
$UCSORG
 10
0.0
 20
0.0
 30
0.0
  9
$UCSXDIR
 10
1.0
 20
0.0
 30
0.0
  9
$UCSYDIR
 10
0.0
 20
1.0
 30
0.0
  9
$UCSORTHOREF
  2

  9
$UCSORTHOVIEW
 70
     0
  9
$UCSORGTOP
 10
0.0
 20
0.0
 30
0.0
  9
$UCSORGBOTTOM
 10
0.0
 20
0.0
 30
0.0
  9
$UCSORGLEFT
 10
0.0
 20
0.0
 30
0.0
  9
$UCSORGRIGHT
 10
0.0
 20
0.0
 30
0.0
  9
$UCSORGFRONT
 10
0.0
 20
0.0
 30
0.0
  9
$UCSORGBACK
 10
0.0
 20
0.0
 30
0.0
  9
$PUCSBASE
  2

  9
$PUCSNAME
  2

  9
$PUCSORG
 10
0.0
 20
0.0
 30
0.0
  9
$PUCSXDIR
 10
1.0
 20
0.0
 30
0.0
  9
$PUCSYDIR
 10
0.0
 20
1.0
 30
0.0
  9
$PUCSORTHOREF
  2

  9
$PUCSORTHOVIEW
 70
     0
  9
$PUCSORGTOP
 10
0.0
 20
0.0
 30
0.0
  9
$PUCSORGBOTTOM
 10
0.0
 20
0.0
 30
0.0
  9
$PUCSORGLEFT
 10
0.0
 20
0.0
 30
0.0
  9
$PUCSORGRIGHT
 10
0.0
 20
0.0
 30
0.0
  9
$PUCSORGFRONT
 10
0.0
 20
0.0
 30
0.0
  9
$PUCSORGBACK
 10
0.0
 20
0.0
 30
0.0
  9
$USERI1
 70
     8
  9
$USERI2
 70
     0
  9
$USERI3
 70
     0
  9
$USERI4
 70
     0
  9
$USERI5
 70
     0
  9
$USERR1
 40
0.0
  9
$USERR2
 40
0.0
  9
$USERR3
 40
0.0
  9
$USERR4
 40
0.0
  9
$USERR5
 40
0.0
  9
$WORLDVIEW
 70
     1
  9
$SHADEDGE
 70
     3
  9
$SHADEDIF
 70
    70
  9
$TILEMODE
 70
     1
  9
$MAXACTVP
 70
    64
  9
$PINSBASE
 10
0.0
 20
0.0
 30
0.0
  9
$PLIMCHECK
 70
     0
  9
$PEXTMIN
 10
1.000000000000000E+20
 20
1.000000000000000E+20
 30
1.000000000000000E+20
  9
$PEXTMAX
 10
-1.000000000000000E+20
 20
-1.000000000000000E+20
 30
-1.000000000000000E+20
  9
$PLIMMIN
 10
0.0
 20
0.0
  9
$PLIMMAX
 10
12.0
 20
9.0
  9
$UNITMODE
 70
     0
  9
$VISRETAIN
 70
     1
  9
$PLINEGEN
 70
     0
  9
$PSLTSCALE
 70
     1
  9
$TREEDEPTH
 70
  3020
  9
$CMLSTYLE
  2
Standard
  9
$CMLJUST
 70
     0
  9
$CMLSCALE
 40
1.0
  9
$PROXYGRAPHICS
 70
     1
  9
$MEASUREMENT
 70
     0
  9
$CELWEIGHT
370
    -1
  9
$ENDCAPS
280
     0
  9
$JOINSTYLE
280
     0
  9
$LWDISPLAY
290
     0
  9
$INSUNITS
 70
     0
  9
$HYPERLINKBASE
  1

  9
$STYLESHEET
  1

  9
$XEDIT
290
     1
  9
$CEPSNTYPE
380
     0
  9
$PSTYLEMODE
290
     1
  9
$FINGERPRINTGUID
  2
{A08F0A9A-2EEC-41AC-AF91-C26C90DA4023}
  9
$VERSIONGUID
  2
{E119DF1C-B566-4149-9B79-4D6530586C84}
  9
$EXTNAMES
290
     1
  9
$PSVPSCALE
 40
0.0
  9
$OLESTARTUP
290
     0
  0
ENDSEC
  0
SECTION
  2
CLASSES
  0
CLASS
  1
ACDBDICTIONARYWDFLT
  2
AcDbDictionaryWithDefault
  3
AutoCAD 2000
 90
        0
280
     0
281
     0
  0
CLASS
  1
ACDBPLACEHOLDER
  2
AcDbPlaceHolder
  3
AutoCAD 2000
 90
        0
280
     0
281
     0
  0
CLASS
  1
LAYOUT
  2
AcDbLayout
  3
AutoCAD 2000
 90
        0
280
     0
281
     0
  0
CLASS
  1
DICTIONARYVAR
  2
AcDbDictionaryVar
  3
AutoCAD 2000
 90
        0
280
     0
281
     0
  0
ENDSEC
  0
SECTION
  2
TABLES
  0
TABLE
  2
VPORT
  5
19
330
0
100
AcDbSymbolTable
 70
     2
  0
VPORT
  5
1D1
330
19
100
AcDbSymbolTableRecord
100
AcDbViewportTableRecord
  2
*Active
 70
     0
 10
0.0
 20
0.0
 11
1.0
 21
1.0
 12
105.0021090121025
 22
148.5010934244781
 13
0.0
 23
0.0
 14
1.0
 24
1.0
 15
0.0
 25
0.0
 16
0.0
 26
0.0
 36
1.0
 17
0.0
 27
0.0
 37
0.0
 40
301.339346828384
 41
2.407317073170731
 42
50.0
 43
0.0
 44
0.0
 50
0.0
 51
0.0
 71
     0
 72
   100
 73
     1
 74
     1
 75
     0
 76
     0
 77
     0
 78
     0
281
     0
 65
     1
110
0.0
120
0.0
130
0.0
111
1.0
121
0.0
131
0.0
112
0.0
122
1.0
132
0.0
 79
     0
146
0.0
  0
ENDTAB
  0
TABLE
  2
LTYPE
  5
14
330
0
100
AcDbSymbolTable
 70
     3
  0
LTYPE
  5
15
330
14
100
AcDbSymbolTableRecord
100
AcDbLinetypeTableRecord
  2
ByBlock
 70
     0
  3

 72
    65
 73
     0
 40
0.0
  0
LTYPE
  5
16
330
14
100
AcDbSymbolTableRecord
100
AcDbLinetypeTableRecord
  2
ByLayer
 70
     0
  3

 72
    65
 73
     0
 40
0.0
  0
LTYPE
  5
8
330
14
100
AcDbSymbolTableRecord
100
AcDbLinetypeTableRecord
  2
Continuous
 70
     0
  3
Solid line
 72
    65
 73
     0
 40
0.0
  0
LTYPE
  5
3A
330
14
100
AcDbSymbolTableRecord
100
AcDbLinetypeTableRecord
  2
CENTER
 70
     0
  3
Center
 72
    65
 73
     4
 40
9.100006759199999
 49
6.5000119209
 74
     0
 49
-0.7999984026000001
 74
     0
 49
0.9999980329999999
 74
     0
 49
-0.7999984026000001
 74
     0
  0
LTYPE
  5
100
330
14
100
AcDbSymbolTableRecord
100
AcDbLinetypeTableRecord
  2
PHANTOM
 70
     0
  3
Phantom
 72
    65
 73
     6
 40
9.499981462999999
 49
4.799990654
 74
     0
 49
-0.8999982475999999
 74
     0
 49
0.9999980329999999
 74
     0
 49
-0.8999982475999999
 74
     0
 49
0.9999980329999999
 74
     0
 49
-0.8999982475999999
 74
     0
  0
ENDTAB
  0
TABLE
  2
LAYER
  5
10
330
0
100
AcDbSymbolTable
 70
     1
  0
LAYER
  5
4
330
10
100
AcDbSymbolTableRecord
100
AcDbLayerTableRecord
  2
0
 70
     0
 62
     7
  6
Continuous
370
    -3
390
5
  0
ENDTAB
  0
TABLE
  2
STYLE
  5
11
330
0
100
AcDbSymbolTable
 70
     1
  0
STYLE
  5
12
330
11
100
AcDbSymbolTableRecord
100
AcDbTextStyleTableRecord
  2
STANDARD
 70
     0
 40
0.0
 41
1.0
 50
0.0
 71
     0
 42
2.999994039499997
  3
romans.shx
  4
bigfont.shx
  0
ENDTAB
  0
TABLE
  2
VIEW
  5
17
330
0
100
AcDbSymbolTable
 70
     0
  0
ENDTAB
  0
TABLE
  2
UCS
  5
18
330
0
100
AcDbSymbolTable
 70
     0
  0
ENDTAB
  0
TABLE
  2
APPID
  5
1B
330
0
100
AcDbSymbolTable
 70
     1
  0
APPID
  5
1C
330
1B
100
AcDbSymbolTableRecord
100
AcDbRegAppTableRecord
  2
ACAD
 70
     0
  0
ENDTAB
  0
TABLE
  2
DIMSTYLE
  5
1D
330
0
100
AcDbSymbolTable
 70
     1
100
AcDbDimStyleTable
 71
     0
  0
DIMSTYLE
105
23
330
1D
100
AcDbSymbolTableRecord
100
AcDbDimStyleTableRecord
  2
Standard
 70
     0
340
12
  0
ENDTAB
  0
TABLE
  2
BLOCK_RECORD
  5
1
330
0
100
AcDbSymbolTable
 70
     2
  0
BLOCK_RECORD
  5
2
330
1
100
AcDbSymbolTableRecord
100
AcDbBlockTableRecord
  2
*Model_Space
340
A
  0
BLOCK_RECORD
  5
C
330
1
100
AcDbSymbolTableRecord
100
AcDbBlockTableRecord
  2
*Paper_Space
340
F
  0
ENDTAB
  0
ENDSEC
  0
SECTION
  2
BLOCKS
  0
BLOCK
  5
3
330
2
100
AcDbEntity
  8
0
100
AcDbBlockBegin
  2
*Model_Space
 70
     2
 10
0.0
 20
0.0
 30
0.0
  3
*Model_Space
  1

  0
ENDBLK
  5
9
330
2
100
AcDbEntity
  8
0
100
AcDbBlockEnd
  0
BLOCK
  5
D
330
C
100
AcDbEntity
 67
     1
  8
0
100
AcDbBlockBegin
  2
*Paper_Space
 70
     0
 10
0.0
 20
0.0
 30
0.0
  3
*Paper_Space
  1

  0
ENDBLK
  5
E
330
C
100
AcDbEntity
 67
     1
  8
0
100
AcDbBlockEnd
  0
ENDSEC
  0
SECTION
  2
ENTITIES
  0
LINE
  5
24
330
2
100
AcDbEntity
  8
0
100
AcDbLine
 10
210.0
 20
0.0
 30
0.0
 11
210.0
 21
297.0
 31
0.0
  0
LINE
  5
25
330
2
100
AcDbEntity
  8
0
100
AcDbLine
 10
0.0
 20
297.0
 30
0.0
 11
0.0
 21
0.0
 31
0.0
  0
LINE
  5
26
330
2
100
AcDbEntity
  8
0
 62
     3
100
AcDbLine
 10
95.35891895049999
 20
148.8174678862999
 30
0.0
 11
95.35891895049999
 21
129.1174556791997
 31
0.0
  0
LINE
  5
27
330
2
100
AcDbEntity
  8
0
 62
     3
100
AcDbLine
 10
57.15890674349997
 20
148.8174678862999
 30
0.0
 11
57.15890674349997
 21
129.1174556791997
 31
0.0
  0
LINE
  5
28
330
2
100
AcDbEntity
  8
0
 62
     3
100
AcDbLine
 10
50.95889453639998
 20
159.3174678862999
 30
0.0
 11
50.95889453639998
 21
121.3174678863
 31
0.0
  0
LINE
  5
29
330
2
100
AcDbEntity
  8
0
 62
     3
100
AcDbLine
 10
101.5589158986999
 20
159.3174678862999
 30
0.0
 11
101.5589158986999
 21
121.3174678863
 31
0.0
  0
LINE
  5
2A
330
2
100
AcDbEntity
  8
0
100
AcDbLine
 10
0.0
 20
0.0
 30
0.0
 11
210.0
 21
0.0
 31
0.0
  0
LINE
  5
2B
330
2
100
AcDbEntity
  8
0
 62
     3
100
AcDbLine
 10
69.85891895049999
 20
69.018571169
 30
0.0
 11
89.65890674349997
 21
69.018571169
 31
0.0
  0
LINE
  5
2C
330
2
100
AcDbEntity
  8
0
 62
     3
100
AcDbLine
 10
69.85891895049999
 20
62.61857727249999
 30
0.0
 11
89.65890674349997
 21
62.61857727249999
 31
0.0
  0
LINE
  5
2D
330
2
100
AcDbEntity
  8
0
 62
     3
100
AcDbLine
 10
70.25892810579998
 20
69.3935559102
 30
0.0
 11
89.2589281058
 21
69.3935559102
 31
0.0
  0
LINE
  5
2E
330
2
100
AcDbEntity
  8
0
 62
     3
100
AcDbLine
 10
70.25892810579998
 20
72.3935559102
 30
0.0
 11
89.2589281058
 21
72.3935559102
 31
0.0
  0
LINE
  5
2F
330
2
100
AcDbEntity
  8
0
 62
     3
100
AcDbLine
 10
69.75891284699997
 20
69.0685742208
 30
0.0
 11
89.75891284699997
 21
69.0685742208
 31
0.0
  0
LINE
  5
30
330
2
100
AcDbEntity
  8
0
 62
     3
100
AcDbLine
 10
69.75891284699997
 20
62.5685742208
 30
0.0
 11
89.75891284699997
 21
62.5685742208
 31
0.0
  0
LINE
  5
31
330
2
100
AcDbEntity
  8
0
 62
     3
100
AcDbLine
 10
61.6638963675
 20
115.3174678862999
 30
0.0
 11
90.8539293265
 21
115.3174678862999
 31
0.0
  0
LINE
  5
32
330
2
100
AcDbEntity
  8
0
 62
     3
100
AcDbLine
 10
61.25891284699997
 20
73.3185742208
 30
0.0
 11
91.25892810579999
 21
73.3185742208
 31
0.0
  0
LINE
  5
33
330
2
100
AcDbEntity
  8
0
 62
     3
100
AcDbLine
 10
61.25891284699997
 20
58.3185742208
 30
0.0
 11
91.25892810579999
 21
58.3185742208
 31
0.0
  0
LINE
  5
34
330
2
100
AcDbEntity
  8
0
 62
     3
100
AcDbLine
 10
59.15890674349999
 20
127.117470938
 30
0.0
 11
93.3589189505
 21
127.117470938
 31
0.0
  0
LINE
  5
35
330
2
100
AcDbEntity
  8
0
 62
     3
100
AcDbLine
 10
51.95889453639996
 20
120.3174678863
 30
0.0
 11
100.5589158986999
 21
120.3174678863
 31
0.0
  0
LINE
  5
36
330
2
100
AcDbEntity
  8
0
 62
     3
100
AcDbLine
 10
51.15890674349998
 20
75.3185742208
 30
0.0
 11
101.3589189504999
 21
75.3185742208
 31
0.0
  0
LINE
  5
37
330
2
100
AcDbEntity
  8
0
 62
     3
100
AcDbLine
 10
51.15890674349998
 20
56.3185742208
 30
0.0
 11
101.3589189504999
 21
56.3185742208
 31
0.0
  0
LINE
  5
38
330
2
100
AcDbEntity
  8
0
 62
     3
100
AcDbLine
 10
56.2588975882
 20
118.8174678862999
 30
0.0
 11
57.05890063999999
 21
118.8174678862999
 31
0.0
  0
LINE
  5
39
330
2
100
AcDbEntity
  8
0
  6
CENTER
 62
     3
100
AcDbLine
 10
57.01895313019996
 20
123.3174678863
 30
0.0
 11
51.45663623569999
 21
123.3174678863
 31
0.0
  0
ARC
  5
3B
330
2
100
AcDbEntity
  8
0
 62
     3
100
AcDbCircle
 10
53.7588975882
 20
123.3174678863
 30
0.0
 40
3.0
100
AcDbArc
 50
0.0
 51
89.99998201389999
  0
LINE
  5
3C
330
2
100
AcDbEntity
  8
0
 62
     3
100
AcDbLine
 10
56.2588975882
 20
111.8174678863
 30
0.0
 11
57.05890063999999
 21
111.8174678863
 31
0.0
  0
LINE
  5
3D
330
2
100
AcDbEntity
  8
0
 62
     3
100
AcDbLine
 10
56.25889699959998
 20
111.8174770913998
 30
0.0
 11
56.45889625259997
 21
110.8174748695999
 31
0.0
  0
LINE
  5
3E
330
2
100
AcDbEntity
  8
0
 62
     3
100
AcDbLine
 10
57.05883960479999
 20
69.8186352559
 30
0.0
 11
56.25879077669997
 21
69.8186352559
 31
0.0
  0
LINE
  5
3F
330
2
100
AcDbEntity
  8
0
 62
     3
100
AcDbLine
 10
57.05883960479999
 20
69.0185864278
 30
0.0
 11
56.25879077669997
 21
69.0185864278
 31
0.0
  0
LINE
  5
40
330
2
100
AcDbEntity
  8
0
 62
     3
100
AcDbLine
 10
56.25879643289997
 20
69.01857245560001
 30
0.0
 11
56.4588126732
 21
68.01854255800001
 31
0.0
  0
LINE
  5
41
330
2
100
AcDbEntity
  8
0
 62
     3
100
AcDbLine
 10
57.05883960479999
 20
61.81863525589999
 30
0.0
 11
56.25879077669997
 21
61.81863525589999
 31
0.0
  0
LINE
  5
42
330
2
100
AcDbEntity
  8
0
 62
     3
100
AcDbLine
 10
57.05883960479999
 20
62.6185620137
 30
0.0
 11
56.25879077669997
 21
62.6185620137
 31
0.0
  0
LINE
  5
43
330
2
100
AcDbEntity
  8
0
 62
     3
100
AcDbLine
 10
56.45867846799998
 20
63.61858621100001
 30
0.0
 11
56.25866003929996
 21
62.618556739
 31
0.0
  0
LINE
  5
44
330
2
100
AcDbEntity
  8
0
 62
     3
100
AcDbLine
 10
56.25891284699997
 20
74.21858337599998
 30
0.0
 11
56.25891284699997
 21
75.3185742208
 31
0.0
  0
LINE
  5
45
330
2
100
AcDbEntity
  8
0
 62
     3
100
AcDbLine
 10
50.9589097952
 20
75.1185772725
 30
0.0
 11
50.9589097952
 21
56.518571169
 31
0.0
  0
LINE
  5
46
330
2
100
AcDbEntity
  8
0
 62
     3
100
AcDbLine
 10
56.25891284699997
 20
69.0685742208
 30
0.0
 11
56.25891284699997
 21
62.5685742208
 31
0.0
  0
LINE
  5
47
330
2
100
AcDbEntity
  8
0
 62
     3
100
AcDbLine
 10
56.25891284699997
 20
61.8186199971
 30
0.0
 11
56.25891284699997
 21
69.8186199971
 31
0.0
  0
ARC
  5
48
330
2
100
AcDbEntity
  8
0
 62
     3
100
AcDbCircle
 10
53.75891284699997
 20
65.41858032430001
 30
0.0
 40
9.0
100
AcDbArc
 50
260.3479771416
 51
269.9999087031
  0
LINE
  5
49
330
2
100
AcDbEntity
  8
0
 62
     3
100
AcDbLine
 10
51.15890674349998
 20
57.4185803243
 30
0.0
 11
56.25891284699997
 21
57.4185803243
 31
0.0
  0
ARC
  5
4A
330
2
100
AcDbEntity
  8
0
 62
     3
100
AcDbCircle
 10
51.15890674349998
 20
56.518571169
 30
0.0
 40
0.1999999881
100
AcDbArc
 50
179.9999640277999
 51
270.0000006831999
  0
ARC
  5
4B
330
2
100
AcDbEntity
  8
0
 62
     3
100
AcDbCircle
 10
53.708925054
 20
57.4185803243
 30
0.0
 40
1.6999998093
100
AcDbArc
 50
179.9999093863
 51
210.883456662
  0
ARC
  5
4C
330
2
100
AcDbEntity
  8
0
 62
     3
100
AcDbCircle
 10
51.15890674349998
 20
57.61857727249999
 30
0.0
 40
0.1999999881
100
AcDbArc
 50
179.9999640277999
 51
270.0000006831999
  0
ARC
  5
4D
330
2
100
AcDbEntity
  8
0
 62
     3
100
AcDbCircle
 10
53.75891284699997
 20
65.41858032430001
 30
0.0
 40
9.0
100
AcDbArc
 50
270.0000179861
 51
279.6519495475
  0
LINE
  5
4E
330
2
100
AcDbEntity
  8
0
 62
     3
100
AcDbLine
 10
56.25891284699997
 20
57.4185803243
 30
0.0
 11
56.25891284699997
 21
56.3185742208
 31
0.0
  0
ARC
  5
4F
330
2
100
AcDbEntity
  8
0
 62
     3
100
AcDbCircle
 10
53.80896167509996
 20
57.4185803243
 30
0.0
 40
1.6999998093
100
AcDbArc
 50
329.1163605168
 51
359.9999360237998
  0
LINE
  5
50
330
2
100
AcDbEntity
  8
0
 62
     3
100
AcDbLine
 10
51.15890674349998
 20
74.21858337599998
 30
0.0
 11
56.25891284699997
 21
74.21858337599998
 31
0.0
  0
LINE
  5
51
330
2
100
AcDbEntity
  8
0
 62
     3
100
AcDbLine
 10
55.15890674349996
 20
74.6185162374
 30
0.0
 11
52.35891895049999
 21
74.6185162374
 31
0.0
  0
LINE
  5
52
330
2
100
AcDbEntity
  8
0
 62
     3
100
AcDbLine
 10
50.9589097952
 20
65.8185742208
 30
0.0
 11
56.25891284699997
 21
65.8185742208
 31
0.0
  0
LINE
  5
53
330
2
100
AcDbEntity
  8
0
 62
     3
100
AcDbLine
 10
52.35897998569999
 20
74.61853149609999
 30
0.0
 11
52.35897998569999
 21
74.21856811720001
 31
0.0
  0
ARC
  5
54
330
2
100
AcDbEntity
  8
0
 62
     3
100
AcDbCircle
 10
51.15890674349998
 20
74.018571169
 30
0.0
 40
0.1999999881
100
AcDbArc
 50
89.99998201389999
 51
179.9999640277999
  0
LINE
  5
55
330
2
100
AcDbEntity
  8
0
 62
     3
100
AcDbLine
 10
55.1589677786
 20
74.61853149609999
 30
0.0
 11
55.1589677786
 21
74.21856811720001
 31
0.0
  0
ARC
  5
56
330
2
100
AcDbEntity
  8
0
 62
     3
100
AcDbCircle
 10
51.15890674349998
 20
75.1185772725
 30
0.0
 40
0.1999999881
100
AcDbArc
 50
89.99998201389999
 51
179.9999640277999
  0
LINE
  5
57
330
2
100
AcDbEntity
  8
0
  6
CENTER
 62
     3
100
AcDbLine
 10
53.7588975882
 20
125.8846828520999
 30
0.0
 11
53.7588975882
 21
120.9580623687
 31
0.0
  0
ARC
  5
58
330
2
100
AcDbEntity
  8
0
 62
     3
100
AcDbCircle
 10
51.95889453639996
 20
121.3174678863
 30
0.0
 40
1.0
100
AcDbArc
 50
179.9999640277999
 51
270.0000006831999
  0
LINE
  5
59
330
2
100
AcDbEntity
  8
0
 62
     3
100
AcDbLine
 10
56.2588975882
 20
120.2824184478
 30
0.0
 11
56.2588975882
 21
111.8174678863
 31
0.0
  0
LINE
  5
5A
330
2
100
AcDbEntity
  8
0
 62
     3
100
AcDbLine
 10
53.7588975882
 20
126.3174678863
 30
0.0
 11
50.95889453639998
 21
126.3174678863
 31
0.0
  0
CIRCLE
  5
5B
330
2
100
AcDbEntity
  8
0
 62
     3
100
AcDbCircle
 10
53.7588975882
 20
123.3174678863
 30
0.0
 40
1.1999998093
  0
LINE
  5
5C
330
2
100
AcDbEntity
  8
0
 62
     3
100
AcDbLine
 10
57.05896167509997
 20
65.8185742208
 30
0.0
 11
69.75891284699997
 21
65.8185742208
 31
0.0
  0
LINE
  5
5D
330
2
100
AcDbEntity
  8
0
 62
     3
100
AcDbLine
 10
57.05897985989998
 20
62.6187000652
 30
0.0
 11
56.85896289009996
 21
63.61872984119997
 31
0.0
  0
LINE
  5
5E
330
2
100
AcDbEntity
  8
0
 62
     3
100
AcDbLine
 10
57.1089189505
 20
69.0685742208
 30
0.0
 11
57.1089189505
 21
62.5685742208
 31
0.0
  0
LINE
  5
5F
330
2
100
AcDbEntity
  8
0
 62
     3
100
AcDbLine
 10
60.25891284699998
 20
72.3185742208
 30
0.0
 11
60.25891284699998
 21
59.3185742208
 31
0.0
  0
LINE
  5
60
330
2
100
AcDbEntity
  8
0
 62
     3
100
AcDbLine
 10
60.75891284699998
 20
72.3185742208
 30
0.0
 11
60.75891284699998
 21
59.3185742208
 31
0.0
  0
LINE
  5
61
330
2
100
AcDbEntity
  8
0
 62
     3
100
AcDbLine
 10
57.05896167509997
 20
61.8186199971
 30
0.0
 11
57.05896167509997
 21
69.8186199971
 31
0.0
  0
LINE
  5
62
330
2
100
AcDbEntity
  8
0
 62
     3
100
AcDbLine
 10
57.05896167509997
 20
62.5685742208
 30
0.0
 11
57.1089189505
 21
62.5685742208
 31
0.0
  0
ARC
  5
63
330
2
100
AcDbEntity
  8
0
 62
     3
100
AcDbCircle
 10
61.75891284699996
 20
59.3185742208
 30
0.0
 40
1.0
100
AcDbArc
 50
179.9999640277999
 51
270.0000006831999
  0
ARC
  5
64
330
2
100
AcDbEntity
  8
0
 62
     3
100
AcDbCircle
 10
61.25891284699997
 20
59.3185742208
 30
0.0
 40
1.0
100
AcDbArc
 50
179.9999640277999
 51
270.0000006831999
  0
LINE
  5
65
330
2
100
AcDbEntity
  8
0
 62
     3
100
AcDbLine
 10
57.05896167509997
 20
69.0685742208
 30
0.0
 11
57.1089189505
 21
69.0685742208
 31
0.0
  0
LINE
  5
66
330
2
100
AcDbEntity
  8
0
 62
     3
100
AcDbLine
 10
56.45892505399999
 20
68.0186322042
 30
0.0
 11
56.45892505399999
 21
63.6186077901
 31
0.0
  0
LINE
  5
67
330
2
100
AcDbEntity
  8
0
 62
     3
100
AcDbLine
 10
56.85876636259997
 20
63.6185620137
 30
0.0
 11
56.45880298369997
 21
63.6185620137
 31
0.0
  0
LINE
  5
68
330
2
100
AcDbEntity
  8
0
 62
     3
100
AcDbLine
 10
56.85876636259997
 20
68.0185864278
 30
0.0
 11
56.45880298369997
 21
68.0185864278
 31
0.0
  0
LINE
  5
69
330
2
100
AcDbEntity
  8
0
 62
     3
100
AcDbLine
 10
56.85888843289998
 20
63.6186077901
 30
0.0
 11
56.85888843289998
 21
68.0186322042
 31
0.0
  0
LINE
  5
6A
330
2
100
AcDbEntity
  8
0
 62
     3
100
AcDbLine
 10
56.85859462689998
 20
68.01879947989998
 30
0.0
 11
57.05860108489996
 21
69.0187691022
 31
0.0
  0
ARC
  5
6B
330
2
100
AcDbEntity
  8
0
 62
     3
100
AcDbCircle
 10
61.75891284699996
 20
72.3185742208
 30
0.0
 40
1.0
100
AcDbArc
 50
89.99998201389999
 51
179.9999640277999
  0
ARC
  5
6C
330
2
100
AcDbEntity
  8
0
 62
     3
100
AcDbCircle
 10
61.25891284699997
 20
72.3185742208
 30
0.0
 40
1.0
100
AcDbArc
 50
89.99998201389999
 51
179.9999640277999
  0
LINE
  5
6D
330
2
100
AcDbEntity
  8
0
 62
     3
100
AcDbLine
 10
69.85891895049999
 20
69.018571169
 30
0.0
 11
69.85891895049999
 21
62.61857727249999
 31
0.0
  0
LINE
  5
6E
330
2
100
AcDbEntity
  8
0
 62
     3
100
AcDbLine
 10
69.75891284699997
 20
69.0685742208
 30
0.0
 11
69.75891284699997
 21
62.5685742208
 31
0.0
  0
ARC
  5
6F
330
2
100
AcDbEntity
  8
0
 62
     3
100
AcDbCircle
 10
70.25892810579998
 20
71.8935559102
 30
0.0
 40
0.5
100
AcDbArc
 50
89.99998201389999
 51
179.9999640277999
  0
ARC
  5
70
330
2
100
AcDbEntity
  8
0
 62
     3
100
AcDbCircle
 10
70.25892810579998
 20
69.8935559102
 30
0.0
 40
0.5
100
AcDbArc
 50
179.9999640277999
 51
270.0000006831999
  0
LINE
  5
71
330
2
100
AcDbEntity
  8
0
 62
     3
100
AcDbLine
 10
69.75892810579998
 20
71.8935559102
 30
0.0
 11
69.75892810579998
 21
69.8935559102
 31
0.0
  0
LINE
  5
72
330
2
100
AcDbEntity
  8
0
 62
     3
100
AcDbLine
 10
76.70890979519999
 20
69.018571169
 30
0.0
 11
76.70890979519999
 21
62.61857727249999
 31
0.0
  0
LINE
  5
73
330
2
100
AcDbEntity
  8
0
 62
     3
100
AcDbLine
 10
76.10890369169998
 20
69.018571169
 30
0.0
 11
76.10890369169998
 21
62.61857727249999
 31
0.0
  0
LINE
  5
74
330
2
100
AcDbEntity
  8
0
 62
     3
100
AcDbLine
 10
76.0088975882
 20
69.018571169
 30
0.0
 11
76.0088975882
 21
62.61857727249999
 31
0.0
  0
LINE
  5
75
330
2
100
AcDbEntity
  8
0
 62
     3
100
AcDbLine
 10
76.80891589869998
 20
69.018571169
 30
0.0
 11
76.80891589869998
 21
62.61857727249999
 31
0.0
  0
LINE
  5
76
330
2
100
AcDbEntity
  8
0
 62
     3
100
AcDbLine
 10
71.95890979519998
 20
67.41858032430001
 30
0.0
 11
71.95890979519998
 21
64.21856811720001
 31
0.0
  0
LINE
  5
77
330
2
100
AcDbEntity
  8
0
 62
     3
100
AcDbLine
 10
71.45890979519998
 20
67.41858032430001
 30
0.0
 11
71.45890979519998
 21
64.21856811720001
 31
0.0
  0
LINE
  5
78
330
2
100
AcDbEntity
  8
0
 62
     3
100
AcDbLine
 10
71.45890979519998
 20
64.21856811720001
 30
0.0
 11
71.95890979519998
 21
64.21856811720001
 31
0.0
  0
LINE
  5
79
330
2
100
AcDbEntity
  8
0
 62
     3
100
AcDbLine
 10
71.45890979519998
 20
67.41858032430001
 30
0.0
 11
71.95890979519998
 21
67.41858032430001
 31
0.0
  0
LINE
  5
7A
330
2
100
AcDbEntity
  8
0
 62
     3
100
AcDbLine
 10
71.45890979519998
 20
67.21856811720001
 30
0.0
 11
71.95890979519998
 21
67.21856811720001
 31
0.0
  0
LINE
  5
7B
330
2
100
AcDbEntity
  8
0
 62
     3
100
AcDbLine
 10
71.45890979519998
 20
64.41858032430001
 30
0.0
 11
71.95890979519998
 21
64.41858032430001
 31
0.0
  0
LINE
  5
7C
330
2
100
AcDbEntity
  8
0
 62
     3
100
AcDbLine
 10
71.45890979519998
 20
66.4185803243
 30
0.0
 11
71.95890979519998
 21
66.4185803243
 31
0.0
  0
LINE
  5
7D
330
2
100
AcDbEntity
  8
0
 62
     3
100
AcDbLine
 10
71.45890979519998
 20
65.21856811720001
 30
0.0
 11
71.95890979519998
 21
65.21856811720001
 31
0.0
  0
LINE
  5
7E
330
2
100
AcDbEntity
  8
0
 62
     3
100
AcDbLine
 10
84.40890674349999
 20
69.018571169
 30
0.0
 11
84.40890674349999
 21
62.61857727249999
 31
0.0
  0
LINE
  5
7F
330
2
100
AcDbEntity
  8
0
 62
     3
100
AcDbLine
 10
83.80890063999997
 20
69.018571169
 30
0.0
 11
83.80890063999997
 21
62.61857727249999
 31
0.0
  0
LINE
  5
80
330
2
100
AcDbEntity
  8
0
 62
     3
100
AcDbLine
 10
83.70889453639998
 20
69.018571169
 30
0.0
 11
83.70889453639998
 21
62.61857727249999
 31
0.0
  0
LINE
  5
81
330
2
100
AcDbEntity
  8
0
 62
     3
100
AcDbLine
 10
84.50891284699997
 20
69.018571169
 30
0.0
 11
84.50891284699997
 21
62.61857727249999
 31
0.0
  0
LINE
  5
82
330
2
100
AcDbEntity
  8
0
 62
     3
100
AcDbLine
 10
80.258912847
 20
65.21856811720001
 30
0.0
 11
80.75891284699997
 21
65.21856811720001
 31
0.0
  0
LINE
  5
83
330
2
100
AcDbEntity
  8
0
 62
     3
100
AcDbLine
 10
80.258912847
 20
67.41858032430001
 30
0.0
 11
80.75891284699997
 21
67.41858032430001
 31
0.0
  0
LINE
  5
84
330
2
100
AcDbEntity
  8
0
 62
     3
100
AcDbLine
 10
80.258912847
 20
67.21856811720001
 30
0.0
 11
80.75891284699997
 21
67.21856811720001
 31
0.0
  0
LINE
  5
85
330
2
100
AcDbEntity
  8
0
 62
     3
100
AcDbLine
 10
80.258912847
 20
64.41858032430001
 30
0.0
 11
80.75891284699997
 21
64.41858032430001
 31
0.0
  0
LINE
  5
86
330
2
100
AcDbEntity
  8
0
 62
     3
100
AcDbLine
 10
80.258912847
 20
64.21856811720001
 30
0.0
 11
80.75891284699997
 21
64.21856811720001
 31
0.0
  0
LINE
  5
87
330
2
100
AcDbEntity
  8
0
 62
     3
100
AcDbLine
 10
80.258912847
 20
66.4185803243
 30
0.0
 11
80.75891284699997
 21
66.4185803243
 31
0.0
  0
LINE
  5
88
330
2
100
AcDbEntity
  8
0
 62
     3
100
AcDbLine
 10
80.258912847
 20
67.41858032430001
 30
0.0
 11
80.258912847
 21
64.21856811720001
 31
0.0
  0
LINE
  5
89
330
2
100
AcDbEntity
  8
0
 62
     3
100
AcDbLine
 10
80.75891284699997
 20
67.41858032430001
 30
0.0
 11
80.75891284699997
 21
64.21856811720001
 31
0.0
  0
LINE
  5
8A
330
2
100
AcDbEntity
  8
0
 62
     3
100
AcDbLine
 10
56.7588975882
 20
123.3174678863
 30
0.0
 11
56.7588975882
 21
120.3174678863
 31
0.0
  0
ARC
  5
8B
330
2
100
AcDbEntity
  8
0
 62
     3
100
AcDbCircle
 10
59.35391406769998
 20
119.3174678862999
 30
0.0
 40
1.0
100
AcDbArc
 50
5.710591391499997
 51
89.99998201389999
  0
LINE
  5
8C
330
2
100
AcDbEntity
  8
0
 62
     3
100
AcDbLine
 10
57.05890063999999
 20
120.3668911040999
 30
0.0
 11
57.05890063999999
 21
111.8174678863
 31
0.0
  0
LINE
  5
8D
330
2
100
AcDbEntity
  8
0
 62
     3
100
AcDbLine
 10
56.45889453639997
 20
110.8174678863
 30
0.0
 11
56.8589036917
 21
110.8174678863
 31
0.0
  0
LINE
  5
8E
330
2
100
AcDbEntity
  8
0
 62
     3
100
AcDbLine
 10
57.05888440289999
 20
111.8174784879
 30
0.0
 11
56.85888521069998
 21
110.8174762661999
 31
0.0
  0
ARC
  5
8F
330
2
100
AcDbEntity
  8
0
 62
     3
100
AcDbCircle
 10
61.6638963675
 20
116.3174678862999
 30
0.0
 40
1.0
100
AcDbArc
 50
185.7106205333999
 51
270.0000179861
  0
LINE
  5
90
330
2
100
AcDbEntity
  8
0
 62
     3
100
AcDbLine
 10
60.34894557959998
 20
119.4169609906999
 30
0.0
 11
60.66884504279997
 21
116.217965592
 31
0.0
  0
ARC
  5
91
330
2
100
AcDbEntity
  8
0
 62
     3
100
AcDbCircle
 10
59.15890674349999
 20
129.1174556791997
 30
0.0
 40
2.0
100
AcDbArc
 50
179.9999640277999
 51
270.0000006831999
  0
LINE
  5
92
330
2
100
AcDbEntity
  8
0
 62
     3
100
AcDbLine
 10
71.45889453639998
 20
115.3174831450999
 30
0.0
 11
71.45889453639998
 21
106.7174770415999
 31
0.0
  0
LINE
  5
93
330
2
100
AcDbEntity
  8
0
 62
     3
100
AcDbLine
 10
71.95889453639998
 20
115.3174831450999
 30
0.0
 11
71.95889453639998
 21
106.7174770415999
 31
0.0
  0
LINE
  5
94
330
2
100
AcDbEntity
  8
0
 62
     3
100
AcDbLine
 10
71.45889453639998
 20
107.5174800932999
 30
0.0
 11
71.95889453639998
 21
107.5174800932999
 31
0.0
  0
LINE
  5
95
330
2
100
AcDbEntity
  8
0
 62
     3
100
AcDbLine
 10
71.45889453639998
 20
106.7174770415999
 30
0.0
 11
71.95889453639998
 21
106.7174770415999
 31
0.0
  0
LINE
  5
96
330
2
100
AcDbEntity
  8
0
 62
     3
100
AcDbLine
 10
71.45889453639998
 20
113.8174831451
 30
0.0
 11
71.95889453639998
 21
113.8174831451
 31
0.0
  0
LINE
  5
97
330
2
100
AcDbEntity
  8
0
 62
     3
100
AcDbLine
 10
76.1089079041
 20
114.4174843447
 30
0.0
 11
76.00890693049999
 21
115.3174938628
 31
0.0
  0
LINE
  5
98
330
2
100
AcDbEntity
  8
0
 62
     3
100
AcDbLine
 10
76.70892193439995
 20
114.4174746013999
 30
0.0
 11
76.808921169
 21
115.3174689539999
 31
0.0
  0
LINE
  5
99
330
2
100
AcDbEntity
  8
0
 62
     3
100
AcDbLine
 10
76.10890369169998
 20
114.4174739898
 30
0.0
 11
76.70890979519999
 21
114.4174739898
 31
0.0
  0
LINE
  5
9A
330
2
100
AcDbEntity
  8
0
 62
     3
100
AcDbLine
 10
80.7588975882
 20
115.3174831450999
 30
0.0
 11
80.7588975882
 21
106.7174770415999
 31
0.0
  0
LINE
  5
9B
330
2
100
AcDbEntity
  8
0
 62
     3
100
AcDbLine
 10
80.25889758819998
 20
115.3174831450999
 30
0.0
 11
80.25889758819998
 21
106.7174770415999
 31
0.0
  0
LINE
  5
9C
330
2
100
AcDbEntity
  8
0
 62
     3
100
AcDbLine
 10
80.25889758819998
 20
106.7174770415999
 30
0.0
 11
80.7588975882
 21
106.7174770415999
 31
0.0
  0
LINE
  5
9D
330
2
100
AcDbEntity
  8
0
 62
     3
100
AcDbLine
 10
80.25889758819998
 20
107.5174800932999
 30
0.0
 11
80.7588975882
 21
107.5174800932999
 31
0.0
  0
LINE
  5
9E
330
2
100
AcDbEntity
  8
0
 62
     3
100
AcDbLine
 10
80.25889758819998
 20
113.8174831451
 30
0.0
 11
80.7588975882
 21
113.8174831451
 31
0.0
  0
LINE
  5
9F
330
2
100
AcDbEntity
  8
0
 62
     3
100
AcDbLine
 10
83.80892121789996
 20
114.4174871612
 30
0.0
 11
83.70892198329997
 21
115.3174815138997
 31
0.0
  0
LINE
  5
A0
330
2
100
AcDbEntity
  8
0
 62
     3
100
AcDbLine
 10
84.40890887489999
 20
114.4174656567999
 30
0.0
 11
84.50890810949998
 21
115.3174600094
 31
0.0
  0
LINE
  5
A1
330
2
100
AcDbEntity
  8
0
 62
     3
100
AcDbLine
 10
84.40890674349999
 20
114.4174892486
 30
0.0
 11
83.80890063999997
 21
114.4174892486
 31
0.0
  0
LINE
  5
A2
330
2
100
AcDbEntity
  8
0
 62
     3
100
AcDbLine
 10
96.25891284699996
 20
74.21858337599998
 30
0.0
 11
101.3589189504999
 21
74.21858337599998
 31
0.0
  0
LINE
  5
A3
330
2
100
AcDbEntity
  8
0
 62
     3
100
AcDbLine
 10
96.25891284699996
 20
65.8185742208
 30
0.0
 11
101.5589158986999
 21
65.8185742208
 31
0.0
  0
LINE
  5
A4
330
2
100
AcDbEntity
  8
0
 62
     3
100
AcDbLine
 10
96.25891284699996
 20
57.4185803243
 30
0.0
 11
101.3589189504999
 21
57.4185803243
 31
0.0
  0
LINE
  5
A5
330
2
100
AcDbEntity
  8
0
 62
     3
100
AcDbLine
 10
96.25891284699996
 20
74.21858337599998
 30
0.0
 11
96.25891284699996
 21
75.3185742208
 31
0.0
  0
LINE
  5
A6
330
2
100
AcDbEntity
  8
0
 62
     3
100
AcDbLine
 10
89.65890674349997
 20
65.8185742208
 30
0.0
 11
95.4089067435
 21
65.8185742208
 31
0.0
  0
LINE
  5
A7
330
2
100
AcDbEntity
  8
0
 62
     3
100
AcDbLine
 10
92.25892810579999
 20
72.3185742208
 30
0.0
 11
92.25892810579999
 21
59.3185742208
 31
0.0
  0
LINE
  5
A8
330
2
100
AcDbEntity
  8
0
 62
     3
100
AcDbLine
 10
91.7589281058
 20
72.3185742208
 30
0.0
 11
91.7589281058
 21
59.3185742208
 31
0.0
  0
LINE
  5
A9
330
2
100
AcDbEntity
  8
0
 62
     3
100
AcDbLine
 10
89.65890674349997
 20
69.018571169
 30
0.0
 11
89.65890674349997
 21
62.61857727249999
 31
0.0
  0
LINE
  5
AA
330
2
100
AcDbEntity
  8
0
 62
     3
100
AcDbLine
 10
89.75891284699997
 20
69.0685742208
 30
0.0
 11
89.75891284699997
 21
62.5685742208
 31
0.0
  0
ARC
  5
AB
330
2
100
AcDbEntity
  8
0
 62
     3
100
AcDbCircle
 10
90.75892810579999
 20
59.3185742208
 30
0.0
 40
1.0
100
AcDbArc
 50
270.0000179861
 51
0.0
  0
ARC
  5
AC
330
2
100
AcDbEntity
  8
0
 62
     3
100
AcDbCircle
 10
91.25892810579999
 20
59.3185742208
 30
0.0
 40
1.0
100
AcDbArc
 50
270.0000179861
 51
0.0
  0
ARC
  5
AD
330
2
100
AcDbEntity
  8
0
 62
     3
100
AcDbCircle
 10
89.2589281058
 20
69.8935559102
 30
0.0
 40
0.5
100
AcDbArc
 50
270.0000179861
 51
0.0
  0
ARC
  5
AE
330
2
100
AcDbEntity
  8
0
 62
     3
100
AcDbCircle
 10
89.2589281058
 20
71.8935559102
 30
0.0
 40
0.5
100
AcDbArc
 50
0.0
 51
89.99992737239997
  0
LINE
  5
AF
330
2
100
AcDbEntity
  8
0
 62
     3
100
AcDbLine
 10
87.55891589870001
 20
66.4185803243
 30
0.0
 11
88.05891589869998
 21
66.4185803243
 31
0.0
  0
LINE
  5
B0
330
2
100
AcDbEntity
  8
0
 62
     3
100
AcDbLine
 10
87.55891589870001
 20
65.21856811720001
 30
0.0
 11
88.05891589869998
 21
65.21856811720001
 31
0.0
  0
LINE
  5
B1
330
2
100
AcDbEntity
  8
0
 62
     3
100
AcDbLine
 10
87.55891589870001
 20
67.21856811720001
 30
0.0
 11
88.05891589869998
 21
67.21856811720001
 31
0.0
  0
LINE
  5
B2
330
2
100
AcDbEntity
  8
0
 62
     3
100
AcDbLine
 10
87.55891589870001
 20
67.41858032430001
 30
0.0
 11
88.05891589869998
 21
67.41858032430001
 31
0.0
  0
LINE
  5
B3
330
2
100
AcDbEntity
  8
0
 62
     3
100
AcDbLine
 10
87.55891589870001
 20
64.41858032430001
 30
0.0
 11
88.05891589869998
 21
64.41858032430001
 31
0.0
  0
LINE
  5
B4
330
2
100
AcDbEntity
  8
0
 62
     3
100
AcDbLine
 10
87.55891589870001
 20
64.21856811720001
 30
0.0
 11
88.05891589869998
 21
64.21856811720001
 31
0.0
  0
LINE
  5
B5
330
2
100
AcDbEntity
  8
0
 62
     3
100
AcDbLine
 10
87.55891589870001
 20
67.41858032430001
 30
0.0
 11
87.55891589870001
 21
64.21856811720001
 31
0.0
  0
LINE
  5
B6
330
2
100
AcDbEntity
  8
0
 62
     3
100
AcDbLine
 10
88.05891589869998
 20
67.41858032430001
 30
0.0
 11
88.05891589869998
 21
64.21856811720001
 31
0.0
  0
ARC
  5
B7
330
2
100
AcDbEntity
  8
0
 62
     3
100
AcDbCircle
 10
90.75892810579999
 20
72.3185742208
 30
0.0
 40
1.0
100
AcDbArc
 50
0.0
 51
89.99998201389999
  0
ARC
  5
B8
330
2
100
AcDbEntity
  8
0
 62
     3
100
AcDbCircle
 10
91.25892810579999
 20
72.3185742208
 30
0.0
 40
1.0
100
AcDbArc
 50
0.0
 51
89.99998201389999
  0
LINE
  5
B9
330
2
100
AcDbEntity
  8
0
 62
     3
100
AcDbLine
 10
89.75892810579997
 20
71.8935559102
 30
0.0
 11
89.75892810579997
 21
69.8935559102
 31
0.0
  0
LINE
  5
BA
330
2
100
AcDbEntity
  8
0
 62
     3
100
AcDbLine
 10
95.45883852379999
 20
62.618552161
 30
0.0
 11
95.65884352299999
 21
63.61852208729999
 31
0.0
  0
LINE
  5
BB
330
2
100
AcDbEntity
  8
0
 62
     3
100
AcDbLine
 10
96.05881643620001
 20
63.61855660779998
 30
0.0
 11
96.25882070600001
 21
62.61858656
 31
0.0
  0
LINE
  5
BC
330
2
100
AcDbEntity
  8
0
 62
     3
100
AcDbLine
 10
96.25891284699996
 20
69.0685742208
 30
0.0
 11
96.25891284699996
 21
62.5685742208
 31
0.0
  0
LINE
  5
BD
330
2
100
AcDbEntity
  8
0
 62
     3
100
AcDbLine
 10
95.4089067435
 20
69.0685742208
 30
0.0
 11
95.4089067435
 21
62.5685742208
 31
0.0
  0
LINE
  5
BE
330
2
100
AcDbEntity
  8
0
 62
     3
100
AcDbLine
 10
96.25891284699996
 20
61.8186199971
 30
0.0
 11
96.25891284699996
 21
69.8186199971
 31
0.0
  0
LINE
  5
BF
330
2
100
AcDbEntity
  8
0
 62
     3
100
AcDbLine
 10
95.45886401889999
 20
61.8186199971
 30
0.0
 11
95.45886401889999
 21
69.8186199971
 31
0.0
  0
LINE
  5
C0
330
2
100
AcDbEntity
  8
0
 62
     3
100
AcDbLine
 10
96.25891284699996
 20
57.4185803243
 30
0.0
 11
96.25891284699996
 21
56.3185742208
 31
0.0
  0
LINE
  5
C1
330
2
100
AcDbEntity
  8
0
 62
     3
100
AcDbLine
 10
95.4089067435
 20
62.5685742208
 30
0.0
 11
95.45886401889999
 21
62.5685742208
 31
0.0
  0
LINE
  5
C2
330
2
100
AcDbEntity
  8
0
 62
     3
100
AcDbLine
 10
95.45874194859996
 20
61.81863525589999
 30
0.0
 11
96.25879077669999
 21
61.81863525589999
 31
0.0
  0
LINE
  5
C3
330
2
100
AcDbEntity
  8
0
 62
     3
100
AcDbLine
 10
95.45874194859996
 20
62.6185620137
 30
0.0
 11
96.25879077669999
 21
62.6185620137
 31
0.0
  0
ARC
  5
C4
330
2
100
AcDbEntity
  8
0
 62
     3
100
AcDbCircle
 10
98.75891284699996
 20
65.41858032430001
 30
0.0
 40
9.0
100
AcDbArc
 50
260.3479771416
 51
269.9999087031
  0
ARC
  5
C5
330
2
100
AcDbEntity
  8
0
 62
     3
100
AcDbCircle
 10
98.708925054
 20
57.4185803243
 30
0.0
 40
1.6999998093
100
AcDbArc
 50
179.9999093863
 51
210.883456662
  0
ARC
  5
C6
330
2
100
AcDbEntity
  8
0
 62
     3
100
AcDbCircle
 10
98.80896167509998
 20
57.4185803243
 30
0.0
 40
1.6999998093
100
AcDbArc
 50
329.1163605168
 51
359.9999360237998
  0
ARC
  5
C7
330
2
100
AcDbEntity
  8
0
 62
     3
100
AcDbCircle
 10
98.75891284699996
 20
65.41858032430001
 30
0.0
 40
9.0
100
AcDbArc
 50
270.0000179861
 51
279.6519495475
  0
LINE
  5
C8
330
2
100
AcDbEntity
  8
0
 62
     3
100
AcDbLine
 10
95.4089067435
 20
69.0685742208
 30
0.0
 11
95.45886401889999
 21
69.0685742208
 31
0.0
  0
LINE
  5
C9
330
2
100
AcDbEntity
  8
0
 62
     3
100
AcDbLine
 10
95.65893726109996
 20
63.6186077901
 30
0.0
 11
95.65893726109996
 21
68.0186322042
 31
0.0
  0
LINE
  5
CA
330
2
100
AcDbEntity
  8
0
 62
     3
100
AcDbLine
 10
95.65882312089998
 20
68.01850436640001
 30
0.0
 11
95.45880688049999
 21
69.01853426399999
 31
0.0
  0
LINE
  5
CB
330
2
100
AcDbEntity
  8
0
 62
     3
100
AcDbLine
 10
96.05890064
 20
68.0186322042
 30
0.0
 11
96.05890064
 21
63.6186077901
 31
0.0
  0
LINE
  5
CC
330
2
100
AcDbEntity
  8
0
 62
     3
100
AcDbLine
 10
95.65881519069998
 20
63.6185620137
 30
0.0
 11
96.05877856959999
 21
63.6185620137
 31
0.0
  0
LINE
  5
CD
330
2
100
AcDbEntity
  8
0
 62
     3
100
AcDbLine
 10
95.65881519069998
 20
68.0185864278
 30
0.0
 11
96.05877856959999
 21
68.0185864278
 31
0.0
  0
LINE
  5
CE
330
2
100
AcDbEntity
  8
0
 62
     3
100
AcDbLine
 10
95.45874194859996
 20
69.0185864278
 30
0.0
 11
96.25879077669999
 21
69.0185864278
 31
0.0
  0
LINE
  5
CF
330
2
100
AcDbEntity
  8
0
 62
     3
100
AcDbLine
 10
96.25877920229999
 20
69.0185772406
 30
0.0
 11
96.0587622325
 21
68.0185474646
 31
0.0
  0
LINE
  5
D0
330
2
100
AcDbEntity
  8
0
 62
     3
100
AcDbLine
 10
95.45874194859996
 20
69.8186352559
 30
0.0
 11
96.25879077669999
 21
69.8186352559
 31
0.0
  0
LINE
  5
D1
330
2
100
AcDbEntity
  8
0
 62
     3
100
AcDbLine
 10
100.1589067434999
 20
74.6185162374
 30
0.0
 11
97.3589189505
 21
74.6185162374
 31
0.0
  0
LINE
  5
D2
330
2
100
AcDbEntity
  8
0
 62
     3
100
AcDbLine
 10
97.35897998570001
 20
74.61853149609999
 30
0.0
 11
97.35897998570001
 21
74.21856811720001
 31
0.0
  0
LINE
  5
D3
330
2
100
AcDbEntity
  8
0
 62
     3
100
AcDbLine
 10
100.1589677785999
 20
74.61853149609999
 30
0.0
 11
100.1589677785999
 21
74.21856811720001
 31
0.0
  0
LINE
  5
D4
330
2
100
AcDbEntity
  8
0
 62
     3
100
AcDbLine
 10
101.5589158986999
 20
75.1185772725
 30
0.0
 11
101.5589158986999
 21
56.518571169
 31
0.0
  0
ARC
  5
D5
330
2
100
AcDbEntity
  8
0
 62
     3
100
AcDbCircle
 10
101.3589189504999
 20
56.518571169
 30
0.0
 40
0.1999999881
100
AcDbArc
 50
270.0000179861
 51
0.0
  0
ARC
  5
D6
330
2
100
AcDbEntity
  8
0
 62
     3
100
AcDbCircle
 10
101.3589189504999
 20
57.61857727249999
 30
0.0
 40
0.1999999881
100
AcDbArc
 50
270.0000179861
 51
0.0
  0
ARC
  5
D7
330
2
100
AcDbEntity
  8
0
 62
     3
100
AcDbCircle
 10
101.3589189504999
 20
74.018571169
 30
0.0
 40
0.1999999881
100
AcDbArc
 50
0.0
 51
89.99998201389999
  0
ARC
  5
D8
330
2
100
AcDbEntity
  8
0
 62
     3
100
AcDbCircle
 10
101.3589189504999
 20
75.1185772725
 30
0.0
 40
0.1999999881
100
AcDbArc
 50
0.0
 51
89.99998201389999
  0
LINE
  5
D9
330
2
100
AcDbEntity
  8
0
 62
     3
100
AcDbLine
 10
101.5589158986999
 20
126.3174678863
 30
0.0
 11
98.75891284699996
 21
126.3174678863
 31
0.0
  0
ARC
  5
DA
330
2
100
AcDbEntity
  8
0
 62
     3
100
AcDbCircle
 10
100.5589158986999
 20
121.3174678863
 30
0.0
 40
1.0
100
AcDbArc
 50
270.0000179861
 51
0.0
  0
LINE
  5
DB
330
2
100
AcDbEntity
  8
0
  6
CENTER
 62
     3
100
AcDbLine
 10
101.2790086721998
 20
123.3174678863
 30
0.0
 11
95.95509509799999
 21
123.3174678863
 31
0.0
  0
LINE
  5
DC
330
2
100
AcDbEntity
  8
0
  6
CENTER
 62
     3
100
AcDbLine
 10
98.75891284699996
 20
126.9176723540999
 30
0.0
 11
98.75891284699996
 21
120.6402217925
 31
0.0
  0
LINE
  5
DD
330
2
100
AcDbEntity
  8
0
 62
     3
100
AcDbLine
 10
95.75891284699995
 20
123.3174678863
 30
0.0
 11
95.75891284699995
 21
120.3174678863
 31
0.0
  0
LINE
  5
DE
330
2
100
AcDbEntity
  8
0
  6
CENTER
 62
     3
100
AcDbLine
 10
92.25891284699995
 20
125.6462947905998
 30
0.0
 11
92.25891284699995
 21
120.7196743071998
 31
0.0
  0
LINE
  5
DF
330
2
100
AcDbEntity
  8
0
 62
     3
100
AcDbLine
 10
88.05890063999996
 20
115.3174831450999
 30
0.0
 11
88.05890063999996
 21
106.7174770415999
 31
0.0
  0
LINE
  5
E0
330
2
100
AcDbEntity
  8
0
 62
     3
100
AcDbLine
 10
87.55890063999997
 20
115.3174831450999
 30
0.0
 11
87.55890063999997
 21
106.7174770415999
 31
0.0
  0
LINE
  5
E1
330
2
100
AcDbEntity
  8
0
 62
     3
100
AcDbLine
 10
88.05890063999996
 20
107.5174800932999
 30
0.0
 11
87.55890063999997
 21
107.5174800932999
 31
0.0
  0
LINE
  5
E2
330
2
100
AcDbEntity
  8
0
 62
     3
100
AcDbLine
 10
88.05890063999996
 20
106.7174770415999
 30
0.0
 11
87.55890063999997
 21
106.7174770415999
 31
0.0
  0
LINE
  5
E3
330
2
100
AcDbEntity
  8
0
 62
     3
100
AcDbLine
 10
88.05890063999996
 20
113.8174831451
 30
0.0
 11
87.55890063999997
 21
113.8174831451
 31
0.0
  0
ARC
  5
E4
330
2
100
AcDbEntity
  8
0
 62
     3
100
AcDbCircle
 10
90.8539293265
 20
116.3174678862999
 30
0.0
 40
1.0
100
AcDbArc
 50
270.0000179861
 51
354.2894051934999
  0
LINE
  5
E5
330
2
100
AcDbEntity
  8
0
 62
     3
100
AcDbLine
 10
92.16884811120001
 20
119.4169680931
 30
0.0
 11
91.84894712969995
 21
116.2179575113998
 31
0.0
  0
ARC
  5
E6
330
2
100
AcDbEntity
  8
0
 62
     3
100
AcDbCircle
 10
93.16391162629996
 20
119.3174678862999
 30
0.0
 40
1.0
100
AcDbArc
 50
89.99998201389999
 51
174.2893794665999
  0
LINE
  5
E7
330
2
100
AcDbEntity
  8
0
 62
     3
100
AcDbLine
 10
96.25891284699996
 20
120.2833339751
 30
0.0
 11
96.25891284699996
 21
111.8174831451
 31
0.0
  0
LINE
  5
E8
330
2
100
AcDbEntity
  8
0
 62
     3
100
AcDbLine
 10
95.45890979519993
 20
120.2833339751
 30
0.0
 11
95.45890979519993
 21
111.8174831451
 31
0.0
  0
LINE
  5
E9
330
2
100
AcDbEntity
  8
0
 62
     3
100
AcDbLine
 10
95.65890674349999
 20
110.8174831451
 30
0.0
 11
96.05890064
 21
110.8174831451
 31
0.0
  0
LINE
  5
EA
330
2
100
AcDbEntity
  8
0
 62
     3
100
AcDbLine
 10
95.45891042909998
 20
111.8174954679
 30
0.0
 11
95.65891077619999
 21
110.8174934893
 31
0.0
  0
LINE
  5
EB
330
2
100
AcDbEntity
  8
0
 62
     3
100
AcDbLine
 10
95.45890979519993
 20
111.8174831451
 30
0.0
 11
96.25891284699996
 21
111.8174831451
 31
0.0
  0
LINE
  5
EC
330
2
100
AcDbEntity
  8
0
 62
     3
100
AcDbLine
 10
96.2588846558
 20
111.817477992
 30
0.0
 11
96.05888424790002
 21
110.8174760133999
 31
0.0
  0
LINE
  5
ED
330
2
100
AcDbEntity
  8
0
 62
     3
100
AcDbLine
 10
95.45890979519993
 20
118.8174678862999
 30
0.0
 11
96.25891284699996
 21
118.8174678862999
 31
0.0
  0
CIRCLE
  5
EE
330
2
100
AcDbEntity
  8
0
 62
     3
100
AcDbCircle
 10
92.25891284699995
 20
122.8174678862999
 30
0.0
 40
1.0999994278
  0
LINE
  5
EF
330
2
100
AcDbEntity
  8
0
  6
CENTER
 62
     3
100
AcDbLine
 10
94.52478198759996
 20
122.8174678862999
 30
0.0
 11
90.55171375029996
 21
122.8174678862999
 31
0.0
  0
CIRCLE
  5
F0
330
2
100
AcDbEntity
  8
0
 62
     3
100
AcDbCircle
 10
92.25891284699995
 20
122.8174678862999
 30
0.0
 40
0.6999999881
  0
ARC
  5
F1
330
2
100
AcDbEntity
  8
0
 62
     3
100
AcDbCircle
 10
98.75891284699996
 20
123.3174678863
 30
0.0
 40
3.0
100
AcDbArc
 50
89.99998201389999
 51
179.9999640277999
  0
ARC
  5
F2
330
2
100
AcDbEntity
  8
0
 62
     3
100
AcDbCircle
 10
93.3589189505
 20
129.1174556791997
 30
0.0
 40
2.0
100
AcDbArc
 50
270.0000179861
 51
0.0
  0
CIRCLE
  5
F3
330
2
100
AcDbEntity
  8
0
 62
     3
100
AcDbCircle
 10
98.75891284699996
 20
123.3174678863
 30
0.0
 40
1.1999998093
  0
TEXT
  5
F4
330
2
100
AcDbEntity
  8
0
 62
     5
100
AcDbText
 10
145.0
 20
10.0
 30
0.0
 40
5.0
  1
ＭＡ４-Ｃ０００６９Ｂ
 41
0.8418911459846412
 72
     5
 11
199.0413935612998
 21
10.0
 31
0.0
100
AcDbText
  0
LINE
  5
F6
330
2
100
AcDbEntity
  8
0
100
AcDbLine
 10
210.0
 20
297.0
 30
0.0
 11
0.0
 21
297.0
 31
0.0
  0
LINE
  5
F9
330
2
100
AcDbEntity
  8
0
 62
     3
100
AcDbLine
 10
76.05890063999997
 20
212.6174861967998
 30
0.0
 11
87.45890979519995
 21
212.6174861967998
 31
0.0
  0
LINE
  5
FA
330
2
100
AcDbEntity
  8
0
 62
     3
100
AcDbLine
 10
76.05890063999997
 20
219.0174800933
 30
0.0
 11
87.45890979519995
 21
219.0174800933
 31
0.0
  0
ARC
  5
FB
330
2
100
AcDbEntity
  8
0
 62
     3
100
AcDbCircle
 10
81.7588975882
 20
215.8174831450998
 30
0.0
 40
7.5
100
AcDbArc
 50
203.5781768361
 51
156.4218231638998
  0
LINE
  5
FC
330
2
100
AcDbEntity
  8
0
 62
     3
100
AcDbLine
 10
70.46409778349995
 20
212.8174831450999
 30
0.0
 11
86.53198413609997
 21
212.8174831450999
 31
0.0
  0
LINE
  5
FD
330
2
100
AcDbEntity
  8
0
 62
     3
100
AcDbLine
 10
70.46409778349995
 20
218.8174831450999
 30
0.0
 11
86.53198413609997
 21
218.8174831450999
 31
0.0
  0
LINE
  5
FE
330
2
100
AcDbEntity
  8
0
 62
     3
100
AcDbLine
 10
74.2588975882
 20
163.5174648345
 30
0.0
 11
89.25891284699998
 21
163.5174648345
 31
0.0
  0
ARC
  5
FF
330
2
100
AcDbEntity
  8
0
  6
PHANTOM
 62
     3
100
AcDbCircle
 10
81.7588975882
 20
156.8174678862999
 30
0.0
 40
21.0
100
AcDbArc
 50
60.04998499399999
 51
116.4499715371
  0
LINE
  5
101
330
2
100
AcDbEntity
  8
0
  6
CENTER
 62
     3
100
AcDbLine
 10
81.75888304799997
 20
156.8174522803
 30
0.0
 11
92.24300776809995
 21
175.0131416008
 31
0.0
  0
LINE
  5
102
330
2
100
AcDbEntity
  8
0
 62
     3
100
AcDbLine
 10
83.75889758819999
 20
159.917458731
 30
0.0
 11
90.80891589869995
 21
159.917458731
 31
0.0
  0
LINE
  5
103
330
2
100
AcDbEntity
  8
0
  6
PHANTOM
 62
     3
100
AcDbLine
 10
104.3172319387999
 20
161.5674678862999
 30
0.0
 11
49.4781648895
 21
161.5674678862999
 31
0.0
  0
LINE
  5
104
330
2
100
AcDbEntity
  8
0
 62
     3
100
AcDbLine
 10
59.15890674349999
 20
150.8174678862999
 30
0.0
 11
93.3589189505
 21
150.8174678862999
 31
0.0
  0
LINE
  5
105
330
2
100
AcDbEntity
  8
0
 62
     3
100
AcDbLine
 10
51.15889148469996
 20
206.3174831450999
 30
0.0
 11
101.3589189504999
 21
206.3174831450999
 31
0.0
  0
LINE
  5
106
330
2
100
AcDbEntity
  8
0
 62
     3
100
AcDbLine
 10
51.15889148469996
 20
225.3174831450999
 30
0.0
 11
101.3589189504999
 21
225.3174831450999
 31
0.0
  0
CIRCLE
  5
107
330
2
100
AcDbEntity
  8
0
 62
     3
100
AcDbCircle
 10
55.15889148469996
 20
215.8174831450998
 30
0.0
 40
1.229499816899999
  0
LINE
  5
108
330
2
100
AcDbEntity
  8
0
  6
CENTER
 62
     3
100
AcDbLine
 10
57.15889148469996
 20
215.8174831450998
 30
0.0
 11
53.15889148469996
 21
215.8174831450998
 31
0.0
  0
CIRCLE
  5
109
330
2
100
AcDbEntity
  8
0
 62
     3
100
AcDbCircle
 10
55.15889148469996
 20
215.8174831450998
 30
0.0
 40
1.5
  0
LINE
  5
10A
330
2
100
AcDbEntity
  8
0
 62
     3
100
AcDbLine
 10
52.55890063999999
 20
211.7174770416
 30
0.0
 11
57.75891284699998
 21
211.7174770416
 31
0.0
  0
LINE
  5
10B
330
2
100
AcDbEntity
  8
0
 62
     3
100
AcDbLine
 10
52.55890063999999
 20
219.9174892485998
 30
0.0
 11
57.75891284699998
 21
219.9174892485998
 31
0.0
  0
LINE
  5
10C
330
2
100
AcDbEntity
  8
0
 62
     3
100
AcDbLine
 10
57.65889148469996
 20
211.8174831450999
 30
0.0
 11
52.65889148469996
 21
211.8174831450999
 31
0.0
  0
LINE
  5
10D
330
2
100
AcDbEntity
  8
0
 62
     3
100
AcDbLine
 10
57.65889148469996
 20
219.8174831450999
 30
0.0
 11
52.65889148469996
 21
219.8174831450999
 31
0.0
  0
ARC
  5
10E
330
2
100
AcDbEntity
  8
0
  6
PHANTOM
 62
     3
100
AcDbCircle
 10
55.15890674349996
 20
157.4007808746
 30
0.0
 40
5.8333330154
100
AcDbArc
 50
74.13285151530002
 51
105.8671125125
  0
CIRCLE
  5
10F
330
2
100
AcDbEntity
  8
0
 62
     3
100
AcDbCircle
 10
55.15890674349996
 20
155.1174556791998
 30
0.0
 40
1.1999998093
  0
LINE
  5
110
330
2
100
AcDbEntity
  8
0
 62
     3
100
AcDbLine
 10
52.55890063999999
 20
160.5174648344999
 30
0.0
 11
57.75891284699998
 21
160.5174648344999
 31
0.0
  0
LINE
  5
111
330
2
100
AcDbEntity
  8
0
  6
CENTER
 62
     3
100
AcDbLine
 10
58.05194263209997
 20
155.1174556791998
 30
0.0
 11
51.61557178249998
 21
155.1174556791998
 31
0.0
  0
CIRCLE
  5
112
330
2
100
AcDbEntity
  8
0
 62
     3
100
AcDbCircle
 10
55.15890674349996
 20
155.1174556791998
 30
0.0
 40
2.024999618499998
  0
LINE
  5
113
330
2
100
AcDbEntity
  8
0
  6
CENTER
 62
     3
100
AcDbLine
 10
55.15890674349996
 20
164.2678463041999
 30
0.0
 11
55.15890674349996
 21
151.2502224029
 31
0.0
  0
ARC
  5
114
330
2
100
AcDbEntity
  8
0
 62
     3
100
AcDbCircle
 10
51.95889453639996
 20
159.3174678862999
 30
0.0
 40
1.0
100
AcDbArc
 50
89.99998201389999
 51
179.9999640277999
  0
LINE
  5
115
330
2
100
AcDbEntity
  8
0
 62
     3
100
AcDbLine
 10
52.55890063999999
 20
160.5174648344999
 30
0.0
 11
52.55890063999999
 21
160.3174678862998
 31
0.0
  0
LINE
  5
116
330
2
100
AcDbEntity
  8
0
 62
     3
100
AcDbLine
 10
51.95889453639996
 20
160.3174678862998
 30
0.0
 11
52.55890063999999
 21
160.3174678862998
 31
0.0
  0
ARC
  5
117
330
2
100
AcDbEntity
  8
0
  6
PHANTOM
 62
     3
100
AcDbCircle
 10
53.81465320339997
 20
162.1301204742
 30
0.0
 40
0.9166666864999999
100
AcDbArc
 50
105.8671125125
 51
176.9999810198
  0
LINE
  5
118
330
2
100
AcDbEntity
  8
0
  6
PHANTOM
 62
     3
100
AcDbLine
 10
52.8992558846
 20
162.1781140348
 30
0.0
 11
52.86725345739998
 21
161.5674713498999
 31
0.0
  0
LINE
  5
119
330
2
100
AcDbEntity
  8
0
  6
CENTER
 62
     3
100
AcDbLine
 10
55.15889148469996
 20
220.8174831450999
 30
0.0
 11
55.15889148469996
 21
210.8174831450999
 31
0.0
  0
LINE
  5
11A
330
2
100
AcDbEntity
  8
0
 62
     3
100
AcDbLine
 10
52.05890063999999
 20
212.7174770416
 30
0.0
 11
52.05890063999999
 21
218.9174892486
 31
0.0
  0
LINE
  5
11B
330
2
100
AcDbEntity
  8
0
 62
     3
100
AcDbLine
 10
52.15889148469996
 20
218.8174831450999
 30
0.0
 11
52.15889148469996
 21
212.8174831450999
 31
0.0
  0
LINE
  5
11C
330
2
100
AcDbEntity
  8
0
 62
     3
100
AcDbLine
 10
50.95889453639998
 20
225.1174861967998
 30
0.0
 11
50.95889453639998
 21
206.5174800933
 31
0.0
  0
LINE
  5
11D
330
2
100
AcDbEntity
  8
0
 62
     3
100
AcDbLine
 10
52.65889148469996
 20
212.8174831450999
 30
0.0
 11
52.15889148469996
 21
212.8174831450999
 31
0.0
  0
LINE
  5
11E
330
2
100
AcDbEntity
  8
0
 62
     3
100
AcDbLine
 10
52.55890063999999
 20
206.3182613433
 30
0.0
 11
52.55890063999999
 21
212.8174831450999
 31
0.0
  0
ARC
  5
11F
330
2
100
AcDbEntity
  8
0
 62
     3
100
AcDbCircle
 10
51.15889148469996
 20
206.5174800933
 30
0.0
 40
0.1999999881
100
AcDbArc
 50
179.9999640277999
 51
270.0000006831999
  0
LINE
  5
120
330
2
100
AcDbEntity
  8
0
 62
     3
100
AcDbLine
 10
52.05890063999999
 20
212.7174770416
 30
0.0
 11
52.55890063999999
 21
212.7174770416
 31
0.0
  0
LINE
  5
121
330
2
100
AcDbEntity
  8
0
 62
     3
100
AcDbLine
 10
52.65889148469996
 20
212.8174831450999
 30
0.0
 11
52.65889148469996
 21
211.8174831450999
 31
0.0
  0
LINE
  5
122
330
2
100
AcDbEntity
  8
0
 62
     3
100
AcDbLine
 10
52.55890063999999
 20
225.3174831450999
 30
0.0
 11
52.55890063999999
 21
218.8174831450999
 31
0.0
  0
LINE
  5
123
330
2
100
AcDbEntity
  8
0
 62
     3
100
AcDbLine
 10
52.65889148469996
 20
218.8174831450999
 30
0.0
 11
52.15889148469996
 21
218.8174831450999
 31
0.0
  0
LINE
  5
124
330
2
100
AcDbEntity
  8
0
 62
     3
100
AcDbLine
 10
50.95889453639998
 20
215.8174831450998
 30
0.0
 11
52.15889148469996
 21
215.8174831450998
 31
0.0
  0
LINE
  5
125
330
2
100
AcDbEntity
  8
0
 62
     3
100
AcDbLine
 10
52.05890063999999
 20
218.9174892486
 30
0.0
 11
52.55890063999999
 21
218.9174892486
 31
0.0
  0
LINE
  5
126
330
2
100
AcDbEntity
  8
0
 62
     3
100
AcDbLine
 10
54.00888232939997
 20
216.2524196684997
 30
0.0
 11
54.00888232939997
 21
215.3825466215999
 31
0.0
  0
LINE
  5
127
330
2
100
AcDbEntity
  8
0
 62
     3
100
AcDbLine
 10
52.65889148469996
 20
219.8174831450999
 30
0.0
 11
52.65889148469996
 21
218.8174831450999
 31
0.0
  0
ARC
  5
128
330
2
100
AcDbEntity
  8
0
 62
     3
100
AcDbCircle
 10
51.15889148469996
 20
225.1174861967998
 30
0.0
 40
0.1999999881
100
AcDbArc
 50
89.99998201389999
 51
179.9999640277999
  0
LINE
  5
129
330
2
100
AcDbEntity
  8
0
 62
     3
100
AcDbLine
 10
75.05890063999998
 20
155.417458731
 30
0.0
 11
70.05890063999999
 21
155.417458731
 31
0.0
  0
ARC
  5
12A
330
2
100
AcDbEntity
  8
0
 62
     3
100
AcDbCircle
 10
73.96409778349997
 20
172.4856197417
 30
0.0
 40
3.5
100
AcDbArc
 50
3.369580765699998
 51
229.5304741528
  0
LINE
  5
12B
330
2
100
AcDbEntity
  8
0
 62
     3
100
AcDbLine
 10
57.75891284699998
 20
160.3174678862998
 30
0.0
 11
74.53047351589998
 21
160.3174678862998
 31
0.0
  0
CIRCLE
  5
12C
330
2
100
AcDbEntity
  8
0
 62
     3
100
AcDbCircle
 10
63.7588975882
 20
156.8174526274999
 30
0.0
 40
0.6999999881
  0
CIRCLE
  5
12D
330
2
100
AcDbEntity
  8
0
 62
     3
100
AcDbCircle
 10
63.7588975882
 20
156.8174526274999
 30
0.0
 40
1.0999994278
  0
LINE
  5
12E
330
2
100
AcDbEntity
  8
0
  6
CENTER
 62
     3
100
AcDbLine
 10
65.99809436549996
 20
156.8174526274999
 30
0.0
 11
61.15094165559996
 21
156.8174526274999
 31
0.0
  0
ARC
  5
12F
330
2
100
AcDbEntity
  8
0
 62
     3
100
AcDbCircle
 10
59.15890674349999
 20
148.8174678862999
 30
0.0
 40
2.0
100
AcDbArc
 50
89.99998201389999
 51
179.9999640277999
  0
LINE
  5
130
330
2
100
AcDbEntity
  8
0
 62
     3
100
AcDbLine
 10
57.75891284699998
 20
160.5174648344999
 30
0.0
 11
57.75891284699998
 21
160.3174678862998
 31
0.0
  0
LINE
  5
131
330
2
100
AcDbEntity
  8
0
  6
PHANTOM
 62
     3
100
AcDbLine
 10
57.41860598649997
 20
162.1781179919
 30
0.0
 11
57.45060841369999
 21
161.5674753069999
 31
0.0
  0
ARC
  5
132
330
2
100
AcDbEntity
  8
0
  6
PHANTOM
 62
     3
100
AcDbCircle
 10
56.50316028349997
 20
162.1301204742
 30
0.0
 40
0.9166666864999999
100
AcDbArc
 50
2.9999992297
 51
74.13285151530002
  0
LINE
  5
133
330
2
100
AcDbEntity
  8
0
  6
CENTER
 62
     3
100
AcDbLine
 10
63.7588975882
 20
159.4174282134
 30
0.0
 11
63.7588975882
 21
154.7291957916
 31
0.0
  0
LINE
  5
134
330
2
100
AcDbEntity
  8
0
 62
     3
100
AcDbLine
 10
70.05890063999999
 20
155.417458731
 30
0.0
 11
70.05890063999999
 21
150.8174678862999
 31
0.0
  0
LINE
  5
135
330
2
100
AcDbEntity
  8
0
 62
     3
100
AcDbLine
 10
80.10106989869997
 20
163.5174648345
 30
0.0
 11
77.08875247419998
 21
169.5724653152
 31
0.0
  0
LINE
  5
136
330
2
100
AcDbEntity
  8
0
 62
     3
100
AcDbLine
 10
80.77122563489998
 20
163.5174648345
 30
0.0
 11
77.62595197629997
 21
169.8397180471999
 31
0.0
  0
LINE
  5
137
330
2
100
AcDbEntity
  8
0
  6
CENTER
 62
     3
100
AcDbLine
 10
81.75888232939994
 20
176.5003749908
 30
0.0
 11
81.75888232939994
 21
151.6926052154
 31
0.0
  0
LINE
  5
138
330
2
100
AcDbEntity
  8
0
  6
CENTER
 62
     3
100
AcDbLine
 10
72.40513614149998
 20
175.6192638891999
 30
0.0
 11
81.75889036389998
 21
156.8174750821999
 31
0.0
  0
LINE
  5
139
330
2
100
AcDbEntity
  8
0
  6
CENTER
 62
     3
100
AcDbLine
 10
72.40514980309999
 20
175.6192706857
 30
0.0
 11
81.75890402549999
 21
156.8174818787999
 31
0.0
  0
LINE
  5
13A
330
2
100
AcDbEntity
  8
0
 62
     3
100
AcDbLine
 10
76.75032530359999
 20
163.5174648345
 30
0.0
 11
74.40278228709998
 21
168.2362152484999
 31
0.0
  0
LINE
  5
13B
330
2
100
AcDbEntity
  8
0
 62
     3
100
AcDbLine
 10
76.08018661029999
 20
163.5174648345
 30
0.0
 11
73.86559644649999
 21
167.968969313
 31
0.0
  0
LINE
  5
13C
330
2
100
AcDbEntity
  8
0
 62
     3
100
AcDbLine
 10
72.70890979519998
 20
159.917458731
 30
0.0
 11
79.7588975882
 21
159.917458731
 31
0.0
  0
LINE
  5
13D
330
2
100
AcDbEntity
  8
0
 62
     3
100
AcDbLine
 10
75.05890063999998
 20
155.417458731
 30
0.0
 11
75.05890063999998
 21
150.8174678862999
 31
0.0
  0
LINE
  5
13E
330
2
100
AcDbEntity
  8
0
 62
     3
100
AcDbLine
 10
74.2588975882
 20
163.5174648345
 30
0.0
 11
74.2588975882
 21
160.3174678862998
 31
0.0
  0
LINE
  5
13F
330
2
100
AcDbEntity
  8
0
 62
     3
100
AcDbLine
 10
72.70890979519998
 20
160.3174678862998
 30
0.0
 11
72.70890979519998
 21
159.917458731
 31
0.0
  0
LINE
  5
140
330
2
100
AcDbEntity
  8
0
 62
     3
100
AcDbLine
 10
74.53047351589998
 20
160.3174678862998
 30
0.0
 11
74.53047351589998
 21
159.917458731
 31
0.0
  0
LINE
  5
141
330
2
100
AcDbEntity
  8
0
 62
     3
100
AcDbLine
 10
79.7588975882
 20
160.3174678862998
 30
0.0
 11
83.75889758819999
 21
160.3174678862998
 31
0.0
  0
LINE
  5
142
330
2
100
AcDbEntity
  8
0
 62
     3
100
AcDbLine
 10
79.7588975882
 20
160.3174678862998
 30
0.0
 11
79.7588975882
 21
159.917458731
 31
0.0
  0
LINE
  5
143
330
2
100
AcDbEntity
  8
0
 62
     3
100
AcDbLine
 10
83.75889758819999
 20
160.3174678862998
 30
0.0
 11
83.75889758819999
 21
159.917458731
 31
0.0
  0
CIRCLE
  5
144
330
2
100
AcDbEntity
  8
0
 62
     3
100
AcDbCircle
 10
73.96409778349997
 20
172.4856197417
 30
0.0
 40
1.549999237099997
  0
CIRCLE
  5
145
330
2
100
AcDbEntity
  8
0
 62
     3
100
AcDbCircle
 10
73.96409778349997
 20
172.4856197417
 30
0.0
 40
1.9499998093
  0
LINE
  5
146
330
2
100
AcDbEntity
  8
0
 62
     3
100
AcDbLine
 10
73.86558193579998
 20
167.9689735395
 30
0.0
 11
71.69244371439998
 21
169.8230090113
 31
0.0
  0
LINE
  5
147
330
2
100
AcDbEntity
  8
0
 62
     3
100
AcDbLine
 10
74.40278228709998
 20
168.2362152484999
 30
0.0
 11
73.86559644649999
 21
167.968969313
 31
0.0
  0
LINE
  5
148
330
2
100
AcDbEntity
  8
0
 62
     3
100
AcDbLine
 10
77.62595197629997
 20
169.8397180471999
 30
0.0
 11
77.08875247419998
 21
169.5724653152
 31
0.0
  0
LINE
  5
149
330
2
100
AcDbEntity
  8
0
 62
     3
100
AcDbLine
 10
77.62595460399999
 20
169.8397088252
 30
0.0
 11
77.45805502099995
 21
172.6913529133
 31
0.0
  0
LINE
  5
14A
330
2
100
AcDbEntity
  8
0
 62
     3
100
AcDbLine
 10
70.46409778349995
 20
218.8174831450999
 30
0.0
 11
70.46409778349995
 21
212.8174831450999
 31
0.0
  0
LINE
  5
14B
330
2
100
AcDbEntity
  8
0
 62
     3
100
AcDbLine
 10
58.25891284699998
 20
212.7174770416
 30
0.0
 11
58.25891284699998
 21
218.9174892486
 31
0.0
  0
LINE
  5
14C
330
2
100
AcDbEntity
  8
0
 62
     3
100
AcDbLine
 10
58.15889148469996
 20
218.8174831450999
 30
0.0
 11
58.15889148469996
 21
212.8174831450999
 31
0.0
  0
LINE
  5
14D
330
2
100
AcDbEntity
  8
0
 62
     3
100
AcDbLine
 10
57.75891284699998
 20
206.3393795074
 30
0.0
 11
57.75891284699998
 21
212.8174831450999
 31
0.0
  0
LINE
  5
14E
330
2
100
AcDbEntity
  8
0
 62
     3
100
AcDbLine
 10
58.15889148469996
 20
212.8174831450999
 30
0.0
 11
57.65889148469996
 21
212.8174831450999
 31
0.0
  0
LINE
  5
14F
330
2
100
AcDbEntity
  8
0
 62
     3
100
AcDbLine
 10
57.75891284699998
 20
212.7174770416
 30
0.0
 11
58.25891284699998
 21
212.7174770416
 31
0.0
  0
LINE
  5
150
330
2
100
AcDbEntity
  8
0
 62
     3
100
AcDbLine
 10
57.65889148469996
 20
212.8174831450999
 30
0.0
 11
57.65889148469996
 21
211.8174831450999
 31
0.0
  0
LINE
  5
151
330
2
100
AcDbEntity
  8
0
 62
     3
100
AcDbLine
 10
58.15889148469996
 20
215.8174831450998
 30
0.0
 11
70.46409778349995
 21
215.8174831450998
 31
0.0
  0
LINE
  5
152
330
2
100
AcDbEntity
  8
0
 62
     3
100
AcDbLine
 10
57.75891284699998
 20
225.3174831450999
 30
0.0
 11
57.75891284699998
 21
218.8174831450999
 31
0.0
  0
LINE
  5
153
330
2
100
AcDbEntity
  8
0
 62
     3
100
AcDbLine
 10
56.30888538119998
 20
216.2524196684997
 30
0.0
 11
56.30888538119998
 21
215.3825466215999
 31
0.0
  0
LINE
  5
154
330
2
100
AcDbEntity
  8
0
 62
     3
100
AcDbLine
 10
57.75891284699998
 20
218.9174892486
 30
0.0
 11
58.25891284699998
 21
218.9174892486
 31
0.0
  0
LINE
  5
155
330
2
100
AcDbEntity
  8
0
 62
     3
100
AcDbLine
 10
58.15889148469996
 20
218.8174831450999
 30
0.0
 11
57.65889148469996
 21
218.8174831450999
 31
0.0
  0
LINE
  5
156
330
2
100
AcDbEntity
  8
0
 62
     3
100
AcDbLine
 10
57.65889148469996
 20
219.8174831450999
 30
0.0
 11
57.65889148469996
 21
218.8174831450999
 31
0.0
  0
LINE
  5
157
330
2
100
AcDbEntity
  8
0
 62
     3
100
AcDbLine
 10
80.51437334939999
 20
212.8173201799
 30
0.0
 11
81.13574427329998
 21
213.4173168286
 31
0.0
  0
LINE
  5
158
330
2
100
AcDbEntity
  8
0
 62
     3
100
AcDbLine
 10
77.6259477591
 20
218.8174831450999
 30
0.0
 11
77.6259477591
 21
212.8174831450999
 31
0.0
  0
LINE
  5
159
330
2
100
AcDbEntity
  8
0
  6
CENTER
 62
     3
100
AcDbLine
 10
81.75888232939994
 20
228.2031642974
 30
0.0
 11
81.75888232939994
 21
203.6700069488
 31
0.0
  0
LINE
  5
15A
330
2
100
AcDbEntity
  8
0
 62
     3
100
AcDbLine
 10
72.70889453639998
 20
206.3174831450999
 30
0.0
 11
72.70889453639998
 21
212.8174831450999
 31
0.0
  0
LINE
  5
15B
330
2
100
AcDbEntity
  8
0
 62
     3
100
AcDbLine
 10
76.05888387289997
 20
212.6174557320999
 30
0.0
 11
75.85897429309999
 21
212.8173653286999
 31
0.0
  0
LINE
  5
15C
330
2
100
AcDbEntity
  8
0
 62
     3
100
AcDbLine
 10
76.9858880342
 20
212.8173290693998
 30
0.0
 11
77.09407330689998
 21
212.6174317677999
 31
0.0
  0
LINE
  5
15D
330
2
100
AcDbEntity
  8
0
 62
     3
100
AcDbLine
 10
79.7588975882
 20
206.3174831450999
 30
0.0
 11
79.7588975882
 21
208.5890743315999
 31
0.0
  0
LINE
  5
15E
330
2
100
AcDbEntity
  8
0
 62
     3
100
AcDbLine
 10
83.75889758819999
 20
206.3174831450999
 30
0.0
 11
83.75889758819999
 21
208.5890743315999
 31
0.0
  0
LINE
  5
15F
330
2
100
AcDbEntity
  8
0
 62
     3
100
AcDbLine
 10
77.6259477591
 20
213.4174892486
 30
0.0
 11
81.13560657259998
 21
213.4174892486
 31
0.0
  0
LINE
  5
160
330
2
100
AcDbEntity
  8
0
 62
     3
100
AcDbLine
 10
77.6259477591
 20
218.2174770416
 30
0.0
 11
81.13560657259998
 21
218.2174770416
 31
0.0
  0
LINE
  5
161
330
2
100
AcDbEntity
  8
0
 62
     3
100
AcDbLine
 10
72.70889453639998
 20
225.3174831450999
 30
0.0
 11
72.70889453639998
 21
218.8174831450999
 31
0.0
  0
LINE
  5
162
330
2
100
AcDbEntity
  8
0
 62
     3
100
AcDbLine
 10
76.05895003479997
 20
219.0173993306999
 30
0.0
 11
75.85895413829998
 21
218.8174034174
 31
0.0
  0
LINE
  5
163
330
2
100
AcDbEntity
  8
0
 62
     3
100
AcDbLine
 10
76.98581054839997
 20
218.8174844306
 30
0.0
 11
77.09405392269997
 21
219.0174890884
 31
0.0
  0
LINE
  5
164
330
2
100
AcDbEntity
  8
0
 62
     3
100
AcDbLine
 10
83.75889758819999
 20
225.3174831450999
 30
0.0
 11
83.75889758819999
 21
223.0458919585
 31
0.0
  0
LINE
  5
165
330
2
100
AcDbEntity
  8
0
 62
     3
100
AcDbLine
 10
79.7588975882
 20
225.3174831450999
 30
0.0
 11
79.7588975882
 21
223.0458919585
 31
0.0
  0
LINE
  5
166
330
2
100
AcDbEntity
  8
0
 62
     3
100
AcDbLine
 10
80.51431742549999
 20
218.8173740966
 30
0.0
 11
81.13568834939997
 21
218.2173774479
 31
0.0
  0
LINE
  5
167
330
2
100
AcDbEntity
  8
0
 62
     3
100
AcDbLine
 10
81.13560657259998
 20
218.2174770416
 30
0.0
 11
81.13560657259998
 21
213.4174892486
 31
0.0
  0
LINE
  5
168
330
2
100
AcDbEntity
  8
0
 62
     3
100
AcDbLine
 10
82.14326648469997
 20
218.3174831450999
 30
0.0
 11
82.14326648469997
 21
213.3174831450999
 31
0.0
  0
LINE
  5
169
330
2
100
AcDbEntity
  8
0
 62
     3
100
AcDbLine
 10
85.71338062039997
 20
213.8674861968
 30
0.0
 11
85.51336841339997
 21
213.8674861968
 31
0.0
  0
LINE
  5
16A
330
2
100
AcDbEntity
  8
0
 62
     3
100
AcDbLine
 10
84.51336841339999
 20
213.8674861968
 30
0.0
 11
84.31337146519998
 21
213.8674861968
 31
0.0
  0
CIRCLE
  5
16B
330
2
100
AcDbEntity
  8
0
 62
     3
100
AcDbCircle
 10
85.01336841339997
 20
213.8674861968
 30
0.0
 40
0.5
  0
CIRCLE
  5
16C
330
2
100
AcDbEntity
  8
0
 62
     3
100
AcDbCircle
 10
85.01336841339997
 20
213.8674861968
 30
0.0
 40
0.6999999881
  0
ARC
  5
16D
330
2
100
AcDbEntity
  8
0
 62
     3
100
AcDbCircle
 10
100.5589158986999
 20
159.3174678862999
 30
0.0
 40
1.0
100
AcDbArc
 50
0.0
 51
89.99998201389999
  0
LINE
  5
16E
330
2
100
AcDbEntity
  8
0
 62
     3
100
AcDbLine
 10
88.98733691929995
 20
160.3174678862998
 30
0.0
 11
94.75891284699995
 21
160.3174678862998
 31
0.0
  0
LINE
  5
16F
330
2
100
AcDbEntity
  8
0
 62
     3
100
AcDbLine
 10
89.25891284699998
 20
163.5174648345
 30
0.0
 11
89.25891284699998
 21
160.3174678862998
 31
0.0
  0
LINE
  5
170
330
2
100
AcDbEntity
  8
0
 62
     3
100
AcDbLine
 10
88.98733691929995
 20
160.3174678862998
 30
0.0
 11
88.98733691929995
 21
159.917458731
 31
0.0
  0
LINE
  5
171
330
2
100
AcDbEntity
  8
0
 62
     3
100
AcDbLine
 10
90.80891589869995
 20
160.3174678862998
 30
0.0
 11
90.80891589869995
 21
159.917458731
 31
0.0
  0
CIRCLE
  5
172
330
2
100
AcDbEntity
  8
0
 62
     3
100
AcDbCircle
 10
97.3589189505
 20
155.1174556791998
 30
0.0
 40
2.024999618499998
  0
CIRCLE
  5
173
330
2
100
AcDbEntity
  8
0
 62
     3
100
AcDbCircle
 10
97.3589189505
 20
155.1174556791998
 30
0.0
 40
1.1999998093
  0
LINE
  5
174
330
2
100
AcDbEntity
  8
0
  6
CENTER
 62
     3
100
AcDbLine
 10
97.3589189505
 20
164.2153560699
 30
0.0
 11
97.3589189505
 21
150.891198355
 31
0.0
  0
LINE
  5
175
330
2
100
AcDbEntity
  8
0
  6
CENTER
 62
     3
100
AcDbLine
 10
100.5638597463998
 20
155.1174556791998
 30
0.0
 11
93.57124500029998
 21
155.1174556791998
 31
0.0
  0
ARC
  5
176
330
2
100
AcDbEntity
  8
0
 62
     3
100
AcDbCircle
 10
93.3589189505
 20
148.8174678862999
 30
0.0
 40
2.0
100
AcDbArc
 50
0.0
 51
89.99998201389999
  0
ARC
  5
177
330
2
100
AcDbEntity
  8
0
  6
PHANTOM
 62
     3
100
AcDbCircle
 10
97.3589189505
 20
157.4007808746
 30
0.0
 40
5.8333330154
100
AcDbArc
 50
74.13285151530002
 51
105.8671125125
  0
LINE
  5
178
330
2
100
AcDbEntity
  8
0
 62
     3
100
AcDbLine
 10
94.75891284699995
 20
160.5174648344999
 30
0.0
 11
99.95890979519998
 21
160.5174648344999
 31
0.0
  0
LINE
  5
179
330
2
100
AcDbEntity
  8
0
 62
     3
100
AcDbLine
 10
94.75891284699995
 20
160.5174648344999
 30
0.0
 11
94.75891284699995
 21
160.3174678862998
 31
0.0
  0
ARC
  5
17A
330
2
100
AcDbEntity
  8
0
  6
PHANTOM
 62
     3
100
AcDbCircle
 10
96.01465015169999
 20
162.1301204742
 30
0.0
 40
0.9166666864999999
100
AcDbArc
 50
105.8671125125
 51
176.9999810198
  0
LINE
  5
17B
330
2
100
AcDbEntity
  8
0
  6
PHANTOM
 62
     3
100
AcDbLine
 10
95.09922389179996
 20
162.1781106751
 30
0.0
 11
95.06722146459996
 21
161.5674679900999
 31
0.0
  0
LINE
  5
17C
330
2
100
AcDbEntity
  8
0
 62
     3
100
AcDbLine
 10
99.95890979519998
 20
160.3174678862998
 30
0.0
 11
100.5589158986999
 21
160.3174678862998
 31
0.0
  0
LINE
  5
17D
330
2
100
AcDbEntity
  8
0
 62
     3
100
AcDbLine
 10
99.95890979519998
 20
160.5174648344999
 30
0.0
 11
99.95890979519998
 21
160.3174678862998
 31
0.0
  0
ARC
  5
17E
330
2
100
AcDbEntity
  8
0
  6
PHANTOM
 62
     3
100
AcDbCircle
 10
98.7031572318
 20
162.1301204742
 30
0.0
 40
0.9166666864999999
100
AcDbArc
 50
2.9999992297
 51
74.13285151530002
  0
LINE
  5
17F
330
2
100
AcDbEntity
  8
0
  6
PHANTOM
 62
     3
100
AcDbLine
 10
99.61854431649999
 20
162.1781045166
 30
0.0
 11
99.65054674370001
 21
161.5674618317
 31
0.0
  0
LINE
  5
180
330
2
100
AcDbEntity
  8
0
 62
     3
100
AcDbLine
 10
100.3589189504999
 20
215.8174831450998
 30
0.0
 11
101.5589158986999
 21
215.8174831450998
 31
0.0
  0
LINE
  5
181
330
2
100
AcDbEntity
  8
0
 62
     3
100
AcDbLine
 10
100.4589097951999
 20
212.7174770416
 30
0.0
 11
100.4589097951999
 21
218.9174892486
 31
0.0
  0
LINE
  5
182
330
2
100
AcDbEntity
  8
0
 62
     3
100
AcDbLine
 10
100.3589189504999
 20
218.8174831450999
 30
0.0
 11
100.3589189504999
 21
212.8174831450999
 31
0.0
  0
LINE
  5
183
330
2
100
AcDbEntity
  8
0
  6
CENTER
 62
     3
100
AcDbLine
 10
97.3589189505
 20
220.8174831450999
 30
0.0
 11
97.3589189505
 21
210.8174831450999
 31
0.0
  0
LINE
  5
184
330
2
100
AcDbEntity
  8
0
 62
     3
100
AcDbLine
 10
94.25891284699998
 20
212.7174770416
 30
0.0
 11
94.25891284699998
 21
218.9174892486
 31
0.0
  0
LINE
  5
185
330
2
100
AcDbEntity
  8
0
 62
     3
100
AcDbLine
 10
94.3589189505
 20
218.8174831450999
 30
0.0
 11
94.3589189505
 21
212.8174831450999
 31
0.0
  0
LINE
  5
186
330
2
100
AcDbEntity
  8
0
 62
     3
100
AcDbLine
 10
90.80891589869995
 20
206.3174831450999
 30
0.0
 11
90.80891589869995
 21
213.8174831450999
 31
0.0
  0
LINE
  5
187
330
2
100
AcDbEntity
  8
0
 62
     3
100
AcDbLine
 10
87.45888951789998
 20
212.6174445373
 30
0.0
 11
88.15889673479999
 21
213.3174518131998
 31
0.0
  0
LINE
  5
188
330
2
100
AcDbEntity
  8
0
 62
     3
100
AcDbLine
 10
86.42374926999998
 20
212.6174912045998
 30
0.0
 11
86.80258655479997
 21
213.3174806204999
 31
0.0
  0
LINE
  5
189
330
2
100
AcDbEntity
  8
0
 62
     3
100
AcDbLine
 10
94.75891284699995
 20
211.7174770416
 30
0.0
 11
99.95890979519998
 21
211.7174770416
 31
0.0
  0
LINE
  5
18A
330
2
100
AcDbEntity
  8
0
 62
     3
100
AcDbLine
 10
99.8589189505
 20
211.8174831450999
 30
0.0
 11
94.8589189505
 21
211.8174831450999
 31
0.0
  0
LINE
  5
18B
330
2
100
AcDbEntity
  8
0
 62
     3
100
AcDbLine
 10
94.75891284699995
 20
206.3305141509
 30
0.0
 11
94.75891284699995
 21
212.8174831450999
 31
0.0
  0
LINE
  5
18C
330
2
100
AcDbEntity
  8
0
 62
     3
100
AcDbLine
 10
94.8589189505
 20
212.8174831450999
 30
0.0
 11
94.8589189505
 21
211.8174831450999
 31
0.0
  0
LINE
  5
18D
330
2
100
AcDbEntity
  8
0
 62
     3
100
AcDbLine
 10
94.25891284699998
 20
212.7174770416
 30
0.0
 11
94.75891284699995
 21
212.7174770416
 31
0.0
  0
LINE
  5
18E
330
2
100
AcDbEntity
  8
0
 62
     3
100
AcDbLine
 10
94.8589189505
 20
212.8174831450999
 30
0.0
 11
94.3589189505
 21
212.8174831450999
 31
0.0
  0
LINE
  5
18F
330
2
100
AcDbEntity
  8
0
 62
     3
100
AcDbLine
 10
99.95890979519998
 20
206.3059780181
 30
0.0
 11
99.95890979519998
 21
212.8174831450999
 31
0.0
  0
LINE
  5
190
330
2
100
AcDbEntity
  8
0
 62
     3
100
AcDbLine
 10
100.3589189504999
 20
212.8174831450999
 30
0.0
 11
99.8589189505
 21
212.8174831450999
 31
0.0
  0
LINE
  5
191
330
2
100
AcDbEntity
  8
0
 62
     3
100
AcDbLine
 10
99.95890979519998
 20
212.7174770416
 30
0.0
 11
100.4589097951999
 21
212.7174770416
 31
0.0
  0
LINE
  5
192
330
2
100
AcDbEntity
  8
0
 62
     3
100
AcDbLine
 10
99.8589189505
 20
212.8174831450999
 30
0.0
 11
99.8589189505
 21
211.8174831450999
 31
0.0
  0
LINE
  5
193
330
2
100
AcDbEntity
  8
0
 62
     3
100
AcDbLine
 10
86.80259876009998
 20
215.8174831450998
 30
0.0
 11
94.3589189505
 21
215.8174831450998
 31
0.0
  0
LINE
  5
194
330
2
100
AcDbEntity
  8
0
 62
     3
100
AcDbLine
 10
90.80891589869995
 20
225.3174831450999
 30
0.0
 11
90.80891589869995
 21
217.8174831450998
 31
0.0
  0
LINE
  5
195
330
2
100
AcDbEntity
  8
0
 62
     3
100
AcDbLine
 10
88.98732166049999
 20
217.8174831450998
 30
0.0
 11
90.80891589869995
 21
217.8174831450998
 31
0.0
  0
LINE
  5
196
330
2
100
AcDbEntity
  8
0
 62
     3
100
AcDbLine
 10
88.98732166049999
 20
213.8174831450999
 30
0.0
 11
90.80891589869995
 21
213.8174831450999
 31
0.0
  0
LINE
  5
197
330
2
100
AcDbEntity
  8
0
 62
     3
100
AcDbLine
 10
86.42385091299997
 20
219.0172655937999
 30
0.0
 11
86.80267367239997
 21
218.3173030168997
 31
0.0
  0
LINE
  5
198
330
2
100
AcDbEntity
  8
0
 62
     3
100
AcDbLine
 10
87.4589528311
 20
219.0173673672
 30
0.0
 11
88.15898162709999
 21
218.3173385121
 31
0.0
  0
LINE
  5
199
330
2
100
AcDbEntity
  8
0
 62
     3
100
AcDbLine
 10
86.80259876009998
 20
218.3174831450999
 30
0.0
 11
88.15890674349999
 21
218.3174831450999
 31
0.0
  0
LINE
  5
19A
330
2
100
AcDbEntity
  8
0
 62
     3
100
AcDbLine
 10
86.80259876009998
 20
213.3174831450999
 30
0.0
 11
88.15890674349999
 21
213.3174831450999
 31
0.0
  0
LINE
  5
19B
330
2
100
AcDbEntity
  8
0
 62
     3
100
AcDbLine
 10
86.80259876009998
 20
213.3174831450999
 30
0.0
 11
86.80259876009998
 21
218.3174831450999
 31
0.0
  0
LINE
  5
19C
330
2
100
AcDbEntity
  8
0
 62
     3
100
AcDbLine
 10
85.88347034209999
 20
218.3174831450999
 30
0.0
 11
85.88347034209999
 21
213.3174831450999
 31
0.0
  0
LINE
  5
19D
330
2
100
AcDbEntity
  8
0
 62
     3
100
AcDbLine
 10
88.15890674349999
 20
218.3174831450999
 30
0.0
 11
88.15890674349999
 21
213.3174831450999
 31
0.0
  0
LINE
  5
19E
330
2
100
AcDbEntity
  8
0
 62
     3
100
AcDbLine
 10
99.95890979519998
 20
225.3219081939
 30
0.0
 11
99.95890979519998
 21
218.8174831450999
 31
0.0
  0
LINE
  5
19F
330
2
100
AcDbEntity
  8
0
 62
     3
100
AcDbLine
 10
94.75891284699995
 20
225.3219081939
 30
0.0
 11
94.75891284699995
 21
218.8174831450999
 31
0.0
  0
LINE
  5
1A0
330
2
100
AcDbEntity
  8
0
  6
CENTER
 62
     3
100
AcDbLine
 10
99.3589189505
 20
215.8174831450998
 30
0.0
 11
95.35891895049999
 21
215.8174831450998
 31
0.0
  0
CIRCLE
  5
1A1
330
2
100
AcDbEntity
  8
0
 62
     3
100
AcDbCircle
 10
97.3589189505
 20
215.8174831450998
 30
0.0
 40
1.5
  0
CIRCLE
  5
1A2
330
2
100
AcDbEntity
  8
0
 62
     3
100
AcDbCircle
 10
97.3589189505
 20
215.8174831450998
 30
0.0
 40
1.229499816899999
  0
LINE
  5
1A3
330
2
100
AcDbEntity
  8
0
 62
     3
100
AcDbLine
 10
94.75891284699995
 20
219.9174892485998
 30
0.0
 11
99.95890979519998
 21
219.9174892485998
 31
0.0
  0
LINE
  5
1A4
330
2
100
AcDbEntity
  8
0
 62
     3
100
AcDbLine
 10
99.8589189505
 20
219.8174831450999
 30
0.0
 11
94.8589189505
 21
219.8174831450999
 31
0.0
  0
LINE
  5
1A5
330
2
100
AcDbEntity
  8
0
 62
     3
100
AcDbLine
 10
96.20890979519998
 20
216.2524196684997
 30
0.0
 11
96.20890979519998
 21
215.3825466215999
 31
0.0
  0
LINE
  5
1A6
330
2
100
AcDbEntity
  8
0
 62
     3
100
AcDbLine
 10
94.8589189505
 20
219.8174831450999
 30
0.0
 11
94.8589189505
 21
218.8174831450999
 31
0.0
  0
LINE
  5
1A7
330
2
100
AcDbEntity
  8
0
 62
     3
100
AcDbLine
 10
94.25891284699998
 20
218.9174892486
 30
0.0
 11
94.75891284699995
 21
218.9174892486
 31
0.0
  0
LINE
  5
1A8
330
2
100
AcDbEntity
  8
0
 62
     3
100
AcDbLine
 10
94.8589189505
 20
218.8174831450999
 30
0.0
 11
94.3589189505
 21
218.8174831450999
 31
0.0
  0
LINE
  5
1A9
330
2
100
AcDbEntity
  8
0
 62
     3
100
AcDbLine
 10
98.50891284699995
 20
216.2524196684997
 30
0.0
 11
98.50891284699995
 21
215.3825466215999
 31
0.0
  0
LINE
  5
1AA
330
2
100
AcDbEntity
  8
0
 62
     3
100
AcDbLine
 10
99.95890979519998
 20
218.9174892486
 30
0.0
 11
100.4589097951999
 21
218.9174892486
 31
0.0
  0
LINE
  5
1AB
330
2
100
AcDbEntity
  8
0
 62
     3
100
AcDbLine
 10
99.8589189505
 20
219.8174831450999
 30
0.0
 11
99.8589189505
 21
218.8174831450999
 31
0.0
  0
LINE
  5
1AC
330
2
100
AcDbEntity
  8
0
 62
     3
100
AcDbLine
 10
100.3589189504999
 20
218.8174831450999
 30
0.0
 11
99.8589189505
 21
218.8174831450999
 31
0.0
  0
LINE
  5
1AD
330
2
100
AcDbEntity
  8
0
 62
     3
100
AcDbLine
 10
101.5589158986999
 20
225.1174861967998
 30
0.0
 11
101.5589158986999
 21
206.5174800933
 31
0.0
  0
ARC
  5
1AE
330
2
100
AcDbEntity
  8
0
 62
     3
100
AcDbCircle
 10
101.3589189504999
 20
206.5174800933
 30
0.0
 40
0.1999999881
100
AcDbArc
 50
270.0000179861
 51
0.0
  0
ARC
  5
1AF
330
2
100
AcDbEntity
  8
0
 62
     3
100
AcDbCircle
 10
101.3589189504999
 20
225.1174861967998
 30
0.0
 40
0.1999999881
100
AcDbArc
 50
0.0
 51
89.99998201389999
  0
TEXT
  5
1CD
330
2
100
AcDbEntity
  8
0
 62
     7
100
AcDbText
 10
146.0
 20
110.0000029552498
 30
0.0
 40
2.999994089499998
  1
NRAS1111F
 11
146.0
 21
111.4999999999999
 31
0.0
100
AcDbText
 73
     2
  0
TEXT
  5
1CE
330
2
100
AcDbEntity
  8
0
 62
     7
100
AcDbText
 10
146.0
 20
115.0000029552499
 30
0.0
 40
2.999994089499998
  1
NRAS1111
 11
146.0
 21
116.5
 31
0.0
100
AcDbText
 73
     2
  0
ENDSEC
  0
SECTION
  2
OBJECTS
  0
DICTIONARY
  5
7
330
0
100
AcDbDictionary
281
     1
  3
ACAD_GROUP
350
1F
  3
ACAD_LAYOUT
350
B
  3
ACAD_MLINESTYLE
350
20
  3
ACAD_PLOTSETTINGS
350
21
  3
ACAD_PLOTSTYLENAME
350
6
  3
AcDbVariableDictionary
350
1CF
  0
DICTIONARY
  5
1F
102
{ACAD_REACTORS
330
7
102
}
330
7
100
AcDbDictionary
281
     1
  0
DICTIONARY
  5
B
102
{ACAD_REACTORS
330
7
102
}
330
7
100
AcDbDictionary
281
     1
  3
Model
350
A
  3
ﾚｲｱｳﾄ1
350
F
  0
DICTIONARY
  5
20
102
{ACAD_REACTORS
330
7
102
}
330
7
100
AcDbDictionary
281
     1
  3
Standard
350
22
  0
DICTIONARY
  5
21
102
{ACAD_REACTORS
330
7
102
}
330
7
100
AcDbDictionary
281
     1
  0
ACDBDICTIONARYWDFLT
  5
6
102
{ACAD_REACTORS
330
7
102
}
330
7
100
AcDbDictionary
281
     1
  3
Normal
350
5
100
AcDbDictionaryWithDefault
340
5
  0
DICTIONARY
  5
1CF
102
{ACAD_REACTORS
330
7
102
}
330
7
100
AcDbDictionary
281
     1
  3
DIMASSOC
350
1D0
  0
LAYOUT
  5
A
102
{ACAD_REACTORS
330
B
102
}
330
B
100
AcDbPlotSettings
  1

  2
C:\Program Files\AutoCAD 2000i\plotters\DWF Classic.pc3
  4

  6

 40
0.0
 41
0.0
 42
0.0
 43
0.0
 44
0.0
 45
0.0
 46
0.0
 47
0.0
 48
0.0
 49
0.0
140
0.0
141
0.0
142
1.0
143
1.0
 70
  1712
 72
     0
 73
     0
 74
     0
  7

 75
     0
147
1.0
148
0.0
149
0.0
100
AcDbLayout
  1
Model
 70
     1
 71
     0
 10
0.0
 20
0.0
 11
12.0
 21
9.0
 12
0.0
 22
0.0
 32
0.0
 14
0.0
 24
0.0
 34
0.0
 15
0.0
 25
0.0
 35
0.0
146
0.0
 13
0.0
 23
0.0
 33
0.0
 16
1.0
 26
0.0
 36
0.0
 17
0.0
 27
1.0
 37
0.0
 76
     0
330
2
  0
LAYOUT
  5
F
102
{ACAD_REACTORS
330
B
102
}
330
B
100
AcDbPlotSettings
  1

  2
C:\Program Files\AutoCAD 2000i\plotters\DWF Classic.pc3
  4

  6

 40
0.0
 41
0.0
 42
0.0
 43
0.0
 44
0.0
 45
0.0
 46
0.0
 47
0.0
 48
0.0
 49
0.0
140
0.0
141
0.0
142
1.0
143
1.0
 70
   688
 72
     0
 73
     0
 74
     5
  7

 75
    16
147
1.0
148
0.0
149
0.0
100
AcDbLayout
  1
ﾚｲｱｳﾄ1
 70
     1
 71
     1
 10
0.0
 20
0.0
 11
12.0
 21
9.0
 12
0.0
 22
0.0
 32
0.0
 14
1.000000000000000E+20
 24
1.000000000000000E+20
 34
1.000000000000000E+20
 15
-1.000000000000000E+20
 25
-1.000000000000000E+20
 35
-1.000000000000000E+20
146
0.0
 13
0.0
 23
0.0
 33
0.0
 16
1.0
 26
0.0
 36
0.0
 17
0.0
 27
1.0
 37
0.0
 76
     0
330
C
  0
MLINESTYLE
  5
22
102
{ACAD_REACTORS
330
20
102
}
330
20
100
AcDbMlineStyle
  2
STANDARD
 70
     0
  3

 62
   256
 51
90.0
 52
90.0
 71
     2
 49
0.5
 62
   256
  6
BYLAYER
 49
-0.5
 62
   256
  6
BYLAYER
  0
ACDBPLACEHOLDER
  5
5
102
{ACAD_REACTORS
330
6
102
}
330
6
  0
DICTIONARYVAR
  5
1D0
102
{ACAD_REACTORS
330
1CF
102
}
330
1CF
100
DictionaryVariables
280
     0
  1
1
  0
ENDSEC
  0
EOF
