  0
SECTION
  2
HEADER
  9
$ACADVER
  1
AC1015
  9
$ACADMAINTVER
 70
    13
  9
$DWGCODEPAGE
  3
ANSI_932
  9
$INSBASE
 10
0.0
 20
0.0
 30
0.0
  9
$EXTMIN
 10
-0.0011258778092724
 20
-0.0005938059043729
 30
-0.0000000349181948
  9
$EXTMAX
 10
210.0001536000813
 20
297.0101595313635
 30
0.0000000814935747
  9
$LIMMIN
 10
-181.5222900391
 20
-3.174999999999998
  9
$LIMMAX
 10
3.174999999999998
 20
291.2585876465
  9
$ORTHOMODE
 70
     0
  9
$REGENMODE
 70
     1
  9
$FILLMODE
 70
     1
  9
$QTEXTMODE
 70
     0
  9
$MIRRTEXT
 70
     0
  9
$LTSCALE
 40
1.0
  9
$ATTMODE
 70
     1
  9
$TEXTSIZE
 40
2.999994039499997
  9
$TRACEWID
 40
0.05
  9
$TEXTSTYLE
  7
STANDARD
  9
$CLAYER
  8
0
  9
$CELTYPE
  6
ByLayer
  9
$CECOLOR
 62
   256
  9
$CELTSCALE
 40
1.0
  9
$DISPSILH
 70
     0
  9
$DIMSCALE
 40
1.0
  9
$DIMASZ
 40
1.9727878465
  9
$DIMEXO
 40
2.539999961899999
  9
$DIMDLI
 40
0.38
  9
$DIMRND
 40
0.0
  9
$DIMDLE
 40
0.0
  9
$DIMEXE
 40
3.809999942799997
  9
$DIMTP
 40
0.0
  9
$DIMTM
 40
0.0
  9
$DIMTXT
 40
2.999994039499997
  9
$DIMCEN
 40
0.09
  9
$DIMTSZ
 40
0.0
  9
$DIMTOL
 70
     0
  9
$DIMLIM
 70
     0
  9
$DIMTIH
 70
     0
  9
$DIMTOH
 70
     1
  9
$DIMSE1
 70
     0
  9
$DIMSE2
 70
     0
  9
$DIMTAD
 70
     0
  9
$DIMZIN
 70
     0
  9
$DIMBLK
  1

  9
$DIMASO
 70
     1
  9
$DIMSHO
 70
     0
  9
$DIMPOST
  1

  9
$DIMAPOST
  1

  9
$DIMALT
 70
     0
  9
$DIMALTD
 70
     2
  9
$DIMALTF
 40
25.4
  9
$DIMLFAC
 40
1.0
  9
$DIMTOFL
 70
     0
  9
$DIMTVP
 40
0.0
  9
$DIMTIX
 70
     0
  9
$DIMSOXD
 70
     0
  9
$DIMSAH
 70
     0
  9
$DIMBLK1
  1

  9
$DIMBLK2
  1

  9
$DIMSTYLE
  2
Standard
  9
$DIMCLRD
 70
     0
  9
$DIMCLRE
 70
     0
  9
$DIMCLRT
 70
     0
  9
$DIMTFAC
 40
1.0
  9
$DIMGAP
 40
0.09
  9
$DIMJUST
 70
     0
  9
$DIMSD1
 70
     0
  9
$DIMSD2
 70
     0
  9
$DIMTOLJ
 70
     1
  9
$DIMTZIN
 70
     0
  9
$DIMALTZ
 70
     0
  9
$DIMALTTZ
 70
     0
  9
$DIMUPT
 70
     0
  9
$DIMDEC
 70
     4
  9
$DIMTDEC
 70
     4
  9
$DIMALTU
 70
     2
  9
$DIMALTTD
 70
     2
  9
$DIMTXSTY
  7
STANDARD
  9
$DIMAUNIT
 70
     0
  9
$DIMADEC
 70
     0
  9
$DIMALTRND
 40
0.0
  9
$DIMAZIN
 70
     0
  9
$DIMDSEP
 70
    46
  9
$DIMATFIT
 70
     3
  9
$DIMFRAC
 70
     0
  9
$DIMLDRBLK
  1

  9
$DIMLUNIT
 70
     2
  9
$DIMLWD
 70
    -2
  9
$DIMLWE
 70
    -2
  9
$DIMTMOVE
 70
     0
  9
$LUNITS
 70
     2
  9
$LUPREC
 70
     3
  9
$SKETCHINC
 40
0.1
  9
$FILLETRAD
 40
0.0625
  9
$AUNITS
 70
     0
  9
$AUPREC
 70
     0
  9
$MENU
  1
ACAD
  9
$ELEVATION
 40
0.0
  9
$PELEVATION
 40
0.0
  9
$THICKNESS
 40
0.0
  9
$LIMCHECK
 70
     0
  9
$CHAMFERA
 40
0.0
  9
$CHAMFERB
 40
0.0
  9
$CHAMFERC
 40
0.0
  9
$CHAMFERD
 40
0.0
  9
$SKPOLY
 70
     0
  9
$TDCREATE
 40
2452527.771215277
  9
$TDUCREATE
 40
2452527.396215277
  9
$TDUPDATE
 40
2453339.684656747
  9
$TDUUPDATE
 40
2453339.309656747
  9
$TDINDWG
 40
0.0022287384
  9
$TDUSRTIMER
 40
0.0022211458
  9
$USRTIMER
 70
     1
  9
$ANGBASE
 50
0.0
  9
$ANGDIR
 70
     0
  9
$PDMODE
 70
     0
  9
$PDSIZE
 40
0.0
  9
$PLINEWID
 40
0.0
  9
$SPLFRAME
 70
     0
  9
$SPLINETYPE
 70
     6
  9
$SPLINESEGS
 70
     8
  9
$HANDSEED
  5
191
  9
$SURFTAB1
 70
     6
  9
$SURFTAB2
 70
     6
  9
$SURFTYPE
 70
     6
  9
$SURFU
 70
     6
  9
$SURFV
 70
     6
  9
$UCSBASE
  2

  9
$UCSNAME
  2

  9
$UCSORG
 10
0.0
 20
0.0
 30
0.0
  9
$UCSXDIR
 10
1.0
 20
0.0
 30
0.0
  9
$UCSYDIR
 10
0.0
 20
1.0
 30
0.0
  9
$UCSORTHOREF
  2

  9
$UCSORTHOVIEW
 70
     0
  9
$UCSORGTOP
 10
0.0
 20
0.0
 30
0.0
  9
$UCSORGBOTTOM
 10
0.0
 20
0.0
 30
0.0
  9
$UCSORGLEFT
 10
0.0
 20
0.0
 30
0.0
  9
$UCSORGRIGHT
 10
0.0
 20
0.0
 30
0.0
  9
$UCSORGFRONT
 10
0.0
 20
0.0
 30
0.0
  9
$UCSORGBACK
 10
0.0
 20
0.0
 30
0.0
  9
$PUCSBASE
  2

  9
$PUCSNAME
  2

  9
$PUCSORG
 10
0.0
 20
0.0
 30
0.0
  9
$PUCSXDIR
 10
1.0
 20
0.0
 30
0.0
  9
$PUCSYDIR
 10
0.0
 20
1.0
 30
0.0
  9
$PUCSORTHOREF
  2

  9
$PUCSORTHOVIEW
 70
     0
  9
$PUCSORGTOP
 10
0.0
 20
0.0
 30
0.0
  9
$PUCSORGBOTTOM
 10
0.0
 20
0.0
 30
0.0
  9
$PUCSORGLEFT
 10
0.0
 20
0.0
 30
0.0
  9
$PUCSORGRIGHT
 10
0.0
 20
0.0
 30
0.0
  9
$PUCSORGFRONT
 10
0.0
 20
0.0
 30
0.0
  9
$PUCSORGBACK
 10
0.0
 20
0.0
 30
0.0
  9
$USERI1
 70
     8
  9
$USERI2
 70
     0
  9
$USERI3
 70
     0
  9
$USERI4
 70
     0
  9
$USERI5
 70
     0
  9
$USERR1
 40
0.0
  9
$USERR2
 40
0.0
  9
$USERR3
 40
0.0
  9
$USERR4
 40
0.0
  9
$USERR5
 40
0.0
  9
$WORLDVIEW
 70
     1
  9
$SHADEDGE
 70
     3
  9
$SHADEDIF
 70
    70
  9
$TILEMODE
 70
     1
  9
$MAXACTVP
 70
    64
  9
$PINSBASE
 10
0.0
 20
0.0
 30
0.0
  9
$PLIMCHECK
 70
     0
  9
$PEXTMIN
 10
1.000000000000000E+20
 20
1.000000000000000E+20
 30
1.000000000000000E+20
  9
$PEXTMAX
 10
-1.000000000000000E+20
 20
-1.000000000000000E+20
 30
-1.000000000000000E+20
  9
$PLIMMIN
 10
0.0
 20
0.0
  9
$PLIMMAX
 10
12.0
 20
9.0
  9
$UNITMODE
 70
     0
  9
$VISRETAIN
 70
     1
  9
$PLINEGEN
 70
     0
  9
$PSLTSCALE
 70
     1
  9
$TREEDEPTH
 70
  3020
  9
$CMLSTYLE
  2
Standard
  9
$CMLJUST
 70
     0
  9
$CMLSCALE
 40
1.0
  9
$PROXYGRAPHICS
 70
     1
  9
$MEASUREMENT
 70
     0
  9
$CELWEIGHT
370
    -1
  9
$ENDCAPS
280
     0
  9
$JOINSTYLE
280
     0
  9
$LWDISPLAY
290
     0
  9
$INSUNITS
 70
     0
  9
$HYPERLINKBASE
  1

  9
$STYLESHEET
  1

  9
$XEDIT
290
     1
  9
$CEPSNTYPE
380
     0
  9
$PSTYLEMODE
290
     1
  9
$FINGERPRINTGUID
  2
{FF254A04-F52B-4E52-A6A0-544C686D928A}
  9
$VERSIONGUID
  2
{E341963D-1239-45F7-A6C5-66FAB8907532}
  9
$EXTNAMES
290
     1
  9
$PSVPSCALE
 40
0.0
  9
$OLESTARTUP
290
     0
  0
ENDSEC
  0
SECTION
  2
CLASSES
  0
CLASS
  1
ACDBDICTIONARYWDFLT
  2
AcDbDictionaryWithDefault
  3
AutoCAD 2000
 90
        0
280
     0
281
     0
  0
CLASS
  1
ACDBPLACEHOLDER
  2
AcDbPlaceHolder
  3
AutoCAD 2000
 90
        0
280
     0
281
     0
  0
CLASS
  1
LAYOUT
  2
AcDbLayout
  3
AutoCAD 2000
 90
        0
280
     0
281
     0
  0
CLASS
  1
DICTIONARYVAR
  2
AcDbDictionaryVar
  3
AutoCAD 2000
 90
        0
280
     0
281
     0
  0
ENDSEC
  0
SECTION
  2
TABLES
  0
TABLE
  2
VPORT
  5
19
330
0
100
AcDbSymbolTable
 70
     2
  0
VPORT
  5
190
330
19
100
AcDbSymbolTableRecord
100
AcDbViewportTableRecord
  2
*Active
 70
     0
 10
0.0
 20
0.0
 11
1.0
 21
1.0
 12
104.999513861136
 22
148.5047828627296
 13
0.0
 23
0.0
 14
1.0
 24
1.0
 15
0.0
 25
0.0
 16
0.0
 26
0.0
 36
1.0
 17
0.0
 27
0.0
 37
0.0
 40
301.3466767436514
 41
2.407317073170731
 42
50.0
 43
0.0
 44
0.0
 50
0.0
 51
0.0
 71
     0
 72
   100
 73
     1
 74
     1
 75
     0
 76
     0
 77
     0
 78
     0
281
     0
 65
     1
110
0.0
120
0.0
130
0.0
111
1.0
121
0.0
131
0.0
112
0.0
122
1.0
132
0.0
 79
     0
146
0.0
  0
ENDTAB
  0
TABLE
  2
LTYPE
  5
14
330
0
100
AcDbSymbolTable
 70
     3
  0
LTYPE
  5
15
330
14
100
AcDbSymbolTableRecord
100
AcDbLinetypeTableRecord
  2
ByBlock
 70
     0
  3

 72
    65
 73
     0
 40
0.0
  0
LTYPE
  5
16
330
14
100
AcDbSymbolTableRecord
100
AcDbLinetypeTableRecord
  2
ByLayer
 70
     0
  3

 72
    65
 73
     0
 40
0.0
  0
LTYPE
  5
8
330
14
100
AcDbSymbolTableRecord
100
AcDbLinetypeTableRecord
  2
Continuous
 70
     0
  3
Solid line
 72
    65
 73
     0
 40
0.0
  0
LTYPE
  5
29
330
14
100
AcDbSymbolTableRecord
100
AcDbLinetypeTableRecord
  2
CENTER
 70
     0
  3
Center
 72
    65
 73
     4
 40
9.100006759199999
 49
6.5000119209
 74
     0
 49
-0.7999984026000001
 74
     0
 49
0.9999980329999999
 74
     0
 49
-0.7999984026000001
 74
     0
  0
LTYPE
  5
C1
330
14
100
AcDbSymbolTableRecord
100
AcDbLinetypeTableRecord
  2
PHANTOM
 70
     0
  3
Phantom
 72
    65
 73
     6
 40
9.499981462999999
 49
4.799990654
 74
     0
 49
-0.8999982475999999
 74
     0
 49
0.9999980329999999
 74
     0
 49
-0.8999982475999999
 74
     0
 49
0.9999980329999999
 74
     0
 49
-0.8999982475999999
 74
     0
  0
ENDTAB
  0
TABLE
  2
LAYER
  5
10
330
0
100
AcDbSymbolTable
 70
     1
  0
LAYER
  5
4
330
10
100
AcDbSymbolTableRecord
100
AcDbLayerTableRecord
  2
0
 70
     0
 62
     7
  6
Continuous
370
    -3
390
5
  0
ENDTAB
  0
TABLE
  2
STYLE
  5
11
330
0
100
AcDbSymbolTable
 70
     1
  0
STYLE
  5
12
330
11
100
AcDbSymbolTableRecord
100
AcDbTextStyleTableRecord
  2
STANDARD
 70
     0
 40
0.0
 41
1.0
 50
0.0
 71
     0
 42
2.999994039499997
  3
romans.shx
  4
bigfont.shx
  0
ENDTAB
  0
TABLE
  2
VIEW
  5
17
330
0
100
AcDbSymbolTable
 70
     0
  0
ENDTAB
  0
TABLE
  2
UCS
  5
18
330
0
100
AcDbSymbolTable
 70
     0
  0
ENDTAB
  0
TABLE
  2
APPID
  5
1B
330
0
100
AcDbSymbolTable
 70
     1
  0
APPID
  5
1C
330
1B
100
AcDbSymbolTableRecord
100
AcDbRegAppTableRecord
  2
ACAD
 70
     0
  0
ENDTAB
  0
TABLE
  2
DIMSTYLE
  5
1D
330
0
100
AcDbSymbolTable
 70
     1
100
AcDbDimStyleTable
 71
     0
  0
DIMSTYLE
105
23
330
1D
100
AcDbSymbolTableRecord
100
AcDbDimStyleTableRecord
  2
Standard
 70
     0
340
12
  0
ENDTAB
  0
TABLE
  2
BLOCK_RECORD
  5
1
330
0
100
AcDbSymbolTable
 70
     1
  0
BLOCK_RECORD
  5
2
330
1
100
AcDbSymbolTableRecord
100
AcDbBlockTableRecord
  2
*Model_Space
340
A
  0
BLOCK_RECORD
  5
C
330
1
100
AcDbSymbolTableRecord
100
AcDbBlockTableRecord
  2
*Paper_Space
340
F
  0
ENDTAB
  0
ENDSEC
  0
SECTION
  2
BLOCKS
  0
BLOCK
  5
3
330
2
100
AcDbEntity
  8
0
100
AcDbBlockBegin
  2
*Model_Space
 70
     2
 10
0.0
 20
0.0
 30
0.0
  3
*Model_Space
  1

  0
ENDBLK
  5
9
330
2
100
AcDbEntity
  8
0
100
AcDbBlockEnd
  0
BLOCK
  5
D
330
C
100
AcDbEntity
 67
     1
  8
0
100
AcDbBlockBegin
  2
*Paper_Space
 70
     0
 10
0.0
 20
0.0
 30
0.0
  3
*Paper_Space
  1

  0
ENDBLK
  5
E
330
C
100
AcDbEntity
 67
     1
  8
0
100
AcDbBlockEnd
  0
ENDSEC
  0
SECTION
  2
ENTITIES
  0
LINE
  5
24
330
2
100
AcDbEntity
  8
0
100
AcDbLine
 10
210.0
 20
0.0
 30
0.0
 11
210.0
 21
297.0
 31
0.0
  0
LINE
  5
25
330
2
100
AcDbEntity
  8
0
100
AcDbLine
 10
0.0
 20
297.0
 30
0.0
 11
0.0
 21
0.0
 31
0.0
  0
LINE
  5
26
330
2
100
AcDbEntity
  8
0
 62
     3
100
AcDbLine
 10
107.6244039708999
 20
150.9954917736
 30
0.0
 11
107.6244039708999
 21
131.3955009288
 31
0.0
  0
LINE
  5
27
330
2
100
AcDbEntity
  8
0
 62
     3
100
AcDbLine
 10
55.62440397089997
 20
150.9954917736
 30
0.0
 11
55.62440397089997
 21
110.1954887218
 31
0.0
  0
LINE
  5
28
330
2
100
AcDbEntity
  8
0
  6
CENTER
 62
     3
100
AcDbLine
 10
81.62440397089998
 20
181.2571709722
 30
0.0
 11
81.62440397089998
 21
99.7698229591
 31
0.0
  0
LINE
  5
2A
330
2
100
AcDbEntity
  8
0
100
AcDbLine
 10
0.0
 20
0.0
 30
0.0
 11
210.0
 21
0.0
 31
0.0
  0
LINE
  5
2B
330
2
100
AcDbEntity
  8
0
 62
     3
100
AcDbLine
 10
88.12440397089998
 20
57.9454887218
 30
0.0
 11
68.12440397089997
 21
57.9454887218
 31
0.0
  0
LINE
  5
2C
330
2
100
AcDbEntity
  8
0
 62
     3
100
AcDbLine
 10
88.12440397089998
 20
64.4454887218
 30
0.0
 11
68.12440397089997
 21
64.4454887218
 31
0.0
  0
LINE
  5
2D
330
2
100
AcDbEntity
  8
0
 62
     3
100
AcDbLine
 10
96.6244192297
 20
53.695473463
 30
0.0
 11
66.62440397089998
 21
53.695473463
 31
0.0
  0
LINE
  5
2E
330
2
100
AcDbEntity
  8
0
 62
     3
100
AcDbLine
 10
96.6244192297
 20
68.695473463
 30
0.0
 11
66.62440397089998
 21
68.695473463
 31
0.0
  0
LINE
  5
2F
330
2
100
AcDbEntity
  8
0
 62
     3
100
AcDbLine
 10
96.2194204504
 20
104.1954887218
 30
0.0
 11
67.02938749139995
 21
104.1954887218
 31
0.0
  0
LINE
  5
30
330
2
100
AcDbEntity
  8
0
 62
     3
100
AcDbLine
 10
107.4243917637999
 20
51.6954887218
 30
0.0
 11
55.82440091909997
 21
51.6954887218
 31
0.0
  0
LINE
  5
31
330
2
100
AcDbEntity
  8
0
 62
     3
100
AcDbLine
 10
107.4243917637999
 20
70.6954887218
 30
0.0
 11
55.82440091909997
 21
70.6954887218
 31
0.0
  0
LINE
  5
32
330
2
100
AcDbEntity
  8
0
 62
     3
100
AcDbLine
 10
106.6244039708999
 20
109.1954887218
 30
0.0
 11
56.62440397089998
 21
109.1954887218
 31
0.0
  0
LINE
  5
33
330
2
100
AcDbEntity
  8
0
 62
     3
100
AcDbLine
 10
98.7243948156
 20
134.3954856699999
 30
0.0
 11
64.52439786739998
 21
134.3954856699999
 31
0.0
  0
LINE
  5
34
330
2
100
AcDbEntity
  8
0
 62
     3
100
AcDbLine
 10
98.7243948156
 20
116.1954887218
 30
0.0
 11
64.52439786739998
 21
116.1954887218
 31
0.0
  0
LINE
  5
35
330
2
100
AcDbEntity
  8
0
  6
CENTER
 62
     3
100
AcDbLine
 10
81.62440397089998
 20
74.5246111469
 30
0.0
 11
81.62440397089998
 21
48.4951103038
 31
0.0
  0
LINE
  5
36
330
2
100
AcDbEntity
  8
0
 62
     3
100
AcDbLine
 10
61.62440397089998
 20
52.7954795665
 30
0.0
 11
61.62440397089998
 21
51.6954887218
 31
0.0
  0
ARC
  5
37
330
2
100
AcDbEntity
  8
0
 62
     3
100
AcDbCircle
 10
58.6744833166
 20
52.7954948253
 30
0.0
 40
1.6999998093
100
AcDbArc
 50
329.1164971206
 51
0.0000708064000232
  0
ARC
  5
38
330
2
100
AcDbEntity
  8
0
 62
     3
100
AcDbCircle
 10
58.57444669549997
 20
52.7954948253
 30
0.0
 40
1.6999998093
100
AcDbArc
 50
180.0000906136999
 51
210.8836378893999
  0
LINE
  5
39
330
2
100
AcDbEntity
  8
0
 62
     3
100
AcDbLine
 10
55.62440397089997
 20
51.89548567
 30
0.0
 11
55.62440397089997
 21
70.49547651479999
 31
0.0
  0
ARC
  5
3A
330
2
100
AcDbEntity
  8
0
 62
     3
100
AcDbCircle
 10
58.6244955236
 20
60.7954948253
 30
0.0
 40
9.0
100
AcDbArc
 50
270.0001272691
 51
279.6521134720999
  0
ARC
  5
3B
330
2
100
AcDbEntity
  8
0
 62
     3
100
AcDbCircle
 10
55.82440091909997
 20
51.89548567
 30
0.0
 40
0.1999999881
100
AcDbArc
 50
179.9999640277999
 51
270.0000006831999
  0
ARC
  5
3C
330
2
100
AcDbEntity
  8
0
 62
     3
100
AcDbCircle
 10
58.6244955236
 20
60.7954948253
 30
0.0
 40
9.0
100
AcDbArc
 50
260.3480864246
 51
270.0000726275999
  0
LINE
  5
3D
330
2
100
AcDbEntity
  8
0
 62
     3
100
AcDbLine
 10
62.4245748693
 20
65.1954276866
 30
0.0
 11
61.62452604119997
 21
65.1954276866
 31
0.0
  0
LINE
  5
3E
330
2
100
AcDbEntity
  8
0
 62
     3
100
AcDbLine
 10
62.4245748693
 20
64.39550092880001
 30
0.0
 11
61.62452604119997
 21
64.39550092880001
 31
0.0
  0
LINE
  5
3F
330
2
100
AcDbEntity
  8
0
 62
     3
100
AcDbLine
 10
62.42444362929997
 20
64.395507822
 30
0.0
 11
62.22443863009996
 21
63.3955378957
 31
0.0
  0
LINE
  5
40
330
2
100
AcDbEntity
  8
0
 62
     3
100
AcDbLine
 10
62.4245748693
 20
57.9954765148
 30
0.0
 11
61.62452604119997
 21
57.9954765148
 31
0.0
  0
LINE
  5
41
330
2
100
AcDbEntity
  8
0
 62
     3
100
AcDbLine
 10
62.22450525379997
 20
58.99557684640001
 30
0.0
 11
62.42452149409999
 21
57.9955469488
 31
0.0
  0
LINE
  5
42
330
2
100
AcDbEntity
  8
0
 62
     3
100
AcDbLine
 10
62.4245748693
 20
57.1954276866
 30
0.0
 11
61.62452604119997
 21
57.1954276866
 31
0.0
  0
LINE
  5
43
330
2
100
AcDbEntity
  8
0
 62
     3
100
AcDbLine
 10
61.82451493109997
 20
63.3955096426
 30
0.0
 11
61.62451066129997
 21
64.39547969039999
 31
0.0
  0
LINE
  5
44
330
2
100
AcDbEntity
  8
0
 62
     3
100
AcDbLine
 10
61.62440397089998
 20
65.19544294540001
 30
0.0
 11
61.62440397089998
 21
57.1954429454
 31
0.0
  0
LINE
  5
45
330
2
100
AcDbEntity
  8
0
 62
     3
100
AcDbLine
 10
61.62440397089998
 20
52.7954795665
 30
0.0
 11
55.62440397089997
 21
52.7954795665
 31
0.0
  0
LINE
  5
46
330
2
100
AcDbEntity
  8
0
 62
     3
100
AcDbLine
 10
61.62440397089998
 20
61.19548872180001
 30
0.0
 11
55.62440397089997
 21
61.19548872180001
 31
0.0
  0
LINE
  5
47
330
2
100
AcDbEntity
  8
0
 62
     3
100
AcDbLine
 10
62.22450162709998
 20
63.3955009288
 30
0.0
 11
61.82453824819997
 21
63.3955009288
 31
0.0
  0
LINE
  5
48
330
2
100
AcDbEntity
  8
0
 62
     3
100
AcDbLine
 10
61.62450295079998
 20
57.9954827424
 30
0.0
 11
61.82451992059998
 21
58.99551251840001
 31
0.0
  0
LINE
  5
49
330
2
100
AcDbEntity
  8
0
 62
     3
100
AcDbLine
 10
62.22450162709998
 20
58.99547651479998
 30
0.0
 11
61.82453824819997
 21
58.99547651479998
 31
0.0
  0
LINE
  5
4A
330
2
100
AcDbEntity
  8
0
 62
     3
100
AcDbLine
 10
62.2243795568
 20
63.39545515250001
 30
0.0
 11
62.2243795568
 21
58.9954307384
 31
0.0
  0
LINE
  5
4B
330
2
100
AcDbEntity
  8
0
 62
     3
100
AcDbLine
 10
61.82441617789999
 20
58.9954307384
 30
0.0
 11
61.82441617789999
 21
63.39545515250001
 31
0.0
  0
LINE
  5
4C
330
2
100
AcDbEntity
  8
0
 62
     3
100
AcDbLine
 10
57.22450162709998
 20
69.9954307384
 30
0.0
 11
60.02448942009996
 21
69.9954307384
 31
0.0
  0
LINE
  5
4D
330
2
100
AcDbEntity
  8
0
 62
     3
100
AcDbLine
 10
61.62440397089998
 20
69.5954826183
 30
0.0
 11
55.62440397089997
 21
69.5954826183
 31
0.0
  0
ARC
  5
4E
330
2
100
AcDbEntity
  8
0
 62
     3
100
AcDbCircle
 10
55.82440091909997
 20
70.49547651479999
 30
0.0
 40
0.1999999881
100
AcDbArc
 50
89.99998201389999
 51
179.9999640277999
  0
LINE
  5
4F
330
2
100
AcDbEntity
  8
0
 62
     3
100
AcDbLine
 10
57.22444059199998
 20
69.9954459972
 30
0.0
 11
57.22444059199998
 21
69.5954826183
 31
0.0
  0
LINE
  5
50
330
2
100
AcDbEntity
  8
0
 62
     3
100
AcDbLine
 10
60.02442838489997
 20
69.9954459972
 30
0.0
 11
60.02442838489997
 21
69.5954826183
 31
0.0
  0
LINE
  5
51
330
2
100
AcDbEntity
  8
0
 62
     3
100
AcDbLine
 10
61.62440397089998
 20
69.5954826183
 30
0.0
 11
61.62440397089998
 21
70.6954887218
 31
0.0
  0
LINE
  5
52
330
2
100
AcDbEntity
  8
0
 62
     3
100
AcDbLine
 10
68.12440397089997
 20
64.4454887218
 30
0.0
 11
68.12440397089997
 21
57.9454887218
 31
0.0
  0
LINE
  5
53
330
2
100
AcDbEntity
  8
0
 62
     3
100
AcDbLine
 10
65.62440397089997
 20
54.695473463
 30
0.0
 11
65.62440397089997
 21
67.695473463
 31
0.0
  0
LINE
  5
54
330
2
100
AcDbEntity
  8
0
 62
     3
100
AcDbLine
 10
66.12440397089997
 20
54.695473463
 30
0.0
 11
66.12440397089997
 21
67.695473463
 31
0.0
  0
LINE
  5
55
330
2
100
AcDbEntity
  8
0
 62
     3
100
AcDbLine
 10
62.47441007439997
 20
57.9454887218
 30
0.0
 11
62.47441007439997
 21
64.4454887218
 31
0.0
  0
LINE
  5
56
330
2
100
AcDbEntity
  8
0
 62
     3
100
AcDbLine
 10
62.424452799
 20
65.19544294540001
 30
0.0
 11
62.424452799
 21
57.1954429454
 31
0.0
  0
ARC
  5
57
330
2
100
AcDbEntity
  8
0
 62
     3
100
AcDbCircle
 10
67.12440397089998
 20
54.695473463
 30
0.0
 40
1.0
100
AcDbArc
 50
179.9999640277999
 51
270.0000006831999
  0
ARC
  5
58
330
2
100
AcDbEntity
  8
0
 62
     3
100
AcDbCircle
 10
66.62440397089998
 20
54.695473463
 30
0.0
 40
1.0
100
AcDbArc
 50
179.9999640277999
 51
270.0000006831999
  0
LINE
  5
59
330
2
100
AcDbEntity
  8
0
 62
     3
100
AcDbLine
 10
68.12440397089997
 20
61.19548872180001
 30
0.0
 11
62.47441007439997
 21
61.19548872180001
 31
0.0
  0
LINE
  5
5A
330
2
100
AcDbEntity
  8
0
 62
     3
100
AcDbLine
 10
62.47441007439997
 20
57.9454887218
 30
0.0
 11
62.424452799
 21
57.9454887218
 31
0.0
  0
ARC
  5
5B
330
2
100
AcDbEntity
  8
0
 62
     3
100
AcDbCircle
 10
66.62440397089998
 20
67.695473463
 30
0.0
 40
1.0
100
AcDbArc
 50
89.99998201389999
 51
179.9999640277999
  0
ARC
  5
5C
330
2
100
AcDbEntity
  8
0
 62
     3
100
AcDbCircle
 10
67.12440397089998
 20
67.695473463
 30
0.0
 40
1.0
100
AcDbArc
 50
89.99998201389999
 51
179.9999640277999
  0
LINE
  5
5D
330
2
100
AcDbEntity
  8
0
 62
     3
100
AcDbLine
 10
62.47441007439997
 20
64.4454887218
 30
0.0
 11
62.424452799
 21
64.4454887218
 31
0.0
  0
LINE
  5
5E
330
2
100
AcDbEntity
  8
0
 62
     3
100
AcDbLine
 10
62.52439786739998
 20
132.39548567
 30
0.0
 11
62.52439786739998
 21
118.1954887218
 31
0.0
  0
ARC
  5
5F
330
2
100
AcDbEntity
  8
0
 62
     3
100
AcDbCircle
 10
64.52439786739998
 20
118.1954887218
 30
0.0
 40
2.0
100
AcDbArc
 50
179.9999640277999
 51
270.0000006831999
  0
LINE
  5
60
330
2
100
AcDbEntity
  8
0
 62
     3
100
AcDbLine
 10
62.42440702259997
 20
107.6954734629999
 30
0.0
 11
61.62440397089998
 21
107.6954734629999
 31
0.0
  0
LINE
  5
61
330
2
100
AcDbEntity
  8
0
 62
     3
100
AcDbLine
 10
62.42440702259997
 20
109.195473463
 30
0.0
 11
61.62440397089998
 21
109.195473463
 31
0.0
  0
LINE
  5
62
330
2
100
AcDbEntity
  8
0
 62
     3
100
AcDbLine
 10
62.42439429189996
 20
100.6954882201
 30
0.0
 11
62.22439394479999
 21
99.6954862415
 31
0.0
  0
LINE
  5
63
330
2
100
AcDbEntity
  8
0
 62
     3
100
AcDbLine
 10
62.42440702259997
 20
100.6954887218
 30
0.0
 11
61.62440397089998
 21
100.6954887218
 31
0.0
  0
LINE
  5
64
330
2
100
AcDbEntity
  8
0
  6
CENTER
 62
     3
100
AcDbLine
 10
56.11192228139998
 20
112.1954887218
 30
0.0
 11
62.83647062129997
 21
112.1954887218
 31
0.0
  0
LINE
  5
65
330
2
100
AcDbEntity
  8
0
 62
     3
100
AcDbLine
 10
61.62440397089998
 20
112.1954887218
 30
0.0
 11
61.62440397089998
 21
109.1954887218
 31
0.0
  0
ARC
  5
66
330
2
100
AcDbEntity
  8
0
 62
     3
100
AcDbCircle
 10
56.62440397089998
 20
110.1954887218
 30
0.0
 40
1.0
100
AcDbArc
 50
179.9999640277999
 51
270.0000006831999
  0
LINE
  5
67
330
2
100
AcDbEntity
  8
0
 62
     3
100
AcDbLine
 10
61.62440397089998
 20
109.195473463
 30
0.0
 11
61.62440397089998
 21
100.6954887218
 31
0.0
  0
LINE
  5
68
330
2
100
AcDbEntity
  8
0
 62
     3
100
AcDbLine
 10
61.62440687239999
 20
100.6955011695999
 30
0.0
 11
61.82440728029998
 21
99.69549919100003
 31
0.0
  0
LINE
  5
69
330
2
100
AcDbEntity
  8
0
 62
     3
100
AcDbLine
 10
62.22441007439996
 20
99.6954887218
 30
0.0
 11
61.82441617789999
 21
99.6954887218
 31
0.0
  0
CIRCLE
  5
6A
330
2
100
AcDbEntity
  8
0
 62
     3
100
AcDbCircle
 10
58.62440397089997
 20
112.1954887218
 30
0.0
 40
1.1999998093
  0
ARC
  5
6B
330
2
100
AcDbEntity
  8
0
 62
     3
100
AcDbCircle
 10
58.62440397089997
 20
112.1954887218
 30
0.0
 40
3.0
100
AcDbArc
 50
0.0
 51
89.99998201389999
  0
LINE
  5
6C
330
2
100
AcDbEntity
  8
0
  6
CENTER
 62
     3
100
AcDbLine
 10
58.62440397089997
 20
115.813744337
 30
0.0
 11
58.62440397089997
 21
109.7207420177
 31
0.0
  0
LINE
  5
6D
330
2
100
AcDbEntity
  8
0
 62
     3
100
AcDbLine
 10
58.62440397089997
 20
115.1954887218
 30
0.0
 11
55.62440397089997
 21
115.1954887218
 31
0.0
  0
LINE
  5
6E
330
2
100
AcDbEntity
  8
0
 62
     3
100
AcDbLine
 10
65.71445502969999
 20
108.2949981894
 30
0.0
 11
66.03435601129999
 21
105.0959876077
 31
0.0
  0
ARC
  5
6F
330
2
100
AcDbEntity
  8
0
 62
     3
100
AcDbCircle
 10
67.02938749139995
 20
105.1954887218
 30
0.0
 40
1.0
100
AcDbArc
 50
185.7106205333999
 51
270.0000179861
  0
LINE
  5
70
330
2
100
AcDbEntity
  8
0
 62
     3
100
AcDbLine
 10
62.42440702259997
 20
109.195473463
 30
0.0
 11
62.42440702259997
 21
100.6954887218
 31
0.0
  0
ARC
  5
71
330
2
100
AcDbEntity
  8
0
 62
     3
100
AcDbCircle
 10
64.71942045039998
 20
108.1954887218
 30
0.0
 40
1.0
100
AcDbArc
 50
5.710591391499997
 51
89.99998201389999
  0
ARC
  5
72
330
2
100
AcDbEntity
  8
0
 62
     3
100
AcDbCircle
 10
64.52439786739998
 20
132.39548567
 30
0.0
 40
2.0
100
AcDbArc
 50
89.99998201389999
 51
179.9999640277999
  0
ARC
  5
73
330
2
100
AcDbEntity
  8
0
 62
     3
100
AcDbCircle
 10
104.6744833165997
 20
52.7954948253
 30
0.0
 40
1.6999998093
100
AcDbArc
 50
329.1164971206
 51
0.0000708064000232
  0
ARC
  5
74
330
2
100
AcDbEntity
  8
0
 62
     3
100
AcDbCircle
 10
104.5744466954999
 20
52.7954948253
 30
0.0
 40
1.6999998093
100
AcDbArc
 50
180.0000906136999
 51
210.8836378893999
  0
LINE
  5
75
330
2
100
AcDbEntity
  8
0
 62
     3
100
AcDbLine
 10
101.6244039708999
 20
52.7954795665
 30
0.0
 11
101.6244039708999
 21
51.6954887218
 31
0.0
  0
LINE
  5
76
330
2
100
AcDbEntity
  8
0
 62
     3
100
AcDbLine
 10
107.6244039708999
 20
51.89548567
 30
0.0
 11
107.6244039708999
 21
70.49547651479999
 31
0.0
  0
ARC
  5
77
330
2
100
AcDbEntity
  8
0
 62
     3
100
AcDbCircle
 10
104.6244955235999
 20
60.7954948253
 30
0.0
 40
9.0
100
AcDbArc
 50
270.0001272691
 51
279.6521134720999
  0
ARC
  5
78
330
2
100
AcDbEntity
  8
0
 62
     3
100
AcDbCircle
 10
104.6244955235999
 20
60.7954948253
 30
0.0
 40
9.0
100
AcDbArc
 50
260.3480864246
 51
270.0000726275999
  0
ARC
  5
79
330
2
100
AcDbEntity
  8
0
 62
     3
100
AcDbCircle
 10
107.4243917637999
 20
51.89548567
 30
0.0
 40
0.1999999881
100
AcDbArc
 50
270.0000179861
 51
0.0
  0
LINE
  5
7A
330
2
100
AcDbEntity
  8
0
 62
     3
100
AcDbLine
 10
100.7743978673999
 20
61.19548872180001
 30
0.0
 11
88.12440397089998
 21
61.19548872180001
 31
0.0
  0
LINE
  5
7B
330
2
100
AcDbEntity
  8
0
 62
     3
100
AcDbLine
 10
88.12440397089998
 20
57.9454887218
 30
0.0
 11
88.12440397089998
 21
64.4454887218
 31
0.0
  0
LINE
  5
7C
330
2
100
AcDbEntity
  8
0
 62
     3
100
AcDbLine
 10
97.62441922969999
 20
54.695473463
 30
0.0
 11
97.62441922969999
 21
67.695473463
 31
0.0
  0
LINE
  5
7D
330
2
100
AcDbEntity
  8
0
 62
     3
100
AcDbLine
 10
97.1244192297
 20
54.695473463
 30
0.0
 11
97.1244192297
 21
67.695473463
 31
0.0
  0
ARC
  5
7E
330
2
100
AcDbEntity
  8
0
 62
     3
100
AcDbCircle
 10
96.12441922969999
 20
54.695473463
 30
0.0
 40
1.0
100
AcDbArc
 50
270.0000179861
 51
0.0
  0
ARC
  5
7F
330
2
100
AcDbEntity
  8
0
 62
     3
100
AcDbCircle
 10
96.6244192297
 20
54.695473463
 30
0.0
 40
1.0
100
AcDbArc
 50
270.0000179861
 51
0.0
  0
ARC
  5
80
330
2
100
AcDbEntity
  8
0
 62
     3
100
AcDbCircle
 10
96.12441922969999
 20
67.695473463
 30
0.0
 40
1.0
100
AcDbArc
 50
0.0
 51
89.99998201389999
  0
ARC
  5
81
330
2
100
AcDbEntity
  8
0
 62
     3
100
AcDbCircle
 10
96.6244192297
 20
67.695473463
 30
0.0
 40
1.0
100
AcDbArc
 50
0.0
 51
89.99998201389999
  0
LINE
  5
82
330
2
100
AcDbEntity
  8
0
 62
     3
100
AcDbLine
 10
103.2245016270999
 20
69.9954307384
 30
0.0
 11
106.0244894200999
 21
69.9954307384
 31
0.0
  0
LINE
  5
83
330
2
100
AcDbEntity
  8
0
 62
     3
100
AcDbLine
 10
107.6244039708999
 20
69.5954826183
 30
0.0
 11
101.6244039708999
 21
69.5954826183
 31
0.0
  0
LINE
  5
84
330
2
100
AcDbEntity
  8
0
 62
     3
100
AcDbLine
 10
107.6244039708999
 20
61.19548872180001
 30
0.0
 11
101.6244039708999
 21
61.19548872180001
 31
0.0
  0
LINE
  5
85
330
2
100
AcDbEntity
  8
0
 62
     3
100
AcDbLine
 10
107.6244039708999
 20
52.7954795665
 30
0.0
 11
101.6244039708999
 21
52.7954795665
 31
0.0
  0
LINE
  5
86
330
2
100
AcDbEntity
  8
0
 62
     3
100
AcDbLine
 10
101.4246156722999
 20
63.39548142579999
 30
0.0
 11
101.6246341009999
 21
64.3955108979
 31
0.0
  0
LINE
  5
87
330
2
100
AcDbEntity
  8
0
 62
     3
100
AcDbLine
 10
100.8243266539998
 20
64.3953910675
 30
0.0
 11
101.0243436237999
 21
63.39536129149999
 31
0.0
  0
LINE
  5
88
330
2
100
AcDbEntity
  8
0
 62
     3
100
AcDbLine
 10
100.7743978673999
 20
57.9454887218
 30
0.0
 11
100.7743978673999
 21
64.4454887218
 31
0.0
  0
LINE
  5
89
330
2
100
AcDbEntity
  8
0
 62
     3
100
AcDbLine
 10
101.6244039708999
 20
65.19544294540001
 30
0.0
 11
101.6244039708999
 21
57.1954429454
 31
0.0
  0
LINE
  5
8A
330
2
100
AcDbEntity
  8
0
 62
     3
100
AcDbLine
 10
100.8243551426999
 20
65.19544294540001
 30
0.0
 11
100.8243551426999
 21
57.1954429454
 31
0.0
  0
LINE
  5
8B
330
2
100
AcDbEntity
  8
0
 62
     3
100
AcDbLine
 10
100.8244772130999
 20
57.1954276866
 30
0.0
 11
101.6245260411999
 21
57.1954276866
 31
0.0
  0
LINE
  5
8C
330
2
100
AcDbEntity
  8
0
 62
     3
100
AcDbLine
 10
101.0245504551999
 20
63.3955009288
 30
0.0
 11
101.4245138341999
 21
63.3955009288
 31
0.0
  0
LINE
  5
8D
330
2
100
AcDbEntity
  8
0
 62
     3
100
AcDbLine
 10
100.8243551426999
 20
57.9454887218
 30
0.0
 11
100.7743978673999
 21
57.9454887218
 31
0.0
  0
LINE
  5
8E
330
2
100
AcDbEntity
  8
0
 62
     3
100
AcDbLine
 10
100.8244772130999
 20
57.9954765148
 30
0.0
 11
101.6245260411999
 21
57.9954765148
 31
0.0
  0
LINE
  5
8F
330
2
100
AcDbEntity
  8
0
 62
     3
100
AcDbLine
 10
101.0245504551999
 20
58.99547651479998
 30
0.0
 11
101.4245138341999
 21
58.99547651479998
 31
0.0
  0
LINE
  5
90
330
2
100
AcDbEntity
  8
0
 62
     3
100
AcDbLine
 10
101.0246995133999
 20
58.99526815699999
 30
0.0
 11
100.8246930553999
 21
57.99529853460001
 31
0.0
  0
LINE
  5
91
330
2
100
AcDbEntity
  8
0
 62
     3
100
AcDbLine
 10
101.6245469041999
 20
57.9955117499
 30
0.0
 11
101.4245336564999
 21
58.995526685
 31
0.0
  0
LINE
  5
92
330
2
100
AcDbEntity
  8
0
 62
     3
100
AcDbLine
 10
101.4243917637999
 20
58.9954307384
 30
0.0
 11
101.4243917637999
 21
63.39545515250001
 31
0.0
  0
LINE
  5
93
330
2
100
AcDbEntity
  8
0
 62
     3
100
AcDbLine
 10
101.0244283849
 20
63.39545515250001
 30
0.0
 11
101.0244283849
 21
58.9954307384
 31
0.0
  0
LINE
  5
94
330
2
100
AcDbEntity
  8
0
 62
     3
100
AcDbLine
 10
100.8243551426999
 20
64.4454887218
 30
0.0
 11
100.7743978673999
 21
64.4454887218
 31
0.0
  0
LINE
  5
95
330
2
100
AcDbEntity
  8
0
 62
     3
100
AcDbLine
 10
100.8244772130999
 20
65.1954276866
 30
0.0
 11
101.6245260411999
 21
65.1954276866
 31
0.0
  0
LINE
  5
96
330
2
100
AcDbEntity
  8
0
 62
     3
100
AcDbLine
 10
100.8244772130999
 20
64.39550092880001
 30
0.0
 11
101.6245260411999
 21
64.39550092880001
 31
0.0
  0
LINE
  5
97
330
2
100
AcDbEntity
  8
0
 62
     3
100
AcDbLine
 10
101.6244039708999
 20
69.5954826183
 30
0.0
 11
101.6244039708999
 21
70.6954887218
 31
0.0
  0
LINE
  5
98
330
2
100
AcDbEntity
  8
0
 62
     3
100
AcDbLine
 10
103.2244405919999
 20
69.9954459972
 30
0.0
 11
103.2244405919999
 21
69.5954826183
 31
0.0
  0
ARC
  5
99
330
2
100
AcDbEntity
  8
0
 62
     3
100
AcDbCircle
 10
107.4243917637999
 20
70.49547651479999
 30
0.0
 40
0.1999999881
100
AcDbArc
 50
0.0
 51
89.99998201389999
  0
LINE
  5
9A
330
2
100
AcDbEntity
  8
0
 62
     3
100
AcDbLine
 10
106.0244283848999
 20
69.9954459972
 30
0.0
 11
106.0244283848999
 21
69.5954826183
 31
0.0
  0
ARC
  5
9B
330
2
100
AcDbEntity
  8
0
 62
     3
100
AcDbCircle
 10
98.52938749139999
 20
108.1954887218
 30
0.0
 40
1.0
100
AcDbArc
 50
89.99998201389999
 51
174.2893794665999
  0
ARC
  5
9C
330
2
100
AcDbEntity
  8
0
 62
     3
100
AcDbCircle
 10
96.2194204504
 20
105.1954887218
 30
0.0
 40
1.0
100
AcDbArc
 50
270.0000179861
 51
354.2894051934999
  0
LINE
  5
9D
330
2
100
AcDbEntity
  8
0
 62
     3
100
AcDbLine
 10
97.5343436642
 20
108.2949823896
 30
0.0
 11
97.214444201
 21
105.0959869909
 31
0.0
  0
LINE
  5
9E
330
2
100
AcDbEntity
  8
0
 62
     3
100
AcDbLine
 10
107.4244070225999
 20
131.3955009288
 30
0.0
 11
107.4244070225999
 21
115.1954887218
 31
0.0
  0
LINE
  5
9F
330
2
100
AcDbEntity
  8
0
 62
     3
100
AcDbLine
 10
100.7243948156
 20
132.39548567
 30
0.0
 11
100.7243948156
 21
118.1954887218
 31
0.0
  0
LINE
  5
A0
330
2
100
AcDbEntity
  8
0
 62
     3
100
AcDbLine
 10
107.6244039708999
 20
115.1954887218
 30
0.0
 11
104.6244039708999
 21
115.1954887218
 31
0.0
  0
CIRCLE
  5
A1
330
2
100
AcDbEntity
  8
0
 62
     3
100
AcDbCircle
 10
104.6244039708999
 20
112.1954887218
 30
0.0
 40
1.1999998093
  0
LINE
  5
A2
330
2
100
AcDbEntity
  8
0
  6
CENTER
 62
     3
100
AcDbLine
 10
107.1368856602999
 20
112.1954887218
 30
0.0
 11
100.8830099278999
 21
112.1954887218
 31
0.0
  0
LINE
  5
A3
330
2
100
AcDbEntity
  8
0
 62
     3
100
AcDbLine
 10
101.6244039708999
 20
112.1954887218
 30
0.0
 11
101.6244039708999
 21
109.1954887218
 31
0.0
  0
LINE
  5
A4
330
2
100
AcDbEntity
  8
0
 62
     3
100
AcDbLine
 10
100.8244009190997
 20
109.195473463
 30
0.0
 11
100.8244009190997
 21
100.695473463
 31
0.0
  0
LINE
  5
A5
330
2
100
AcDbEntity
  8
0
 62
     3
100
AcDbLine
 10
101.6244039708999
 20
109.195473463
 30
0.0
 11
101.6244039708999
 21
100.695473463
 31
0.0
  0
LINE
  5
A6
330
2
100
AcDbEntity
  8
0
 62
     3
100
AcDbLine
 10
101.6244160084999
 20
100.6954765167999
 30
0.0
 11
101.4244167555
 21
99.69547429510001
 31
0.0
  0
LINE
  5
A7
330
2
100
AcDbEntity
  8
0
 62
     3
100
AcDbLine
 10
100.8244130793999
 20
100.6954910981999
 30
0.0
 11
101.0244122715999
 21
99.6954888764
 31
0.0
  0
LINE
  5
A8
330
2
100
AcDbEntity
  8
0
 62
     3
100
AcDbLine
 10
101.6244039708999
 20
100.695473463
 30
0.0
 11
100.8244009190997
 21
100.695473463
 31
0.0
  0
LINE
  5
A9
330
2
100
AcDbEntity
  8
0
 62
     3
100
AcDbLine
 10
101.4244070225999
 20
99.695473463
 30
0.0
 11
101.0243978673997
 21
99.695473463
 31
0.0
  0
LINE
  5
AA
330
2
100
AcDbEntity
  8
0
 62
     3
100
AcDbLine
 10
101.6244039708999
 20
107.6954734629999
 30
0.0
 11
100.8244009190997
 21
107.6954734629999
 31
0.0
  0
LINE
  5
AB
330
2
100
AcDbEntity
  8
0
 62
     3
100
AcDbLine
 10
101.6244039708999
 20
109.195473463
 30
0.0
 11
100.8244009190997
 21
109.195473463
 31
0.0
  0
ARC
  5
AC
330
2
100
AcDbEntity
  8
0
 62
     3
100
AcDbCircle
 10
104.6244039708999
 20
112.1954887218
 30
0.0
 40
3.0
100
AcDbArc
 50
89.99998201389999
 51
179.9999640277999
  0
ARC
  5
AD
330
2
100
AcDbEntity
  8
0
 62
     3
100
AcDbCircle
 10
98.7243948156
 20
118.1954887218
 30
0.0
 40
2.0
100
AcDbArc
 50
270.0000179861
 51
0.0
  0
LINE
  5
AE
330
2
100
AcDbEntity
  8
0
  6
CENTER
 62
     3
100
AcDbLine
 10
104.6244039708999
 20
116.3958823986
 30
0.0
 11
104.6244039708999
 21
109.7207420177
 31
0.0
  0
ARC
  5
AF
330
2
100
AcDbEntity
  8
0
 62
     3
100
AcDbCircle
 10
106.6244039708999
 20
110.1954887218
 30
0.0
 40
1.0
100
AcDbArc
 50
270.0000179861
 51
0.0
  0
LINE
  5
B0
330
2
100
AcDbEntity
  8
0
 62
     3
100
AcDbLine
 10
107.6244039708999
 20
115.1954887218
 30
0.0
 11
107.6244039708999
 21
110.1954887218
 31
0.0
  0
ARC
  5
B1
330
2
100
AcDbEntity
  8
0
 62
     3
100
AcDbCircle
 10
98.7243948156
 20
132.39548567
 30
0.0
 40
2.0
100
AcDbArc
 50
0.0
 51
89.99998201389999
  0
LINE
  5
B2
330
2
100
AcDbEntity
  8
0
 62
     3
100
AcDbLine
 10
107.6244039708999
 20
131.3955009288
 30
0.0
 11
107.4244070225999
 21
131.3955009288
 31
0.0
  0
TEXT
  5
B3
330
2
100
AcDbEntity
  8
0
 62
     5
100
AcDbText
 10
145.0
 20
10.0
 30
0.0
 40
5.0
  1
ＭＡ４－Ｃ０００９８Ｂ
 41
0.8443967743953095
 72
     5
 11
199.0413935612998
 21
10.0
 31
0.0
100
AcDbText
  0
LINE
  5
B5
330
2
100
AcDbEntity
  8
0
100
AcDbLine
 10
210.0
 20
297.0
 30
0.0
 11
0.0
 21
297.0
 31
0.0
  0
LINE
  5
B8
330
2
100
AcDbEntity
  8
0
 62
     3
100
AcDbLine
 10
91.5165948879
 20
175.1501366984999
 30
0.0
 11
80.92707863519999
 21
169.2160345423
 31
0.0
  0
LINE
  5
B9
330
2
100
AcDbEntity
  8
0
 62
     3
100
AcDbLine
 10
96.87440397089998
 20
169.1954887217999
 30
0.0
 11
66.37440397089998
 21
169.1954887217999
 31
0.0
  0
LINE
  5
BA
330
2
100
AcDbEntity
  8
0
 62
     3
100
AcDbLine
 10
95.17440702259998
 20
208.4954765148
 30
0.0
 11
68.07440091909999
 21
208.4954765148
 31
0.0
  0
LINE
  5
BB
330
2
100
AcDbEntity
  8
0
 62
     3
100
AcDbLine
 10
95.17440702259998
 20
218.8955009288
 30
0.0
 11
68.07440091909999
 21
218.8955009288
 31
0.0
  0
LINE
  5
BC
330
2
100
AcDbEntity
  8
0
 62
     3
100
AcDbLine
 10
95.17440702259998
 20
218.6954887218
 30
0.0
 11
68.32440091909998
 21
218.6954887218
 31
0.0
  0
LINE
  5
BD
330
2
100
AcDbEntity
  8
0
 62
     3
100
AcDbLine
 10
95.17440702259998
 20
208.6954887217998
 30
0.0
 11
68.32440091909998
 21
208.6954887217998
 31
0.0
  0
LINE
  5
BE
330
2
100
AcDbEntity
  8
0
 62
     3
100
AcDbLine
 10
107.4244070225999
 20
204.1954887218
 30
0.0
 11
55.82441617789999
 21
204.1954887218
 31
0.0
  0
LINE
  5
BF
330
2
100
AcDbEntity
  8
0
 62
     3
100
AcDbLine
 10
107.4244070225999
 20
223.1954887217998
 30
0.0
 11
55.82441617789999
 21
223.1954887217998
 31
0.0
  0
LINE
  5
C0
330
2
100
AcDbEntity
  8
0
  6
PHANTOM
 62
     3
100
AcDbLine
 10
50.16445829219996
 20
165.1954887217998
 30
0.0
 11
56.62440397089998
 21
165.1954887217998
 31
0.0
  0
LINE
  5
C2
330
2
100
AcDbEntity
  8
0
  6
PHANTOM
 62
     3
100
AcDbLine
 10
49.82600309199998
 20
168.6954887218
 30
0.0
 11
65.87440397089998
 21
168.6954887218
 31
0.0
  0
LINE
  5
C3
330
2
100
AcDbEntity
  8
0
 62
     3
100
AcDbLine
 10
49.75669777559995
 20
166.8186694261999
 30
0.0
 11
49.70971586049998
 21
167.0525749033999
 31
0.0
  0
LINE
  5
C4
330
2
100
AcDbEntity
  8
0
 62
     3
100
AcDbLine
 10
49.81077482049997
 20
163.9704521006999
 30
0.0
 11
49.88099621769999
 21
164.1148570025
 31
0.0
  0
LINE
  5
C5
330
2
100
AcDbEntity
  8
0
 62
     3
100
AcDbLine
 10
49.88099621769999
 20
164.1148570025
 30
0.0
 11
49.9468378497
 21
164.2631253737
 31
0.0
  0
LINE
  5
C6
330
2
100
AcDbEntity
  8
0
 62
     3
100
AcDbLine
 10
49.9468378497
 20
164.2631253737
 30
0.0
 11
50.00677374729999
 21
164.4145718617
 31
0.0
  0
LINE
  5
C7
330
2
100
AcDbEntity
  8
0
 62
     3
100
AcDbLine
 10
50.00677374729999
 20
164.4145718617
 30
0.0
 11
50.0592779411
 21
164.5685111143
 31
0.0
  0
LINE
  5
C8
330
2
100
AcDbEntity
  8
0
 62
     3
100
AcDbLine
 10
50.0592779411
 20
164.5685111143
 30
0.0
 11
50.10282446179996
 21
164.7242577789999
 31
0.0
  0
LINE
  5
C9
330
2
100
AcDbEntity
  8
0
 62
     3
100
AcDbLine
 10
50.10282446179996
 20
164.7242577789999
 30
0.0
 11
50.13588734009996
 21
164.8811265034
 31
0.0
  0
LINE
  5
CA
330
2
100
AcDbEntity
  8
0
 62
     3
100
AcDbLine
 10
50.13588734009996
 20
164.8811265034
 30
0.0
 11
50.1569406067
 21
165.0384319351998
 31
0.0
  0
LINE
  5
CB
330
2
100
AcDbEntity
  8
0
 62
     3
100
AcDbLine
 10
50.1569406067
 20
165.0384319351998
 30
0.0
 11
50.16445829219996
 21
165.1954887217998
 31
0.0
  0
LINE
  5
CC
330
2
100
AcDbEntity
  8
0
 62
     3
100
AcDbLine
 10
50.16445829219996
 20
165.1954887217998
 30
0.0
 11
50.14911019310001
 21
165.4295014312
 31
0.0
  0
LINE
  5
CD
330
2
100
AcDbEntity
  8
0
 62
     3
100
AcDbLine
 10
50.14911019310001
 20
165.4295014312
 30
0.0
 11
50.10723343719999
 21
165.6619359755
 31
0.0
  0
LINE
  5
CE
330
2
100
AcDbEntity
  8
0
 62
     3
100
AcDbLine
 10
50.10723343719999
 20
165.6619359755
 30
0.0
 11
50.04616453799997
 21
165.8933133034
 31
0.0
  0
LINE
  5
CF
330
2
100
AcDbEntity
  8
0
 62
     3
100
AcDbLine
 10
50.04616453799997
 20
165.8933133034
 30
0.0
 11
49.97324000889998
 21
166.1241543636
 31
0.0
  0
LINE
  5
D0
330
2
100
AcDbEntity
  8
0
 62
     3
100
AcDbLine
 10
49.97324000889998
 20
166.1241543636
 30
0.0
 11
49.89579636309997
 21
166.354980105
 31
0.0
  0
LINE
  5
D1
330
2
100
AcDbEntity
  8
0
 62
     3
100
AcDbLine
 10
49.89579636309997
 20
166.354980105
 30
0.0
 11
49.82117011419997
 21
166.5863114762999
 31
0.0
  0
LINE
  5
D2
330
2
100
AcDbEntity
  8
0
 62
     3
100
AcDbLine
 10
49.82117011419997
 20
166.5863114762999
 30
0.0
 11
49.75669777559995
 21
166.8186694261999
 31
0.0
  0
LINE
  5
D3
330
2
100
AcDbEntity
  8
0
 62
     3
100
AcDbLine
 10
49.70545280719996
 20
167.8710080695
 30
0.0
 11
49.73052869469999
 21
168.0772838767
 31
0.0
  0
LINE
  5
D4
330
2
100
AcDbEntity
  8
0
 62
     3
100
AcDbLine
 10
49.70971586049998
 20
167.0525749033999
 30
0.0
 11
49.6876534532
 21
167.2556046089
 31
0.0
  0
LINE
  5
D5
330
2
100
AcDbEntity
  8
0
 62
     3
100
AcDbLine
 10
49.6876534532
 20
167.2556046089
 30
0.0
 11
49.6813593597
 21
167.4598793971999
 31
0.0
  0
LINE
  5
D6
330
2
100
AcDbEntity
  8
0
 62
     3
100
AcDbLine
 10
49.6813593597
 20
167.4598793971999
 30
0.0
 11
49.68817775329998
 21
167.6651102302999
 31
0.0
  0
LINE
  5
D7
330
2
100
AcDbEntity
  8
0
 62
     3
100
AcDbLine
 10
49.68817775329998
 20
167.6651102302999
 30
0.0
 11
49.70545280719996
 21
167.8710080695
 31
0.0
  0
LINE
  5
D8
330
2
100
AcDbEntity
  8
0
 62
     3
100
AcDbLine
 10
49.73052869469999
 20
168.0772838767
 30
0.0
 11
49.7607495892
 21
168.2836486134
 31
0.0
  0
LINE
  5
D9
330
2
100
AcDbEntity
  8
0
 62
     3
100
AcDbLine
 10
49.7607495892
 20
168.2836486134
 30
0.0
 11
49.79345966379997
 21
168.4898132411999
 31
0.0
  0
LINE
  5
DA
330
2
100
AcDbEntity
  8
0
 62
     3
100
AcDbLine
 10
49.79345966379997
 20
168.4898132411999
 30
0.0
 11
49.82600309199998
 21
168.6954887218
 31
0.0
  0
LINE
  5
DB
330
2
100
AcDbEntity
  8
0
 62
     3
100
AcDbLine
 10
49.82600309199998
 20
168.6954887218
 30
0.0
 11
49.84926597019996
 21
168.8512492091
 31
0.0
  0
LINE
  5
DC
330
2
100
AcDbEntity
  8
0
 62
     3
100
AcDbLine
 10
49.84926597019996
 20
168.8512492091
 30
0.0
 11
49.8714523756
 21
169.0066033731
 31
0.0
  0
LINE
  5
DD
330
2
100
AcDbEntity
  8
0
 62
     3
100
AcDbLine
 10
49.8714523756
 20
169.0066033731
 30
0.0
 11
49.89311431899998
 21
169.1615937891
 31
0.0
  0
LINE
  5
DE
330
2
100
AcDbEntity
  8
0
 62
     3
100
AcDbLine
 10
49.89311431899998
 20
169.1615937891
 30
0.0
 11
49.91480381109997
 21
169.3162630324
 31
0.0
  0
LINE
  5
DF
330
2
100
AcDbEntity
  8
0
 62
     3
100
AcDbLine
 10
49.91480381109997
 20
169.3162630324
 30
0.0
 11
49.93707286269998
 21
169.4706536783999
 31
0.0
  0
LINE
  5
E0
330
2
100
AcDbEntity
  8
0
 62
     3
100
AcDbLine
 10
49.93707286269998
 20
169.4706536783999
 30
0.0
 11
49.96047348449997
 21
169.6248083025
 31
0.0
  0
LINE
  5
E1
330
2
100
AcDbEntity
  8
0
 62
     3
100
AcDbLine
 10
49.96047348449997
 20
169.6248083025
 30
0.0
 11
49.98555768719999
 21
169.7787694799997
 31
0.0
  0
LINE
  5
E2
330
2
100
AcDbEntity
  8
0
 62
     3
100
AcDbLine
 10
49.98555768719999
 20
169.7787694799997
 30
0.0
 11
50.01287748159999
 21
169.9325797862999
 31
0.0
  0
LINE
  5
E3
330
2
100
AcDbEntity
  8
0
 62
     3
100
AcDbLine
 10
65.87440397089998
 20
168.6954887218
 30
0.0
 11
65.87440397089998
 21
165.1954887217998
 31
0.0
  0
CIRCLE
  5
E4
330
2
100
AcDbEntity
  8
0
 62
     3
100
AcDbCircle
 10
60.52439786739999
 20
155.6954887217998
 30
0.0
 40
2.0499992371
  0
LINE
  5
E5
330
2
100
AcDbEntity
  8
0
 62
     3
100
AcDbLine
 10
65.87440397089998
 20
165.1954887217998
 30
0.0
 11
56.62440397089998
 21
165.1954887217998
 31
0.0
  0
CIRCLE
  5
E6
330
2
100
AcDbEntity
  8
0
 62
     3
100
AcDbCircle
 10
60.52439786739999
 20
155.6954887217998
 30
0.0
 40
1.1999998093
  0
LINE
  5
E7
330
2
100
AcDbEntity
  8
0
 62
     3
100
AcDbLine
 10
55.62440397089997
 20
156.0341117687
 30
0.0
 11
55.62440397089997
 21
151.669213087
 31
0.0
  0
LINE
  5
E8
330
2
100
AcDbEntity
  8
0
 62
     3
100
AcDbLine
 10
56.62440397089998
 20
164.1954887217998
 30
0.0
 11
56.62440397089998
 21
151.9954917736
 31
0.0
  0
ARC
  5
E9
330
2
100
AcDbEntity
  8
0
 62
     3
100
AcDbCircle
 10
56.62440397089998
 20
150.9954917736
 30
0.0
 40
1.0
100
AcDbArc
 50
89.99998201389999
 51
179.9999640277999
  0
LINE
  5
EA
330
2
100
AcDbEntity
  8
0
 62
     3
100
AcDbLine
 10
55.62440397089997
 20
164.1954887217998
 30
0.0
 11
55.62440397089997
 21
156.3955009288
 31
0.0
  0
LINE
  5
EB
330
2
100
AcDbEntity
  8
0
 62
     3
100
AcDbLine
 10
56.62440397089998
 20
156.1954887218
 30
0.0
 11
55.82440091909997
 21
156.1954887218
 31
0.0
  0
ARC
  5
EC
330
2
100
AcDbEntity
  8
0
 62
     3
100
AcDbCircle
 10
55.82440091909997
 20
156.3955009288
 30
0.0
 40
0.1999999881
100
AcDbArc
 50
179.9999640277999
 51
270.0000006831999
  0
ARC
  5
ED
330
2
100
AcDbEntity
  8
0
 62
     3
100
AcDbCircle
 10
57.62440397089998
 20
164.1954887217998
 30
0.0
 40
1.0
100
AcDbArc
 50
89.99998201389999
 51
179.9999640277999
  0
LINE
  5
EE
330
2
100
AcDbEntity
  8
0
 62
     3
100
AcDbLine
 10
56.62440397089998
 20
162.1954887217999
 30
0.0
 11
55.82440091909997
 21
162.1954887217999
 31
0.0
  0
ARC
  5
EF
330
2
100
AcDbEntity
  8
0
 62
     3
100
AcDbCircle
 10
55.82440091909997
 20
161.9954917736
 30
0.0
 40
0.1999999881
100
AcDbArc
 50
89.99998201389999
 51
179.9999640277999
  0
ARC
  5
F0
330
2
100
AcDbEntity
  8
0
 62
     3
100
AcDbCircle
 10
56.62440397089998
 20
164.1954887217998
 30
0.0
 40
1.0
100
AcDbArc
 50
89.99998201389999
 51
179.9999640277999
  0
ARC
  5
F1
330
2
100
AcDbEntity
  8
0
  6
PHANTOM
 62
     3
100
AcDbCircle
 10
61.67440702259996
 20
168.89548567
 30
0.0
 40
1.5
100
AcDbArc
 50
0.0
 51
89.99998201389999
  0
ARC
  5
F2
330
2
100
AcDbEntity
  8
0
  6
PHANTOM
 62
     3
100
AcDbCircle
 10
59.37441922969997
 20
168.89548567
 30
0.0
 40
1.5
100
AcDbArc
 50
90.00003665540001
 51
180.0000186692997
  0
LINE
  5
F3
330
2
100
AcDbEntity
  8
0
  6
PHANTOM
 62
     3
100
AcDbLine
 10
57.87441922969996
 20
168.89548567
 30
0.0
 11
57.87441922969996
 21
168.6954887218
 31
0.0
  0
LINE
  5
F4
330
2
100
AcDbEntity
  8
0
  6
PHANTOM
 62
     3
100
AcDbLine
 10
61.67440702259996
 20
170.39548567
 30
0.0
 11
59.37441922969997
 21
170.39548567
 31
0.0
  0
ARC
  5
F5
330
2
100
AcDbEntity
  8
0
 62
     3
100
AcDbCircle
 10
66.37440397089998
 20
168.6954887218
 30
0.0
 40
0.5
100
AcDbArc
 50
89.99998201389999
 51
179.9999640277999
  0
LINE
  5
F6
330
2
100
AcDbEntity
  8
0
  6
PHANTOM
 62
     3
100
AcDbLine
 10
63.17440702259997
 20
168.89548567
 30
0.0
 11
63.17440702259997
 21
168.6954887218
 31
0.0
  0
CIRCLE
  5
F7
330
2
100
AcDbEntity
  8
0
 62
     3
100
AcDbCircle
 10
70.60121061149998
 20
210.6954887217998
 30
0.0
 40
1.25
  0
LINE
  5
F8
330
2
100
AcDbEntity
  8
0
 62
     3
100
AcDbLine
 10
68.58441068469996
 20
208.89548567
 30
0.0
 11
68.58441068469996
 21
218.4954917735999
 31
0.0
  0
LINE
  5
F9
330
2
100
AcDbEntity
  8
0
 62
     3
100
AcDbLine
 10
68.12440397089997
 20
208.89548567
 30
0.0
 11
68.12440397089997
 21
218.4954917735999
 31
0.0
  0
LINE
  5
FA
330
2
100
AcDbEntity
  8
0
 62
     3
100
AcDbLine
 10
68.07440091909999
 20
218.8955009288
 30
0.0
 11
68.07440091909999
 21
208.4954765148
 31
0.0
  0
LINE
  5
FB
330
2
100
AcDbEntity
  8
0
 62
     3
100
AcDbLine
 10
68.12440397089997
 20
218.8955009288
 30
0.0
 11
68.12440397089997
 21
208.4954765148
 31
0.0
  0
LINE
  5
FC
330
2
100
AcDbEntity
  8
0
 62
     3
100
AcDbLine
 10
65.87440397089998
 20
222.6954887218
 30
0.0
 11
65.87440397089998
 21
204.6954887217999
 31
0.0
  0
CIRCLE
  5
FD
330
2
100
AcDbEntity
  8
0
 62
     3
100
AcDbCircle
 10
60.52442838489998
 20
213.695549757
 30
0.0
 40
1.25
  0
CIRCLE
  5
FE
330
2
100
AcDbEntity
  8
0
 62
     3
100
AcDbCircle
 10
60.52442838489998
 20
213.695549757
 30
0.0
 40
1.5
  0
CIRCLE
  5
FF
330
2
100
AcDbEntity
  8
0
 62
     3
100
AcDbCircle
 10
60.52439786739999
 20
213.6954887217998
 30
0.0
 40
2.199999809299999
  0
LINE
  5
100
330
2
100
AcDbEntity
  8
0
  6
CENTER
 62
     3
100
AcDbLine
 10
60.52439786739999
 20
219.7454917736
 30
0.0
 11
60.52439786739999
 21
207.6454856699998
 31
0.0
  0
LINE
  5
101
330
2
100
AcDbEntity
  8
0
 62
     3
100
AcDbLine
 10
55.62440397089997
 20
204.39548567
 30
0.0
 11
55.62440397089997
 21
222.9954917736
 31
0.0
  0
LINE
  5
102
330
2
100
AcDbEntity
  8
0
 62
     3
100
AcDbLine
 10
56.62440397089998
 20
209.6954887217998
 30
0.0
 11
56.62440397089998
 21
204.39548567
 31
0.0
  0
ARC
  5
103
330
2
100
AcDbEntity
  8
0
 62
     3
100
AcDbCircle
 10
56.82441617789999
 20
204.39548567
 30
0.0
 40
0.1999999881
100
AcDbArc
 50
179.9999640277999
 51
270.0000006831999
  0
ARC
  5
104
330
2
100
AcDbEntity
  8
0
 62
     3
100
AcDbCircle
 10
55.82441617789999
 20
204.39548567
 30
0.0
 40
0.1999999881
100
AcDbArc
 50
179.9999640277999
 51
270.0000006831999
  0
LINE
  5
105
330
2
100
AcDbEntity
  8
0
 62
     3
100
AcDbLine
 10
55.82440091909997
 20
208.6954887217998
 30
0.0
 11
56.62440397089998
 21
208.6954887217998
 31
0.0
  0
LINE
  5
106
330
2
100
AcDbEntity
  8
0
 62
     3
100
AcDbLine
 10
55.82440091909997
 20
209.6954887217998
 30
0.0
 11
56.62440397089998
 21
209.6954887217998
 31
0.0
  0
ARC
  5
107
330
2
100
AcDbEntity
  8
0
 62
     3
100
AcDbCircle
 10
55.82440091909997
 20
209.8954856699999
 30
0.0
 40
0.1999999881
100
AcDbArc
 50
179.9999640277999
 51
270.0000006831999
  0
ARC
  5
108
330
2
100
AcDbEntity
  8
0
 62
     3
100
AcDbCircle
 10
55.82440091909997
 20
208.89548567
 30
0.0
 40
0.1999999881
100
AcDbArc
 50
179.9999640277999
 51
270.0000006831999
  0
ARC
  5
109
330
2
100
AcDbEntity
  8
0
 62
     3
100
AcDbCircle
 10
66.37440397089998
 20
204.6954887217999
 30
0.0
 40
0.5
100
AcDbArc
 50
179.9999640277999
 51
270.0000006831999
  0
ARC
  5
10A
330
2
100
AcDbEntity
  8
0
 62
     3
100
AcDbCircle
 10
68.78440763299997
 20
208.89548567
 30
0.0
 40
0.1999999881
100
AcDbArc
 50
179.9999640277999
 51
270.0000006831999
  0
ARC
  5
10B
330
2
100
AcDbEntity
  8
0
 62
     3
100
AcDbCircle
 10
68.32440091909998
 20
208.89548567
 30
0.0
 40
0.1999999881
100
AcDbArc
 50
179.9999640277999
 51
270.0000006831999
  0
LINE
  5
10C
330
2
100
AcDbEntity
  8
0
 62
     3
100
AcDbLine
 10
56.62440397089998
 20
217.6954887217998
 30
0.0
 11
56.62440397089998
 21
222.9954917736
 31
0.0
  0
LINE
  5
10D
330
2
100
AcDbEntity
  8
0
 62
     3
100
AcDbLine
 10
58.32440091909997
 20
213.6954887217998
 30
0.0
 11
55.62440397089997
 21
213.6954887217998
 31
0.0
  0
LINE
  5
10E
330
2
100
AcDbEntity
  8
0
 62
     3
100
AcDbLine
 10
56.62440397089998
 20
218.6954887218
 30
0.0
 11
55.82440091909997
 21
218.6954887218
 31
0.0
  0
LINE
  5
10F
330
2
100
AcDbEntity
  8
0
 62
     3
100
AcDbLine
 10
56.62440397089998
 20
217.6954887217998
 30
0.0
 11
55.82440091909997
 21
217.6954887217998
 31
0.0
  0
ARC
  5
110
330
2
100
AcDbEntity
  8
0
 62
     3
100
AcDbCircle
 10
55.82440091909997
 20
217.4954917736
 30
0.0
 40
0.1999999881
100
AcDbArc
 50
89.99998201389999
 51
179.9999640277999
  0
ARC
  5
111
330
2
100
AcDbEntity
  8
0
 62
     3
100
AcDbCircle
 10
55.82440091909997
 20
218.4954917735999
 30
0.0
 40
0.1999999881
100
AcDbArc
 50
89.99998201389999
 51
179.9999640277999
  0
ARC
  5
112
330
2
100
AcDbEntity
  8
0
 62
     3
100
AcDbCircle
 10
56.82441617789999
 20
222.9954917736
 30
0.0
 40
0.1999999881
100
AcDbArc
 50
89.99998201389999
 51
179.9999640277999
  0
ARC
  5
113
330
2
100
AcDbEntity
  8
0
 62
     3
100
AcDbCircle
 10
55.82441617789999
 20
222.9954917736
 30
0.0
 40
0.1999999881
100
AcDbArc
 50
89.99998201389999
 51
179.9999640277999
  0
LINE
  5
114
330
2
100
AcDbEntity
  8
0
 62
     3
100
AcDbLine
 10
61.77442838489998
 20
213.6954887217998
 30
0.0
 11
59.27442838489998
 21
213.6954887217998
 31
0.0
  0
ARC
  5
115
330
2
100
AcDbEntity
  8
0
 62
     3
100
AcDbCircle
 10
66.37440397089998
 20
222.6954887218
 30
0.0
 40
0.5
100
AcDbArc
 50
89.99998201389999
 51
179.9999640277999
  0
LINE
  5
116
330
2
100
AcDbEntity
  8
0
 62
     3
100
AcDbLine
 10
68.12440397089997
 20
213.6954887217998
 30
0.0
 11
62.72439481559999
 21
213.6954887217998
 31
0.0
  0
ARC
  5
117
330
2
100
AcDbEntity
  8
0
 62
     3
100
AcDbCircle
 10
68.32440091909998
 20
218.4954917735999
 30
0.0
 40
0.1999999881
100
AcDbArc
 50
89.99998201389999
 51
179.9999640277999
  0
ARC
  5
118
330
2
100
AcDbEntity
  8
0
 62
     3
100
AcDbCircle
 10
68.78440763299997
 20
218.4954917735999
 30
0.0
 40
0.1999999881
100
AcDbArc
 50
89.99998201389999
 51
179.9999640277999
  0
LINE
  5
119
330
2
100
AcDbEntity
  8
0
 62
     3
100
AcDbLine
 10
80.92706205189998
 20
208.6954887217998
 30
0.0
 11
80.92706205189998
 21
218.6954887218
 31
0.0
  0
LINE
  5
11A
330
2
100
AcDbEntity
  8
0
  6
CENTER
 62
     3
100
AcDbLine
 10
81.62440397089998
 20
227.5834739513
 30
0.0
 11
81.62440397089998
 21
200.2515667643
 31
0.0
  0
LINE
  5
11B
330
2
100
AcDbEntity
  8
0
  6
PHANTOM
 62
     3
100
AcDbLine
 10
113.0843496495999
 20
165.1954887217998
 30
0.0
 11
106.6244039708999
 21
165.1954887217998
 31
0.0
  0
LINE
  5
11C
330
2
100
AcDbEntity
  8
0
  6
PHANTOM
 62
     3
100
AcDbLine
 10
113.4228048497998
 20
168.6954887218
 30
0.0
 11
97.37440397089995
 21
168.6954887218
 31
0.0
  0
LINE
  5
11D
330
2
100
AcDbEntity
  8
0
 62
     3
100
AcDbLine
 10
106.6244039708999
 20
165.1954887217998
 30
0.0
 11
97.37440397089995
 21
165.1954887217998
 31
0.0
  0
LINE
  5
11E
330
2
100
AcDbEntity
  8
0
 62
     3
100
AcDbLine
 10
97.37440397089995
 20
168.6954887218
 30
0.0
 11
97.37440397089995
 21
165.1954887217998
 31
0.0
  0
ARC
  5
11F
330
2
100
AcDbEntity
  8
0
 62
     3
100
AcDbCircle
 10
81.62440397089998
 20
166.1954887217999
 30
0.0
 40
13.5
100
AcDbArc
 50
13.0000015001
 51
41.31230015709999
  0
LINE
  5
120
330
2
100
AcDbEntity
  8
0
 62
     3
100
AcDbLine
 10
94.7784293325
 20
169.2323230312999
 30
0.0
 11
94.78693158619998
 21
169.1954957204998
 31
0.0
  0
ARC
  5
121
330
2
100
AcDbEntity
  8
0
 62
     3
100
AcDbCircle
 10
91.61433317009999
 20
174.9756706065999
 30
0.0
 40
0.1999999881
100
AcDbArc
 50
41.31230015709999
 51
119.2651569468997
  0
ARC
  5
122
330
2
100
AcDbEntity
  8
0
 62
     3
100
AcDbCircle
 10
96.87440397089998
 20
168.6954887218
 30
0.0
 40
0.5
100
AcDbArc
 50
0.0
 51
89.99998201389999
  0
CIRCLE
  5
123
330
2
100
AcDbEntity
  8
0
 62
     3
100
AcDbCircle
 10
102.7243948155998
 20
155.6954887217998
 30
0.0
 40
1.1999998093
  0
CIRCLE
  5
124
330
2
100
AcDbEntity
  8
0
 62
     3
100
AcDbCircle
 10
102.7243948155998
 20
155.6954887217998
 30
0.0
 40
2.0499992371
  0
LINE
  5
125
330
2
100
AcDbEntity
  8
0
 62
     3
100
AcDbLine
 10
107.6244039708999
 20
155.8608939952
 30
0.0
 11
107.6244039708999
 21
151.7091148204
 31
0.0
  0
LINE
  5
126
330
2
100
AcDbEntity
  8
0
 62
     3
100
AcDbLine
 10
106.6244039708999
 20
164.1954887217998
 30
0.0
 11
106.6244039708999
 21
151.9954917736
 31
0.0
  0
ARC
  5
127
330
2
100
AcDbEntity
  8
0
 62
     3
100
AcDbCircle
 10
106.6244039708999
 20
150.9954917736
 30
0.0
 40
1.0
100
AcDbArc
 50
0.0
 51
89.99998201389999
  0
LINE
  5
128
330
2
100
AcDbEntity
  8
0
 62
     3
100
AcDbLine
 10
107.6244039708999
 20
164.1954887217998
 30
0.0
 11
107.6244039708999
 21
156.3955009288
 31
0.0
  0
ARC
  5
129
330
2
100
AcDbEntity
  8
0
 62
     3
100
AcDbCircle
 10
107.4244070225999
 20
156.3955009288
 30
0.0
 40
0.1999999881
100
AcDbArc
 50
270.0000179861
 51
0.0
  0
LINE
  5
12A
330
2
100
AcDbEntity
  8
0
 62
     3
100
AcDbLine
 10
107.4244070225999
 20
156.1954887218
 30
0.0
 11
106.6244039708999
 21
156.1954887218
 31
0.0
  0
ARC
  5
12B
330
2
100
AcDbEntity
  8
0
 62
     3
100
AcDbCircle
 10
107.4244070225999
 20
161.9954917736
 30
0.0
 40
0.1999999881
100
AcDbArc
 50
0.0
 51
89.99998201389999
  0
ARC
  5
12C
330
2
100
AcDbEntity
  8
0
 62
     3
100
AcDbCircle
 10
106.6244039708999
 20
164.1954887217998
 30
0.0
 40
1.0
100
AcDbArc
 50
0.0
 51
89.99998201389999
  0
LINE
  5
12D
330
2
100
AcDbEntity
  8
0
 62
     3
100
AcDbLine
 10
106.6244039708999
 20
162.1954887217999
 30
0.0
 11
107.4244070225999
 21
162.1954887217999
 31
0.0
  0
ARC
  5
12E
330
2
100
AcDbEntity
  8
0
 62
     3
100
AcDbCircle
 10
105.6244039708999
 20
164.1954887217998
 30
0.0
 40
1.0
100
AcDbArc
 50
0.0
 51
89.99998201389999
  0
ARC
  5
12F
330
2
100
AcDbEntity
  8
0
  6
PHANTOM
 62
     3
100
AcDbCircle
 10
103.8743887120999
 20
168.89548567
 30
0.0
 40
1.5
100
AcDbArc
 50
0.0
 51
89.99992737239997
  0
LINE
  5
130
330
2
100
AcDbEntity
  8
0
  6
PHANTOM
 62
     3
100
AcDbLine
 10
101.5744009190999
 20
170.39548567
 30
0.0
 11
103.8743887120999
 21
170.39548567
 31
0.0
  0
ARC
  5
131
330
2
100
AcDbEntity
  8
0
  6
PHANTOM
 62
     3
100
AcDbCircle
 10
101.5744009190999
 20
168.89548567
 30
0.0
 40
1.5
100
AcDbArc
 50
89.99992737239997
 51
180.0000186692997
  0
LINE
  5
132
330
2
100
AcDbEntity
  8
0
  6
PHANTOM
 62
     3
100
AcDbLine
 10
100.0744009190997
 20
168.89548567
 30
0.0
 11
100.0744009190997
 21
168.6954887218
 31
0.0
  0
LINE
  5
133
330
2
100
AcDbEntity
  8
0
  6
PHANTOM
 62
     3
100
AcDbLine
 10
105.3743887120999
 20
168.89548567
 30
0.0
 11
105.3743887120999
 21
168.6954887218
 31
0.0
  0
LINE
  5
134
330
2
100
AcDbEntity
  8
0
 62
     3
100
AcDbLine
 10
100.5243978673999
 20
213.6954887217998
 30
0.0
 11
95.17440702259998
 21
213.6954887217998
 31
0.0
  0
LINE
  5
135
330
2
100
AcDbEntity
  8
0
 62
     3
100
AcDbLine
 10
95.17440702259998
 20
218.8955009288
 30
0.0
 11
95.17440702259998
 21
208.4954765148
 31
0.0
  0
LINE
  5
136
330
2
100
AcDbEntity
  8
0
 62
     3
100
AcDbLine
 10
97.37440397089995
 20
222.6954887218
 30
0.0
 11
97.37440397089995
 21
204.6954887217999
 31
0.0
  0
LINE
  5
137
330
2
100
AcDbEntity
  8
0
 62
     3
100
AcDbLine
 10
91.65685941519994
 20
208.89548567
 30
0.0
 11
91.65685941519994
 21
218.4954917735999
 31
0.0
  0
LINE
  5
138
330
2
100
AcDbEntity
  8
0
 62
     3
100
AcDbLine
 10
90.85870267689998
 20
210.8454826183
 30
0.0
 11
88.35870267689998
 21
210.8454826183
 31
0.0
  0
LINE
  5
139
330
2
100
AcDbEntity
  8
0
 62
     3
100
AcDbLine
 10
90.85870267689998
 20
210.5454948253
 30
0.0
 11
88.35870267689998
 21
210.5454948253
 31
0.0
  0
LINE
  5
13A
330
2
100
AcDbEntity
  8
0
 62
     3
100
AcDbLine
 10
88.35870267689998
 20
210.5454948253
 30
0.0
 11
88.35870267689998
 21
210.8454826183
 31
0.0
  0
LINE
  5
13B
330
2
100
AcDbEntity
  8
0
 62
     3
100
AcDbLine
 10
90.85870267689998
 20
210.5454948253
 30
0.0
 11
90.85870267689998
 21
210.8454826183
 31
0.0
  0
ARC
  5
13C
330
2
100
AcDbEntity
  8
0
 62
     3
100
AcDbCircle
 10
91.456862467
 20
208.89548567
 30
0.0
 40
0.1999999881
100
AcDbArc
 50
270.0000179861
 51
0.0
  0
ARC
  5
13D
330
2
100
AcDbEntity
  8
0
 62
     3
100
AcDbCircle
 10
96.87440397089998
 20
204.6954887217999
 30
0.0
 40
0.5
100
AcDbArc
 50
270.0000179861
 51
0.0
  0
LINE
  5
13E
330
2
100
AcDbEntity
  8
0
 62
     3
100
AcDbLine
 10
95.12440397089998
 20
208.4954765148
 30
0.0
 11
95.12440397089998
 21
208.6954887217998
 31
0.0
  0
ARC
  5
13F
330
2
100
AcDbEntity
  8
0
 62
     3
100
AcDbCircle
 10
91.456862467
 20
218.4954917735999
 30
0.0
 40
0.1999999881
100
AcDbArc
 50
0.0
 51
89.99998201389999
  0
LINE
  5
140
330
2
100
AcDbEntity
  8
0
 62
     3
100
AcDbLine
 10
95.12440397089998
 20
218.8955009288
 30
0.0
 11
95.12440397089998
 21
218.6954887218
 31
0.0
  0
ARC
  5
141
330
2
100
AcDbEntity
  8
0
 62
     3
100
AcDbCircle
 10
96.87440397089998
 20
222.6954887218
 30
0.0
 40
0.5
100
AcDbArc
 50
0.0
 51
89.99998201389999
  0
CIRCLE
  5
142
330
2
100
AcDbEntity
  8
0
 62
     3
100
AcDbCircle
 10
102.7244405919997
 20
213.695549757
 30
0.0
 40
1.25
  0
CIRCLE
  5
143
330
2
100
AcDbEntity
  8
0
 62
     3
100
AcDbCircle
 10
102.7244405919997
 20
213.695549757
 30
0.0
 40
1.5
  0
LINE
  5
144
330
2
100
AcDbEntity
  8
0
  6
CENTER
 62
     3
100
AcDbLine
 10
102.7243948155998
 20
219.7454917736
 30
0.0
 11
102.7243948155998
 21
207.6454856699998
 31
0.0
  0
CIRCLE
  5
145
330
2
100
AcDbEntity
  8
0
 62
     3
100
AcDbCircle
 10
102.7243948155998
 20
213.6954887217998
 30
0.0
 40
2.199999809299999
  0
LINE
  5
146
330
2
100
AcDbEntity
  8
0
 62
     3
100
AcDbLine
 10
107.6244039708999
 20
204.39548567
 30
0.0
 11
107.6244039708999
 21
222.9954917736
 31
0.0
  0
LINE
  5
147
330
2
100
AcDbEntity
  8
0
 62
     3
100
AcDbLine
 10
106.6244039708999
 20
209.6954887217998
 30
0.0
 11
106.6244039708999
 21
204.39548567
 31
0.0
  0
ARC
  5
148
330
2
100
AcDbEntity
  8
0
 62
     3
100
AcDbCircle
 10
107.4244070225999
 20
204.39548567
 30
0.0
 40
0.1999999881
100
AcDbArc
 50
270.0000179861
 51
0.0
  0
ARC
  5
149
330
2
100
AcDbEntity
  8
0
 62
     3
100
AcDbCircle
 10
106.4244070225999
 20
204.39548567
 30
0.0
 40
0.1999999881
100
AcDbArc
 50
270.0000179861
 51
0.0
  0
ARC
  5
14A
330
2
100
AcDbEntity
  8
0
 62
     3
100
AcDbCircle
 10
107.4244070225999
 20
209.8954856699999
 30
0.0
 40
0.1999999881
100
AcDbArc
 50
270.0000179861
 51
0.0
  0
ARC
  5
14B
330
2
100
AcDbEntity
  8
0
 62
     3
100
AcDbCircle
 10
107.4244070225999
 20
208.89548567
 30
0.0
 40
0.1999999881
100
AcDbArc
 50
270.0000179861
 51
0.0
  0
LINE
  5
14C
330
2
100
AcDbEntity
  8
0
 62
     3
100
AcDbLine
 10
107.4244070225999
 20
208.6954887217998
 30
0.0
 11
106.6244039708999
 21
208.6954887217998
 31
0.0
  0
LINE
  5
14D
330
2
100
AcDbEntity
  8
0
 62
     3
100
AcDbLine
 10
107.4244070225999
 20
209.6954887217998
 30
0.0
 11
106.6244039708999
 21
209.6954887217998
 31
0.0
  0
LINE
  5
14E
330
2
100
AcDbEntity
  8
0
 62
     3
100
AcDbLine
 10
107.6244039708999
 20
213.6954887217998
 30
0.0
 11
104.9243917637999
 21
213.6954887217998
 31
0.0
  0
LINE
  5
14F
330
2
100
AcDbEntity
  8
0
 62
     3
100
AcDbLine
 10
103.9744405919999
 20
213.6954887217998
 30
0.0
 11
101.4744405919999
 21
213.6954887217998
 31
0.0
  0
LINE
  5
150
330
2
100
AcDbEntity
  8
0
 62
     3
100
AcDbLine
 10
106.6244039708999
 20
217.6954887217998
 30
0.0
 11
106.6244039708999
 21
222.9954917736
 31
0.0
  0
ARC
  5
151
330
2
100
AcDbEntity
  8
0
 62
     3
100
AcDbCircle
 10
107.4244070225999
 20
217.4954917736
 30
0.0
 40
0.1999999881
100
AcDbArc
 50
0.0
 51
89.99998201389999
  0
ARC
  5
152
330
2
100
AcDbEntity
  8
0
 62
     3
100
AcDbCircle
 10
107.4244070225999
 20
218.4954917735999
 30
0.0
 40
0.1999999881
100
AcDbArc
 50
0.0
 51
89.99998201389999
  0
LINE
  5
153
330
2
100
AcDbEntity
  8
0
 62
     3
100
AcDbLine
 10
106.6244039708999
 20
218.6954887218
 30
0.0
 11
107.4244070225999
 21
218.6954887218
 31
0.0
  0
LINE
  5
154
330
2
100
AcDbEntity
  8
0
 62
     3
100
AcDbLine
 10
106.6244039708999
 20
217.6954887217998
 30
0.0
 11
107.4244070225999
 21
217.6954887217998
 31
0.0
  0
ARC
  5
155
330
2
100
AcDbEntity
  8
0
 62
     3
100
AcDbCircle
 10
107.4244070225999
 20
222.9954917736
 30
0.0
 40
0.1999999881
100
AcDbArc
 50
0.0
 51
89.99998201389999
  0
ARC
  5
156
330
2
100
AcDbEntity
  8
0
 62
     3
100
AcDbCircle
 10
106.4244070225999
 20
222.9954917736
 30
0.0
 40
0.1999999881
100
AcDbArc
 50
0.0
 51
89.99998201389999
  0
LINE
  5
157
330
2
100
AcDbEntity
  8
0
 62
     3
100
AcDbLine
 10
113.4921101661999
 20
166.8186694261999
 30
0.0
 11
113.5390920811999
 21
167.0525749033999
 31
0.0
  0
LINE
  5
158
330
2
100
AcDbEntity
  8
0
 62
     3
100
AcDbLine
 10
113.4380331212999
 20
163.9704521006999
 30
0.0
 11
113.3678117240999
 21
164.1148570025
 31
0.0
  0
LINE
  5
159
330
2
100
AcDbEntity
  8
0
 62
     3
100
AcDbLine
 10
113.3530115785999
 20
166.354980105
 30
0.0
 11
113.4276378275
 21
166.5863114762999
 31
0.0
  0
LINE
  5
15A
330
2
100
AcDbEntity
  8
0
 62
     3
100
AcDbLine
 10
113.3019700919999
 20
164.2631253737
 30
0.0
 11
113.2420341943999
 21
164.4145718617
 31
0.0
  0
LINE
  5
15B
330
2
100
AcDbEntity
  8
0
 62
     3
100
AcDbLine
 10
113.2420341943999
 20
164.4145718617
 30
0.0
 11
113.1895300005999
 21
164.5685111143
 31
0.0
  0
LINE
  5
15C
330
2
100
AcDbEntity
  8
0
 62
     3
100
AcDbLine
 10
113.1895300005999
 20
164.5685111143
 30
0.0
 11
113.1459834798999
 21
164.7242577789999
 31
0.0
  0
LINE
  5
15D
330
2
100
AcDbEntity
  8
0
 62
     3
100
AcDbLine
 10
113.1459834798999
 20
164.7242577789999
 30
0.0
 11
113.1129206016
 21
164.8811265034
 31
0.0
  0
LINE
  5
15E
330
2
100
AcDbEntity
  8
0
 62
     3
100
AcDbLine
 10
113.1129206016
 20
164.8811265034
 30
0.0
 11
113.0918673350999
 21
165.0384319351998
 31
0.0
  0
LINE
  5
15F
330
2
100
AcDbEntity
  8
0
 62
     3
100
AcDbLine
 10
113.0918673350999
 20
165.0384319351998
 30
0.0
 11
113.0843496495999
 21
165.1954887217998
 31
0.0
  0
LINE
  5
160
330
2
100
AcDbEntity
  8
0
 62
     3
100
AcDbLine
 10
113.0843496495999
 20
165.1954887217998
 30
0.0
 11
113.0996977486999
 21
165.4295014312
 31
0.0
  0
LINE
  5
161
330
2
100
AcDbEntity
  8
0
 62
     3
100
AcDbLine
 10
113.0996977486999
 20
165.4295014312
 30
0.0
 11
113.1415745044999
 21
165.6619359755
 31
0.0
  0
LINE
  5
162
330
2
100
AcDbEntity
  8
0
 62
     3
100
AcDbLine
 10
113.1415745044999
 20
165.6619359755
 30
0.0
 11
113.2026434036999
 21
165.8933133034
 31
0.0
  0
LINE
  5
163
330
2
100
AcDbEntity
  8
0
 62
     3
100
AcDbLine
 10
113.2026434036999
 20
165.8933133034
 30
0.0
 11
113.2755679328999
 21
166.1241543636
 31
0.0
  0
LINE
  5
164
330
2
100
AcDbEntity
  8
0
 62
     3
100
AcDbLine
 10
113.3678117240999
 20
164.1148570025
 30
0.0
 11
113.3019700919999
 21
164.2631253737
 31
0.0
  0
LINE
  5
165
330
2
100
AcDbEntity
  8
0
 62
     3
100
AcDbLine
 10
113.2755679328999
 20
166.1241543636
 30
0.0
 11
113.3530115785999
 21
166.354980105
 31
0.0
  0
LINE
  5
166
330
2
100
AcDbEntity
  8
0
 62
     3
100
AcDbLine
 10
113.4276378275
 20
166.5863114762999
 30
0.0
 11
113.4921101661999
 21
166.8186694261999
 31
0.0
  0
LINE
  5
167
330
2
100
AcDbEntity
  8
0
 62
     3
100
AcDbLine
 10
113.5390920811999
 20
167.0525749033999
 30
0.0
 11
113.5611544884999
 21
167.2556046089
 31
0.0
  0
LINE
  5
168
330
2
100
AcDbEntity
  8
0
 62
     3
100
AcDbLine
 10
113.5611544884999
 20
167.2556046089
 30
0.0
 11
113.5674485819999
 21
167.4598793971999
 31
0.0
  0
LINE
  5
169
330
2
100
AcDbEntity
  8
0
 62
     3
100
AcDbLine
 10
113.5674485819999
 20
167.4598793971999
 30
0.0
 11
113.5606301884999
 21
167.6651102302999
 31
0.0
  0
LINE
  5
16A
330
2
100
AcDbEntity
  8
0
 62
     3
100
AcDbLine
 10
113.5606301884999
 20
167.6651102302999
 30
0.0
 11
113.5433551345999
 21
167.8710080695
 31
0.0
  0
LINE
  5
16B
330
2
100
AcDbEntity
  8
0
 62
     3
100
AcDbLine
 10
113.5433551345999
 20
167.8710080695
 30
0.0
 11
113.5182792469999
 21
168.0772838767
 31
0.0
  0
LINE
  5
16C
330
2
100
AcDbEntity
  8
0
 62
     3
100
AcDbLine
 10
113.5182792469999
 20
168.0772838767
 30
0.0
 11
113.4880583525999
 21
168.2836486134
 31
0.0
  0
LINE
  5
16D
330
2
100
AcDbEntity
  8
0
 62
     3
100
AcDbLine
 10
113.4880583525999
 20
168.2836486134
 30
0.0
 11
113.4553482778999
 21
168.4898132411999
 31
0.0
  0
LINE
  5
16E
330
2
100
AcDbEntity
  8
0
 62
     3
100
AcDbLine
 10
113.4553482778999
 20
168.4898132411999
 30
0.0
 11
113.4228048497998
 21
168.6954887218
 31
0.0
  0
LINE
  5
16F
330
2
100
AcDbEntity
  8
0
 62
     3
100
AcDbLine
 10
113.4228048497998
 20
168.6954887218
 30
0.0
 11
113.3995419715999
 21
168.8512492091
 31
0.0
  0
LINE
  5
170
330
2
100
AcDbEntity
  8
0
 62
     3
100
AcDbLine
 10
113.3995419715999
 20
168.8512492091
 30
0.0
 11
113.3773555661999
 21
169.0066033731
 31
0.0
  0
LINE
  5
171
330
2
100
AcDbEntity
  8
0
 62
     3
100
AcDbLine
 10
113.3773555661999
 20
169.0066033731
 30
0.0
 11
113.3556936227999
 21
169.1615937891
 31
0.0
  0
LINE
  5
172
330
2
100
AcDbEntity
  8
0
 62
     3
100
AcDbLine
 10
113.3556936227999
 20
169.1615937891
 30
0.0
 11
113.3340041305998
 21
169.3162630324
 31
0.0
  0
LINE
  5
173
330
2
100
AcDbEntity
  8
0
 62
     3
100
AcDbLine
 10
113.3117350789998
 20
169.4706536783999
 30
0.0
 11
113.2883344572998
 21
169.6248083025
 31
0.0
  0
LINE
  5
174
330
2
100
AcDbEntity
  8
0
 62
     3
100
AcDbLine
 10
113.2883344572998
 20
169.6248083025
 30
0.0
 11
113.2632502544999
 21
169.7787694799997
 31
0.0
  0
LINE
  5
175
330
2
100
AcDbEntity
  8
0
 62
     3
100
AcDbLine
 10
113.2632502544999
 20
169.7787694799997
 30
0.0
 11
113.2359304600999
 21
169.9325797862999
 31
0.0
  0
LINE
  5
176
330
2
100
AcDbEntity
  8
0
 62
     3
100
AcDbLine
 10
113.3340041305998
 20
169.3162630324
 30
0.0
 11
113.3117350789998
 21
169.4706536783999
 31
0.0
  0
TEXT
  5
18C
330
2
100
AcDbEntity
  8
0
 62
     7
100
AcDbText
 10
146.0
 20
110.0000029552498
 30
0.0
 40
2.999994089499998
  1
NRAR1100F
 11
146.0
 21
111.4999999999999
 31
0.0
100
AcDbText
 73
     2
  0
TEXT
  5
18D
330
2
100
AcDbEntity
  8
0
 62
     7
100
AcDbText
 10
146.0
 20
115.0000029552499
 30
0.0
 40
2.999994089499998
  1
NRAR1100
 11
146.0
 21
116.5
 31
0.0
100
AcDbText
 73
     2
  0
ENDSEC
  0
SECTION
  2
OBJECTS
  0
DICTIONARY
  5
7
330
0
100
AcDbDictionary
281
     1
  3
ACAD_GROUP
350
1F
  3
ACAD_LAYOUT
350
B
  3
ACAD_MLINESTYLE
350
20
  3
ACAD_PLOTSETTINGS
350
21
  3
ACAD_PLOTSTYLENAME
350
6
  3
AcDbVariableDictionary
350
18E
  0
DICTIONARY
  5
1F
102
{ACAD_REACTORS
330
7
102
}
330
7
100
AcDbDictionary
281
     1
  0
DICTIONARY
  5
B
102
{ACAD_REACTORS
330
7
102
}
330
7
100
AcDbDictionary
281
     1
  3
Model
350
A
  3
ﾚｲｱｳﾄ1
350
F
  0
DICTIONARY
  5
20
102
{ACAD_REACTORS
330
7
102
}
330
7
100
AcDbDictionary
281
     1
  3
Standard
350
22
  0
DICTIONARY
  5
21
102
{ACAD_REACTORS
330
7
102
}
330
7
100
AcDbDictionary
281
     1
  0
ACDBDICTIONARYWDFLT
  5
6
102
{ACAD_REACTORS
330
7
102
}
330
7
100
AcDbDictionary
281
     1
  3
Normal
350
5
100
AcDbDictionaryWithDefault
340
5
  0
DICTIONARY
  5
18E
102
{ACAD_REACTORS
330
7
102
}
330
7
100
AcDbDictionary
281
     1
  3
DIMASSOC
350
18F
  0
LAYOUT
  5
A
102
{ACAD_REACTORS
330
B
102
}
330
B
100
AcDbPlotSettings
  1

  2
C:\Program Files\AutoCAD 2000i\plotters\DWF Classic.pc3
  4

  6

 40
0.0
 41
0.0
 42
0.0
 43
0.0
 44
0.0
 45
0.0
 46
0.0
 47
0.0
 48
0.0
 49
0.0
140
0.0
141
0.0
142
1.0
143
1.0
 70
  1712
 72
     0
 73
     0
 74
     0
  7

 75
     0
147
1.0
148
0.0
149
0.0
100
AcDbLayout
  1
Model
 70
     1
 71
     0
 10
0.0
 20
0.0
 11
12.0
 21
9.0
 12
0.0
 22
0.0
 32
0.0
 14
0.0
 24
0.0
 34
0.0
 15
0.0
 25
0.0
 35
0.0
146
0.0
 13
0.0
 23
0.0
 33
0.0
 16
1.0
 26
0.0
 36
0.0
 17
0.0
 27
1.0
 37
0.0
 76
     0
330
2
  0
LAYOUT
  5
F
102
{ACAD_REACTORS
330
B
102
}
330
B
100
AcDbPlotSettings
  1

  2
C:\Program Files\AutoCAD 2000i\plotters\DWF Classic.pc3
  4

  6

 40
0.0
 41
0.0
 42
0.0
 43
0.0
 44
0.0
 45
0.0
 46
0.0
 47
0.0
 48
0.0
 49
0.0
140
0.0
141
0.0
142
1.0
143
1.0
 70
   688
 72
     0
 73
     0
 74
     5
  7

 75
    16
147
1.0
148
0.0
149
0.0
100
AcDbLayout
  1
ﾚｲｱｳﾄ1
 70
     1
 71
     1
 10
0.0
 20
0.0
 11
12.0
 21
9.0
 12
0.0
 22
0.0
 32
0.0
 14
1.000000000000000E+20
 24
1.000000000000000E+20
 34
1.000000000000000E+20
 15
-1.000000000000000E+20
 25
-1.000000000000000E+20
 35
-1.000000000000000E+20
146
0.0
 13
0.0
 23
0.0
 33
0.0
 16
1.0
 26
0.0
 36
0.0
 17
0.0
 27
1.0
 37
0.0
 76
     0
330
C
  0
MLINESTYLE
  5
22
102
{ACAD_REACTORS
330
20
102
}
330
20
100
AcDbMlineStyle
  2
STANDARD
 70
     0
  3

 62
   256
 51
90.0
 52
90.0
 71
     2
 49
0.5
 62
   256
  6
BYLAYER
 49
-0.5
 62
   256
  6
BYLAYER
  0
ACDBPLACEHOLDER
  5
5
102
{ACAD_REACTORS
330
6
102
}
330
6
  0
DICTIONARYVAR
  5
18F
102
{ACAD_REACTORS
330
18E
102
}
330
18E
100
DictionaryVariables
280
     0
  1
1
  0
ENDSEC
  0
EOF
