  0
SECTION
  2
HEADER
  9
$ACADVER
  1
AC1015
  9
$ACADMAINTVER
 70
    13
  9
$DWGCODEPAGE
  3
ANSI_932
  9
$INSBASE
 10
0.0
 20
0.0
 30
0.0
  9
$EXTMIN
 10
-0.0090237753238398
 20
-0.0006514316216908
 30
-0.0000000349181948
  9
$EXTMAX
 10
210.0133834529537
 20
297.0047102019159
 30
0.0000000814935747
  9
$LIMMIN
 10
-186.8550842284999
 20
-3.174999999999998
  9
$LIMMAX
 10
3.174999999999998
 20
291.2585876465
  9
$ORTHOMODE
 70
     0
  9
$REGENMODE
 70
     1
  9
$FILLMODE
 70
     1
  9
$QTEXTMODE
 70
     0
  9
$MIRRTEXT
 70
     0
  9
$LTSCALE
 40
1.0
  9
$ATTMODE
 70
     1
  9
$TEXTSIZE
 40
2.999994039499997
  9
$TRACEWID
 40
0.05
  9
$TEXTSTYLE
  7
STANDARD
  9
$CLAYER
  8
0
  9
$CELTYPE
  6
ByLayer
  9
$CECOLOR
 62
   256
  9
$CELTSCALE
 40
1.0
  9
$DISPSILH
 70
     0
  9
$DIMSCALE
 40
1.0
  9
$DIMASZ
 40
1.9727878465
  9
$DIMEXO
 40
2.539999961899999
  9
$DIMDLI
 40
0.38
  9
$DIMRND
 40
0.0
  9
$DIMDLE
 40
0.0
  9
$DIMEXE
 40
3.809999942799997
  9
$DIMTP
 40
0.0
  9
$DIMTM
 40
0.0
  9
$DIMTXT
 40
2.999994039499997
  9
$DIMCEN
 40
0.09
  9
$DIMTSZ
 40
0.0
  9
$DIMTOL
 70
     0
  9
$DIMLIM
 70
     0
  9
$DIMTIH
 70
     0
  9
$DIMTOH
 70
     1
  9
$DIMSE1
 70
     0
  9
$DIMSE2
 70
     0
  9
$DIMTAD
 70
     0
  9
$DIMZIN
 70
     0
  9
$DIMBLK
  1

  9
$DIMASO
 70
     1
  9
$DIMSHO
 70
     0
  9
$DIMPOST
  1

  9
$DIMAPOST
  1

  9
$DIMALT
 70
     0
  9
$DIMALTD
 70
     2
  9
$DIMALTF
 40
25.4
  9
$DIMLFAC
 40
1.0
  9
$DIMTOFL
 70
     0
  9
$DIMTVP
 40
0.0
  9
$DIMTIX
 70
     0
  9
$DIMSOXD
 70
     0
  9
$DIMSAH
 70
     0
  9
$DIMBLK1
  1

  9
$DIMBLK2
  1

  9
$DIMSTYLE
  2
Standard
  9
$DIMCLRD
 70
     0
  9
$DIMCLRE
 70
     0
  9
$DIMCLRT
 70
     0
  9
$DIMTFAC
 40
1.0
  9
$DIMGAP
 40
0.09
  9
$DIMJUST
 70
     0
  9
$DIMSD1
 70
     0
  9
$DIMSD2
 70
     0
  9
$DIMTOLJ
 70
     1
  9
$DIMTZIN
 70
     0
  9
$DIMALTZ
 70
     0
  9
$DIMALTTZ
 70
     0
  9
$DIMUPT
 70
     0
  9
$DIMDEC
 70
     4
  9
$DIMTDEC
 70
     4
  9
$DIMALTU
 70
     2
  9
$DIMALTTD
 70
     2
  9
$DIMTXSTY
  7
STANDARD
  9
$DIMAUNIT
 70
     0
  9
$DIMADEC
 70
     0
  9
$DIMALTRND
 40
0.0
  9
$DIMAZIN
 70
     0
  9
$DIMDSEP
 70
    46
  9
$DIMATFIT
 70
     3
  9
$DIMFRAC
 70
     0
  9
$DIMLDRBLK
  1

  9
$DIMLUNIT
 70
     2
  9
$DIMLWD
 70
    -2
  9
$DIMLWE
 70
    -2
  9
$DIMTMOVE
 70
     0
  9
$LUNITS
 70
     2
  9
$LUPREC
 70
     3
  9
$SKETCHINC
 40
0.1
  9
$FILLETRAD
 40
0.0625
  9
$AUNITS
 70
     0
  9
$AUPREC
 70
     0
  9
$MENU
  1
ACAD
  9
$ELEVATION
 40
0.0
  9
$PELEVATION
 40
0.0
  9
$THICKNESS
 40
0.0
  9
$LIMCHECK
 70
     0
  9
$CHAMFERA
 40
0.0
  9
$CHAMFERB
 40
0.0
  9
$CHAMFERC
 40
0.0
  9
$CHAMFERD
 40
0.0
  9
$SKPOLY
 70
     0
  9
$TDCREATE
 40
2452527.735208333
  9
$TDUCREATE
 40
2452527.360208333
  9
$TDUPDATE
 40
2453339.682520254
  9
$TDUUPDATE
 40
2453339.307520254
  9
$TDINDWG
 40
0.0025159028
  9
$TDUSRTIMER
 40
0.0025157292
  9
$USRTIMER
 70
     1
  9
$ANGBASE
 50
0.0
  9
$ANGDIR
 70
     0
  9
$PDMODE
 70
     0
  9
$PDSIZE
 40
0.0
  9
$PLINEWID
 40
0.0
  9
$SPLFRAME
 70
     0
  9
$SPLINETYPE
 70
     6
  9
$SPLINESEGS
 70
     8
  9
$HANDSEED
  5
3B3
  9
$SURFTAB1
 70
     6
  9
$SURFTAB2
 70
     6
  9
$SURFTYPE
 70
     6
  9
$SURFU
 70
     6
  9
$SURFV
 70
     6
  9
$UCSBASE
  2

  9
$UCSNAME
  2

  9
$UCSORG
 10
0.0
 20
0.0
 30
0.0
  9
$UCSXDIR
 10
1.0
 20
0.0
 30
0.0
  9
$UCSYDIR
 10
0.0
 20
1.0
 30
0.0
  9
$UCSORTHOREF
  2

  9
$UCSORTHOVIEW
 70
     0
  9
$UCSORGTOP
 10
0.0
 20
0.0
 30
0.0
  9
$UCSORGBOTTOM
 10
0.0
 20
0.0
 30
0.0
  9
$UCSORGLEFT
 10
0.0
 20
0.0
 30
0.0
  9
$UCSORGRIGHT
 10
0.0
 20
0.0
 30
0.0
  9
$UCSORGFRONT
 10
0.0
 20
0.0
 30
0.0
  9
$UCSORGBACK
 10
0.0
 20
0.0
 30
0.0
  9
$PUCSBASE
  2

  9
$PUCSNAME
  2

  9
$PUCSORG
 10
0.0
 20
0.0
 30
0.0
  9
$PUCSXDIR
 10
1.0
 20
0.0
 30
0.0
  9
$PUCSYDIR
 10
0.0
 20
1.0
 30
0.0
  9
$PUCSORTHOREF
  2

  9
$PUCSORTHOVIEW
 70
     0
  9
$PUCSORGTOP
 10
0.0
 20
0.0
 30
0.0
  9
$PUCSORGBOTTOM
 10
0.0
 20
0.0
 30
0.0
  9
$PUCSORGLEFT
 10
0.0
 20
0.0
 30
0.0
  9
$PUCSORGRIGHT
 10
0.0
 20
0.0
 30
0.0
  9
$PUCSORGFRONT
 10
0.0
 20
0.0
 30
0.0
  9
$PUCSORGBACK
 10
0.0
 20
0.0
 30
0.0
  9
$USERI1
 70
     8
  9
$USERI2
 70
     0
  9
$USERI3
 70
     0
  9
$USERI4
 70
     0
  9
$USERI5
 70
     0
  9
$USERR1
 40
0.0
  9
$USERR2
 40
0.0
  9
$USERR3
 40
0.0
  9
$USERR4
 40
0.0
  9
$USERR5
 40
0.0
  9
$WORLDVIEW
 70
     1
  9
$SHADEDGE
 70
     3
  9
$SHADEDIF
 70
    70
  9
$TILEMODE
 70
     1
  9
$MAXACTVP
 70
    64
  9
$PINSBASE
 10
0.0
 20
0.0
 30
0.0
  9
$PLIMCHECK
 70
     0
  9
$PEXTMIN
 10
1.000000000000000E+20
 20
1.000000000000000E+20
 30
1.000000000000000E+20
  9
$PEXTMAX
 10
-1.000000000000000E+20
 20
-1.000000000000000E+20
 30
-1.000000000000000E+20
  9
$PLIMMIN
 10
0.0
 20
0.0
  9
$PLIMMAX
 10
12.0
 20
9.0
  9
$UNITMODE
 70
     0
  9
$VISRETAIN
 70
     1
  9
$PLINEGEN
 70
     0
  9
$PSLTSCALE
 70
     1
  9
$TREEDEPTH
 70
  3020
  9
$CMLSTYLE
  2
Standard
  9
$CMLJUST
 70
     0
  9
$CMLSCALE
 40
1.0
  9
$PROXYGRAPHICS
 70
     1
  9
$MEASUREMENT
 70
     0
  9
$CELWEIGHT
370
    -1
  9
$ENDCAPS
280
     0
  9
$JOINSTYLE
280
     0
  9
$LWDISPLAY
290
     0
  9
$INSUNITS
 70
     0
  9
$HYPERLINKBASE
  1

  9
$STYLESHEET
  1

  9
$XEDIT
290
     1
  9
$CEPSNTYPE
380
     0
  9
$PSTYLEMODE
290
     1
  9
$FINGERPRINTGUID
  2
{C439A875-8AF0-4E6A-89F9-656337C4AD74}
  9
$VERSIONGUID
  2
{3B30CD6E-9C58-4202-BF00-368AF3EB486D}
  9
$EXTNAMES
290
     1
  9
$PSVPSCALE
 40
0.0
  9
$OLESTARTUP
290
     0
  0
ENDSEC
  0
SECTION
  2
CLASSES
  0
CLASS
  1
ACDBDICTIONARYWDFLT
  2
AcDbDictionaryWithDefault
  3
AutoCAD 2000
 90
        0
280
     0
281
     0
  0
CLASS
  1
ACDBPLACEHOLDER
  2
AcDbPlaceHolder
  3
AutoCAD 2000
 90
        0
280
     0
281
     0
  0
CLASS
  1
LAYOUT
  2
AcDbLayout
  3
AutoCAD 2000
 90
        0
280
     0
281
     0
  0
CLASS
  1
DICTIONARYVAR
  2
AcDbDictionaryVar
  3
AutoCAD 2000
 90
        0
280
     0
281
     0
  0
ENDSEC
  0
SECTION
  2
TABLES
  0
TABLE
  2
VPORT
  5
19
330
0
100
AcDbSymbolTable
 70
     2
  0
VPORT
  5
3B2
330
19
100
AcDbSymbolTableRecord
100
AcDbViewportTableRecord
  2
*Active
 70
     0
 10
0.0
 20
0.0
 11
1.0
 21
1.0
 12
105.0021798388149
 22
148.5020293851471
 13
0.0
 23
0.0
 14
1.0
 24
1.0
 15
0.0
 25
0.0
 16
0.0
 26
0.0
 36
1.0
 17
0.0
 27
0.0
 37
0.0
 40
301.3412063289178
 41
2.407317073170731
 42
50.0
 43
0.0
 44
0.0
 50
0.0
 51
0.0
 71
     0
 72
   100
 73
     1
 74
     1
 75
     0
 76
     0
 77
     0
 78
     0
281
     0
 65
     1
110
0.0
120
0.0
130
0.0
111
1.0
121
0.0
131
0.0
112
0.0
122
1.0
132
0.0
 79
     0
146
0.0
  0
ENDTAB
  0
TABLE
  2
LTYPE
  5
14
330
0
100
AcDbSymbolTable
 70
     3
  0
LTYPE
  5
15
330
14
100
AcDbSymbolTableRecord
100
AcDbLinetypeTableRecord
  2
ByBlock
 70
     0
  3

 72
    65
 73
     0
 40
0.0
  0
LTYPE
  5
16
330
14
100
AcDbSymbolTableRecord
100
AcDbLinetypeTableRecord
  2
ByLayer
 70
     0
  3

 72
    65
 73
     0
 40
0.0
  0
LTYPE
  5
8
330
14
100
AcDbSymbolTableRecord
100
AcDbLinetypeTableRecord
  2
Continuous
 70
     0
  3
Solid line
 72
    65
 73
     0
 40
0.0
  0
LTYPE
  5
2F
330
14
100
AcDbSymbolTableRecord
100
AcDbLinetypeTableRecord
  2
CENTER
 70
     0
  3
Center
 72
    65
 73
     4
 40
9.100006759199999
 49
6.5000119209
 74
     0
 49
-0.7999984026000001
 74
     0
 49
0.9999980329999999
 74
     0
 49
-0.7999984026000001
 74
     0
  0
LTYPE
  5
188
330
14
100
AcDbSymbolTableRecord
100
AcDbLinetypeTableRecord
  2
PHANTOM
 70
     0
  3
Phantom
 72
    65
 73
     6
 40
9.499981462999999
 49
4.799990654
 74
     0
 49
-0.8999982475999999
 74
     0
 49
0.9999980329999999
 74
     0
 49
-0.8999982475999999
 74
     0
 49
0.9999980329999999
 74
     0
 49
-0.8999982475999999
 74
     0
  0
ENDTAB
  0
TABLE
  2
LAYER
  5
10
330
0
100
AcDbSymbolTable
 70
     1
  0
LAYER
  5
4
330
10
100
AcDbSymbolTableRecord
100
AcDbLayerTableRecord
  2
0
 70
     0
 62
     7
  6
Continuous
370
    -3
390
5
  0
ENDTAB
  0
TABLE
  2
STYLE
  5
11
330
0
100
AcDbSymbolTable
 70
     1
  0
STYLE
  5
12
330
11
100
AcDbSymbolTableRecord
100
AcDbTextStyleTableRecord
  2
STANDARD
 70
     0
 40
0.0
 41
1.0
 50
0.0
 71
     0
 42
2.999994039499997
  3
romans.shx
  4
bigfont.shx
  0
ENDTAB
  0
TABLE
  2
VIEW
  5
17
330
0
100
AcDbSymbolTable
 70
     0
  0
ENDTAB
  0
TABLE
  2
UCS
  5
18
330
0
100
AcDbSymbolTable
 70
     0
  0
ENDTAB
  0
TABLE
  2
APPID
  5
1B
330
0
100
AcDbSymbolTable
 70
     1
  0
APPID
  5
1C
330
1B
100
AcDbSymbolTableRecord
100
AcDbRegAppTableRecord
  2
ACAD
 70
     0
  0
ENDTAB
  0
TABLE
  2
DIMSTYLE
  5
1D
330
0
100
AcDbSymbolTable
 70
     1
100
AcDbDimStyleTable
 71
     0
  0
DIMSTYLE
105
23
330
1D
100
AcDbSymbolTableRecord
100
AcDbDimStyleTableRecord
  2
Standard
 70
     0
340
12
  0
ENDTAB
  0
TABLE
  2
BLOCK_RECORD
  5
1
330
0
100
AcDbSymbolTable
 70
     1
  0
BLOCK_RECORD
  5
2
330
1
100
AcDbSymbolTableRecord
100
AcDbBlockTableRecord
  2
*Model_Space
340
A
  0
BLOCK_RECORD
  5
C
330
1
100
AcDbSymbolTableRecord
100
AcDbBlockTableRecord
  2
*Paper_Space
340
F
  0
ENDTAB
  0
ENDSEC
  0
SECTION
  2
BLOCKS
  0
BLOCK
  5
3
330
2
100
AcDbEntity
  8
0
100
AcDbBlockBegin
  2
*Model_Space
 70
     2
 10
0.0
 20
0.0
 30
0.0
  3
*Model_Space
  1

  0
ENDBLK
  5
9
330
2
100
AcDbEntity
  8
0
100
AcDbBlockEnd
  0
BLOCK
  5
D
330
C
100
AcDbEntity
 67
     1
  8
0
100
AcDbBlockBegin
  2
*Paper_Space
 70
     0
 10
0.0
 20
0.0
 30
0.0
  3
*Paper_Space
  1

  0
ENDBLK
  5
E
330
C
100
AcDbEntity
 67
     1
  8
0
100
AcDbBlockEnd
  0
ENDSEC
  0
SECTION
  2
ENTITIES
  0
LINE
  5
24
330
2
100
AcDbEntity
  8
0
100
AcDbLine
 10
210.0
 20
0.0
 30
0.0
 11
210.0
 21
297.0
 31
0.0
  0
LINE
  5
25
330
2
100
AcDbEntity
  8
0
 62
     3
100
AcDbLine
 10
95.8316502299
 20
154.9321530021998
 30
0.0
 11
95.8316502299
 21
142.7321713127
 31
0.0
  0
ARC
  5
26
330
2
100
AcDbEntity
  8
0
 62
     3
100
AcDbCircle
 10
87.93165633339993
 20
143.432168261
 30
0.0
 40
2.0
100
AcDbArc
 50
0.0
 51
89.99998201389999
  0
LINE
  5
27
330
2
100
AcDbEntity
  8
0
 62
     3
100
AcDbLine
 10
45.83165022989997
 20
154.932168261
 30
0.0
 11
45.83165022989997
 21
142.7321713127
 31
0.0
  0
ARC
  5
28
330
2
100
AcDbEntity
  8
0
 62
     3
100
AcDbCircle
 10
53.73165938519997
 20
143.432168261
 30
0.0
 40
2.0
100
AcDbArc
 50
89.99998201389999
 51
179.9999640277999
  0
LINE
  5
29
330
2
100
AcDbEntity
  8
0
100
AcDbLine
 10
0.0
 20
297.0
 30
0.0
 11
0.0
 21
0.0
 31
0.0
  0
TEXT
  5
2A
330
2
100
AcDbEntity
  8
0
 62
     5
100
AcDbText
 10
145.0
 20
10.0
 30
0.0
 40
5.0
  1
ＭＡ４－Ｃ０００８６Ｂ
 41
0.8443967743953098
 72
     5
 11
199.0413935612998
 21
10.0
 31
0.0
100
AcDbText
  0
LINE
  5
2B
330
2
100
AcDbEntity
  8
0
100
AcDbLine
 10
0.0
 20
0.0
 30
0.0
 11
210.0
 21
0.0
 31
0.0
  0
CIRCLE
  5
2C
330
2
100
AcDbEntity
  8
0
 62
     3
100
AcDbCircle
 10
86.83165022989998
 20
117.4321530022
 30
0.0
 40
1.0999994278
  0
CIRCLE
  5
2D
330
2
100
AcDbEntity
  8
0
 62
     3
100
AcDbCircle
 10
86.83165022989998
 20
117.4321530022
 30
0.0
 40
0.6999999881
  0
LINE
  5
2E
330
2
100
AcDbEntity
  8
0
  6
CENTER
 62
     3
100
AcDbLine
 10
84.83165022989998
 20
117.4321530022
 30
0.0
 11
88.83165022989997
 21
117.4321530022
 31
0.0
  0
ARC
  5
30
330
2
100
AcDbEntity
  8
0
 62
     3
100
AcDbCircle
 10
85.42666670939999
 20
110.932168261
 30
0.0
 40
1.0
100
AcDbArc
 50
270.0000179861
 51
354.2894086084999
  0
ARC
  5
31
330
2
100
AcDbEntity
  8
0
 62
     3
100
AcDbCircle
 10
85.33168074749999
 20
83.2854092278
 30
0.0
 40
1.0
100
AcDbArc
 50
0.0
 51
89.99998201389999
  0
ARC
  5
32
330
2
100
AcDbEntity
  8
0
 62
     3
100
AcDbCircle
 10
85.83168074749998
 20
83.2854092278
 30
0.0
 40
1.0
100
AcDbArc
 50
0.0
 51
89.99998201389999
  0
ARC
  5
33
330
2
100
AcDbEntity
  8
0
 62
     3
100
AcDbCircle
 10
85.33168074749999
 20
70.2854092278
 30
0.0
 40
1.0
100
AcDbArc
 50
270.0000179861
 51
0.0
  0
ARC
  5
34
330
2
100
AcDbEntity
  8
0
 62
     3
100
AcDbCircle
 10
85.83168074749998
 20
70.2854092278
 30
0.0
 40
1.0
100
AcDbArc
 50
270.0000179861
 51
0.0
  0
ARC
  5
35
330
2
100
AcDbEntity
  8
0
 62
     3
100
AcDbCircle
 10
85.83168074749998
 20
64.2854092278
 30
0.0
 40
1.0
100
AcDbArc
 50
0.0
 51
89.99998201389999
  0
ARC
  5
36
330
2
100
AcDbEntity
  8
0
 62
     3
100
AcDbCircle
 10
85.33168074749999
 20
64.2854092278
 30
0.0
 40
1.0
100
AcDbArc
 50
0.0
 51
89.99998201389999
  0
ARC
  5
37
330
2
100
AcDbEntity
  8
0
 62
     3
100
AcDbCircle
 10
85.83168074749998
 20
51.2854092278
 30
0.0
 40
1.0
100
AcDbArc
 50
270.0000179861
 51
0.0
  0
ARC
  5
38
330
2
100
AcDbEntity
  8
0
 62
     3
100
AcDbCircle
 10
85.33168074749999
 20
51.2854092278
 30
0.0
 40
1.0
100
AcDbArc
 50
270.0000179861
 51
0.0
  0
LINE
  5
39
330
2
100
AcDbEntity
  8
0
 62
     3
100
AcDbLine
 10
84.23165938519998
 20
57.78540922779999
 30
0.0
 11
89.98165938519994
 21
57.78540922779999
 31
0.0
  0
LINE
  5
3A
330
2
100
AcDbEntity
  8
0
 62
     3
100
AcDbLine
 10
84.23165938519998
 20
76.7854092278
 30
0.0
 11
89.98165938519994
 21
76.7854092278
 31
0.0
  0
ARC
  5
3B
330
2
100
AcDbEntity
  8
0
 62
     3
100
AcDbCircle
 10
85.33168074749999
 20
32.2854092278
 30
0.0
 40
1.0
100
AcDbArc
 50
270.0000179861
 51
0.0
  0
ARC
  5
3C
330
2
100
AcDbEntity
  8
0
 62
     3
100
AcDbCircle
 10
85.83168074749998
 20
32.2854092278
 30
0.0
 40
1.0
100
AcDbArc
 50
270.0000179861
 51
0.0
  0
LINE
  5
3D
330
2
100
AcDbEntity
  8
0
 62
     3
100
AcDbLine
 10
84.23165938519998
 20
38.78540922779999
 30
0.0
 11
89.98165938519994
 21
38.78540922779999
 31
0.0
  0
ARC
  5
3E
330
2
100
AcDbEntity
  8
0
 62
     3
100
AcDbCircle
 10
85.33168074749999
 20
45.28540922779998
 30
0.0
 40
1.0
100
AcDbArc
 50
0.0
 51
89.99998201389999
  0
ARC
  5
3F
330
2
100
AcDbEntity
  8
0
 62
     3
100
AcDbCircle
 10
85.83168074749998
 20
45.28540922779998
 30
0.0
 40
1.0
100
AcDbArc
 50
0.0
 51
89.99998201389999
  0
LINE
  5
40
330
2
100
AcDbEntity
  8
0
 62
     3
100
AcDbLine
 10
45.02012679239999
 20
29.2854092278
 30
0.0
 11
96.63873335979999
 21
29.2854092278
 31
0.0
  0
LINE
  5
41
330
2
100
AcDbEntity
  8
0
 62
     3
100
AcDbLine
 10
48.98167464399998
 20
67.2854092278
 30
0.0
 11
92.68167159219999
 21
67.2854092278
 31
0.0
  0
LINE
  5
42
330
2
100
AcDbEntity
  8
0
 62
     3
100
AcDbLine
 10
48.98167464399998
 20
48.2854092278
 30
0.0
 11
92.68167159219999
 21
48.2854092278
 31
0.0
  0
LINE
  5
43
330
2
100
AcDbEntity
  8
0
 62
     3
100
AcDbLine
 10
53.73165938519997
 20
121.7321713126999
 30
0.0
 11
87.93165633339993
 21
121.7321713126999
 31
0.0
  0
LINE
  5
44
330
2
100
AcDbEntity
  8
0
 62
     3
100
AcDbLine
 10
45.04563948769996
 20
86.2854092278
 30
0.0
 11
96.61924788610001
 21
86.2854092278
 31
0.0
  0
LINE
  5
45
330
2
100
AcDbEntity
  8
0
 62
     3
100
AcDbLine
 10
95.88162276410001
 20
114.932168261
 30
0.0
 11
51.03166243689996
 21
114.932168261
 31
0.0
  0
LINE
  5
46
330
2
100
AcDbEntity
  8
0
 62
     3
100
AcDbLine
 10
55.33165022989997
 20
51.2854092278
 30
0.0
 11
55.33165022989997
 21
64.2854092278
 31
0.0
  0
LINE
  5
47
330
2
100
AcDbEntity
  8
0
 62
     3
100
AcDbLine
 10
54.83165022989997
 20
51.2854092278
 30
0.0
 11
54.83165022989997
 21
64.2854092278
 31
0.0
  0
LINE
  5
48
330
2
100
AcDbEntity
  8
0
 62
     3
100
AcDbLine
 10
44.83165022989997
 20
48.48542143479999
 30
0.0
 11
44.83165022989997
 21
67.0854122795
 31
0.0
  0
LINE
  5
49
330
2
100
AcDbEntity
  8
0
 62
     3
100
AcDbLine
 10
55.83165022989998
 20
50.28540922779999
 30
0.0
 11
85.83168074749998
 21
50.28540922779999
 31
0.0
  0
LINE
  5
4A
330
2
100
AcDbEntity
  8
0
 62
     3
100
AcDbLine
 10
55.83165022989998
 20
46.2854092278
 30
0.0
 11
85.83168074749998
 21
46.2854092278
 31
0.0
  0
LINE
  5
4B
330
2
100
AcDbEntity
  8
0
 62
     3
100
AcDbLine
 10
55.83165022989998
 20
31.2854092278
 30
0.0
 11
85.83168074749998
 21
31.2854092278
 31
0.0
  0
LINE
  5
4C
330
2
100
AcDbEntity
  8
0
 62
     3
100
AcDbLine
 10
51.63169905799997
 20
38.78540922779999
 30
0.0
 11
64.33166548869997
 21
38.78540922779999
 31
0.0
  0
LINE
  5
4D
330
2
100
AcDbEntity
  8
0
 62
     3
100
AcDbLine
 10
45.03166243689998
 20
49.3854153313
 30
0.0
 11
50.83165022989998
 21
49.3854153313
 31
0.0
  0
LINE
  5
4E
330
2
100
AcDbEntity
  8
0
 62
     3
100
AcDbLine
 10
45.03166243689998
 20
47.18541838300001
 30
0.0
 11
50.83165022989998
 21
47.18541838300001
 31
0.0
  0
ARC
  5
4F
330
2
100
AcDbEntity
  8
0
 62
     3
100
AcDbCircle
 10
47.83158919469996
 20
38.3854153313
 30
0.0
 40
9.0
100
AcDbArc
 50
270.0000179861
 51
279.6519495475
  0
LINE
  5
50
330
2
100
AcDbEntity
  8
0
 62
     3
100
AcDbLine
 10
45.03166243689998
 20
30.3854153313
 30
0.0
 11
50.83165022989998
 21
30.3854153313
 31
0.0
  0
LINE
  5
51
330
2
100
AcDbEntity
  8
0
 62
     3
100
AcDbLine
 10
44.84797713419999
 20
38.78540922779999
 30
0.0
 11
50.83165022989998
 21
38.78540922779999
 31
0.0
  0
LINE
  5
52
330
2
100
AcDbEntity
  8
0
 62
     3
100
AcDbLine
 10
44.83165022989997
 20
29.4854214348
 30
0.0
 11
44.83165022989997
 21
48.0854122795
 31
0.0
  0
ARC
  5
53
330
2
100
AcDbEntity
  8
0
 62
     3
100
AcDbCircle
 10
45.03166243689998
 20
30.5854122795
 30
0.0
 40
0.1999999881
100
AcDbArc
 50
179.9999640277999
 51
270.0000006831999
  0
ARC
  5
54
330
2
100
AcDbEntity
  8
0
 62
     3
100
AcDbCircle
 10
45.03166243689998
 20
29.4854214348
 30
0.0
 40
0.1999999881
100
AcDbArc
 50
179.9999640277999
 51
270.0000006831999
  0
ARC
  5
55
330
2
100
AcDbEntity
  8
0
 62
     3
100
AcDbCircle
 10
47.83158919469996
 20
38.3854153313
 30
0.0
 40
9.0
100
AcDbArc
 50
260.3479771416
 51
269.9999087031
  0
ARC
  5
56
330
2
100
AcDbEntity
  8
0
 62
     3
100
AcDbCircle
 10
47.78160140179998
 20
30.3854153313
 30
0.0
 40
1.6999998093
100
AcDbArc
 50
179.9999093863
 51
210.883456662
  0
LINE
  5
57
330
2
100
AcDbEntity
  8
0
 62
     3
100
AcDbLine
 10
45.02012679239999
 20
48.2854092278
 30
0.0
 11
46.68168685099996
 21
48.2854092278
 31
0.0
  0
ARC
  5
58
330
2
100
AcDbEntity
  8
0
 62
     3
100
AcDbCircle
 10
45.03166243689998
 20
48.48542143479999
 30
0.0
 40
0.1999999881
100
AcDbArc
 50
179.9999640277999
 51
270.0000006831999
  0
ARC
  5
59
330
2
100
AcDbEntity
  8
0
 62
     3
100
AcDbCircle
 10
45.03166243689998
 20
49.5854122795
 30
0.0
 40
0.1999999881
100
AcDbArc
 50
179.9999640277999
 51
270.0000006831999
  0
ARC
  5
5A
330
2
100
AcDbEntity
  8
0
 62
     3
100
AcDbCircle
 10
45.03166243689998
 20
46.985406176
 30
0.0
 40
0.1999999881
100
AcDbArc
 50
89.99998201389999
 51
179.9999640277999
  0
ARC
  5
5B
330
2
100
AcDbEntity
  8
0
 62
     3
100
AcDbCircle
 10
45.03166243689998
 20
48.0854122795
 30
0.0
 40
0.1999999881
100
AcDbArc
 50
89.99998201389999
 51
179.9999640277999
  0
LINE
  5
5C
330
2
100
AcDbEntity
  8
0
 62
     3
100
AcDbLine
 10
46.68168685099996
 20
49.3854153313
 30
0.0
 11
46.68168685099996
 21
47.1886532463
 31
0.0
  0
LINE
  5
5D
330
2
100
AcDbEntity
  8
0
 62
     3
100
AcDbLine
 10
48.98167464399998
 20
49.3854153313
 30
0.0
 11
48.98167464399998
 21
47.1919491447
 31
0.0
  0
LINE
  5
5E
330
2
100
AcDbEntity
  8
0
 62
     3
100
AcDbLine
 10
54.83165022989997
 20
32.2854092278
 30
0.0
 11
54.83165022989997
 21
45.28540922779998
 31
0.0
  0
LINE
  5
5F
330
2
100
AcDbEntity
  8
0
 62
     3
100
AcDbLine
 10
55.33165022989997
 20
32.2854092278
 30
0.0
 11
55.33165022989997
 21
45.28540922779998
 31
0.0
  0
LINE
  5
60
330
2
100
AcDbEntity
  8
0
 62
     3
100
AcDbLine
 10
51.68165633339999
 20
35.5354092278
 30
0.0
 11
51.68165633339999
 21
42.03540922779999
 31
0.0
  0
LINE
  5
61
330
2
100
AcDbEntity
  8
0
 62
     3
100
AcDbLine
 10
50.83165022989998
 20
35.5354092278
 30
0.0
 11
50.83165022989998
 21
42.03540922779999
 31
0.0
  0
LINE
  5
62
330
2
100
AcDbEntity
  8
0
 62
     3
100
AcDbLine
 10
50.83165022989998
 20
34.7854550041
 30
0.0
 11
50.83165022989998
 21
42.78545500409999
 31
0.0
  0
LINE
  5
63
330
2
100
AcDbEntity
  8
0
 62
     3
100
AcDbLine
 10
51.03166243689996
 20
40.98546721119999
 30
0.0
 11
51.03166243689996
 21
36.5854427971
 31
0.0
  0
LINE
  5
64
330
2
100
AcDbEntity
  8
0
 62
     3
100
AcDbLine
 10
51.63169905799997
 20
34.7854550041
 30
0.0
 11
51.63169905799997
 21
42.78545500409999
 31
0.0
  0
LINE
  5
65
330
2
100
AcDbEntity
  8
0
 62
     3
100
AcDbLine
 10
51.4316258158
 20
36.5854427971
 30
0.0
 11
51.4316258158
 21
40.98546721119999
 31
0.0
  0
ARC
  5
66
330
2
100
AcDbEntity
  8
0
 62
     3
100
AcDbCircle
 10
47.88163802289997
 20
30.3854153313
 30
0.0
 40
1.6999998093
100
AcDbArc
 50
329.1163605168
 51
359.9999360237998
  0
LINE
  5
67
330
2
100
AcDbEntity
  8
0
 62
     3
100
AcDbLine
 10
50.83165022989998
 20
30.3854153313
 30
0.0
 11
50.83165022989998
 21
29.2854092278
 31
0.0
  0
LINE
  5
68
330
2
100
AcDbEntity
  8
0
 62
     3
100
AcDbLine
 10
51.43150374549997
 20
36.5853970207
 30
0.0
 11
51.03154036659997
 21
36.5853970207
 31
0.0
  0
LINE
  5
69
330
2
100
AcDbEntity
  8
0
 62
     3
100
AcDbLine
 10
51.6315769877
 20
34.7854702629
 30
0.0
 11
50.83152815959997
 21
34.7854702629
 31
0.0
  0
LINE
  5
6A
330
2
100
AcDbEntity
  8
0
 62
     3
100
AcDbLine
 10
51.6315769877
 20
35.5853970207
 30
0.0
 11
50.83152815959997
 21
35.5853970207
 31
0.0
  0
LINE
  5
6B
330
2
100
AcDbEntity
  8
0
 62
     3
100
AcDbLine
 10
51.03143795839997
 20
36.58542453369999
 30
0.0
 11
50.83141952969999
 21
35.58539506159999
 31
0.0
  0
LINE
  5
6C
330
2
100
AcDbEntity
  8
0
 62
     3
100
AcDbLine
 10
51.63169905799997
 20
35.5354092278
 30
0.0
 11
51.68165633339999
 21
35.5354092278
 31
0.0
  0
LINE
  5
6D
330
2
100
AcDbEntity
  8
0
 62
     3
100
AcDbLine
 10
51.63172704359997
 20
35.5855348325
 30
0.0
 11
51.43171007379999
 21
36.5855646085
 31
0.0
  0
ARC
  5
6E
330
2
100
AcDbEntity
  8
0
 62
     3
100
AcDbCircle
 10
55.83165022989998
 20
32.2854092278
 30
0.0
 40
1.0
100
AcDbArc
 50
179.9999640277999
 51
270.0000006831999
  0
ARC
  5
6F
330
2
100
AcDbEntity
  8
0
 62
     3
100
AcDbCircle
 10
56.33165022989999
 20
32.2854092278
 30
0.0
 40
1.0
100
AcDbArc
 50
179.9999640277999
 51
270.0000006831999
  0
LINE
  5
70
330
2
100
AcDbEntity
  8
0
 62
     3
100
AcDbLine
 10
51.43150374549997
 20
40.98542143479997
 30
0.0
 11
51.03154036659997
 21
40.98542143479997
 31
0.0
  0
LINE
  5
71
330
2
100
AcDbEntity
  8
0
 62
     3
100
AcDbLine
 10
51.6315769877
 20
41.9854214348
 30
0.0
 11
50.83152815959997
 21
41.9854214348
 31
0.0
  0
LINE
  5
72
330
2
100
AcDbEntity
  8
0
 62
     3
100
AcDbLine
 10
51.6315769877
 20
42.7854702629
 30
0.0
 11
50.83152815959997
 21
42.7854702629
 31
0.0
  0
LINE
  5
73
330
2
100
AcDbEntity
  8
0
 62
     3
100
AcDbLine
 10
50.83153153699999
 20
41.98541365469998
 30
0.0
 11
51.03154777739998
 21
40.9853837571
 31
0.0
  0
LINE
  5
74
330
2
100
AcDbEntity
  8
0
 62
     3
100
AcDbLine
 10
51.63169905799997
 20
42.03540922779999
 30
0.0
 11
51.68165633339999
 21
42.03540922779999
 31
0.0
  0
LINE
  5
75
330
2
100
AcDbEntity
  8
0
 62
     3
100
AcDbLine
 10
51.43135411719999
 20
40.9856378025
 30
0.0
 11
51.63136057519998
 21
41.98560742489999
 31
0.0
  0
LINE
  5
76
330
2
100
AcDbEntity
  8
0
 62
     3
100
AcDbLine
 10
50.83165022989998
 20
47.18541838300001
 30
0.0
 11
50.83165022989998
 21
49.3854153313
 31
0.0
  0
ARC
  5
77
330
2
100
AcDbEntity
  8
0
 62
     3
100
AcDbCircle
 10
56.33165022989999
 20
45.28540922779998
 30
0.0
 40
1.0
100
AcDbArc
 50
89.99998201389999
 51
179.9999640277999
  0
ARC
  5
78
330
2
100
AcDbEntity
  8
0
 62
     3
100
AcDbCircle
 10
55.83165022989998
 20
45.28540922779998
 30
0.0
 40
1.0
100
AcDbArc
 50
89.99998201389999
 51
179.9999640277999
  0
ARC
  5
79
330
2
100
AcDbEntity
  8
0
 62
     3
100
AcDbCircle
 10
55.83165022989998
 20
51.2854092278
 30
0.0
 40
1.0
100
AcDbArc
 50
179.9999640277999
 51
270.0000006831999
  0
ARC
  5
7A
330
2
100
AcDbEntity
  8
0
 62
     3
100
AcDbCircle
 10
56.33165022989999
 20
51.2854092278
 30
0.0
 40
1.0
100
AcDbArc
 50
179.9999640277999
 51
270.0000006831999
  0
LINE
  5
7B
330
2
100
AcDbEntity
  8
0
 62
     3
100
AcDbLine
 10
64.33166548869997
 20
42.03540922779999
 30
0.0
 11
84.33166548869998
 21
42.03540922779999
 31
0.0
  0
LINE
  5
7C
330
2
100
AcDbEntity
  8
0
 62
     3
100
AcDbLine
 10
64.33166548869997
 20
35.5354092278
 30
0.0
 11
84.33166548869998
 21
35.5354092278
 31
0.0
  0
LINE
  5
7D
330
2
100
AcDbEntity
  8
0
 62
     3
100
AcDbLine
 10
84.23165938519998
 20
35.5354092278
 30
0.0
 11
64.43167159219999
 21
35.5354092278
 31
0.0
  0
LINE
  5
7E
330
2
100
AcDbEntity
  8
0
 62
     3
100
AcDbLine
 10
64.43167159219999
 20
42.03540922779999
 30
0.0
 11
84.23165938519998
 21
42.03540922779999
 31
0.0
  0
LINE
  5
7F
330
2
100
AcDbEntity
  8
0
 62
     3
100
AcDbLine
 10
64.33166548869997
 20
35.5354092278
 30
0.0
 11
64.33166548869997
 21
42.03540922779999
 31
0.0
  0
LINE
  5
80
330
2
100
AcDbEntity
  8
0
 62
     3
100
AcDbLine
 10
64.43167159219999
 20
42.03540922779999
 30
0.0
 11
64.43167159219999
 21
35.5354092278
 31
0.0
  0
LINE
  5
81
330
2
100
AcDbEntity
  8
0
 62
     3
100
AcDbLine
 10
84.33166548869998
 20
35.5354092278
 30
0.0
 11
84.33166548869998
 21
42.03540922779999
 31
0.0
  0
LINE
  5
82
330
2
100
AcDbEntity
  8
0
 62
     3
100
AcDbLine
 10
84.23165938519998
 20
42.03540922779999
 30
0.0
 11
84.23165938519998
 21
35.5354092278
 31
0.0
  0
LINE
  5
83
330
2
100
AcDbEntity
  8
0
 62
     3
100
AcDbLine
 10
51.63169905799997
 20
57.78540922779999
 30
0.0
 11
64.33166548869997
 21
57.78540922779999
 31
0.0
  0
LINE
  5
84
330
2
100
AcDbEntity
  8
0
 62
     3
100
AcDbLine
 10
55.83165022989998
 20
65.2854092278
 30
0.0
 11
85.83168074749998
 21
65.2854092278
 31
0.0
  0
LINE
  5
85
330
2
100
AcDbEntity
  8
0
 62
     3
100
AcDbLine
 10
56.23663375039999
 20
109.932168261
 30
0.0
 11
85.42666670939999
 21
109.932168261
 31
0.0
  0
LINE
  5
86
330
2
100
AcDbEntity
  8
0
 62
     3
100
AcDbLine
 10
55.83165022989998
 20
84.28540922779999
 30
0.0
 11
85.83168074749998
 21
84.28540922779999
 31
0.0
  0
LINE
  5
87
330
2
100
AcDbEntity
  8
0
 62
     3
100
AcDbLine
 10
55.83165022989998
 20
69.2854092278
 30
0.0
 11
85.83168074749998
 21
69.2854092278
 31
0.0
  0
LINE
  5
88
330
2
100
AcDbEntity
  8
0
 62
     3
100
AcDbLine
 10
51.63169905799997
 20
76.7854092278
 30
0.0
 11
64.33166548869997
 21
76.7854092278
 31
0.0
  0
LINE
  5
89
330
2
100
AcDbEntity
  8
0
 62
     3
100
AcDbLine
 10
54.83165022989997
 20
70.2854092278
 30
0.0
 11
54.83165022989997
 21
83.2854092278
 31
0.0
  0
LINE
  5
8A
330
2
100
AcDbEntity
  8
0
 62
     3
100
AcDbLine
 10
55.33165022989997
 20
70.2854092278
 30
0.0
 11
55.33165022989997
 21
83.2854092278
 31
0.0
  0
LINE
  5
8B
330
2
100
AcDbEntity
  8
0
 62
     3
100
AcDbLine
 10
51.68165633339999
 20
73.5354092278
 30
0.0
 11
51.68165633339999
 21
80.0354092278
 31
0.0
  0
LINE
  5
8C
330
2
100
AcDbEntity
  8
0
 62
     3
100
AcDbLine
 10
50.83165022989998
 20
73.5354092278
 30
0.0
 11
50.83165022989998
 21
80.0354092278
 31
0.0
  0
LINE
  5
8D
330
2
100
AcDbEntity
  8
0
 62
     3
100
AcDbLine
 10
51.03166243689996
 20
78.9854672112
 30
0.0
 11
51.03166243689996
 21
74.5854427971
 31
0.0
  0
LINE
  5
8E
330
2
100
AcDbEntity
  8
0
 62
     3
100
AcDbLine
 10
51.4316258158
 20
74.5854427971
 30
0.0
 11
51.4316258158
 21
78.9854672112
 31
0.0
  0
LINE
  5
8F
330
2
100
AcDbEntity
  8
0
 62
     3
100
AcDbLine
 10
50.83165022989998
 20
72.7854550041
 30
0.0
 11
50.83165022989998
 21
80.78545500409999
 31
0.0
  0
LINE
  5
90
330
2
100
AcDbEntity
  8
0
 62
     3
100
AcDbLine
 10
51.63169905799997
 20
72.7854550041
 30
0.0
 11
51.63169905799997
 21
80.78545500409999
 31
0.0
  0
LINE
  5
91
330
2
100
AcDbEntity
  8
0
 62
     3
100
AcDbLine
 10
44.83165022989997
 20
67.48542143479999
 30
0.0
 11
44.83165022989997
 21
86.0854122795
 31
0.0
  0
LINE
  5
92
330
2
100
AcDbEntity
  8
0
 62
     3
100
AcDbLine
 10
44.84797713419999
 20
57.78540922779999
 30
0.0
 11
50.83165022989998
 21
57.78540922779999
 31
0.0
  0
LINE
  5
93
330
2
100
AcDbEntity
  8
0
 62
     3
100
AcDbLine
 10
45.03166243689998
 20
66.185418383
 30
0.0
 11
50.83165022989998
 21
66.185418383
 31
0.0
  0
LINE
  5
94
330
2
100
AcDbEntity
  8
0
 62
     3
100
AcDbLine
 10
45.03166243689998
 20
68.38541533129999
 30
0.0
 11
50.83165022989998
 21
68.38541533129999
 31
0.0
  0
LINE
  5
95
330
2
100
AcDbEntity
  8
0
 62
     3
100
AcDbLine
 10
45.02012679239999
 20
67.2854092278
 30
0.0
 11
46.68168685099996
 21
67.2854092278
 31
0.0
  0
ARC
  5
96
330
2
100
AcDbEntity
  8
0
 62
     3
100
AcDbCircle
 10
45.03166243689998
 20
67.0854122795
 30
0.0
 40
0.1999999881
100
AcDbArc
 50
89.99998201389999
 51
179.9999640277999
  0
ARC
  5
97
330
2
100
AcDbEntity
  8
0
 62
     3
100
AcDbCircle
 10
45.03166243689998
 20
65.985406176
 30
0.0
 40
0.1999999881
100
AcDbArc
 50
89.99998201389999
 51
179.9999640277999
  0
ARC
  5
98
330
2
100
AcDbEntity
  8
0
 62
     3
100
AcDbCircle
 10
45.03166243689998
 20
68.5854122795
 30
0.0
 40
0.1999999881
100
AcDbArc
 50
179.9999640277999
 51
270.0000006831999
  0
ARC
  5
99
330
2
100
AcDbEntity
  8
0
 62
     3
100
AcDbCircle
 10
45.03166243689998
 20
67.48542143479999
 30
0.0
 40
0.1999999881
100
AcDbArc
 50
179.9999640277999
 51
270.0000006831999
  0
LINE
  5
9A
330
2
100
AcDbEntity
  8
0
 62
     3
100
AcDbLine
 10
46.68168685099996
 20
68.38541533129999
 30
0.0
 11
46.68168685099996
 21
66.185418383
 31
0.0
  0
LINE
  5
9B
330
2
100
AcDbEntity
  8
0
 62
     3
100
AcDbLine
 10
48.98167464399998
 20
68.38541533129999
 30
0.0
 11
48.98167464399998
 21
66.185418383
 31
0.0
  0
LINE
  5
9C
330
2
100
AcDbEntity
  8
0
 62
     3
100
AcDbLine
 10
51.4316258158
 20
55.5854427971
 30
0.0
 11
51.4316258158
 21
59.9854672112
 31
0.0
  0
LINE
  5
9D
330
2
100
AcDbEntity
  8
0
 62
     3
100
AcDbLine
 10
51.63169905799997
 20
53.7854550041
 30
0.0
 11
51.63169905799997
 21
61.7854550041
 31
0.0
  0
LINE
  5
9E
330
2
100
AcDbEntity
  8
0
 62
     3
100
AcDbLine
 10
51.03166243689996
 20
59.9854672112
 30
0.0
 11
51.03166243689996
 21
55.5854427971
 31
0.0
  0
LINE
  5
9F
330
2
100
AcDbEntity
  8
0
 62
     3
100
AcDbLine
 10
50.83165022989998
 20
53.7854550041
 30
0.0
 11
50.83165022989998
 21
61.7854550041
 31
0.0
  0
LINE
  5
A0
330
2
100
AcDbEntity
  8
0
 62
     3
100
AcDbLine
 10
50.83165022989998
 20
54.5354092278
 30
0.0
 11
50.83165022989998
 21
61.03540922779998
 31
0.0
  0
LINE
  5
A1
330
2
100
AcDbEntity
  8
0
 62
     3
100
AcDbLine
 10
51.68165633339999
 20
54.5354092278
 30
0.0
 11
51.68165633339999
 21
61.03540922779998
 31
0.0
  0
LINE
  5
A2
330
2
100
AcDbEntity
  8
0
 62
     3
100
AcDbLine
 10
51.43150374549997
 20
55.5853970207
 30
0.0
 11
51.03154036659997
 21
55.5853970207
 31
0.0
  0
LINE
  5
A3
330
2
100
AcDbEntity
  8
0
 62
     3
100
AcDbLine
 10
51.6315769877
 20
54.5853970207
 30
0.0
 11
50.83152815959997
 21
54.5853970207
 31
0.0
  0
LINE
  5
A4
330
2
100
AcDbEntity
  8
0
 62
     3
100
AcDbLine
 10
51.6315769877
 20
53.7854702629
 30
0.0
 11
50.83152815959997
 21
53.7854702629
 31
0.0
  0
LINE
  5
A5
330
2
100
AcDbEntity
  8
0
 62
     3
100
AcDbLine
 10
51.03143795839997
 20
55.5854245337
 30
0.0
 11
50.83141952969999
 21
54.5853950616
 31
0.0
  0
LINE
  5
A6
330
2
100
AcDbEntity
  8
0
 62
     3
100
AcDbLine
 10
51.63172704359997
 20
54.5855348325
 30
0.0
 11
51.43171007379999
 21
55.5855646085
 31
0.0
  0
LINE
  5
A7
330
2
100
AcDbEntity
  8
0
 62
     3
100
AcDbLine
 10
51.63169905799997
 20
54.5354092278
 30
0.0
 11
51.68165633339999
 21
54.5354092278
 31
0.0
  0
LINE
  5
A8
330
2
100
AcDbEntity
  8
0
 62
     3
100
AcDbLine
 10
51.43150374549997
 20
59.98542143479999
 30
0.0
 11
51.03154036659997
 21
59.98542143479999
 31
0.0
  0
LINE
  5
A9
330
2
100
AcDbEntity
  8
0
 62
     3
100
AcDbLine
 10
51.6315769877
 20
61.78547026290001
 30
0.0
 11
50.83152815959997
 21
61.78547026290001
 31
0.0
  0
LINE
  5
AA
330
2
100
AcDbEntity
  8
0
 62
     3
100
AcDbLine
 10
51.6315769877
 20
60.98542143479999
 30
0.0
 11
50.83152815959997
 21
60.98542143479999
 31
0.0
  0
LINE
  5
AB
330
2
100
AcDbEntity
  8
0
 62
     3
100
AcDbLine
 10
50.83153153699999
 20
60.9854136547
 30
0.0
 11
51.03154777739998
 21
59.98538375709999
 31
0.0
  0
LINE
  5
AC
330
2
100
AcDbEntity
  8
0
 62
     3
100
AcDbLine
 10
51.43135411719999
 20
59.98563780249998
 30
0.0
 11
51.63136057519998
 21
60.9856074249
 31
0.0
  0
LINE
  5
AD
330
2
100
AcDbEntity
  8
0
 62
     3
100
AcDbLine
 10
51.63169905799997
 20
61.03540922779998
 30
0.0
 11
51.68165633339999
 21
61.03540922779998
 31
0.0
  0
LINE
  5
AE
330
2
100
AcDbEntity
  8
0
 62
     3
100
AcDbLine
 10
50.83165022989998
 20
66.185418383
 30
0.0
 11
50.83165022989998
 21
68.38541533129999
 31
0.0
  0
LINE
  5
AF
330
2
100
AcDbEntity
  8
0
 62
     3
100
AcDbLine
 10
51.43150374549997
 20
74.5853970207
 30
0.0
 11
51.03154036659997
 21
74.5853970207
 31
0.0
  0
LINE
  5
B0
330
2
100
AcDbEntity
  8
0
 62
     3
100
AcDbLine
 10
51.6315769877
 20
72.7854702629
 30
0.0
 11
50.83152815959997
 21
72.7854702629
 31
0.0
  0
LINE
  5
B1
330
2
100
AcDbEntity
  8
0
 62
     3
100
AcDbLine
 10
51.6315769877
 20
73.5853970207
 30
0.0
 11
50.83152815959997
 21
73.5853970207
 31
0.0
  0
LINE
  5
B2
330
2
100
AcDbEntity
  8
0
 62
     3
100
AcDbLine
 10
51.03143795839997
 20
74.58542453369997
 30
0.0
 11
50.83141952969999
 21
73.58539506159998
 31
0.0
  0
LINE
  5
B3
330
2
100
AcDbEntity
  8
0
 62
     3
100
AcDbLine
 10
51.63169905799997
 20
73.5354092278
 30
0.0
 11
51.68165633339999
 21
73.5354092278
 31
0.0
  0
LINE
  5
B4
330
2
100
AcDbEntity
  8
0
 62
     3
100
AcDbLine
 10
51.63172704359997
 20
73.5855348325
 30
0.0
 11
51.43171007379999
 21
74.58556460850001
 31
0.0
  0
ARC
  5
B5
330
2
100
AcDbEntity
  8
0
 62
     3
100
AcDbCircle
 10
56.33165022989999
 20
70.2854092278
 30
0.0
 40
1.0
100
AcDbArc
 50
179.9999640277999
 51
270.0000006831999
  0
ARC
  5
B6
330
2
100
AcDbEntity
  8
0
 62
     3
100
AcDbCircle
 10
55.83165022989998
 20
70.2854092278
 30
0.0
 40
1.0
100
AcDbArc
 50
179.9999640277999
 51
270.0000006831999
  0
ARC
  5
B7
330
2
100
AcDbEntity
  8
0
 62
     3
100
AcDbCircle
 10
55.83165022989998
 20
64.2854092278
 30
0.0
 40
1.0
100
AcDbArc
 50
89.99998201389999
 51
179.9999640277999
  0
ARC
  5
B8
330
2
100
AcDbEntity
  8
0
 62
     3
100
AcDbCircle
 10
56.33165022989999
 20
64.2854092278
 30
0.0
 40
1.0
100
AcDbArc
 50
89.99998201389999
 51
179.9999640277999
  0
LINE
  5
B9
330
2
100
AcDbEntity
  8
0
 62
     3
100
AcDbLine
 10
49.23158309119997
 20
85.5853512444
 30
0.0
 11
46.43159529829998
 21
85.5853512444
 31
0.0
  0
LINE
  5
BA
330
2
100
AcDbEntity
  8
0
 62
     3
100
AcDbLine
 10
45.03166243689998
 20
85.185418383
 30
0.0
 11
50.83165022989998
 21
85.185418383
 31
0.0
  0
LINE
  5
BB
330
2
100
AcDbEntity
  8
0
 62
     3
100
AcDbLine
 10
44.84797713419999
 20
76.7854092278
 30
0.0
 11
50.83165022989998
 21
76.7854092278
 31
0.0
  0
ARC
  5
BC
330
2
100
AcDbEntity
  8
0
 62
     3
100
AcDbCircle
 10
45.03166243689998
 20
84.98540617599998
 30
0.0
 40
0.1999999881
100
AcDbArc
 50
89.99998201389999
 51
179.9999640277999
  0
ARC
  5
BD
330
2
100
AcDbEntity
  8
0
 62
     3
100
AcDbCircle
 10
45.03166243689998
 20
86.0854122795
 30
0.0
 40
0.1999999881
100
AcDbArc
 50
89.99998201389999
 51
179.9999640277999
  0
LINE
  5
BE
330
2
100
AcDbEntity
  8
0
 62
     3
100
AcDbLine
 10
46.43165633339997
 20
85.58536650309999
 30
0.0
 11
46.43165633339997
 21
85.1854031242
 31
0.0
  0
LINE
  5
BF
330
2
100
AcDbEntity
  8
0
 62
     3
100
AcDbLine
 10
51.43150374549997
 20
78.98542143479999
 30
0.0
 11
51.03154036659997
 21
78.98542143479999
 31
0.0
  0
LINE
  5
C0
330
2
100
AcDbEntity
  8
0
 62
     3
100
AcDbLine
 10
51.6315769877
 20
79.98542143479999
 30
0.0
 11
50.83152815959997
 21
79.98542143479999
 31
0.0
  0
LINE
  5
C1
330
2
100
AcDbEntity
  8
0
 62
     3
100
AcDbLine
 10
50.83153153699999
 20
79.9854136547
 30
0.0
 11
51.03154777739998
 21
78.9853837571
 31
0.0
  0
LINE
  5
C2
330
2
100
AcDbEntity
  8
0
 62
     3
100
AcDbLine
 10
51.63169905799997
 20
80.0354092278
 30
0.0
 11
51.68165633339999
 21
80.0354092278
 31
0.0
  0
LINE
  5
C3
330
2
100
AcDbEntity
  8
0
 62
     3
100
AcDbLine
 10
51.43135411719999
 20
78.98563780249998
 30
0.0
 11
51.63136057519998
 21
79.98560742489998
 31
0.0
  0
LINE
  5
C4
330
2
100
AcDbEntity
  8
0
 62
     3
100
AcDbLine
 10
51.6315769877
 20
80.78547026290001
 30
0.0
 11
50.83152815959997
 21
80.78547026290001
 31
0.0
  0
LINE
  5
C5
330
2
100
AcDbEntity
  8
0
 62
     3
100
AcDbLine
 10
50.83165022989998
 20
85.185418383
 30
0.0
 11
50.83165022989998
 21
86.2854092278
 31
0.0
  0
LINE
  5
C6
330
2
100
AcDbEntity
  8
0
 62
     3
100
AcDbLine
 10
49.23164412640001
 20
85.58536650309999
 30
0.0
 11
49.23164412640001
 21
85.1854031242
 31
0.0
  0
ARC
  5
C7
330
2
100
AcDbEntity
  8
0
 62
     3
100
AcDbCircle
 10
55.83165022989998
 20
83.2854092278
 30
0.0
 40
1.0
100
AcDbArc
 50
89.99998201389999
 51
179.9999640277999
  0
ARC
  5
C8
330
2
100
AcDbEntity
  8
0
 62
     3
100
AcDbCircle
 10
56.33165022989999
 20
83.2854092278
 30
0.0
 40
1.0
100
AcDbArc
 50
89.99998201389999
 51
179.9999640277999
  0
ARC
  5
C9
330
2
100
AcDbEntity
  8
0
 62
     3
100
AcDbCircle
 10
47.83166548869997
 20
117.932168261
 30
0.0
 40
3.0
100
AcDbArc
 50
0.0
 51
89.99998201389999
  0
ARC
  5
CA
330
2
100
AcDbEntity
  8
0
 62
     3
100
AcDbCircle
 10
47.83165022989997
 20
117.932168261
 30
0.0
 40
3.0
100
AcDbArc
 50
0.0
 51
89.99998201389999
  0
ARC
  5
CB
330
2
100
AcDbEntity
  8
0
 62
     3
100
AcDbCircle
 10
45.23165938519997
 20
121.1321652092
 30
0.0
 40
0.1999999881
100
AcDbArc
 50
179.9999640277999
 51
270.0000006831999
  0
LINE
  5
CC
330
2
100
AcDbEntity
  8
0
 62
     3
100
AcDbLine
 10
45.03164717809997
 20
137.1321652091999
 30
0.0
 11
45.03164717809997
 21
120.9355862296998
 31
0.0
  0
LINE
  5
CD
330
2
100
AcDbEntity
  8
0
  6
CENTER
 62
     3
100
AcDbLine
 10
45.83165022989997
 20
117.7321560538999
 30
0.0
 11
49.83166548869997
 21
117.7321560538999
 31
0.0
  0
LINE
  5
CE
330
2
100
AcDbEntity
  8
0
 62
     3
100
AcDbLine
 10
51.01193282269997
 20
114.932168261
 30
0.0
 11
45.83166548869995
 21
114.932168261
 31
0.0
  0
ARC
  5
CF
330
2
100
AcDbEntity
  8
0
 62
     3
100
AcDbCircle
 10
45.83166548869995
 20
115.932168261
 30
0.0
 40
1.0
100
AcDbArc
 50
179.9999640277999
 51
270.0000006831999
  0
ARC
  5
D0
330
2
100
AcDbEntity
  8
0
 62
     3
100
AcDbCircle
 10
45.83165022989997
 20
115.932168261
 30
0.0
 40
1.0
100
AcDbArc
 50
179.9999640277999
 51
270.0000006831999
  0
LINE
  5
D1
330
2
100
AcDbEntity
  8
0
 62
     3
100
AcDbLine
 10
44.83166548869997
 20
120.9321682609999
 30
0.0
 11
47.89285323279997
 21
120.9321682609999
 31
0.0
  0
LINE
  5
D2
330
2
100
AcDbEntity
  8
0
 62
     3
100
AcDbLine
 10
44.83166548869997
 20
120.9321682609999
 30
0.0
 11
44.83166548869997
 21
115.932168261
 31
0.0
  0
CIRCLE
  5
D3
330
2
100
AcDbEntity
  8
0
 62
     3
100
AcDbCircle
 10
47.83166548869997
 20
117.7321560538999
 30
0.0
 40
1.1999998093
  0
CIRCLE
  5
D4
330
2
100
AcDbEntity
  8
0
 62
     3
100
AcDbCircle
 10
47.83165022989997
 20
117.7321560538999
 30
0.0
 40
1.1999998093
  0
LINE
  5
D5
330
2
100
AcDbEntity
  8
0
  6
CENTER
 62
     3
100
AcDbLine
 10
47.83166548869997
 20
119.7321560538999
 30
0.0
 11
47.83166548869997
 21
115.7321560538999
 31
0.0
  0
LINE
  5
D6
330
2
100
AcDbEntity
  8
0
  6
CENTER
 62
     3
100
AcDbLine
 10
47.83165022989997
 20
119.7321560538999
 30
0.0
 11
47.83165022989997
 21
115.7321560538999
 31
0.0
  0
LINE
  5
D7
330
2
100
AcDbEntity
  8
0
 62
     3
100
AcDbLine
 10
51.63166854039997
 20
114.9815762198999
 30
0.0
 11
51.63166854039997
 21
106.4321682609999
 31
0.0
  0
LINE
  5
D8
330
2
100
AcDbEntity
  8
0
 62
     3
100
AcDbLine
 10
50.83166548869996
 20
114.8971188224999
 30
0.0
 11
50.83166548869996
 21
106.4321682609999
 31
0.0
  0
LINE
  5
D9
330
2
100
AcDbEntity
  8
0
 62
     3
100
AcDbLine
 10
51.03166243689996
 20
105.4321682609999
 30
0.0
 11
51.43167159219999
 21
105.4321682609999
 31
0.0
  0
LINE
  5
DA
330
2
100
AcDbEntity
  8
0
 62
     3
100
AcDbLine
 10
50.83166548869996
 20
106.4321682609999
 30
0.0
 11
51.63166854039997
 21
106.4321682609999
 31
0.0
  0
LINE
  5
DB
330
2
100
AcDbEntity
  8
0
 62
     3
100
AcDbLine
 10
50.83167228069999
 20
106.4321741277
 30
0.0
 11
51.03167153369998
 21
105.432171906
 31
0.0
  0
LINE
  5
DC
330
2
100
AcDbEntity
  8
0
 62
     3
100
AcDbLine
 10
51.6316578536
 20
106.4321558054998
 30
0.0
 11
51.43165866139996
 21
105.4321535837999
 31
0.0
  0
LINE
  5
DD
330
2
100
AcDbEntity
  8
0
 62
     3
100
AcDbLine
 10
50.83166548869996
 20
117.932168261
 30
0.0
 11
50.83166548869996
 21
115.1321652091999
 31
0.0
  0
LINE
  5
DE
330
2
100
AcDbEntity
  8
0
 62
     3
100
AcDbLine
 10
50.83165022989998
 20
117.932168261
 30
0.0
 11
50.83165022989998
 21
115.1321652091999
 31
0.0
  0
LINE
  5
DF
330
2
100
AcDbEntity
  8
0
 62
     3
100
AcDbLine
 10
50.83166548869996
 20
113.4321530021999
 30
0.0
 11
51.63166854039997
 21
113.4321530021999
 31
0.0
  0
LINE
  5
E0
330
2
100
AcDbEntity
  8
0
 62
     3
100
AcDbLine
 10
50.83166548869996
 20
114.9321530021998
 30
0.0
 11
51.63166854039997
 21
114.9321530021998
 31
0.0
  0
ARC
  5
E1
330
2
100
AcDbEntity
  8
0
 62
     3
100
AcDbCircle
 10
51.03166243689996
 20
115.1321652091999
 30
0.0
 40
0.1999999881
100
AcDbArc
 50
179.9999640277999
 51
270.0000006831999
  0
ARC
  5
E2
330
2
100
AcDbEntity
  8
0
 62
     3
100
AcDbCircle
 10
51.03164717809995
 20
115.1321652091999
 30
0.0
 40
0.1999999881
100
AcDbArc
 50
179.9999640277999
 51
270.0000006831999
  0
ARC
  5
E3
330
2
100
AcDbEntity
  8
0
 62
     3
100
AcDbCircle
 10
53.92666670939997
 20
113.932168261
 30
0.0
 40
1.0
100
AcDbArc
 50
5.710591391499997
 51
89.99998201389999
  0
ARC
  5
E4
330
2
100
AcDbEntity
  8
0
 62
     3
100
AcDbCircle
 10
56.23663375039999
 20
110.932168261
 30
0.0
 40
1.0
100
AcDbArc
 50
185.7106205333999
 51
270.0000179861
  0
LINE
  5
E5
330
2
100
AcDbEntity
  8
0
 62
     3
100
AcDbLine
 10
54.92170086979999
 20
114.0316744336
 30
0.0
 11
55.24160185139999
 21
110.8326638519
 31
0.0
  0
ARC
  5
E6
330
2
100
AcDbEntity
  8
0
 62
     3
100
AcDbCircle
 10
45.83166548869995
 20
141.7321713127
 30
0.0
 40
1.0
100
AcDbArc
 50
89.99992737239997
 51
179.9999640277999
  0
ARC
  5
E7
330
2
100
AcDbEntity
  8
0
 62
     3
100
AcDbCircle
 10
45.83165022989997
 20
141.7321713127
 30
0.0
 40
1.0
100
AcDbArc
 50
89.99998201389999
 51
179.9999640277999
  0
LINE
  5
E8
330
2
100
AcDbEntity
  8
0
 62
     3
100
AcDbLine
 10
44.83166548869997
 20
141.7321713127
 30
0.0
 11
44.83166548869997
 21
137.1321652091999
 31
0.0
  0
LINE
  5
E9
330
2
100
AcDbEntity
  8
0
 62
     3
100
AcDbLine
 10
44.83166548869997
 20
137.1321652091999
 30
0.0
 11
45.03164717809997
 21
137.1321652091999
 31
0.0
  0
LINE
  5
EA
330
2
100
AcDbEntity
  8
0
 62
     3
100
AcDbLine
 10
51.73165938519995
 20
143.432168261
 30
0.0
 11
51.73165938519995
 21
123.7321713127
 31
0.0
  0
ARC
  5
EB
330
2
100
AcDbEntity
  8
0
 62
     3
100
AcDbCircle
 10
53.73165938519997
 20
123.7321713127
 30
0.0
 40
2.0
100
AcDbArc
 50
179.9999640277999
 51
270.0000006831999
  0
LINE
  5
EC
330
2
100
AcDbEntity
  8
0
 62
     3
100
AcDbLine
 10
64.43167159219999
 20
61.03540922779998
 30
0.0
 11
84.23165938519998
 21
61.03540922779998
 31
0.0
  0
LINE
  5
ED
330
2
100
AcDbEntity
  8
0
 62
     3
100
AcDbLine
 10
84.23165938519998
 20
54.5354092278
 30
0.0
 11
64.43167159219999
 21
54.5354092278
 31
0.0
  0
LINE
  5
EE
330
2
100
AcDbEntity
  8
0
 62
     3
100
AcDbLine
 10
64.33166548869997
 20
54.5354092278
 30
0.0
 11
84.33166548869998
 21
54.5354092278
 31
0.0
  0
LINE
  5
EF
330
2
100
AcDbEntity
  8
0
 62
     3
100
AcDbLine
 10
64.33166548869997
 20
61.03540922779998
 30
0.0
 11
84.33166548869998
 21
61.03540922779998
 31
0.0
  0
LINE
  5
F0
330
2
100
AcDbEntity
  8
0
 62
     3
100
AcDbLine
 10
64.33166548869997
 20
80.0354092278
 30
0.0
 11
84.33166548869998
 21
80.0354092278
 31
0.0
  0
LINE
  5
F1
330
2
100
AcDbEntity
  8
0
 62
     3
100
AcDbLine
 10
64.33166548869997
 20
73.5354092278
 30
0.0
 11
84.33166548869998
 21
73.5354092278
 31
0.0
  0
LINE
  5
F2
330
2
100
AcDbEntity
  8
0
 62
     3
100
AcDbLine
 10
84.23165938519998
 20
73.5354092278
 30
0.0
 11
64.43167159219999
 21
73.5354092278
 31
0.0
  0
LINE
  5
F3
330
2
100
AcDbEntity
  8
0
 62
     3
100
AcDbLine
 10
64.43167159219999
 20
80.0354092278
 30
0.0
 11
84.23165938519998
 21
80.0354092278
 31
0.0
  0
LINE
  5
F4
330
2
100
AcDbEntity
  8
0
 62
     3
100
AcDbLine
 10
64.33166548869997
 20
73.5354092278
 30
0.0
 11
64.33166548869997
 21
80.0354092278
 31
0.0
  0
LINE
  5
F5
330
2
100
AcDbEntity
  8
0
 62
     3
100
AcDbLine
 10
64.43167159219999
 20
80.0354092278
 30
0.0
 11
64.43167159219999
 21
73.5354092278
 31
0.0
  0
LINE
  5
F6
330
2
100
AcDbEntity
  8
0
 62
     3
100
AcDbLine
 10
64.43167159219999
 20
61.03540922779998
 30
0.0
 11
64.43167159219999
 21
54.5354092278
 31
0.0
  0
LINE
  5
F7
330
2
100
AcDbEntity
  8
0
 62
     3
100
AcDbLine
 10
64.33166548869997
 20
54.5354092278
 30
0.0
 11
64.33166548869997
 21
61.03540922779998
 31
0.0
  0
LINE
  5
F8
330
2
100
AcDbEntity
  8
0
 62
     3
100
AcDbLine
 10
84.33166548869998
 20
73.5354092278
 30
0.0
 11
84.33166548869998
 21
80.0354092278
 31
0.0
  0
LINE
  5
F9
330
2
100
AcDbEntity
  8
0
 62
     3
100
AcDbLine
 10
84.23165938519998
 20
80.0354092278
 30
0.0
 11
84.23165938519998
 21
73.5354092278
 31
0.0
  0
LINE
  5
FA
330
2
100
AcDbEntity
  8
0
 62
     3
100
AcDbLine
 10
84.23165938519998
 20
61.03540922779998
 30
0.0
 11
84.23165938519998
 21
54.5354092278
 31
0.0
  0
LINE
  5
FB
330
2
100
AcDbEntity
  8
0
 62
     3
100
AcDbLine
 10
84.33166548869998
 20
54.5354092278
 30
0.0
 11
84.33166548869998
 21
61.03540922779998
 31
0.0
  0
LINE
  5
FC
330
2
100
AcDbEntity
  8
0
 62
     3
100
AcDbLine
 10
96.83166548869998
 20
48.48542143479999
 30
0.0
 11
96.83166548869998
 21
67.0854122795
 31
0.0
  0
LINE
  5
FD
330
2
100
AcDbEntity
  8
0
 62
     3
100
AcDbLine
 10
86.33168074749999
 20
51.2854092278
 30
0.0
 11
86.33168074749999
 21
64.2854092278
 31
0.0
  0
LINE
  5
FE
330
2
100
AcDbEntity
  8
0
 62
     3
100
AcDbLine
 10
86.83168074749998
 20
51.2854092278
 30
0.0
 11
86.83168074749998
 21
64.2854092278
 31
0.0
  0
LINE
  5
FF
330
2
100
AcDbEntity
  8
0
 62
     3
100
AcDbLine
 10
90.83166548869998
 20
49.3854153313
 30
0.0
 11
96.63166854040001
 21
49.3854153313
 31
0.0
  0
LINE
  5
100
330
2
100
AcDbEntity
  8
0
 62
     3
100
AcDbLine
 10
90.83166548869998
 20
47.18541838300001
 30
0.0
 11
96.63166854040001
 21
47.18541838300001
 31
0.0
  0
LINE
  5
101
330
2
100
AcDbEntity
  8
0
 62
     3
100
AcDbLine
 10
90.83166548869998
 20
38.78540922779999
 30
0.0
 11
96.80458113809999
 21
38.78540922779999
 31
0.0
  0
ARC
  5
102
330
2
100
AcDbEntity
  8
0
 62
     3
100
AcDbCircle
 10
93.83160445349998
 20
38.3854153313
 30
0.0
 40
9.0
100
AcDbArc
 50
260.3479771416
 51
269.9999087031
  0
LINE
  5
103
330
2
100
AcDbEntity
  8
0
 62
     3
100
AcDbLine
 10
90.83166548869998
 20
30.3854153313
 30
0.0
 11
96.63166854040001
 21
30.3854153313
 31
0.0
  0
LINE
  5
104
330
2
100
AcDbEntity
  8
0
 62
     3
100
AcDbLine
 10
90.83166548869998
 20
35.5354092278
 30
0.0
 11
90.83166548869998
 21
42.03540922779999
 31
0.0
  0
LINE
  5
105
330
2
100
AcDbEntity
  8
0
 62
     3
100
AcDbLine
 10
89.98165938519994
 20
35.5354092278
 30
0.0
 11
89.98165938519994
 21
42.03540922779999
 31
0.0
  0
LINE
  5
106
330
2
100
AcDbEntity
  8
0
 62
     3
100
AcDbLine
 10
90.83166548869998
 20
34.7854550041
 30
0.0
 11
90.83166548869998
 21
42.78545500409999
 31
0.0
  0
LINE
  5
107
330
2
100
AcDbEntity
  8
0
 62
     3
100
AcDbLine
 10
90.0316166606
 20
34.7854550041
 30
0.0
 11
90.0316166606
 21
42.78545500409999
 31
0.0
  0
LINE
  5
108
330
2
100
AcDbEntity
  8
0
 62
     3
100
AcDbLine
 10
90.23168990269999
 20
36.5854427971
 30
0.0
 11
90.23168990269999
 21
40.98546721119999
 31
0.0
  0
LINE
  5
109
330
2
100
AcDbEntity
  8
0
 62
     3
100
AcDbLine
 10
90.63165328169999
 20
40.98546721119999
 30
0.0
 11
90.63165328169999
 21
36.5854427971
 31
0.0
  0
LINE
  5
10A
330
2
100
AcDbEntity
  8
0
 62
     3
100
AcDbLine
 10
86.83168074749998
 20
32.2854092278
 30
0.0
 11
86.83168074749998
 21
45.28540922779998
 31
0.0
  0
LINE
  5
10B
330
2
100
AcDbEntity
  8
0
 62
     3
100
AcDbLine
 10
86.33168074749999
 20
32.2854092278
 30
0.0
 11
86.33168074749999
 21
45.28540922779998
 31
0.0
  0
LINE
  5
10C
330
2
100
AcDbEntity
  8
0
 62
     3
100
AcDbLine
 10
89.98165938519994
 20
35.5354092278
 30
0.0
 11
90.0316166606
 21
35.5354092278
 31
0.0
  0
LINE
  5
10D
330
2
100
AcDbEntity
  8
0
 62
     3
100
AcDbLine
 10
90.83166548869998
 20
30.3854153313
 30
0.0
 11
90.83166548869998
 21
29.2854092278
 31
0.0
  0
ARC
  5
10E
330
2
100
AcDbEntity
  8
0
 62
     3
100
AcDbCircle
 10
93.7816166606
 20
30.3854153313
 30
0.0
 40
1.6999998093
100
AcDbArc
 50
179.9999093863
 51
210.883456662
  0
LINE
  5
10F
330
2
100
AcDbEntity
  8
0
 62
     3
100
AcDbLine
 10
90.03149459019999
 20
34.7854702629
 30
0.0
 11
90.83154341839998
 21
34.7854702629
 31
0.0
  0
LINE
  5
110
330
2
100
AcDbEntity
  8
0
 62
     3
100
AcDbLine
 10
90.03149459019999
 20
35.5853970207
 30
0.0
 11
90.83154341839998
 21
35.5853970207
 31
0.0
  0
LINE
  5
111
330
2
100
AcDbEntity
  8
0
 62
     3
100
AcDbLine
 10
90.03159787649996
 20
35.5853833978
 30
0.0
 11
90.23160287569998
 21
36.585353324
 31
0.0
  0
LINE
  5
112
330
2
100
AcDbEntity
  8
0
 62
     3
100
AcDbLine
 10
90.63156949540001
 20
36.5853858372
 30
0.0
 11
90.83157376519995
 21
35.5854157893
 31
0.0
  0
LINE
  5
113
330
2
100
AcDbEntity
  8
0
 62
     3
100
AcDbLine
 10
90.23156783240001
 20
36.5853970207
 30
0.0
 11
90.63153121129998
 21
36.5853970207
 31
0.0
  0
LINE
  5
114
330
2
100
AcDbEntity
  8
0
 62
     3
100
AcDbLine
 10
89.98165938519994
 20
42.03540922779999
 30
0.0
 11
90.0316166606
 21
42.03540922779999
 31
0.0
  0
LINE
  5
115
330
2
100
AcDbEntity
  8
0
 62
     3
100
AcDbLine
 10
90.03149459019999
 20
41.9854214348
 30
0.0
 11
90.83154341839998
 21
41.9854214348
 31
0.0
  0
LINE
  5
116
330
2
100
AcDbEntity
  8
0
 62
     3
100
AcDbLine
 10
90.03149459019999
 20
42.7854702629
 30
0.0
 11
90.83154341839998
 21
42.7854702629
 31
0.0
  0
LINE
  5
117
330
2
100
AcDbEntity
  8
0
 62
     3
100
AcDbLine
 10
90.2315731874
 20
40.98534855819999
 30
0.0
 11
90.03155694709999
 21
41.98537845579999
 31
0.0
  0
LINE
  5
118
330
2
100
AcDbEntity
  8
0
 62
     3
100
AcDbLine
 10
90.83153855499999
 20
41.9854084773
 30
0.0
 11
90.63152158519995
 21
40.9853787013
 31
0.0
  0
LINE
  5
119
330
2
100
AcDbEntity
  8
0
 62
     3
100
AcDbLine
 10
90.23156783240001
 20
40.98542143479997
 30
0.0
 11
90.63153121129998
 21
40.98542143479997
 31
0.0
  0
LINE
  5
11A
330
2
100
AcDbEntity
  8
0
 62
     3
100
AcDbLine
 10
90.83166548869998
 20
47.18541838300001
 30
0.0
 11
90.83166548869998
 21
49.3854153313
 31
0.0
  0
LINE
  5
11B
330
2
100
AcDbEntity
  8
0
 62
     3
100
AcDbLine
 10
92.68167159219999
 20
49.3854153313
 30
0.0
 11
92.68167159219999
 21
47.18541838300001
 31
0.0
  0
LINE
  5
11C
330
2
100
AcDbEntity
  8
0
 62
     3
100
AcDbLine
 10
96.83166548869998
 20
29.4854214348
 30
0.0
 11
96.83166548869998
 21
48.0854122795
 31
0.0
  0
ARC
  5
11D
330
2
100
AcDbEntity
  8
0
 62
     3
100
AcDbCircle
 10
93.8816532817
 20
30.3854153313
 30
0.0
 40
1.6999998093
100
AcDbArc
 50
329.1163605168
 51
359.9999360237998
  0
ARC
  5
11E
330
2
100
AcDbEntity
  8
0
 62
     3
100
AcDbCircle
 10
93.83160445349998
 20
38.3854153313
 30
0.0
 40
9.0
100
AcDbArc
 50
270.0000179861
 51
279.6519495475
  0
ARC
  5
11F
330
2
100
AcDbEntity
  8
0
 62
     3
100
AcDbCircle
 10
96.63166854040001
 20
30.5854122795
 30
0.0
 40
0.1999999881
100
AcDbArc
 50
270.0000179861
 51
0.0
  0
ARC
  5
120
330
2
100
AcDbEntity
  8
0
 62
     3
100
AcDbCircle
 10
96.63166854040001
 20
29.4854214348
 30
0.0
 40
0.1999999881
100
AcDbArc
 50
270.0000179861
 51
0.0
  0
LINE
  5
121
330
2
100
AcDbEntity
  8
0
 62
     3
100
AcDbLine
 10
94.98167464399999
 20
48.2854092278
 30
0.0
 11
96.63873335979999
 21
48.2854092278
 31
0.0
  0
LINE
  5
122
330
2
100
AcDbEntity
  8
0
 62
     3
100
AcDbLine
 10
94.98167464399999
 20
49.3854153313
 30
0.0
 11
94.98167464399999
 21
47.18541838300001
 31
0.0
  0
ARC
  5
123
330
2
100
AcDbEntity
  8
0
 62
     3
100
AcDbCircle
 10
96.63166854040001
 20
48.48542143479999
 30
0.0
 40
0.1999999881
100
AcDbArc
 50
270.0000179861
 51
0.0
  0
ARC
  5
124
330
2
100
AcDbEntity
  8
0
 62
     3
100
AcDbCircle
 10
96.63166854040001
 20
49.5854122795
 30
0.0
 40
0.1999999881
100
AcDbArc
 50
270.0000179861
 51
0.0
  0
ARC
  5
125
330
2
100
AcDbEntity
  8
0
 62
     3
100
AcDbCircle
 10
96.63166854040001
 20
46.985406176
 30
0.0
 40
0.1999999881
100
AcDbArc
 50
0.0
 51
89.99998201389999
  0
ARC
  5
126
330
2
100
AcDbEntity
  8
0
 62
     3
100
AcDbCircle
 10
96.63166854040001
 20
48.0854122795
 30
0.0
 40
0.1999999881
100
AcDbArc
 50
0.0
 51
89.99998201389999
  0
LINE
  5
127
330
2
100
AcDbEntity
  8
0
 62
     3
100
AcDbLine
 10
90.83166548869998
 20
73.5354092278
 30
0.0
 11
90.83166548869998
 21
80.0354092278
 31
0.0
  0
LINE
  5
128
330
2
100
AcDbEntity
  8
0
 62
     3
100
AcDbLine
 10
89.98165938519994
 20
73.5354092278
 30
0.0
 11
89.98165938519994
 21
80.0354092278
 31
0.0
  0
LINE
  5
129
330
2
100
AcDbEntity
  8
0
 62
     3
100
AcDbLine
 10
90.23168990269999
 20
74.5854427971
 30
0.0
 11
90.23168990269999
 21
78.9854672112
 31
0.0
  0
LINE
  5
12A
330
2
100
AcDbEntity
  8
0
 62
     3
100
AcDbLine
 10
90.63165328169999
 20
78.9854672112
 30
0.0
 11
90.63165328169999
 21
74.5854427971
 31
0.0
  0
LINE
  5
12B
330
2
100
AcDbEntity
  8
0
 62
     3
100
AcDbLine
 10
90.83166548869998
 20
72.7854550041
 30
0.0
 11
90.83166548869998
 21
80.78545500409999
 31
0.0
  0
LINE
  5
12C
330
2
100
AcDbEntity
  8
0
 62
     3
100
AcDbLine
 10
90.0316166606
 20
72.7854550041
 30
0.0
 11
90.0316166606
 21
80.78545500409999
 31
0.0
  0
LINE
  5
12D
330
2
100
AcDbEntity
  8
0
 62
     3
100
AcDbLine
 10
96.83166548869998
 20
67.48542143479999
 30
0.0
 11
96.83166548869998
 21
86.0854122795
 31
0.0
  0
LINE
  5
12E
330
2
100
AcDbEntity
  8
0
 62
     3
100
AcDbLine
 10
86.83168074749998
 20
70.2854092278
 30
0.0
 11
86.83168074749998
 21
83.2854092278
 31
0.0
  0
LINE
  5
12F
330
2
100
AcDbEntity
  8
0
 62
     3
100
AcDbLine
 10
86.33168074749999
 20
70.2854092278
 30
0.0
 11
86.33168074749999
 21
83.2854092278
 31
0.0
  0
LINE
  5
130
330
2
100
AcDbEntity
  8
0
 62
     3
100
AcDbLine
 10
90.83166548869998
 20
66.185418383
 30
0.0
 11
96.63166854040001
 21
66.185418383
 31
0.0
  0
LINE
  5
131
330
2
100
AcDbEntity
  8
0
 62
     3
100
AcDbLine
 10
90.83166548869998
 20
57.78540922779999
 30
0.0
 11
96.80458113809999
 21
57.78540922779999
 31
0.0
  0
LINE
  5
132
330
2
100
AcDbEntity
  8
0
 62
     3
100
AcDbLine
 10
90.83166548869998
 20
68.38541533129999
 30
0.0
 11
96.63166854040001
 21
68.38541533129999
 31
0.0
  0
LINE
  5
133
330
2
100
AcDbEntity
  8
0
 62
     3
100
AcDbLine
 10
89.98165938519994
 20
61.03540922779998
 30
0.0
 11
90.0316166606
 21
61.03540922779998
 31
0.0
  0
LINE
  5
134
330
2
100
AcDbEntity
  8
0
 62
     3
100
AcDbLine
 10
89.98165938519994
 20
54.5354092278
 30
0.0
 11
90.0316166606
 21
54.5354092278
 31
0.0
  0
LINE
  5
135
330
2
100
AcDbEntity
  8
0
 62
     3
100
AcDbLine
 10
89.98165938519994
 20
54.5354092278
 30
0.0
 11
89.98165938519994
 21
61.03540922779998
 31
0.0
  0
LINE
  5
136
330
2
100
AcDbEntity
  8
0
 62
     3
100
AcDbLine
 10
90.63165328169999
 20
59.9854672112
 30
0.0
 11
90.63165328169999
 21
55.5854427971
 31
0.0
  0
LINE
  5
137
330
2
100
AcDbEntity
  8
0
 62
     3
100
AcDbLine
 10
90.23168990269999
 20
55.5854427971
 30
0.0
 11
90.23168990269999
 21
59.9854672112
 31
0.0
  0
LINE
  5
138
330
2
100
AcDbEntity
  8
0
 62
     3
100
AcDbLine
 10
90.0316166606
 20
53.7854550041
 30
0.0
 11
90.0316166606
 21
61.7854550041
 31
0.0
  0
LINE
  5
139
330
2
100
AcDbEntity
  8
0
 62
     3
100
AcDbLine
 10
90.83166548869998
 20
53.7854550041
 30
0.0
 11
90.83166548869998
 21
61.7854550041
 31
0.0
  0
LINE
  5
13A
330
2
100
AcDbEntity
  8
0
 62
     3
100
AcDbLine
 10
90.83166548869998
 20
54.5354092278
 30
0.0
 11
90.83166548869998
 21
61.03540922779998
 31
0.0
  0
LINE
  5
13B
330
2
100
AcDbEntity
  8
0
 62
     3
100
AcDbLine
 10
90.23156783240001
 20
55.5853970207
 30
0.0
 11
90.63153121129998
 21
55.5853970207
 31
0.0
  0
LINE
  5
13C
330
2
100
AcDbEntity
  8
0
 62
     3
100
AcDbLine
 10
90.63156949540001
 20
55.5853858372
 30
0.0
 11
90.83157376519995
 21
54.5854157893
 31
0.0
  0
LINE
  5
13D
330
2
100
AcDbEntity
  8
0
 62
     3
100
AcDbLine
 10
90.03159787649996
 20
54.58538339779998
 30
0.0
 11
90.23160287569998
 21
55.58535332399999
 31
0.0
  0
LINE
  5
13E
330
2
100
AcDbEntity
  8
0
 62
     3
100
AcDbLine
 10
90.03149459019999
 20
54.5853970207
 30
0.0
 11
90.83154341839998
 21
54.5853970207
 31
0.0
  0
LINE
  5
13F
330
2
100
AcDbEntity
  8
0
 62
     3
100
AcDbLine
 10
90.03149459019999
 20
53.7854702629
 30
0.0
 11
90.83154341839998
 21
53.7854702629
 31
0.0
  0
LINE
  5
140
330
2
100
AcDbEntity
  8
0
 62
     3
100
AcDbLine
 10
90.23156783240001
 20
59.98542143479999
 30
0.0
 11
90.63153121129998
 21
59.98542143479999
 31
0.0
  0
LINE
  5
141
330
2
100
AcDbEntity
  8
0
 62
     3
100
AcDbLine
 10
90.83153855499999
 20
60.98540847729999
 30
0.0
 11
90.63152158519995
 21
59.9853787013
 31
0.0
  0
LINE
  5
142
330
2
100
AcDbEntity
  8
0
 62
     3
100
AcDbLine
 10
90.2315731874
 20
59.9853485582
 30
0.0
 11
90.03155694709999
 21
60.98537845580001
 31
0.0
  0
LINE
  5
143
330
2
100
AcDbEntity
  8
0
 62
     3
100
AcDbLine
 10
90.03149459019999
 20
61.78547026290001
 30
0.0
 11
90.83154341839998
 21
61.78547026290001
 31
0.0
  0
LINE
  5
144
330
2
100
AcDbEntity
  8
0
 62
     3
100
AcDbLine
 10
90.03149459019999
 20
60.98542143479999
 30
0.0
 11
90.83154341839998
 21
60.98542143479999
 31
0.0
  0
LINE
  5
145
330
2
100
AcDbEntity
  8
0
 62
     3
100
AcDbLine
 10
89.98165938519994
 20
73.5354092278
 30
0.0
 11
90.0316166606
 21
73.5354092278
 31
0.0
  0
LINE
  5
146
330
2
100
AcDbEntity
  8
0
 62
     3
100
AcDbLine
 10
90.83166548869998
 20
66.185418383
 30
0.0
 11
90.83166548869998
 21
68.38541533129999
 31
0.0
  0
LINE
  5
147
330
2
100
AcDbEntity
  8
0
 62
     3
100
AcDbLine
 10
92.68167159219999
 20
68.38541533129999
 30
0.0
 11
92.68167159219999
 21
66.185418383
 31
0.0
  0
LINE
  5
148
330
2
100
AcDbEntity
  8
0
 62
     3
100
AcDbLine
 10
90.03149459019999
 20
72.7854702629
 30
0.0
 11
90.83154341839998
 21
72.7854702629
 31
0.0
  0
LINE
  5
149
330
2
100
AcDbEntity
  8
0
 62
     3
100
AcDbLine
 10
90.03149459019999
 20
73.5853970207
 30
0.0
 11
90.83154341839998
 21
73.5853970207
 31
0.0
  0
LINE
  5
14A
330
2
100
AcDbEntity
  8
0
 62
     3
100
AcDbLine
 10
90.03159787649996
 20
73.5853833978
 30
0.0
 11
90.23160287569998
 21
74.585353324
 31
0.0
  0
LINE
  5
14B
330
2
100
AcDbEntity
  8
0
 62
     3
100
AcDbLine
 10
90.63156949540001
 20
74.58538583720001
 30
0.0
 11
90.83157376519995
 21
73.5854157893
 31
0.0
  0
LINE
  5
14C
330
2
100
AcDbEntity
  8
0
 62
     3
100
AcDbLine
 10
90.23156783240001
 20
74.5853970207
 30
0.0
 11
90.63153121129998
 21
74.5853970207
 31
0.0
  0
LINE
  5
14D
330
2
100
AcDbEntity
  8
0
 62
     3
100
AcDbLine
 10
94.98167464399999
 20
67.2854092278
 30
0.0
 11
96.63873335979999
 21
67.2854092278
 31
0.0
  0
LINE
  5
14E
330
2
100
AcDbEntity
  8
0
 62
     3
100
AcDbLine
 10
94.98167464399999
 20
68.38541533129999
 30
0.0
 11
94.98167464399999
 21
66.185418383
 31
0.0
  0
ARC
  5
14F
330
2
100
AcDbEntity
  8
0
 62
     3
100
AcDbCircle
 10
96.63166854040001
 20
67.0854122795
 30
0.0
 40
0.1999999881
100
AcDbArc
 50
0.0
 51
89.99998201389999
  0
ARC
  5
150
330
2
100
AcDbEntity
  8
0
 62
     3
100
AcDbCircle
 10
96.63166854040001
 20
65.985406176
 30
0.0
 40
0.1999999881
100
AcDbArc
 50
0.0
 51
89.99998201389999
  0
ARC
  5
151
330
2
100
AcDbEntity
  8
0
 62
     3
100
AcDbCircle
 10
96.63166854040001
 20
68.5854122795
 30
0.0
 40
0.1999999881
100
AcDbArc
 50
270.0000179861
 51
0.0
  0
ARC
  5
152
330
2
100
AcDbEntity
  8
0
 62
     3
100
AcDbCircle
 10
96.63166854040001
 20
67.48542143479999
 30
0.0
 40
0.1999999881
100
AcDbArc
 50
270.0000179861
 51
0.0
  0
LINE
  5
153
330
2
100
AcDbEntity
  8
0
 62
     3
100
AcDbLine
 10
90.83166548869998
 20
85.185418383
 30
0.0
 11
96.63166854040001
 21
85.185418383
 31
0.0
  0
LINE
  5
154
330
2
100
AcDbEntity
  8
0
 62
     3
100
AcDbLine
 10
95.23159834999999
 20
85.5853512444
 30
0.0
 11
92.43161055699998
 21
85.5853512444
 31
0.0
  0
LINE
  5
155
330
2
100
AcDbEntity
  8
0
 62
     3
100
AcDbLine
 10
90.83166548869998
 20
76.7854092278
 30
0.0
 11
96.80458113809999
 21
76.7854092278
 31
0.0
  0
LINE
  5
156
330
2
100
AcDbEntity
  8
0
 62
     3
100
AcDbLine
 10
89.98165938519994
 20
80.0354092278
 30
0.0
 11
90.0316166606
 21
80.0354092278
 31
0.0
  0
LINE
  5
157
330
2
100
AcDbEntity
  8
0
 62
     3
100
AcDbLine
 10
90.03149459019999
 20
79.98542143479999
 30
0.0
 11
90.83154341839998
 21
79.98542143479999
 31
0.0
  0
LINE
  5
158
330
2
100
AcDbEntity
  8
0
 62
     3
100
AcDbLine
 10
90.2315731874
 20
78.9853485582
 30
0.0
 11
90.03155694709999
 21
79.9853784558
 31
0.0
  0
LINE
  5
159
330
2
100
AcDbEntity
  8
0
 62
     3
100
AcDbLine
 10
90.83153855499999
 20
79.9854084773
 30
0.0
 11
90.63152158519995
 21
78.98537870130002
 31
0.0
  0
LINE
  5
15A
330
2
100
AcDbEntity
  8
0
 62
     3
100
AcDbLine
 10
90.23156783240001
 20
78.98542143479999
 30
0.0
 11
90.63153121129998
 21
78.98542143479999
 31
0.0
  0
LINE
  5
15B
330
2
100
AcDbEntity
  8
0
 62
     3
100
AcDbLine
 10
90.83166548869998
 20
85.185418383
 30
0.0
 11
90.83166548869998
 21
86.2854092278
 31
0.0
  0
LINE
  5
15C
330
2
100
AcDbEntity
  8
0
 62
     3
100
AcDbLine
 10
90.03149459019999
 20
80.78547026290001
 30
0.0
 11
90.83154341839998
 21
80.78547026290001
 31
0.0
  0
LINE
  5
15D
330
2
100
AcDbEntity
  8
0
 62
     3
100
AcDbLine
 10
92.43167159219998
 20
85.58536650309999
 30
0.0
 11
92.43167159219998
 21
85.1854031242
 31
0.0
  0
LINE
  5
15E
330
2
100
AcDbEntity
  8
0
 62
     3
100
AcDbLine
 10
95.2316593852
 20
85.58536650309999
 30
0.0
 11
95.2316593852
 21
85.1854031242
 31
0.0
  0
ARC
  5
15F
330
2
100
AcDbEntity
  8
0
 62
     3
100
AcDbCircle
 10
96.63166854040001
 20
84.98540617599998
 30
0.0
 40
0.1999999881
100
AcDbArc
 50
0.0
 51
89.99998201389999
  0
ARC
  5
160
330
2
100
AcDbEntity
  8
0
 62
     3
100
AcDbCircle
 10
96.63166854040001
 20
86.0854122795
 30
0.0
 40
0.1999999881
100
AcDbArc
 50
0.0
 51
89.99998201389999
  0
ARC
  5
161
330
2
100
AcDbEntity
  8
0
 62
     3
100
AcDbCircle
 10
96.6316532817
 20
121.1321652092
 30
0.0
 40
0.1999999881
100
AcDbArc
 50
270.0000179861
 51
0.0
  0
ARC
  5
162
330
2
100
AcDbEntity
  8
0
 62
     3
100
AcDbCircle
 10
93.83165022989999
 20
117.932168261
 30
0.0
 40
3.0
100
AcDbArc
 50
89.99998201389999
 51
179.9999640277999
  0
LINE
  5
163
330
2
100
AcDbEntity
  8
0
 62
     3
100
AcDbLine
 10
96.83165022989999
 20
141.7321713127
 30
0.0
 11
96.83165022989999
 21
115.932168261
 31
0.0
  0
CIRCLE
  5
164
330
2
100
AcDbEntity
  8
0
 62
     3
100
AcDbCircle
 10
93.83166548870001
 20
117.7321560538999
 30
0.0
 40
1.1999998093
  0
LINE
  5
165
330
2
100
AcDbEntity
  8
0
  6
CENTER
 62
     3
100
AcDbLine
 10
95.83166548869998
 20
117.7321560538999
 30
0.0
 11
91.83165022989999
 21
117.7321560538999
 31
0.0
  0
LINE
  5
166
330
2
100
AcDbEntity
  8
0
 62
     3
100
AcDbLine
 10
90.03166243689999
 20
114.8980343497999
 30
0.0
 11
90.03166243689999
 21
106.4321835196998
 31
0.0
  0
LINE
  5
167
330
2
100
AcDbEntity
  8
0
 62
     3
100
AcDbLine
 10
90.83166548869998
 20
114.8980343497999
 30
0.0
 11
90.83166548869998
 21
106.4321835196998
 31
0.0
  0
LINE
  5
168
330
2
100
AcDbEntity
  8
0
 62
     3
100
AcDbLine
 10
90.83163930789998
 20
106.4321664693
 30
0.0
 11
90.63163890009994
 21
105.4321644907
 31
0.0
  0
LINE
  5
169
330
2
100
AcDbEntity
  8
0
 62
     3
100
AcDbLine
 10
90.03167978139998
 20
106.4321808224
 30
0.0
 11
90.23168012849998
 21
105.4321788437999
 31
0.0
  0
LINE
  5
16A
330
2
100
AcDbEntity
  8
0
 62
     3
100
AcDbLine
 10
90.03166243689999
 20
106.4321835196998
 30
0.0
 11
90.83166548869998
 21
106.4321835196998
 31
0.0
  0
LINE
  5
16B
330
2
100
AcDbEntity
  8
0
 62
     3
100
AcDbLine
 10
90.2316593852
 20
105.4321835196998
 30
0.0
 11
90.63165328169999
 21
105.4321835196998
 31
0.0
  0
LINE
  5
16C
330
2
100
AcDbEntity
  8
0
 62
     3
100
AcDbLine
 10
86.7415960764
 20
114.0316757279999
 30
0.0
 11
86.42169509489995
 21
110.8326651462999
 31
0.0
  0
ARC
  5
16D
330
2
100
AcDbEntity
  8
0
 62
     3
100
AcDbCircle
 10
87.73664900920001
 20
113.932168261
 30
0.0
 40
1.0
100
AcDbArc
 50
89.99998201389999
 51
174.2893794665999
  0
LINE
  5
16E
330
2
100
AcDbEntity
  8
0
  6
CENTER
 62
     3
100
AcDbLine
 10
86.83165022989998
 20
119.4321530022
 30
0.0
 11
86.83165022989998
 21
115.4321530021997
 31
0.0
  0
LINE
  5
16F
330
2
100
AcDbEntity
  8
0
 62
     3
100
AcDbLine
 10
90.83166548869998
 20
117.932168261
 30
0.0
 11
90.83166548869998
 21
115.1321652091999
 31
0.0
  0
LINE
  5
170
330
2
100
AcDbEntity
  8
0
 62
     3
100
AcDbLine
 10
90.8316502299
 20
117.932168261
 30
0.0
 11
90.8316502299
 21
115.1321652091999
 31
0.0
  0
LINE
  5
171
330
2
100
AcDbEntity
  8
0
 62
     3
100
AcDbLine
 10
90.03166243689999
 20
113.4321530021999
 30
0.0
 11
90.83166548869998
 21
113.4321530021999
 31
0.0
  0
LINE
  5
172
330
2
100
AcDbEntity
  8
0
 62
     3
100
AcDbLine
 10
90.03166243689999
 20
114.9321530021998
 30
0.0
 11
90.83166548869998
 21
114.9321530021998
 31
0.0
  0
ARC
  5
173
330
2
100
AcDbEntity
  8
0
 62
     3
100
AcDbCircle
 10
90.63165328169999
 20
115.1321652091999
 30
0.0
 40
0.1999999881
100
AcDbArc
 50
270.0000179861
 51
0.0
  0
ARC
  5
174
330
2
100
AcDbEntity
  8
0
 62
     3
100
AcDbCircle
 10
95.8316502299
 20
115.9321530021999
 30
0.0
 40
1.0
100
AcDbArc
 50
270.0000179861
 51
0.0
  0
ARC
  5
175
330
2
100
AcDbEntity
  8
0
 62
     3
100
AcDbCircle
 10
95.8316502299
 20
115.932168261
 30
0.0
 40
1.0
100
AcDbArc
 50
270.0000179861
 51
0.0
  0
LINE
  5
176
330
2
100
AcDbEntity
  8
0
 62
     3
100
AcDbLine
 10
93.80374190469998
 20
120.9321682609999
 30
0.0
 11
96.6316532817
 21
120.9321682609999
 31
0.0
  0
LINE
  5
177
330
2
100
AcDbEntity
  8
0
  6
CENTER
 62
     3
100
AcDbLine
 10
93.83166548870001
 20
119.7321560538999
 30
0.0
 11
93.83166548870001
 21
115.7321560538999
 31
0.0
  0
LINE
  5
178
330
2
100
AcDbEntity
  8
0
  6
CENTER
 62
     3
100
AcDbLine
 10
93.83165022989999
 20
119.7321560538999
 30
0.0
 11
93.83165022989999
 21
115.7321560538999
 31
0.0
  0
LINE
  5
179
330
2
100
AcDbEntity
  8
0
 62
     3
100
AcDbLine
 10
89.93165633339994
 20
143.432168261
 30
0.0
 11
89.93165633339994
 21
123.7321713127
 31
0.0
  0
ARC
  5
17A
330
2
100
AcDbEntity
  8
0
 62
     3
100
AcDbCircle
 10
87.93165633339993
 20
123.7321713127
 30
0.0
 40
2.0
100
AcDbArc
 50
270.0000179861
 51
0.0
  0
ARC
  5
17B
330
2
100
AcDbEntity
  8
0
 62
     3
100
AcDbCircle
 10
95.8316502299
 20
141.7321713127
 30
0.0
 40
1.0
100
AcDbArc
 50
0.0
 51
89.99998201389999
  0
LINE
  5
17C
330
2
100
AcDbEntity
  8
0
100
AcDbLine
 10
210.0
 20
297.0
 30
0.0
 11
0.0
 21
297.0
 31
0.0
  0
LINE
  5
180
330
2
100
AcDbEntity
  8
0
 62
     3
100
AcDbLine
 10
88.91467330119999
 20
233.4321835197
 30
0.0
 11
81.37535140179997
 21
233.4321835197
 31
0.0
  0
LINE
  5
181
330
2
100
AcDbEntity
  8
0
 62
     3
100
AcDbLine
 10
81.37535140179997
 20
233.4321835197
 30
0.0
 11
88.93167159219999
 21
233.4321835197
 31
0.0
  0
LINE
  5
182
330
2
100
AcDbEntity
  8
0
 62
     3
100
AcDbLine
 10
81.37535140179997
 20
214.4321835197
 30
0.0
 11
88.93167159219999
 21
214.4321835197
 31
0.0
  0
LINE
  5
183
330
2
100
AcDbEntity
  8
0
 62
     3
100
AcDbLine
 10
81.37535140179997
 20
195.4321835196998
 30
0.0
 11
88.93167159219999
 21
195.4321835196998
 31
0.0
  0
ARC
  5
184
330
2
100
AcDbEntity
  8
0
 62
     3
100
AcDbCircle
 10
86.08165022989998
 20
159.9321530021998
 30
0.0
 40
0.5
100
AcDbArc
 50
0.0
 51
89.99998201389999
  0
ARC
  5
185
330
2
100
AcDbEntity
  8
0
 62
     3
100
AcDbCircle
 10
86.08165022989998
 20
159.932168261
 30
0.0
 40
0.5
100
AcDbArc
 50
0.0
 51
89.99998201389999
  0
LINE
  5
186
330
2
100
AcDbEntity
  8
0
  6
CENTER
 62
     3
100
AcDbLine
 10
76.33164569969999
 20
151.4321562562
 30
0.0
 11
86.81577041979997
 21
169.6278455766999
 31
0.0
  0
ARC
  5
187
330
2
100
AcDbEntity
  8
0
  6
PHANTOM
 62
     3
100
AcDbCircle
 10
76.33166548869997
 20
151.432168261
 30
0.0
 40
21.0
100
AcDbArc
 50
60.04998499399999
 51
116.4499715371
  0
LINE
  5
189
330
2
100
AcDbEntity
  8
0
 62
     3
100
AcDbLine
 10
95.63166854039998
 20
223.9321835196999
 30
0.0
 11
71.93687483929998
 21
223.9321835196999
 31
0.0
  0
LINE
  5
18A
330
2
100
AcDbEntity
  8
0
 62
     3
100
AcDbLine
 10
53.73165938519997
 20
145.432168261
 30
0.0
 11
87.93165633339993
 21
145.432168261
 31
0.0
  0
LINE
  5
18B
330
2
100
AcDbEntity
  8
0
 62
     3
100
AcDbLine
 10
96.63166854040001
 20
242.9321835197
 30
0.0
 11
45.03166243689998
 21
242.9321835197
 31
0.0
  0
LINE
  5
18C
330
2
100
AcDbEntity
  8
0
  6
PHANTOM
 62
     3
100
AcDbLine
 10
98.88996932170002
 20
156.9821713127
 30
0.0
 11
43.79130599159998
 21
156.9821713127
 31
0.0
  0
LINE
  5
18D
330
2
100
AcDbEntity
  8
0
 62
     3
100
AcDbLine
 10
95.63166854039998
 20
185.9321835197
 30
0.0
 11
45.03166243689998
 21
185.9321835197
 31
0.0
  0
LINE
  5
18E
330
2
100
AcDbEntity
  8
0
 62
     3
100
AcDbLine
 10
95.63166854039998
 20
204.9321835196999
 30
0.0
 11
45.03166243689998
 21
204.9321835196999
 31
0.0
  0
LINE
  5
18F
330
2
100
AcDbEntity
  8
0
 62
     3
100
AcDbLine
 10
83.17511031289997
 20
236.632180468
 30
0.0
 11
83.17511031289997
 21
230.2321865715
 31
0.0
  0
LINE
  5
190
330
2
100
AcDbEntity
  8
0
 62
     3
100
AcDbLine
 10
81.37535140179997
 20
236.632180468
 30
0.0
 11
81.37535140179997
 21
230.2321865715
 31
0.0
  0
LINE
  5
191
330
2
100
AcDbEntity
  8
0
 62
     3
100
AcDbLine
 10
72.19873091839997
 20
236.4321835196999
 30
0.0
 11
72.19873091839997
 21
230.4321835197
 31
0.0
  0
LINE
  5
192
330
2
100
AcDbEntity
  8
0
 62
     3
100
AcDbLine
 10
65.03686568399999
 20
236.4321835196999
 30
0.0
 11
65.03686568399999
 21
230.4321835197
 31
0.0
  0
LINE
  5
193
330
2
100
AcDbEntity
  8
0
 62
     3
100
AcDbLine
 10
75.08709876409999
 20
236.4320862652999
 30
0.0
 11
75.70838187409998
 21
235.8321744097999
 31
0.0
  0
LINE
  5
194
330
2
100
AcDbEntity
  8
0
 62
     3
100
AcDbLine
 10
84.78166243689996
 20
240.9321835197
 30
0.0
 11
84.78166243689996
 21
225.9321835196999
 31
0.0
  0
LINE
  5
195
330
2
100
AcDbEntity
  8
0
 62
     3
100
AcDbLine
 10
52.8316807475
 20
236.5321896233
 30
0.0
 11
52.8316807475
 21
230.3321774161999
 31
0.0
  0
LINE
  5
196
330
2
100
AcDbEntity
  8
0
 62
     3
100
AcDbLine
 10
52.73165938519998
 20
236.4321835196999
 30
0.0
 11
52.73165938519998
 21
230.4321835197
 31
0.0
  0
LINE
  5
197
330
2
100
AcDbEntity
  8
0
 62
     3
100
AcDbLine
 10
46.63166854039997
 20
230.3321774161999
 30
0.0
 11
46.63166854039997
 21
236.5321896233
 31
0.0
  0
LINE
  5
198
330
2
100
AcDbEntity
  8
0
 62
     3
100
AcDbLine
 10
46.73165938519995
 20
236.4321835196999
 30
0.0
 11
46.73165938519995
 21
230.4321835197
 31
0.0
  0
LINE
  5
199
330
2
100
AcDbEntity
  8
0
 62
     3
100
AcDbLine
 10
55.08166548869997
 20
242.7321865715
 30
0.0
 11
55.08166548869997
 21
224.132180468
 31
0.0
  0
LINE
  5
19A
330
2
100
AcDbEntity
  8
0
 62
     3
100
AcDbLine
 10
56.88166854039997
 20
240.9321835197
 30
0.0
 11
56.88166854039997
 21
225.9321835196999
 31
0.0
  0
LINE
  5
19B
330
2
100
AcDbEntity
  8
0
 62
     3
100
AcDbLine
 10
44.83166548869997
 20
242.7121365227
 30
0.0
 11
44.83166548869997
 21
224.132180468
 31
0.0
  0
LINE
  5
19C
330
2
100
AcDbEntity
  8
0
  6
CENTER
 62
     3
100
AcDbLine
 10
49.73165938519997
 20
238.4321835196999
 30
0.0
 11
49.73165938519997
 21
228.4321835197
 31
0.0
  0
LINE
  5
19D
330
2
100
AcDbEntity
  8
0
 62
     3
100
AcDbLine
 10
52.73165938519998
 20
233.4321835197
 30
0.0
 11
56.90942427769996
 21
233.4321835197
 31
0.0
  0
LINE
  5
19E
330
2
100
AcDbEntity
  8
0
 62
     3
100
AcDbLine
 10
52.73382613319999
 20
214.4321835197
 30
0.0
 11
56.90942427769996
 21
214.4321835197
 31
0.0
  0
LINE
  5
19F
330
2
100
AcDbEntity
  8
0
 62
     3
100
AcDbLine
 10
52.73165938519998
 20
214.4321835197
 30
0.0
 11
56.90942427769996
 21
214.4321835197
 31
0.0
  0
LINE
  5
1A0
330
2
100
AcDbEntity
  8
0
 62
     3
100
AcDbLine
 10
52.73165938519998
 20
195.4321835196998
 30
0.0
 11
56.90942427769996
 21
195.4321835196998
 31
0.0
  0
LINE
  5
1A1
330
2
100
AcDbEntity
  8
0
 62
     3
100
AcDbLine
 10
65.13687178749998
 20
223.9321835196999
 30
0.0
 11
45.03166243689998
 21
223.9321835196999
 31
0.0
  0
LINE
  5
1A2
330
2
100
AcDbEntity
  8
0
  6
CENTER
 62
     3
100
AcDbLine
 10
56.17713973179996
 20
151.4321530021998
 30
0.0
 11
60.73280379429996
 21
151.4321530021998
 31
0.0
  0
LINE
  5
1A3
330
2
100
AcDbEntity
  8
0
 62
     3
100
AcDbLine
 10
86.08165022989998
 20
160.4321530021999
 30
0.0
 11
55.58165022989999
 21
160.4321530021999
 31
0.0
  0
LINE
  5
1A4
330
2
100
AcDbEntity
  8
0
 62
     3
100
AcDbLine
 10
55.58165022989999
 20
160.432168261
 30
0.0
 11
86.08165022989998
 21
160.432168261
 31
0.0
  0
LINE
  5
1A5
330
2
100
AcDbEntity
  8
0
 62
     3
100
AcDbLine
 10
55.08166548869997
 20
204.7321865715
 30
0.0
 11
55.08166548869997
 21
186.132180468
 31
0.0
  0
LINE
  5
1A6
330
2
100
AcDbEntity
  8
0
 62
     3
100
AcDbLine
 10
45.83166548869995
 20
186.132180468
 30
0.0
 11
45.83166548869995
 21
191.4321835197
 31
0.0
  0
LINE
  5
1A7
330
2
100
AcDbEntity
  8
0
 62
     3
100
AcDbLine
 10
44.83166548869997
 20
204.7121365226999
 30
0.0
 11
44.83166548869997
 21
186.132180468
 31
0.0
  0
LINE
  5
1A8
330
2
100
AcDbEntity
  8
0
  6
CENTER
 62
     3
100
AcDbLine
 10
47.23165938519995
 20
150.5321591057
 30
0.0
 11
52.23165938519997
 21
150.5321591057
 31
0.0
  0
ARC
  5
1A9
330
2
100
AcDbEntity
  8
0
  6
PHANTOM
 62
     3
100
AcDbCircle
 10
49.7316441264
 20
152.815484301
 30
0.0
 40
5.8333330154
100
AcDbArc
 50
74.13285151530002
 51
105.8671125125
  0
CIRCLE
  5
1AA
330
2
100
AcDbEntity
  8
0
 62
     3
100
AcDbCircle
 10
49.73165938519997
 20
150.5321591057
 30
0.0
 40
2.024999618499998
  0
CIRCLE
  5
1AB
330
2
100
AcDbEntity
  8
0
 62
     3
100
AcDbCircle
 10
49.73165938519997
 20
150.5321591057
 30
0.0
 40
1.1999998093
  0
CIRCLE
  5
1AC
330
2
100
AcDbEntity
  8
0
 62
     3
100
AcDbCircle
 10
49.7316441264
 20
150.5321591057
 30
0.0
 40
2.024999618499998
  0
CIRCLE
  5
1AD
330
2
100
AcDbEntity
  8
0
 62
     3
100
AcDbCircle
 10
49.7316441264
 20
150.5321591057
 30
0.0
 40
1.1999998093
  0
LINE
  5
1AE
330
2
100
AcDbEntity
  8
0
 62
     3
100
AcDbLine
 10
55.08165022989999
 20
155.9321530021998
 30
0.0
 11
45.84967085979999
 21
155.9321530021998
 31
0.0
  0
LINE
  5
1AF
330
2
100
AcDbEntity
  8
0
 62
     3
100
AcDbLine
 10
46.83165022989999
 20
155.932168261
 30
0.0
 11
54.99261519569998
 21
155.932168261
 31
0.0
  0
ARC
  5
1B0
330
2
100
AcDbEntity
  8
0
 62
     3
100
AcDbCircle
 10
46.83166548869997
 20
154.9321530021998
 30
0.0
 40
1.0
100
AcDbArc
 50
89.99998201389999
 51
179.9999640277999
  0
ARC
  5
1B1
330
2
100
AcDbEntity
  8
0
 62
     3
100
AcDbCircle
 10
46.83165022989999
 20
154.932168261
 30
0.0
 40
1.0
100
AcDbArc
 50
89.99998201389999
 51
179.9999640277999
  0
ARC
  5
1B2
330
2
100
AcDbEntity
  8
0
 62
     3
100
AcDbCircle
 10
45.83166548869995
 20
154.9321530021998
 30
0.0
 40
1.0
100
AcDbArc
 50
89.99992737239997
 51
179.9999640277999
  0
ARC
  5
1B3
330
2
100
AcDbEntity
  8
0
 62
     3
100
AcDbCircle
 10
45.83165022989997
 20
154.932168261
 30
0.0
 40
1.0
100
AcDbArc
 50
89.99998201389999
 51
179.9999640277999
  0
LINE
  5
1B4
330
2
100
AcDbEntity
  8
0
 62
     3
100
AcDbLine
 10
44.83169600629997
 20
151.932168261
 30
0.0
 11
45.82959029339997
 21
151.932168261
 31
0.0
  0
LINE
  5
1B5
330
2
100
AcDbEntity
  8
0
 62
     3
100
AcDbLine
 10
45.03164717809997
 20
146.9321530021999
 30
0.0
 11
45.83166548869995
 21
146.9321530021999
 31
0.0
  0
LINE
  5
1B6
330
2
100
AcDbEntity
  8
0
 62
     3
100
AcDbLine
 10
45.83165022989997
 20
146.932168261
 30
0.0
 11
45.03164717809997
 21
146.932168261
 31
0.0
  0
LINE
  5
1B7
330
2
100
AcDbEntity
  8
0
 62
     3
100
AcDbLine
 10
44.83166548869997
 20
154.8904049553
 30
0.0
 11
44.83166548869997
 21
147.1321652092
 31
0.0
  0
LINE
  5
1B8
330
2
100
AcDbEntity
  8
0
 62
     3
100
AcDbLine
 10
44.83165022989997
 20
154.932168261
 30
0.0
 11
44.83165022989997
 21
147.1321652092
 31
0.0
  0
ARC
  5
1B9
330
2
100
AcDbEntity
  8
0
 62
     3
100
AcDbCircle
 10
45.03164717809997
 20
147.1321652092
 30
0.0
 40
0.1999999881
100
AcDbArc
 50
179.9999640277999
 51
270.0000006831999
  0
ARC
  5
1BA
330
2
100
AcDbEntity
  8
0
  6
PHANTOM
 62
     3
100
AcDbCircle
 10
48.38739058629997
 20
157.5448239006
 30
0.0
 40
0.9166666864999999
100
AcDbArc
 50
105.8671125125
 51
176.9999810198
  0
LINE
  5
1BB
330
2
100
AcDbEntity
  8
0
 62
     3
100
AcDbLine
 10
45.83165022989997
 20
155.932168261
 30
0.0
 11
46.56002852579999
 21
155.932168261
 31
0.0
  0
LINE
  5
1BC
330
2
100
AcDbEntity
  8
0
  6
PHANTOM
 62
     3
100
AcDbLine
 10
47.47198630939997
 20
157.5928175786
 30
0.0
 11
47.43998388219996
 21
156.9821748936
 31
0.0
  0
LINE
  5
1BD
330
2
100
AcDbEntity
  8
0
  6
CENTER
 62
     3
100
AcDbLine
 10
49.7316441264
 20
159.4565823235
 30
0.0
 11
49.7316441264
 21
147.5985806145
 31
0.0
  0
ARC
  5
1BE
330
2
100
AcDbEntity
  8
0
  6
PHANTOM
 62
     3
100
AcDbCircle
 10
51.07589766639996
 20
157.5448239006
 30
0.0
 40
0.9166666864999999
100
AcDbArc
 50
2.9999992297
 51
74.13285151530002
  0
LINE
  5
1BF
330
2
100
AcDbEntity
  8
0
  6
PHANTOM
 62
     3
100
AcDbLine
 10
51.99133641389996
 20
157.5928022882999
 30
0.0
 11
52.02333884109997
 21
156.9821596034
 31
0.0
  0
ARC
  5
1C0
330
2
100
AcDbEntity
  8
0
 62
     3
100
AcDbCircle
 10
55.58165022989999
 20
159.9321530021998
 30
0.0
 40
0.5
100
AcDbArc
 50
89.99998201389999
 51
179.9999640277999
  0
ARC
  5
1C1
330
2
100
AcDbEntity
  8
0
 62
     3
100
AcDbCircle
 10
55.58165022989999
 20
159.932168261
 30
0.0
 40
0.5
100
AcDbArc
 50
89.99998201389999
 51
179.9999640277999
  0
LINE
  5
1C2
330
2
100
AcDbEntity
  8
0
 62
     3
100
AcDbLine
 10
55.08165022989999
 20
159.932168261
 30
0.0
 11
55.08165022989999
 21
155.9321530021998
 31
0.0
  0
ARC
  5
1C3
330
2
100
AcDbEntity
  8
0
 62
     3
100
AcDbCircle
 10
45.03166243689998
 20
186.132180468
 30
0.0
 40
0.1999999881
100
AcDbArc
 50
179.9999640277999
 51
270.0000006831999
  0
ARC
  5
1C4
330
2
100
AcDbEntity
  8
0
 62
     3
100
AcDbCircle
 10
46.03166243689996
 20
186.132180468
 30
0.0
 40
0.1999999881
100
AcDbArc
 50
179.9999640277999
 51
270.0000006831999
  0
ARC
  5
1C5
330
2
100
AcDbEntity
  8
0
 62
     3
100
AcDbCircle
 10
55.28166243689998
 20
186.132180468
 30
0.0
 40
0.1999999881
100
AcDbArc
 50
179.9999640277999
 51
270.0000006831999
  0
LINE
  5
1C6
330
2
100
AcDbEntity
  8
0
 62
     3
100
AcDbLine
 10
52.73165938519998
 20
217.4321835196999
 30
0.0
 11
52.73165938519998
 21
211.4321835196999
 31
0.0
  0
LINE
  5
1C7
330
2
100
AcDbEntity
  8
0
 62
     3
100
AcDbLine
 10
52.8316807475
 20
217.5321896233
 30
0.0
 11
52.8316807475
 21
211.3321774161999
 31
0.0
  0
LINE
  5
1C8
330
2
100
AcDbEntity
  8
0
 62
     3
100
AcDbLine
 10
46.73165938519995
 20
217.4321835196999
 30
0.0
 11
46.73165938519995
 21
211.4321835196999
 31
0.0
  0
LINE
  5
1C9
330
2
100
AcDbEntity
  8
0
 62
     3
100
AcDbLine
 10
46.63166854039997
 20
211.3321774161999
 30
0.0
 11
46.63166854039997
 21
217.5321896233
 31
0.0
  0
CIRCLE
  5
1CA
330
2
100
AcDbEntity
  8
0
 62
     3
100
AcDbCircle
 10
49.73165938519997
 20
214.4321835197
 30
0.0
 40
1.5
  0
LINE
  5
1CB
330
2
100
AcDbEntity
  8
0
  6
CENTER
 62
     3
100
AcDbLine
 10
49.73165938519997
 20
219.4321835196999
 30
0.0
 11
49.73165938519997
 21
209.4321835196998
 31
0.0
  0
LINE
  5
1CC
330
2
100
AcDbEntity
  8
0
 62
     3
100
AcDbLine
 10
55.08166548869997
 20
223.7321865715
 30
0.0
 11
55.08166548869997
 21
205.132180468
 31
0.0
  0
LINE
  5
1CD
330
2
100
AcDbEntity
  8
0
 62
     3
100
AcDbLine
 10
44.83166548869997
 20
223.7121365227
 30
0.0
 11
44.83166548869997
 21
205.132180468
 31
0.0
  0
LINE
  5
1CE
330
2
100
AcDbEntity
  8
0
 62
     3
100
AcDbLine
 10
52.23165938519997
 20
210.4321835197
 30
0.0
 11
47.23165938519995
 21
210.4321835197
 31
0.0
  0
LINE
  5
1CF
330
2
100
AcDbEntity
  8
0
 62
     3
100
AcDbLine
 10
47.13166854039997
 20
210.3321774162
 30
0.0
 11
52.3316807475
 21
210.3321774162
 31
0.0
  0
LINE
  5
1D0
330
2
100
AcDbEntity
  8
0
 62
     3
100
AcDbLine
 10
47.13166854039997
 20
199.5321896233
 30
0.0
 11
52.3316807475
 21
199.5321896233
 31
0.0
  0
LINE
  5
1D1
330
2
100
AcDbEntity
  8
0
 62
     3
100
AcDbLine
 10
52.23165938519997
 20
199.4321835196998
 30
0.0
 11
47.23165938519995
 21
199.4321835196998
 31
0.0
  0
LINE
  5
1D2
330
2
100
AcDbEntity
  8
0
 62
     3
100
AcDbLine
 10
47.13166854039997
 20
191.3321774161999
 30
0.0
 11
52.3316807475
 21
191.3321774161999
 31
0.0
  0
LINE
  5
1D3
330
2
100
AcDbEntity
  8
0
  6
CENTER
 62
     3
100
AcDbLine
 10
51.73165938519995
 20
195.4321835196998
 30
0.0
 11
47.73165938519997
 21
195.4321835196998
 31
0.0
  0
LINE
  5
1D4
330
2
100
AcDbEntity
  8
0
 62
     3
100
AcDbLine
 10
52.23165938519997
 20
191.4321835197
 30
0.0
 11
47.23165938519995
 21
191.4321835197
 31
0.0
  0
CIRCLE
  5
1D5
330
2
100
AcDbEntity
  8
0
 62
     3
100
AcDbCircle
 10
49.73165938519997
 20
195.4321835196998
 30
0.0
 40
1.229499816899999
  0
CIRCLE
  5
1D6
330
2
100
AcDbEntity
  8
0
 62
     3
100
AcDbCircle
 10
49.73165938519997
 20
195.4321835196998
 30
0.0
 40
1.5
  0
LINE
  5
1D7
330
2
100
AcDbEntity
  8
0
 62
     3
100
AcDbLine
 10
45.83166548869995
 20
204.7321865715
 30
0.0
 11
45.83166548869995
 21
199.9321835197
 31
0.0
  0
LINE
  5
1D8
330
2
100
AcDbEntity
  8
0
 62
     3
100
AcDbLine
 10
45.83166548869995
 20
199.9321835197
 30
0.0
 11
45.03166243689998
 21
199.9321835197
 31
0.0
  0
LINE
  5
1D9
330
2
100
AcDbEntity
  8
0
 62
     3
100
AcDbLine
 10
46.63563582560001
 20
195.4321835196998
 30
0.0
 11
44.83166548869997
 21
195.4321835196998
 31
0.0
  0
LINE
  5
1DA
330
2
100
AcDbEntity
  8
0
 62
     3
100
AcDbLine
 10
45.83166548869995
 20
200.9321835196999
 30
0.0
 11
45.03166243689998
 21
200.9321835196999
 31
0.0
  0
LINE
  5
1DB
330
2
100
AcDbEntity
  8
0
 62
     3
100
AcDbLine
 10
45.03166243689998
 20
191.4321835197
 30
0.0
 11
45.83166548869995
 21
191.4321835197
 31
0.0
  0
LINE
  5
1DC
330
2
100
AcDbEntity
  8
0
 62
     3
100
AcDbLine
 10
45.03166243689998
 20
190.4321835197
 30
0.0
 11
45.83166548869995
 21
190.4321835197
 31
0.0
  0
ARC
  5
1DD
330
2
100
AcDbEntity
  8
0
 62
     3
100
AcDbCircle
 10
45.03166243689998
 20
190.632180468
 30
0.0
 40
0.1999999881
100
AcDbArc
 50
179.9999640277999
 51
269.9999460416999
  0
ARC
  5
1DE
330
2
100
AcDbEntity
  8
0
 62
     3
100
AcDbCircle
 10
45.03166243689998
 20
191.632180468
 30
0.0
 40
0.1999999881
100
AcDbArc
 50
179.9999640277999
 51
269.9999460416999
  0
LINE
  5
1DF
330
2
100
AcDbEntity
  8
0
 62
     3
100
AcDbLine
 10
44.85345503949996
 20
191.3321774161999
 30
0.0
 11
44.8366703715
 21
191.3321774161999
 31
0.0
  0
ARC
  5
1E0
330
2
100
AcDbEntity
  8
0
 62
     3
100
AcDbCircle
 10
45.03166243689998
 20
199.7321865715
 30
0.0
 40
0.1999999881
100
AcDbArc
 50
89.99992737239997
 51
179.9999640277999
  0
ARC
  5
1E1
330
2
100
AcDbEntity
  8
0
 62
     3
100
AcDbCircle
 10
45.03166243689998
 20
200.7321865715
 30
0.0
 40
0.1999999881
100
AcDbArc
 50
89.99992737239997
 51
179.9999640277999
  0
LINE
  5
1E2
330
2
100
AcDbEntity
  8
0
 62
     3
100
AcDbLine
 10
46.63166854039997
 20
192.3321774161999
 30
0.0
 11
46.63166854039997
 21
198.5321896233
 31
0.0
  0
LINE
  5
1E3
330
2
100
AcDbEntity
  8
0
 62
     3
100
AcDbLine
 10
48.58166548869997
 20
195.8671200432
 30
0.0
 11
48.58166548869997
 21
194.9972469963
 31
0.0
  0
LINE
  5
1E4
330
2
100
AcDbEntity
  8
0
 62
     3
100
AcDbLine
 10
46.73165938519995
 20
198.4321835197
 30
0.0
 11
46.73165938519995
 21
192.4321835197
 31
0.0
  0
LINE
  5
1E5
330
2
100
AcDbEntity
  8
0
 62
     3
100
AcDbLine
 10
46.63166854039997
 20
192.3321774161999
 30
0.0
 11
47.13166854039997
 21
192.3321774161999
 31
0.0
  0
LINE
  5
1E6
330
2
100
AcDbEntity
  8
0
 62
     3
100
AcDbLine
 10
47.13166854039997
 20
191.3321774161999
 30
0.0
 11
47.13166854039997
 21
192.4273159659997
 31
0.0
  0
LINE
  5
1E7
330
2
100
AcDbEntity
  8
0
 62
     3
100
AcDbLine
 10
47.23165938519995
 20
192.4321835197
 30
0.0
 11
47.23165938519995
 21
191.4321835197
 31
0.0
  0
LINE
  5
1E8
330
2
100
AcDbEntity
  8
0
 62
     3
100
AcDbLine
 10
47.23165938519995
 20
192.4321835197
 30
0.0
 11
46.73165938519995
 21
192.4321835197
 31
0.0
  0
LINE
  5
1E9
330
2
100
AcDbEntity
  8
0
 62
     3
100
AcDbLine
 10
46.63166854039997
 20
198.5321896233
 30
0.0
 11
47.13166854039997
 21
198.5321896233
 31
0.0
  0
LINE
  5
1EA
330
2
100
AcDbEntity
  8
0
 62
     3
100
AcDbLine
 10
47.23165938519995
 20
198.4321835197
 30
0.0
 11
46.73165938519995
 21
198.4321835197
 31
0.0
  0
LINE
  5
1EB
330
2
100
AcDbEntity
  8
0
 62
     3
100
AcDbLine
 10
47.23165938519995
 20
199.4321835196998
 30
0.0
 11
47.23165938519995
 21
198.4321835197
 31
0.0
  0
LINE
  5
1EC
330
2
100
AcDbEntity
  8
0
 62
     3
100
AcDbLine
 10
47.13166854039997
 20
199.5321896233
 30
0.0
 11
47.13166854039997
 21
198.4515011466999
 31
0.0
  0
LINE
  5
1ED
330
2
100
AcDbEntity
  8
0
 62
     3
100
AcDbLine
 10
45.03166243689998
 20
209.4321835196998
 30
0.0
 11
45.83166548869995
 21
209.4321835196998
 31
0.0
  0
LINE
  5
1EE
330
2
100
AcDbEntity
  8
0
 62
     3
100
AcDbLine
 10
45.03166243689998
 20
210.4321835197
 30
0.0
 11
45.83166548869995
 21
210.4321835197
 31
0.0
  0
ARC
  5
1EF
330
2
100
AcDbEntity
  8
0
 62
     3
100
AcDbCircle
 10
45.03166243689998
 20
205.132180468
 30
0.0
 40
0.1999999881
100
AcDbArc
 50
179.9999640277999
 51
270.0000006831999
  0
ARC
  5
1F0
330
2
100
AcDbEntity
  8
0
 62
     3
100
AcDbCircle
 10
45.03166243689998
 20
204.7321865715
 30
0.0
 40
0.1999999881
100
AcDbArc
 50
89.99998201389999
 51
179.9999640277999
  0
LINE
  5
1F1
330
2
100
AcDbEntity
  8
0
 62
     3
100
AcDbLine
 10
44.85345503949996
 20
210.3321774162
 30
0.0
 11
44.8366703715
 21
210.3321774162
 31
0.0
  0
ARC
  5
1F2
330
2
100
AcDbEntity
  8
0
 62
     3
100
AcDbCircle
 10
45.03166243689998
 20
210.6321804679999
 30
0.0
 40
0.1999999881
100
AcDbArc
 50
179.9999640277999
 51
269.9999460416999
  0
ARC
  5
1F3
330
2
100
AcDbEntity
  8
0
 62
     3
100
AcDbCircle
 10
45.03166243689998
 20
209.632180468
 30
0.0
 40
0.1999999881
100
AcDbArc
 50
179.9999640277999
 51
269.9999460416999
  0
LINE
  5
1F4
330
2
100
AcDbEntity
  8
0
 62
     3
100
AcDbLine
 10
45.83166548869995
 20
205.132180468
 30
0.0
 11
45.83166548869995
 21
210.4321835197
 31
0.0
  0
ARC
  5
1F5
330
2
100
AcDbEntity
  8
0
 62
     3
100
AcDbCircle
 10
46.03166243689996
 20
205.132180468
 30
0.0
 40
0.1999999881
100
AcDbArc
 50
179.9999640277999
 51
270.0000006831999
  0
ARC
  5
1F6
330
2
100
AcDbEntity
  8
0
 62
     3
100
AcDbCircle
 10
46.03166243689996
 20
204.7321865715
 30
0.0
 40
0.1999999881
100
AcDbArc
 50
89.99998201389999
 51
179.9999640277999
  0
LINE
  5
1F7
330
2
100
AcDbEntity
  8
0
 62
     3
100
AcDbLine
 10
47.23165938519995
 20
211.4321835196999
 30
0.0
 11
46.73165938519995
 21
211.4321835196999
 31
0.0
  0
LINE
  5
1F8
330
2
100
AcDbEntity
  8
0
 62
     3
100
AcDbLine
 10
47.23165938519995
 20
211.4321835196999
 30
0.0
 11
47.23165938519995
 21
210.4321835197
 31
0.0
  0
LINE
  5
1F9
330
2
100
AcDbEntity
  8
0
 62
     3
100
AcDbLine
 10
47.13166854039997
 20
210.3321774162
 30
0.0
 11
47.13166854039997
 21
211.4273159659997
 31
0.0
  0
LINE
  5
1FA
330
2
100
AcDbEntity
  8
0
 62
     3
100
AcDbLine
 10
46.63166854039997
 20
211.3321774161999
 30
0.0
 11
47.13166854039997
 21
211.3321774161999
 31
0.0
  0
LINE
  5
1FB
330
2
100
AcDbEntity
  8
0
 62
     3
100
AcDbLine
 10
52.8316807475
 20
198.5321896233
 30
0.0
 11
52.8316807475
 21
192.3321774161999
 31
0.0
  0
LINE
  5
1FC
330
2
100
AcDbEntity
  8
0
  6
CENTER
 62
     3
100
AcDbLine
 10
49.73165938519997
 20
200.4321835197
 30
0.0
 11
49.73165938519997
 21
190.4321835197
 31
0.0
  0
LINE
  5
1FD
330
2
100
AcDbEntity
  8
0
 62
     3
100
AcDbLine
 10
50.88165328169997
 20
195.8671200432
 30
0.0
 11
50.88165328169997
 21
194.9972469963
 31
0.0
  0
LINE
  5
1FE
330
2
100
AcDbEntity
  8
0
 62
     3
100
AcDbLine
 10
52.73165938519998
 20
198.4321835197
 30
0.0
 11
52.73165938519998
 21
192.4321835197
 31
0.0
  0
LINE
  5
1FF
330
2
100
AcDbEntity
  8
0
 62
     3
100
AcDbLine
 10
52.3316807475
 20
192.3321774161999
 30
0.0
 11
52.8316807475
 21
192.3321774161999
 31
0.0
  0
LINE
  5
200
330
2
100
AcDbEntity
  8
0
 62
     3
100
AcDbLine
 10
52.3316807475
 20
191.3321774161999
 30
0.0
 11
52.3316807475
 21
192.4273159659997
 31
0.0
  0
LINE
  5
201
330
2
100
AcDbEntity
  8
0
 62
     3
100
AcDbLine
 10
52.23165938519997
 20
192.4321835197
 30
0.0
 11
52.23165938519997
 21
191.4321835197
 31
0.0
  0
LINE
  5
202
330
2
100
AcDbEntity
  8
0
 62
     3
100
AcDbLine
 10
52.73165938519998
 20
192.4321835197
 30
0.0
 11
52.23165938519997
 21
192.4321835197
 31
0.0
  0
LINE
  5
203
330
2
100
AcDbEntity
  8
0
 62
     3
100
AcDbLine
 10
52.3316807475
 20
199.5321896233
 30
0.0
 11
52.3316807475
 21
198.4417507805
 31
0.0
  0
LINE
  5
204
330
2
100
AcDbEntity
  8
0
 62
     3
100
AcDbLine
 10
52.3316807475
 20
198.5321896233
 30
0.0
 11
52.8316807475
 21
198.5321896233
 31
0.0
  0
LINE
  5
205
330
2
100
AcDbEntity
  8
0
 62
     3
100
AcDbLine
 10
52.73165938519998
 20
198.4321835197
 30
0.0
 11
52.23165938519997
 21
198.4321835197
 31
0.0
  0
LINE
  5
206
330
2
100
AcDbEntity
  8
0
 62
     3
100
AcDbLine
 10
52.23165938519997
 20
199.4321835196998
 30
0.0
 11
52.23165938519997
 21
198.4321835197
 31
0.0
  0
LINE
  5
207
330
2
100
AcDbEntity
  8
0
 62
     3
100
AcDbLine
 10
52.73165938519998
 20
211.4321835196999
 30
0.0
 11
52.23165938519997
 21
211.4321835196999
 31
0.0
  0
LINE
  5
208
330
2
100
AcDbEntity
  8
0
 62
     3
100
AcDbLine
 10
52.23165938519997
 20
211.4321835196999
 30
0.0
 11
52.23165938519997
 21
210.4321835197
 31
0.0
  0
LINE
  5
209
330
2
100
AcDbEntity
  8
0
 62
     3
100
AcDbLine
 10
52.3316807475
 20
210.3321774162
 30
0.0
 11
52.3316807475
 21
211.4273159659997
 31
0.0
  0
LINE
  5
20A
330
2
100
AcDbEntity
  8
0
 62
     3
100
AcDbLine
 10
52.3316807475
 20
211.3321774161999
 30
0.0
 11
52.8316807475
 21
211.3321774161999
 31
0.0
  0
ARC
  5
20B
330
2
100
AcDbEntity
  8
0
 62
     3
100
AcDbCircle
 10
55.28166243689998
 20
205.132180468
 30
0.0
 40
0.1999999881
100
AcDbArc
 50
179.9999640277999
 51
270.0000006831999
  0
ARC
  5
20C
330
2
100
AcDbEntity
  8
0
 62
     3
100
AcDbCircle
 10
55.28166243689998
 20
204.7321865715
 30
0.0
 40
0.1999999881
100
AcDbArc
 50
89.99998201389999
 51
179.9999640277999
  0
CIRCLE
  5
20D
330
2
100
AcDbEntity
  8
0
 62
     3
100
AcDbCircle
 10
49.73165938519997
 20
233.4321835197
 30
0.0
 40
1.229499816899999
  0
CIRCLE
  5
20E
330
2
100
AcDbEntity
  8
0
 62
     3
100
AcDbCircle
 10
49.73165938519997
 20
233.4321835197
 30
0.0
 40
1.5
  0
LINE
  5
20F
330
2
100
AcDbEntity
  8
0
  6
CENTER
 62
     3
100
AcDbLine
 10
51.73165938519995
 20
233.4321835197
 30
0.0
 11
47.73165938519997
 21
233.4321835197
 31
0.0
  0
LINE
  5
210
330
2
100
AcDbEntity
  8
0
 62
     3
100
AcDbLine
 10
47.13166854039997
 20
229.3321774162
 30
0.0
 11
52.3316807475
 21
229.3321774162
 31
0.0
  0
LINE
  5
211
330
2
100
AcDbEntity
  8
0
 62
     3
100
AcDbLine
 10
52.23165938519997
 20
229.4321835197
 30
0.0
 11
47.23165938519995
 21
229.4321835197
 31
0.0
  0
LINE
  5
212
330
2
100
AcDbEntity
  8
0
 62
     3
100
AcDbLine
 10
52.23165938519997
 20
218.4321835197
 30
0.0
 11
47.23165938519995
 21
218.4321835197
 31
0.0
  0
LINE
  5
213
330
2
100
AcDbEntity
  8
0
  6
CENTER
 62
     3
100
AcDbLine
 10
51.73165938519995
 20
214.4321835197
 30
0.0
 11
47.73165938519997
 21
214.4321835197
 31
0.0
  0
CIRCLE
  5
214
330
2
100
AcDbEntity
  8
0
 62
     3
100
AcDbCircle
 10
49.73165938519997
 20
214.4321835197
 30
0.0
 40
1.229499816899999
  0
LINE
  5
215
330
2
100
AcDbEntity
  8
0
 62
     3
100
AcDbLine
 10
47.13166854039997
 20
218.5321896233
 30
0.0
 11
52.3316807475
 21
218.5321896233
 31
0.0
  0
LINE
  5
216
330
2
100
AcDbEntity
  8
0
 62
     3
100
AcDbLine
 10
45.83166548869995
 20
224.132180468
 30
0.0
 11
45.83166548869995
 21
229.4321835197
 31
0.0
  0
LINE
  5
217
330
2
100
AcDbEntity
  8
0
 62
     3
100
AcDbLine
 10
45.83166548869995
 20
218.9321835197
 30
0.0
 11
45.03166243689998
 21
218.9321835197
 31
0.0
  0
LINE
  5
218
330
2
100
AcDbEntity
  8
0
 62
     3
100
AcDbLine
 10
45.83166548869995
 20
219.9321835197
 30
0.0
 11
45.03166243689998
 21
219.9321835197
 31
0.0
  0
LINE
  5
219
330
2
100
AcDbEntity
  8
0
 62
     3
100
AcDbLine
 10
46.63563582560001
 20
214.4321835197
 30
0.0
 11
44.83166548869997
 21
214.4321835197
 31
0.0
  0
ARC
  5
21A
330
2
100
AcDbEntity
  8
0
 62
     3
100
AcDbCircle
 10
45.03166243689998
 20
218.7321865715
 30
0.0
 40
0.1999999881
100
AcDbArc
 50
89.99992737239997
 51
179.9999640277999
  0
ARC
  5
21B
330
2
100
AcDbEntity
  8
0
 62
     3
100
AcDbCircle
 10
45.03166243689998
 20
224.132180468
 30
0.0
 40
0.1999999881
100
AcDbArc
 50
179.9999640277999
 51
270.0000006831999
  0
ARC
  5
21C
330
2
100
AcDbEntity
  8
0
 62
     3
100
AcDbCircle
 10
45.03166243689998
 20
219.7321865715
 30
0.0
 40
0.1999999881
100
AcDbArc
 50
89.99992737239997
 51
179.9999640277999
  0
ARC
  5
21D
330
2
100
AcDbEntity
  8
0
 62
     3
100
AcDbCircle
 10
45.03166243689998
 20
223.7321865715
 30
0.0
 40
0.1999999881
100
AcDbArc
 50
89.99998201389999
 51
179.9999640277999
  0
LINE
  5
21E
330
2
100
AcDbEntity
  8
0
 62
     3
100
AcDbLine
 10
47.13166854039997
 20
218.5321896233
 30
0.0
 11
47.13166854039997
 21
217.4515011466999
 31
0.0
  0
LINE
  5
21F
330
2
100
AcDbEntity
  8
0
 62
     3
100
AcDbLine
 10
47.23165938519995
 20
218.4321835197
 30
0.0
 11
47.23165938519995
 21
217.4321835196999
 31
0.0
  0
LINE
  5
220
330
2
100
AcDbEntity
  8
0
 62
     3
100
AcDbLine
 10
47.23165938519995
 20
217.4321835196999
 30
0.0
 11
46.73165938519995
 21
217.4321835196999
 31
0.0
  0
LINE
  5
221
330
2
100
AcDbEntity
  8
0
 62
     3
100
AcDbLine
 10
46.63166854039997
 20
217.5321896233
 30
0.0
 11
47.13166854039997
 21
217.5321896233
 31
0.0
  0
LINE
  5
222
330
2
100
AcDbEntity
  8
0
 62
     3
100
AcDbLine
 10
48.58166548869997
 20
214.8671200432
 30
0.0
 11
48.58166548869997
 21
213.9972469963
 31
0.0
  0
ARC
  5
223
330
2
100
AcDbEntity
  8
0
 62
     3
100
AcDbCircle
 10
46.03166243689996
 20
224.132180468
 30
0.0
 40
0.1999999881
100
AcDbArc
 50
179.9999640277999
 51
270.0000006831999
  0
ARC
  5
224
330
2
100
AcDbEntity
  8
0
 62
     3
100
AcDbCircle
 10
46.03166243689996
 20
223.7321865715
 30
0.0
 40
0.1999999881
100
AcDbArc
 50
89.99998201389999
 51
179.9999640277999
  0
LINE
  5
225
330
2
100
AcDbEntity
  8
0
 62
     3
100
AcDbLine
 10
45.83166548869995
 20
223.7321865715
 30
0.0
 11
45.83166548869995
 21
218.9321835197
 31
0.0
  0
LINE
  5
226
330
2
100
AcDbEntity
  8
0
 62
     3
100
AcDbLine
 10
46.63563582560001
 20
233.4321835197
 30
0.0
 11
44.83166548869997
 21
233.4321835197
 31
0.0
  0
LINE
  5
227
330
2
100
AcDbEntity
  8
0
 62
     3
100
AcDbLine
 10
45.03166243689998
 20
229.4321835197
 30
0.0
 11
45.83166548869995
 21
229.4321835197
 31
0.0
  0
LINE
  5
228
330
2
100
AcDbEntity
  8
0
 62
     3
100
AcDbLine
 10
45.03166243689998
 20
228.4321835197
 30
0.0
 11
45.83166548869995
 21
228.4321835197
 31
0.0
  0
ARC
  5
229
330
2
100
AcDbEntity
  8
0
 62
     3
100
AcDbCircle
 10
45.03166243689998
 20
228.632180468
 30
0.0
 40
0.1999999881
100
AcDbArc
 50
179.9999640277999
 51
269.9999460416999
  0
ARC
  5
22A
330
2
100
AcDbEntity
  8
0
 62
     3
100
AcDbCircle
 10
45.03166243689998
 20
229.632180468
 30
0.0
 40
0.1999999881
100
AcDbArc
 50
179.9999640277999
 51
269.9999460416999
  0
LINE
  5
22B
330
2
100
AcDbEntity
  8
0
 62
     3
100
AcDbLine
 10
44.85345503949996
 20
229.3321774162
 30
0.0
 11
44.8366703715
 21
229.3321774162
 31
0.0
  0
LINE
  5
22C
330
2
100
AcDbEntity
  8
0
 62
     3
100
AcDbLine
 10
47.13166854039997
 20
229.3321774162
 30
0.0
 11
47.13166854039997
 21
230.4273159659997
 31
0.0
  0
LINE
  5
22D
330
2
100
AcDbEntity
  8
0
 62
     3
100
AcDbLine
 10
47.23165938519995
 20
230.4321835197
 30
0.0
 11
47.23165938519995
 21
229.4321835197
 31
0.0
  0
LINE
  5
22E
330
2
100
AcDbEntity
  8
0
 62
     3
100
AcDbLine
 10
46.63166854039997
 20
230.3321774161999
 30
0.0
 11
47.13166854039997
 21
230.3321774161999
 31
0.0
  0
LINE
  5
22F
330
2
100
AcDbEntity
  8
0
 62
     3
100
AcDbLine
 10
47.23165938519995
 20
230.4321835197
 30
0.0
 11
46.73165938519995
 21
230.4321835197
 31
0.0
  0
LINE
  5
230
330
2
100
AcDbEntity
  8
0
 62
     3
100
AcDbLine
 10
48.58166548869997
 20
233.8671200432
 30
0.0
 11
48.58166548869997
 21
232.9972469963
 31
0.0
  0
LINE
  5
231
330
2
100
AcDbEntity
  8
0
 62
     3
100
AcDbLine
 10
50.88165328169997
 20
214.8671200432
 30
0.0
 11
50.88165328169997
 21
213.9972469963
 31
0.0
  0
LINE
  5
232
330
2
100
AcDbEntity
  8
0
 62
     3
100
AcDbLine
 10
52.23165938519997
 20
218.4321835197
 30
0.0
 11
52.23165938519997
 21
217.4321835196999
 31
0.0
  0
LINE
  5
233
330
2
100
AcDbEntity
  8
0
 62
     3
100
AcDbLine
 10
52.73165938519998
 20
217.4321835196999
 30
0.0
 11
52.23165938519997
 21
217.4321835196999
 31
0.0
  0
LINE
  5
234
330
2
100
AcDbEntity
  8
0
 62
     3
100
AcDbLine
 10
52.3316807475
 20
217.5321896233
 30
0.0
 11
52.8316807475
 21
217.5321896233
 31
0.0
  0
LINE
  5
235
330
2
100
AcDbEntity
  8
0
 62
     3
100
AcDbLine
 10
52.3316807475
 20
218.5321896233
 30
0.0
 11
52.3316807475
 21
217.4417507804999
 31
0.0
  0
ARC
  5
236
330
2
100
AcDbEntity
  8
0
 62
     3
100
AcDbCircle
 10
55.28166243689998
 20
224.132180468
 30
0.0
 40
0.1999999881
100
AcDbArc
 50
179.9999640277999
 51
270.0000006831999
  0
ARC
  5
237
330
2
100
AcDbEntity
  8
0
 62
     3
100
AcDbCircle
 10
55.28166243689998
 20
223.7321865715
 30
0.0
 40
0.1999999881
100
AcDbArc
 50
89.99998201389999
 51
179.9999640277999
  0
LINE
  5
238
330
2
100
AcDbEntity
  8
0
 62
     3
100
AcDbLine
 10
52.3316807475
 20
229.3321774162
 30
0.0
 11
52.3316807475
 21
230.4273159659997
 31
0.0
  0
LINE
  5
239
330
2
100
AcDbEntity
  8
0
 62
     3
100
AcDbLine
 10
52.23165938519997
 20
230.4321835197
 30
0.0
 11
52.23165938519997
 21
229.4321835197
 31
0.0
  0
LINE
  5
23A
330
2
100
AcDbEntity
  8
0
 62
     3
100
AcDbLine
 10
50.88165328169997
 20
233.8671200432
 30
0.0
 11
50.88165328169997
 21
232.9972469963
 31
0.0
  0
LINE
  5
23B
330
2
100
AcDbEntity
  8
0
 62
     3
100
AcDbLine
 10
52.3316807475
 20
230.3321774161999
 30
0.0
 11
52.8316807475
 21
230.3321774161999
 31
0.0
  0
LINE
  5
23C
330
2
100
AcDbEntity
  8
0
 62
     3
100
AcDbLine
 10
52.73165938519998
 20
230.4321835197
 30
0.0
 11
52.23165938519997
 21
230.4321835197
 31
0.0
  0
LINE
  5
23D
330
2
100
AcDbEntity
  8
0
 62
     3
100
AcDbLine
 10
84.78166243689996
 20
202.9321835196999
 30
0.0
 11
84.78166243689996
 21
187.9321835197
 31
0.0
  0
LINE
  5
23E
330
2
100
AcDbEntity
  8
0
 62
     3
100
AcDbLine
 10
67.88166854039997
 20
187.9321835197
 30
0.0
 11
67.88166854039997
 21
190.9321835197
 31
0.0
  0
LINE
  5
23F
330
2
100
AcDbEntity
  8
0
 62
     3
100
AcDbLine
 10
66.88166854039997
 20
187.9321835197
 30
0.0
 11
66.88166854039997
 21
191.9822018302999
 31
0.0
  0
LINE
  5
240
330
2
100
AcDbEntity
  8
0
 62
     3
100
AcDbLine
 10
56.88166854039997
 20
202.9321835196999
 30
0.0
 11
56.88166854039997
 21
187.9321835197
 31
0.0
  0
LINE
  5
241
330
2
100
AcDbEntity
  8
0
 62
     3
100
AcDbLine
 10
84.78166243689996
 20
187.9321835197
 30
0.0
 11
67.88166854039997
 21
187.9321835197
 31
0.0
  0
ARC
  5
242
330
2
100
AcDbEntity
  8
0
 62
     3
100
AcDbCircle
 10
68.53686568399999
 20
167.1003201163999
 30
0.0
 40
3.5
100
AcDbArc
 50
3.369580765699998
 51
229.5304741528
  0
LINE
  5
243
330
2
100
AcDbEntity
  8
0
  6
CENTER
 62
     3
100
AcDbLine
 10
66.97792798039998
 20
170.2339556968999
 30
0.0
 11
76.33167540619997
 21
151.4321805514998
 31
0.0
  0
LINE
  5
244
330
2
100
AcDbEntity
  8
0
  6
CENTER
 62
     3
100
AcDbLine
 10
66.97791431879998
 20
170.2339489004
 30
0.0
 11
76.3316617447
 21
151.432173755
 31
0.0
  0
CIRCLE
  5
245
330
2
100
AcDbEntity
  8
0
 62
     3
100
AcDbCircle
 10
68.53686568399999
 20
167.1003201163999
 30
0.0
 40
1.9499998093
  0
CIRCLE
  5
246
330
2
100
AcDbEntity
  8
0
 62
     3
100
AcDbCircle
 10
68.53686568399999
 20
167.1003201163999
 30
0.0
 40
1.549999237099997
  0
LINE
  5
247
330
2
100
AcDbEntity
  8
0
  6
CENTER
 62
     3
100
AcDbLine
 10
58.33165022989998
 20
153.4321530021999
 30
0.0
 11
58.33165022989998
 21
149.4321530021998
 31
0.0
  0
CIRCLE
  5
248
330
2
100
AcDbEntity
  8
0
 62
     3
100
AcDbCircle
 10
58.33165022989998
 20
151.4321530021998
 30
0.0
 40
1.0999994278
  0
CIRCLE
  5
249
330
2
100
AcDbEntity
  8
0
 62
     3
100
AcDbCircle
 10
58.33165022989998
 20
151.4321530021998
 30
0.0
 40
0.6999999881
  0
LINE
  5
24A
330
2
100
AcDbEntity
  8
0
 62
     3
100
AcDbLine
 10
70.13165328169996
 20
150.0321591057
 30
0.0
 11
64.63165328169997
 21
150.0321591057
 31
0.0
  0
LINE
  5
24B
330
2
100
AcDbEntity
  8
0
 62
     3
100
AcDbLine
 10
64.63165328169997
 20
150.0321591057
 30
0.0
 11
64.63165328169997
 21
145.432168261
 31
0.0
  0
LINE
  5
24C
330
2
100
AcDbEntity
  8
0
 62
     3
100
AcDbLine
 10
70.13165328169996
 20
150.0321591057
 30
0.0
 11
70.13165328169996
 21
145.432168261
 31
0.0
  0
LINE
  5
24D
330
2
100
AcDbEntity
  8
0
 62
     3
100
AcDbLine
 10
68.43835651529997
 20
162.5836759419
 30
0.0
 11
66.26521829389997
 21
164.4377114135999
 31
0.0
  0
LINE
  5
24E
330
2
100
AcDbEntity
  8
0
 62
     3
100
AcDbLine
 10
69.51549268459999
 20
160.4185226224998
 30
0.0
 11
68.43835311959998
 21
162.5836598455
 31
0.0
  0
LINE
  5
24F
330
2
100
AcDbEntity
  8
0
 62
     3
100
AcDbLine
 10
70.20791102589999
 20
160.3737387367999
 30
0.0
 11
68.97553896009997
 21
162.8509057809
 31
0.0
  0
LINE
  5
250
330
2
100
AcDbEntity
  8
0
 62
     3
100
AcDbLine
 10
68.97553896009997
 20
162.8509057809
 30
0.0
 11
68.43835311959998
 21
162.5836598455
 31
0.0
  0
LINE
  5
251
330
2
100
AcDbEntity
  8
0
 62
     3
100
AcDbLine
 10
66.88166854039997
 20
187.9321835197
 30
0.0
 11
56.88166854039997
 21
187.9321835197
 31
0.0
  0
LINE
  5
252
330
2
100
AcDbEntity
  8
0
  6
CENTER
 62
     3
100
AcDbLine
 10
76.33165022989999
 20
174.6913130147
 30
0.0
 11
76.33165022989999
 21
146.3072903312999
 31
0.0
  0
LINE
  5
253
330
2
100
AcDbEntity
  8
0
 62
     3
100
AcDbLine
 10
72.19872932029997
 20
164.4544146867
 30
0.0
 11
72.03082973729998
 21
167.3060587748
 31
0.0
  0
LINE
  5
254
330
2
100
AcDbEntity
  8
0
 62
     3
100
AcDbLine
 10
74.21227944009995
 20
160.4069692206
 30
0.0
 11
72.19870864939998
 21
164.4544085796999
 31
0.0
  0
LINE
  5
255
330
2
100
AcDbEntity
  8
0
 62
     3
100
AcDbLine
 10
73.49559745639997
 20
160.5004907231998
 30
0.0
 11
71.6615091473
 21
164.1871558477
 31
0.0
  0
LINE
  5
256
330
2
100
AcDbEntity
  8
0
 62
     3
100
AcDbLine
 10
72.19870864939998
 20
164.4544085796999
 30
0.0
 11
71.6615091473
 21
164.1871558477
 31
0.0
  0
LINE
  5
257
330
2
100
AcDbEntity
  8
0
 62
     3
100
AcDbLine
 10
71.93687483929998
 20
230.2322018303
 30
0.0
 11
65.13687178749998
 21
230.2322018303
 31
0.0
  0
LINE
  5
258
330
2
100
AcDbEntity
  8
0
 62
     3
100
AcDbLine
 10
69.48823592329998
 20
230.2321865715
 30
0.0
 11
83.17511031289997
 21
230.2321865715
 31
0.0
  0
LINE
  5
259
330
2
100
AcDbEntity
  8
0
 62
     3
100
AcDbLine
 10
65.03686568399999
 20
230.4321835197
 30
0.0
 11
81.37535140179997
 21
230.4321835197
 31
0.0
  0
LINE
  5
25A
330
2
100
AcDbEntity
  8
0
 62
     3
100
AcDbLine
 10
71.93687483929998
 20
217.6321652091999
 30
0.0
 11
65.13687178749998
 21
217.6321652091999
 31
0.0
  0
LINE
  5
25B
330
2
100
AcDbEntity
  8
0
 62
     3
100
AcDbLine
 10
71.93687483929998
 20
211.2322018302999
 30
0.0
 11
65.13687178749998
 21
211.2322018302999
 31
0.0
  0
LINE
  5
25C
330
2
100
AcDbEntity
  8
0
 62
     3
100
AcDbLine
 10
71.93687483929998
 20
198.6321652091999
 30
0.0
 11
65.13687178749998
 21
198.6321652091999
 31
0.0
  0
LINE
  5
25D
330
2
100
AcDbEntity
  8
0
 62
     3
100
AcDbLine
 10
65.03686568399999
 20
211.4321835196999
 30
0.0
 11
81.37535140179997
 21
211.4321835196999
 31
0.0
  0
LINE
  5
25E
330
2
100
AcDbEntity
  8
0
 62
     3
100
AcDbLine
 10
65.03686568399999
 20
217.4321835196999
 30
0.0
 11
81.36431929729999
 21
217.4321835196999
 31
0.0
  0
LINE
  5
25F
330
2
100
AcDbEntity
  8
0
 62
     3
100
AcDbLine
 10
69.48823592329998
 20
211.2321865715
 30
0.0
 11
83.17511031289997
 21
211.2321865715
 31
0.0
  0
LINE
  5
260
330
2
100
AcDbEntity
  8
0
 62
     3
100
AcDbLine
 10
69.48822066449998
 20
217.632180468
 30
0.0
 11
83.17511031289997
 21
217.632180468
 31
0.0
  0
LINE
  5
261
330
2
100
AcDbEntity
  8
0
 62
     3
100
AcDbLine
 10
69.48822066449998
 20
198.632180468
 30
0.0
 11
83.17511031289997
 21
198.632180468
 31
0.0
  0
LINE
  5
262
330
2
100
AcDbEntity
  8
0
 62
     3
100
AcDbLine
 10
71.03688094279997
 20
192.2321865715
 30
0.0
 11
83.17511031289997
 21
192.2321865715
 31
0.0
  0
LINE
  5
263
330
2
100
AcDbEntity
  8
0
 62
     3
100
AcDbLine
 10
65.03686568399999
 20
198.4321835197
 30
0.0
 11
81.36431929729999
 21
198.4321835197
 31
0.0
  0
LINE
  5
264
330
2
100
AcDbEntity
  8
0
 62
     3
100
AcDbLine
 10
65.03686568399999
 20
192.4321835197
 30
0.0
 11
81.37535140179997
 21
192.4321835197
 31
0.0
  0
LINE
  5
265
330
2
100
AcDbEntity
  8
0
 62
     3
100
AcDbLine
 10
65.03686568399999
 20
217.4321835196999
 30
0.0
 11
65.03686568399999
 21
211.4321835196999
 31
0.0
  0
LINE
  5
266
330
2
100
AcDbEntity
  8
0
 62
     3
100
AcDbLine
 10
56.88166854039997
 20
221.9321835196998
 30
0.0
 11
56.88166854039997
 21
206.9321835196999
 31
0.0
  0
LINE
  5
267
330
2
100
AcDbEntity
  8
0
 62
     3
100
AcDbLine
 10
65.13687178749998
 20
202.9321835196999
 30
0.0
 11
56.88166854039997
 21
202.9321835196999
 31
0.0
  0
LINE
  5
268
330
2
100
AcDbEntity
  8
0
 62
     3
100
AcDbLine
 10
65.13687178749998
 20
206.9321835196999
 30
0.0
 11
56.88166854039997
 21
206.9321835196999
 31
0.0
  0
LINE
  5
269
330
2
100
AcDbEntity
  8
0
 62
     3
100
AcDbLine
 10
65.13687178749998
 20
211.2322018302999
 30
0.0
 11
65.13687178749998
 21
198.6321652091999
 31
0.0
  0
LINE
  5
26A
330
2
100
AcDbEntity
  8
0
 62
     3
100
AcDbLine
 10
70.03688094279997
 20
191.9321835196998
 30
0.0
 11
67.03688094279995
 21
191.9321835196998
 31
0.0
  0
LINE
  5
26B
330
2
100
AcDbEntity
  8
0
 62
     3
100
AcDbLine
 10
69.93687483929996
 20
190.9321835197
 30
0.0
 11
67.13687178749998
 21
190.9321835197
 31
0.0
  0
LINE
  5
26C
330
2
100
AcDbEntity
  8
0
 62
     3
100
AcDbLine
 10
70.03688094279997
 20
191.0321896233
 30
0.0
 11
67.03688094279995
 21
191.0321896233
 31
0.0
  0
LINE
  5
26D
330
2
100
AcDbEntity
  8
0
 62
     3
100
AcDbLine
 10
71.03688094279997
 20
191.9822018302999
 30
0.0
 11
66.03688094279997
 21
191.9822018302999
 31
0.0
  0
LINE
  5
26E
330
2
100
AcDbEntity
  8
0
 62
     3
100
AcDbLine
 10
71.03688094279997
 20
192.3821652091999
 30
0.0
 11
66.03688094279997
 21
192.3821652091999
 31
0.0
  0
LINE
  5
26F
330
2
100
AcDbEntity
  8
0
 62
     3
100
AcDbLine
 10
65.03686568399999
 20
198.4321835197
 30
0.0
 11
65.03686568399999
 21
192.4321835197
 31
0.0
  0
LINE
  5
270
330
2
100
AcDbEntity
  8
0
 62
     3
100
AcDbLine
 10
67.53688094279997
 20
192.4347469963
 30
0.0
 11
67.53688094279997
 21
192.3821652091999
 31
0.0
  0
LINE
  5
271
330
2
100
AcDbEntity
  8
0
 62
     3
100
AcDbLine
 10
67.03688094279995
 20
191.9321835196998
 30
0.0
 11
67.03688094279995
 21
191.0321896233
 31
0.0
  0
LINE
  5
272
330
2
100
AcDbEntity
  8
0
 62
     3
100
AcDbLine
 10
67.13686401639996
 20
190.9322096970999
 30
0.0
 11
67.03686606819999
 21
191.0322076538
 31
0.0
  0
LINE
  5
273
330
2
100
AcDbEntity
  8
0
 62
     3
100
AcDbLine
 10
66.03688094279997
 20
192.3821652091999
 30
0.0
 11
66.03688094279997
 21
191.9822018302999
 31
0.0
  0
LINE
  5
274
330
2
100
AcDbEntity
  8
0
 62
     3
100
AcDbLine
 10
67.53688094279997
 20
191.9822018302999
 30
0.0
 11
67.53688094279997
 21
191.9370968497999
 31
0.0
  0
LINE
  5
275
330
2
100
AcDbEntity
  8
0
 62
     3
100
AcDbLine
 10
66.88166854039997
 20
192.3821652091999
 30
0.0
 11
66.88166854039997
 21
192.4321835197
 31
0.0
  0
LINE
  5
276
330
2
100
AcDbEntity
  8
0
 62
     3
100
AcDbLine
 10
66.88166854039997
 20
198.6321652091999
 30
0.0
 11
66.88166854039997
 21
198.4321835197
 31
0.0
  0
LINE
  5
277
330
2
100
AcDbEntity
  8
0
 62
     3
100
AcDbLine
 10
67.03688094279995
 20
198.6321652091999
 30
0.0
 11
67.03688094279995
 21
198.4321835197
 31
0.0
  0
LINE
  5
278
330
2
100
AcDbEntity
  8
0
 62
     3
100
AcDbLine
 10
69.53688094279995
 20
191.9822018302999
 30
0.0
 11
69.53688094279995
 21
191.9277279533
 31
0.0
  0
LINE
  5
279
330
2
100
AcDbEntity
  8
0
 62
     3
100
AcDbLine
 10
69.53688094279995
 20
192.4321835197
 30
0.0
 11
69.53688094279995
 21
192.3821652091999
 31
0.0
  0
LINE
  5
27A
330
2
100
AcDbEntity
  8
0
 62
     3
100
AcDbLine
 10
69.48823592329998
 20
192.3821652091999
 30
0.0
 11
69.48823592329998
 21
192.4321835197
 31
0.0
  0
LINE
  5
27B
330
2
100
AcDbEntity
  8
0
 62
     3
100
AcDbLine
 10
70.03688094279997
 20
191.9321835196998
 30
0.0
 11
70.03688094279997
 21
191.0321896233
 31
0.0
  0
LINE
  5
27C
330
2
100
AcDbEntity
  8
0
 62
     3
100
AcDbLine
 10
70.03685858979998
 20
191.0321967377999
 30
0.0
 11
69.93686063310001
 21
190.9321987895
 31
0.0
  0
LINE
  5
27D
330
2
100
AcDbEntity
  8
0
 62
     3
100
AcDbLine
 10
71.03688094279997
 20
192.3821652091999
 30
0.0
 11
71.03688094279997
 21
191.9822018302999
 31
0.0
  0
LINE
  5
27E
330
2
100
AcDbEntity
  8
0
 62
     3
100
AcDbLine
 10
71.28797957559999
 20
192.2372524895
 30
0.0
 11
71.28797957559999
 21
192.4303219475
 31
0.0
  0
LINE
  5
27F
330
2
100
AcDbEntity
  8
0
 62
     3
100
AcDbLine
 10
67.88166854039997
 20
198.6321652091999
 30
0.0
 11
67.88166854039997
 21
198.4321835197
 31
0.0
  0
LINE
  5
280
330
2
100
AcDbEntity
  8
0
 62
     3
100
AcDbLine
 10
69.48822066449998
 20
198.632180468
 30
0.0
 11
69.48822066449998
 21
198.4364864983
 31
0.0
  0
LINE
  5
281
330
2
100
AcDbEntity
  8
0
 62
     3
100
AcDbLine
 10
70.03688094279997
 20
198.6321652091999
 30
0.0
 11
70.03688094279997
 21
198.4321835197
 31
0.0
  0
LINE
  5
282
330
2
100
AcDbEntity
  8
0
 62
     3
100
AcDbLine
 10
71.28797957559999
 20
198.6260006583999
 30
0.0
 11
71.28797957559999
 21
198.4316342033
 31
0.0
  0
LINE
  5
283
330
2
100
AcDbEntity
  8
0
 62
     3
100
AcDbLine
 10
66.88166854039997
 20
211.2322018302999
 30
0.0
 11
66.88166854039997
 21
211.4321835196999
 31
0.0
  0
LINE
  5
284
330
2
100
AcDbEntity
  8
0
 62
     3
100
AcDbLine
 10
67.03688094279995
 20
211.4321835196999
 30
0.0
 11
67.03688094279995
 21
211.2322018302999
 31
0.0
  0
LINE
  5
285
330
2
100
AcDbEntity
  8
0
 62
     3
100
AcDbLine
 10
69.48823592329998
 20
211.2321865715
 30
0.0
 11
69.48823592329998
 21
211.4385769524
 31
0.0
  0
LINE
  5
286
330
2
100
AcDbEntity
  8
0
 62
     3
100
AcDbLine
 10
67.88166854039997
 20
211.2322018302999
 30
0.0
 11
67.88166854039997
 21
211.4321835196999
 31
0.0
  0
LINE
  5
287
330
2
100
AcDbEntity
  8
0
 62
     3
100
AcDbLine
 10
70.03688094279997
 20
211.4321835196999
 30
0.0
 11
70.03688094279997
 21
211.2322018302999
 31
0.0
  0
LINE
  5
288
330
2
100
AcDbEntity
  8
0
 62
     3
100
AcDbLine
 10
71.28797957559999
 20
211.2372524895
 30
0.0
 11
71.28797957559999
 21
211.4303219474999
 31
0.0
  0
LINE
  5
289
330
2
100
AcDbEntity
  8
0
 62
     3
100
AcDbLine
 10
65.13687178749998
 20
225.9321835196999
 30
0.0
 11
56.88166854039997
 21
225.9321835196999
 31
0.0
  0
LINE
  5
28A
330
2
100
AcDbEntity
  8
0
 62
     3
100
AcDbLine
 10
65.13687178749998
 20
221.9321835196998
 30
0.0
 11
56.88166854039997
 21
221.9321835196998
 31
0.0
  0
LINE
  5
28B
330
2
100
AcDbEntity
  8
0
 62
     3
100
AcDbLine
 10
65.13687178749998
 20
230.2322018303
 30
0.0
 11
65.13687178749998
 21
217.6321652091999
 31
0.0
  0
LINE
  5
28C
330
2
100
AcDbEntity
  8
0
 62
     3
100
AcDbLine
 10
67.03688094279995
 20
217.6321652091999
 30
0.0
 11
67.03688094279995
 21
217.4321835196999
 31
0.0
  0
LINE
  5
28D
330
2
100
AcDbEntity
  8
0
 62
     3
100
AcDbLine
 10
66.88166854039997
 20
217.6321652091999
 30
0.0
 11
66.88166854039997
 21
217.4321835196999
 31
0.0
  0
LINE
  5
28E
330
2
100
AcDbEntity
  8
0
 62
     3
100
AcDbLine
 10
67.88166854039997
 20
217.6321652091999
 30
0.0
 11
67.88166854039997
 21
217.4321835196999
 31
0.0
  0
LINE
  5
28F
330
2
100
AcDbEntity
  8
0
 62
     3
100
AcDbLine
 10
69.48822066449998
 20
217.632180468
 30
0.0
 11
69.48822066449998
 21
217.4321835196999
 31
0.0
  0
LINE
  5
290
330
2
100
AcDbEntity
  8
0
 62
     3
100
AcDbLine
 10
70.03688094279997
 20
217.6321652091999
 30
0.0
 11
70.03688094279997
 21
217.4321835196999
 31
0.0
  0
LINE
  5
291
330
2
100
AcDbEntity
  8
0
 62
     3
100
AcDbLine
 10
71.28797957559999
 20
217.632180468
 30
0.0
 11
71.28797957559999
 21
217.4321835196999
 31
0.0
  0
LINE
  5
292
330
2
100
AcDbEntity
  8
0
 62
     3
100
AcDbLine
 10
66.88166854039997
 20
230.2322018303
 30
0.0
 11
66.88166854039997
 21
230.4321835197
 31
0.0
  0
LINE
  5
293
330
2
100
AcDbEntity
  8
0
 62
     3
100
AcDbLine
 10
67.03688094279995
 20
230.4321835197
 30
0.0
 11
67.03688094279995
 21
230.2322018303
 31
0.0
  0
LINE
  5
294
330
2
100
AcDbEntity
  8
0
 62
     3
100
AcDbLine
 10
71.28797957559999
 20
230.2322018303
 30
0.0
 11
71.28797957559999
 21
230.4303219474999
 31
0.0
  0
LINE
  5
295
330
2
100
AcDbEntity
  8
0
 62
     3
100
AcDbLine
 10
70.03688094279997
 20
230.4321835197
 30
0.0
 11
70.03688094279997
 21
230.2322018303
 31
0.0
  0
LINE
  5
296
330
2
100
AcDbEntity
  8
0
 62
     3
100
AcDbLine
 10
69.48823592329998
 20
230.2321865715
 30
0.0
 11
69.48823592329998
 21
230.4321835197
 31
0.0
  0
LINE
  5
297
330
2
100
AcDbEntity
  8
0
 62
     3
100
AcDbLine
 10
83.17511031289997
 20
217.632180468
 30
0.0
 11
83.17511031289997
 21
211.2321865715
 31
0.0
  0
LINE
  5
298
330
2
100
AcDbEntity
  8
0
 62
     3
100
AcDbLine
 10
80.45623824259996
 20
216.9321835197
 30
0.0
 11
80.45623824259996
 21
211.9321835197
 31
0.0
  0
CIRCLE
  5
299
330
2
100
AcDbEntity
  8
0
 62
     3
100
AcDbCircle
 10
79.58615157269996
 20
212.4821865715
 30
0.0
 40
0.6999999881
  0
LINE
  5
29A
330
2
100
AcDbEntity
  8
0
 62
     3
100
AcDbLine
 10
81.37535140179997
 20
217.5916378654
 30
0.0
 11
81.37535140179997
 21
211.2321865715
 31
0.0
  0
LINE
  5
29B
330
2
100
AcDbEntity
  8
0
 62
     3
100
AcDbLine
 10
76.71603438519999
 20
216.9321835197
 30
0.0
 11
76.71603438519999
 21
211.9321835197
 31
0.0
  0
LINE
  5
29C
330
2
100
AcDbEntity
  8
0
 62
     3
100
AcDbLine
 10
75.70837447309997
 20
216.8321774162
 30
0.0
 11
75.70837447309997
 21
212.0321896233
 31
0.0
  0
LINE
  5
29D
330
2
100
AcDbEntity
  8
0
 62
     3
100
AcDbLine
 10
84.78166243689996
 20
221.9321835196998
 30
0.0
 11
84.78166243689996
 21
206.9321835196999
 31
0.0
  0
LINE
  5
29E
330
2
100
AcDbEntity
  8
0
 62
     3
100
AcDbLine
 10
72.19873091839997
 20
217.4321835196999
 30
0.0
 11
72.19873091839997
 21
211.4321835196999
 31
0.0
  0
LINE
  5
29F
330
2
100
AcDbEntity
  8
0
 62
     3
100
AcDbLine
 10
79.08615157269998
 20
212.4821865715
 30
0.0
 11
78.88613936559996
 21
212.4821865715
 31
0.0
  0
CIRCLE
  5
2A0
330
2
100
AcDbEntity
  8
0
 62
     3
100
AcDbCircle
 10
79.58615157269996
 20
193.4821865715
 30
0.0
 40
0.6999999881
  0
LINE
  5
2A1
330
2
100
AcDbEntity
  8
0
 62
     3
100
AcDbLine
 10
79.08615157269998
 20
193.4821865715
 30
0.0
 11
78.88613936559996
 21
193.4821865715
 31
0.0
  0
LINE
  5
2A2
330
2
100
AcDbEntity
  8
0
 62
     3
100
AcDbLine
 10
84.78166243689996
 20
206.9321835196999
 30
0.0
 11
71.93687483929998
 21
206.9321835196999
 31
0.0
  0
LINE
  5
2A3
330
2
100
AcDbEntity
  8
0
 62
     3
100
AcDbLine
 10
84.78166243689996
 20
202.9321835196999
 30
0.0
 11
71.93687483929998
 21
202.9321835196999
 31
0.0
  0
LINE
  5
2A4
330
2
100
AcDbEntity
  8
0
 62
     3
100
AcDbLine
 10
71.93687483929998
 20
211.2322018302999
 30
0.0
 11
71.93687483929998
 21
198.6321652091999
 31
0.0
  0
LINE
  5
2A5
330
2
100
AcDbEntity
  8
0
 62
     3
100
AcDbLine
 10
75.08701725469999
 20
192.4321828608
 30
0.0
 11
75.70838817859999
 21
193.0321795094998
 31
0.0
  0
LINE
  5
2A6
330
2
100
AcDbEntity
  8
0
 62
     3
100
AcDbLine
 10
75.08709876409999
 20
198.4320862653
 30
0.0
 11
75.70838187409998
 21
197.8321744097999
 31
0.0
  0
LINE
  5
2A7
330
2
100
AcDbEntity
  8
0
 62
     3
100
AcDbLine
 10
72.19873091839997
 20
197.8321774161999
 30
0.0
 11
75.70837447309997
 21
197.8321774161999
 31
0.0
  0
LINE
  5
2A8
330
2
100
AcDbEntity
  8
0
 62
     3
100
AcDbLine
 10
72.19873091839997
 20
193.0321896233
 30
0.0
 11
75.70837447309997
 21
193.0321896233
 31
0.0
  0
LINE
  5
2A9
330
2
100
AcDbEntity
  8
0
 62
     3
100
AcDbLine
 10
72.19873091839997
 20
198.4321835197
 30
0.0
 11
72.19873091839997
 21
192.4321835197
 31
0.0
  0
LINE
  5
2AA
330
2
100
AcDbEntity
  8
0
 62
     3
100
AcDbLine
 10
75.70837447309997
 20
197.8321774161999
 30
0.0
 11
75.70837447309997
 21
193.0321896233
 31
0.0
  0
LINE
  5
2AB
330
2
100
AcDbEntity
  8
0
 62
     3
100
AcDbLine
 10
76.71603438519999
 20
197.9321835197
 30
0.0
 11
76.71603438519999
 21
192.9321835197
 31
0.0
  0
LINE
  5
2AC
330
2
100
AcDbEntity
  8
0
 62
     3
100
AcDbLine
 10
72.19873091839997
 20
212.0321896233
 30
0.0
 11
75.70837447309997
 21
212.0321896233
 31
0.0
  0
LINE
  5
2AD
330
2
100
AcDbEntity
  8
0
 62
     3
100
AcDbLine
 10
75.08701725469999
 20
211.4321828608
 30
0.0
 11
75.70838817859999
 21
212.0321795095
 31
0.0
  0
LINE
  5
2AE
330
2
100
AcDbEntity
  8
0
 62
     3
100
AcDbLine
 10
81.37535140179997
 20
198.632180468
 30
0.0
 11
81.37535140179997
 21
192.2377712883
 31
0.0
  0
LINE
  5
2AF
330
2
100
AcDbEntity
  8
0
 62
     3
100
AcDbLine
 10
80.45623824259996
 20
197.9321835197
 30
0.0
 11
80.45623824259996
 21
192.9321835197
 31
0.0
  0
CIRCLE
  5
2B0
330
2
100
AcDbEntity
  8
0
 62
     3
100
AcDbCircle
 10
79.58615157269996
 20
193.4821865715
 30
0.0
 40
0.5
  0
LINE
  5
2B1
330
2
100
AcDbEntity
  8
0
 62
     3
100
AcDbLine
 10
80.28614852089999
 20
193.4821865715
 30
0.0
 11
80.08615157269998
 21
193.4821865715
 31
0.0
  0
LINE
  5
2B2
330
2
100
AcDbEntity
  8
0
 62
     3
100
AcDbLine
 10
83.17511031289997
 20
198.632180468
 30
0.0
 11
83.17511031289997
 21
192.2321865715
 31
0.0
  0
LINE
  5
2B3
330
2
100
AcDbEntity
  8
0
 62
     3
100
AcDbLine
 10
80.28614852089999
 20
212.4821865715
 30
0.0
 11
80.08615157269998
 21
212.4821865715
 31
0.0
  0
CIRCLE
  5
2B4
330
2
100
AcDbEntity
  8
0
 62
     3
100
AcDbCircle
 10
79.58615157269996
 20
212.4821865715
 30
0.0
 40
0.5
  0
CIRCLE
  5
2B5
330
2
100
AcDbEntity
  8
0
 62
     3
100
AcDbCircle
 10
79.58615157269996
 20
231.4821865715
 30
0.0
 40
0.6999999881
  0
LINE
  5
2B6
330
2
100
AcDbEntity
  8
0
 62
     3
100
AcDbLine
 10
79.08615157269998
 20
231.4821865715
 30
0.0
 11
78.88613936559996
 21
231.4821865715
 31
0.0
  0
LINE
  5
2B7
330
2
100
AcDbEntity
  8
0
 62
     3
100
AcDbLine
 10
84.78166243689996
 20
225.9321835196999
 30
0.0
 11
71.93687483929998
 21
225.9321835196999
 31
0.0
  0
LINE
  5
2B8
330
2
100
AcDbEntity
  8
0
 62
     3
100
AcDbLine
 10
84.78166243689996
 20
221.9321835196998
 30
0.0
 11
71.93687483929998
 21
221.9321835196998
 31
0.0
  0
LINE
  5
2B9
330
2
100
AcDbEntity
  8
0
 62
     3
100
AcDbLine
 10
71.93687483929998
 20
230.2322018303
 30
0.0
 11
71.93687483929998
 21
217.6321652091999
 31
0.0
  0
LINE
  5
2BA
330
2
100
AcDbEntity
  8
0
 62
     3
100
AcDbLine
 10
72.19873091839997
 20
216.8321774162
 30
0.0
 11
75.70837447309997
 21
216.8321774162
 31
0.0
  0
LINE
  5
2BB
330
2
100
AcDbEntity
  8
0
 62
     3
100
AcDbLine
 10
75.08709876409999
 20
217.4320862652999
 30
0.0
 11
75.70838187409998
 21
216.8321744097999
 31
0.0
  0
LINE
  5
2BC
330
2
100
AcDbEntity
  8
0
 62
     3
100
AcDbLine
 10
75.08701725469999
 20
230.4321828608
 30
0.0
 11
75.70838817859999
 21
231.0321795095
 31
0.0
  0
LINE
  5
2BD
330
2
100
AcDbEntity
  8
0
 62
     3
100
AcDbLine
 10
72.19873091839997
 20
235.8321774161999
 30
0.0
 11
75.70837447309997
 21
235.8321774161999
 31
0.0
  0
LINE
  5
2BE
330
2
100
AcDbEntity
  8
0
 62
     3
100
AcDbLine
 10
72.19873091839997
 20
231.0321896233
 30
0.0
 11
75.70837447309997
 21
231.0321896233
 31
0.0
  0
LINE
  5
2BF
330
2
100
AcDbEntity
  8
0
 62
     3
100
AcDbLine
 10
75.70837447309997
 20
235.8321774161999
 30
0.0
 11
75.70837447309997
 21
231.0321896233
 31
0.0
  0
LINE
  5
2C0
330
2
100
AcDbEntity
  8
0
 62
     3
100
AcDbLine
 10
76.71603438519999
 20
235.9321835197
 30
0.0
 11
76.71603438519999
 21
230.9321835197
 31
0.0
  0
CIRCLE
  5
2C1
330
2
100
AcDbEntity
  8
0
 62
     3
100
AcDbCircle
 10
79.58615157269996
 20
231.4821865715
 30
0.0
 40
0.5
  0
LINE
  5
2C2
330
2
100
AcDbEntity
  8
0
 62
     3
100
AcDbLine
 10
80.28614852089999
 20
231.4821865715
 30
0.0
 11
80.08615157269998
 21
231.4821865715
 31
0.0
  0
LINE
  5
2C3
330
2
100
AcDbEntity
  8
0
 62
     3
100
AcDbLine
 10
80.45623824259996
 20
235.9321835197
 30
0.0
 11
80.45623824259996
 21
230.9321835197
 31
0.0
  0
LINE
  5
2C4
330
2
100
AcDbEntity
  8
0
 62
     3
100
AcDbLine
 10
47.13166854039997
 20
237.5321896233
 30
0.0
 11
52.3316807475
 21
237.5321896233
 31
0.0
  0
LINE
  5
2C5
330
2
100
AcDbEntity
  8
0
 62
     3
100
AcDbLine
 10
52.23165938519997
 20
237.4321835197
 30
0.0
 11
47.23165938519995
 21
237.4321835197
 31
0.0
  0
LINE
  5
2C6
330
2
100
AcDbEntity
  8
0
 62
     3
100
AcDbLine
 10
45.83166548869995
 20
238.9321835197
 30
0.0
 11
45.03166243689998
 21
238.9321835197
 31
0.0
  0
LINE
  5
2C7
330
2
100
AcDbEntity
  8
0
 62
     3
100
AcDbLine
 10
45.83166548869995
 20
237.9321835197
 30
0.0
 11
45.03166243689998
 21
237.9321835197
 31
0.0
  0
ARC
  5
2C8
330
2
100
AcDbEntity
  8
0
 62
     3
100
AcDbCircle
 10
45.03166243689998
 20
237.7321865715
 30
0.0
 40
0.1999999881
100
AcDbArc
 50
89.99992737239997
 51
179.9999640277999
  0
ARC
  5
2C9
330
2
100
AcDbEntity
  8
0
 62
     3
100
AcDbCircle
 10
45.03166243689998
 20
238.7321865715
 30
0.0
 40
0.1999999881
100
AcDbArc
 50
89.99992737239997
 51
179.9999640277999
  0
ARC
  5
2CA
330
2
100
AcDbEntity
  8
0
 62
     3
100
AcDbCircle
 10
45.03166243689998
 20
242.7321865715
 30
0.0
 40
0.1999999881
100
AcDbArc
 50
89.99998201389999
 51
179.9999640277999
  0
LINE
  5
2CB
330
2
100
AcDbEntity
  8
0
 62
     3
100
AcDbLine
 10
45.83166548869995
 20
242.7321865715
 30
0.0
 11
45.83166548869995
 21
237.9321835197
 31
0.0
  0
LINE
  5
2CC
330
2
100
AcDbEntity
  8
0
 62
     3
100
AcDbLine
 10
46.63166854039997
 20
236.5321896233
 30
0.0
 11
47.13166854039997
 21
236.5321896233
 31
0.0
  0
LINE
  5
2CD
330
2
100
AcDbEntity
  8
0
 62
     3
100
AcDbLine
 10
47.23165938519995
 20
236.4321835196999
 30
0.0
 11
46.73165938519995
 21
236.4321835196999
 31
0.0
  0
LINE
  5
2CE
330
2
100
AcDbEntity
  8
0
 62
     3
100
AcDbLine
 10
47.23165938519995
 20
237.4321835197
 30
0.0
 11
47.23165938519995
 21
236.4321835196999
 31
0.0
  0
LINE
  5
2CF
330
2
100
AcDbEntity
  8
0
 62
     3
100
AcDbLine
 10
47.13166854039997
 20
237.5321896233
 30
0.0
 11
47.13166854039997
 21
236.4515011466999
 31
0.0
  0
ARC
  5
2D0
330
2
100
AcDbEntity
  8
0
 62
     3
100
AcDbCircle
 10
46.03166243689996
 20
242.7321865715
 30
0.0
 40
0.1999999881
100
AcDbArc
 50
89.99998201389999
 51
179.9999640277999
  0
LINE
  5
2D1
330
2
100
AcDbEntity
  8
0
 62
     3
100
AcDbLine
 10
52.3316807475
 20
237.5321896233
 30
0.0
 11
52.3316807475
 21
236.4417507805
 31
0.0
  0
LINE
  5
2D2
330
2
100
AcDbEntity
  8
0
 62
     3
100
AcDbLine
 10
52.3316807475
 20
236.5321896233
 30
0.0
 11
52.8316807475
 21
236.5321896233
 31
0.0
  0
LINE
  5
2D3
330
2
100
AcDbEntity
  8
0
 62
     3
100
AcDbLine
 10
52.73165938519998
 20
236.4321835196999
 30
0.0
 11
52.23165938519997
 21
236.4321835196999
 31
0.0
  0
LINE
  5
2D4
330
2
100
AcDbEntity
  8
0
 62
     3
100
AcDbLine
 10
52.23165938519997
 20
237.4321835197
 30
0.0
 11
52.23165938519997
 21
236.4321835196999
 31
0.0
  0
ARC
  5
2D5
330
2
100
AcDbEntity
  8
0
 62
     3
100
AcDbCircle
 10
55.28166243689998
 20
242.7321865715
 30
0.0
 40
0.1999999881
100
AcDbArc
 50
89.99998201389999
 51
179.9999640277999
  0
LINE
  5
2D6
330
2
100
AcDbEntity
  8
0
 62
     3
100
AcDbLine
 10
71.03688094279997
 20
236.632180468
 30
0.0
 11
83.17511031289997
 21
236.632180468
 31
0.0
  0
LINE
  5
2D7
330
2
100
AcDbEntity
  8
0
 62
     3
100
AcDbLine
 10
84.78166243689996
 20
240.9321835197
 30
0.0
 11
67.88166854039997
 21
240.9321835197
 31
0.0
  0
LINE
  5
2D8
330
2
100
AcDbEntity
  8
0
 62
     3
100
AcDbLine
 10
65.03686568399999
 20
236.4321835196999
 30
0.0
 11
81.37535140179997
 21
236.4321835196999
 31
0.0
  0
LINE
  5
2D9
330
2
100
AcDbEntity
  8
0
 62
     3
100
AcDbLine
 10
66.88166854039997
 20
240.9321835197
 30
0.0
 11
56.88166854039997
 21
240.9321835197
 31
0.0
  0
LINE
  5
2DA
330
2
100
AcDbEntity
  8
0
 62
     3
100
AcDbLine
 10
70.03688094279997
 20
237.8321774161999
 30
0.0
 11
67.03688094279995
 21
237.8321774161999
 31
0.0
  0
LINE
  5
2DB
330
2
100
AcDbEntity
  8
0
 62
     3
100
AcDbLine
 10
70.03688094279997
 20
236.9321835197
 30
0.0
 11
67.03688094279995
 21
236.9321835197
 31
0.0
  0
LINE
  5
2DC
330
2
100
AcDbEntity
  8
0
 62
     3
100
AcDbLine
 10
69.93687483929996
 20
237.9321835197
 30
0.0
 11
67.13687178749998
 21
237.9321835197
 31
0.0
  0
LINE
  5
2DD
330
2
100
AcDbEntity
  8
0
 62
     3
100
AcDbLine
 10
71.03688094279997
 20
236.4822018303
 30
0.0
 11
66.03688094279997
 21
236.4822018303
 31
0.0
  0
LINE
  5
2DE
330
2
100
AcDbEntity
  8
0
 62
     3
100
AcDbLine
 10
71.03688094279997
 20
236.8821652091999
 30
0.0
 11
66.03688094279997
 21
236.8821652091999
 31
0.0
  0
LINE
  5
2DF
330
2
100
AcDbEntity
  8
0
 62
     3
100
AcDbLine
 10
66.88166854039997
 20
240.9321835197
 30
0.0
 11
66.88166854039997
 21
236.8821652091999
 31
0.0
  0
LINE
  5
2E0
330
2
100
AcDbEntity
  8
0
 62
     3
100
AcDbLine
 10
67.03688094279995
 20
237.8321774161999
 30
0.0
 11
67.03688094279995
 21
236.9321835197
 31
0.0
  0
LINE
  5
2E1
330
2
100
AcDbEntity
  8
0
 62
     3
100
AcDbLine
 10
67.13696470009998
 20
237.9320880232
 30
0.0
 11
67.03696675179998
 21
237.8320900665999
 31
0.0
  0
LINE
  5
2E2
330
2
100
AcDbEntity
  8
0
 62
     3
100
AcDbLine
 10
67.53688094279997
 20
236.9321835197
 30
0.0
 11
67.53688094279997
 21
236.8821652091999
 31
0.0
  0
LINE
  5
2E3
330
2
100
AcDbEntity
  8
0
 62
     3
100
AcDbLine
 10
66.03688094279997
 20
236.8821652091999
 30
0.0
 11
66.03688094279997
 21
236.4822018303
 31
0.0
  0
LINE
  5
2E4
330
2
100
AcDbEntity
  8
0
 62
     3
100
AcDbLine
 10
67.53688094279997
 20
236.4822018303
 30
0.0
 11
67.53688094279997
 21
236.4321835196999
 31
0.0
  0
LINE
  5
2E5
330
2
100
AcDbEntity
  8
0
 62
     3
100
AcDbLine
 10
69.48822066449998
 20
236.4822018303
 30
0.0
 11
69.48822066449998
 21
236.4321835196999
 31
0.0
  0
LINE
  5
2E6
330
2
100
AcDbEntity
  8
0
 62
     3
100
AcDbLine
 10
67.88166854039997
 20
240.9321835197
 30
0.0
 11
67.88166854039997
 21
237.9321835197
 31
0.0
  0
LINE
  5
2E7
330
2
100
AcDbEntity
  8
0
 62
     3
100
AcDbLine
 10
69.53688094279995
 20
236.9313595451
 30
0.0
 11
69.53688094279995
 21
236.8821652091999
 31
0.0
  0
LINE
  5
2E8
330
2
100
AcDbEntity
  8
0
 62
     3
100
AcDbLine
 10
69.53688094279995
 20
236.4822018303
 30
0.0
 11
69.53688094279995
 21
236.4321835196999
 31
0.0
  0
LINE
  5
2E9
330
2
100
AcDbEntity
  8
0
 62
     3
100
AcDbLine
 10
71.28797957559999
 20
236.6260006584
 30
0.0
 11
71.28797957559999
 21
236.4316342033
 31
0.0
  0
LINE
  5
2EA
330
2
100
AcDbEntity
  8
0
 62
     3
100
AcDbLine
 10
70.03697006299997
 20
237.8320686138
 30
0.0
 11
69.93684263119999
 21
237.9321960372
 31
0.0
  0
LINE
  5
2EB
330
2
100
AcDbEntity
  8
0
 62
     3
100
AcDbLine
 10
70.03688094279997
 20
237.8321774161999
 30
0.0
 11
70.03688094279997
 21
236.9321835197
 31
0.0
  0
LINE
  5
2EC
330
2
100
AcDbEntity
  8
0
 62
     3
100
AcDbLine
 10
71.03688094279997
 20
236.8821652091999
 30
0.0
 11
71.03688094279997
 21
236.4822018303
 31
0.0
  0
LINE
  5
2ED
330
2
100
AcDbEntity
  8
0
 62
     3
100
AcDbLine
 10
95.03167769569998
 20
230.3321774161999
 30
0.0
 11
95.03167769569998
 21
236.5321896233
 31
0.0
  0
LINE
  5
2EE
330
2
100
AcDbEntity
  8
0
 62
     3
100
AcDbLine
 10
94.93167159219998
 20
236.4321835196999
 30
0.0
 11
94.93167159219998
 21
230.4321835197
 31
0.0
  0
LINE
  5
2EF
330
2
100
AcDbEntity
  8
0
 62
     3
100
AcDbLine
 10
88.83166548869999
 20
236.5321896233
 30
0.0
 11
88.83166548869999
 21
230.3321774161999
 31
0.0
  0
LINE
  5
2F0
330
2
100
AcDbEntity
  8
0
 62
     3
100
AcDbLine
 10
88.93167159219999
 20
236.4321835196999
 30
0.0
 11
88.93167159219999
 21
230.4321835197
 31
0.0
  0
LINE
  5
2F1
330
2
100
AcDbEntity
  8
0
 62
     3
100
AcDbLine
 10
86.58166548869997
 20
224.132180468
 30
0.0
 11
86.58166548869997
 21
242.7321865715
 31
0.0
  0
LINE
  5
2F2
330
2
100
AcDbEntity
  8
0
 62
     3
100
AcDbLine
 10
96.83166548869998
 20
224.132180468
 30
0.0
 11
96.83166548869998
 21
242.7321865715
 31
0.0
  0
LINE
  5
2F3
330
2
100
AcDbEntity
  8
0
  6
CENTER
 62
     3
100
AcDbLine
 10
91.93167159219999
 20
238.4321835196999
 30
0.0
 11
91.93167159219999
 21
228.4321835197
 31
0.0
  0
LINE
  5
2F4
330
2
100
AcDbEntity
  8
0
 62
     3
100
AcDbLine
 10
95.83166548869998
 20
186.132180468
 30
0.0
 11
95.83166548869998
 21
191.4321835197
 31
0.0
  0
LINE
  5
2F5
330
2
100
AcDbEntity
  8
0
 62
     3
100
AcDbLine
 10
96.83166548869998
 20
186.132180468
 30
0.0
 11
96.83166548869998
 21
204.7321865715
 31
0.0
  0
LINE
  5
2F6
330
2
100
AcDbEntity
  8
0
 62
     3
100
AcDbLine
 10
86.58166548869997
 20
186.132180468
 30
0.0
 11
86.58166548869997
 21
204.7321865715
 31
0.0
  0
ARC
  5
2F7
330
2
100
AcDbEntity
  8
0
  6
PHANTOM
 62
     3
100
AcDbCircle
 10
93.27589461469996
 20
157.5448239006
 30
0.0
 40
0.9166666864999999
100
AcDbArc
 50
2.9999992297
 51
74.13285151530002
  0
LINE
  5
2F8
330
2
100
AcDbEntity
  8
0
 62
     3
100
AcDbLine
 10
95.86470076700001
 20
155.9321530021998
 30
0.0
 11
86.67068526409996
 21
155.9321530021998
 31
0.0
  0
CIRCLE
  5
2F9
330
2
100
AcDbEntity
  8
0
 62
     3
100
AcDbCircle
 10
91.93165633339994
 20
150.5321591057
 30
0.0
 40
2.024999618499998
  0
LINE
  5
2FA
330
2
100
AcDbEntity
  8
0
 62
     3
100
AcDbLine
 10
86.58165022989996
 20
155.932168261
 30
0.0
 11
94.83165022989998
 21
155.932168261
 31
0.0
  0
LINE
  5
2FB
330
2
100
AcDbEntity
  8
0
  6
CENTER
 62
     3
100
AcDbLine
 10
94.43165633339994
 20
150.5321591057
 30
0.0
 11
89.43165633339994
 21
150.5321591057
 31
0.0
  0
LINE
  5
2FC
330
2
100
AcDbEntity
  8
0
  6
CENTER
 62
     3
100
AcDbLine
 10
91.93165633339994
 20
159.732003466
 30
0.0
 11
91.93165633339994
 21
148.0321591056998
 31
0.0
  0
CIRCLE
  5
2FD
330
2
100
AcDbEntity
  8
0
 62
     3
100
AcDbCircle
 10
91.93165633339994
 20
150.5321591057
 30
0.0
 40
1.1999998093
  0
ARC
  5
2FE
330
2
100
AcDbEntity
  8
0
  6
PHANTOM
 62
     3
100
AcDbCircle
 10
90.5873875346
 20
157.5448239006
 30
0.0
 40
0.9166666864999999
100
AcDbArc
 50
105.8671125125
 51
176.9999810198
  0
LINE
  5
2FF
330
2
100
AcDbEntity
  8
0
 62
     3
100
AcDbLine
 10
86.58165022989996
 20
159.932168261
 30
0.0
 11
86.58165022989996
 21
155.9321530021998
 31
0.0
  0
LINE
  5
300
330
2
100
AcDbEntity
  8
0
  6
PHANTOM
 62
     3
100
AcDbLine
 10
89.67196955449997
 20
157.5928134201999
 30
0.0
 11
89.63996712729999
 21
156.9821707353
 31
0.0
  0
ARC
  5
301
330
2
100
AcDbEntity
  8
0
  6
PHANTOM
 62
     3
100
AcDbCircle
 10
91.93165633339994
 20
152.815484301
 30
0.0
 40
5.8333330154
100
AcDbArc
 50
74.13285151530002
 51
105.8671125125
  0
ARC
  5
302
330
2
100
AcDbEntity
  8
0
 62
     3
100
AcDbCircle
 10
94.83165022989998
 20
154.9321530021998
 30
0.0
 40
1.0
100
AcDbArc
 50
0.0
 51
89.99998201389999
  0
ARC
  5
303
330
2
100
AcDbEntity
  8
0
 62
     3
100
AcDbCircle
 10
95.8316502299
 20
154.9321530021998
 30
0.0
 40
1.0
100
AcDbArc
 50
0.0
 51
89.99992737239997
  0
ARC
  5
304
330
2
100
AcDbEntity
  8
0
 62
     3
100
AcDbCircle
 10
94.83165022989998
 20
154.932168261
 30
0.0
 40
1.0
100
AcDbArc
 50
0.0
 51
89.99998201389999
  0
ARC
  5
305
330
2
100
AcDbEntity
  8
0
 62
     3
100
AcDbCircle
 10
95.8316502299
 20
154.932168261
 30
0.0
 40
1.0
100
AcDbArc
 50
0.0
 51
89.99998201389999
  0
LINE
  5
306
330
2
100
AcDbEntity
  8
0
 62
     3
100
AcDbLine
 10
96.83165022989999
 20
154.9747555412
 30
0.0
 11
96.83165022989999
 21
147.1321652092
 31
0.0
  0
LINE
  5
307
330
2
100
AcDbEntity
  8
0
 62
     3
100
AcDbLine
 10
95.8316502299
 20
146.9321530021999
 30
0.0
 11
96.6316532817
 21
146.9321530021999
 31
0.0
  0
ARC
  5
308
330
2
100
AcDbEntity
  8
0
 62
     3
100
AcDbCircle
 10
96.6316532817
 20
147.1321652092
 30
0.0
 40
0.1999999881
100
AcDbArc
 50
270.0000179861
 51
0.0
  0
LINE
  5
309
330
2
100
AcDbEntity
  8
0
 62
     3
100
AcDbLine
 10
96.6316532817
 20
146.932168261
 30
0.0
 11
95.8316502299
 21
146.932168261
 31
0.0
  0
LINE
  5
30A
330
2
100
AcDbEntity
  8
0
 62
     3
100
AcDbLine
 10
95.84579512739999
 20
151.932168261
 30
0.0
 11
96.8311466899
 21
151.932168261
 31
0.0
  0
LINE
  5
30B
330
2
100
AcDbEntity
  8
0
 62
     3
100
AcDbLine
 10
95.007065269
 20
155.932168261
 30
0.0
 11
95.8316502299
 21
155.932168261
 31
0.0
  0
LINE
  5
30C
330
2
100
AcDbEntity
  8
0
  6
PHANTOM
 62
     3
100
AcDbLine
 10
94.19127394530001
 20
157.5928040509
 30
0.0
 11
94.22327637249999
 21
156.9821613659
 31
0.0
  0
ARC
  5
30D
330
2
100
AcDbEntity
  8
0
 62
     3
100
AcDbCircle
 10
86.38166854039999
 20
186.132180468
 30
0.0
 40
0.1999999881
100
AcDbArc
 50
270.0000179861
 51
0.0
  0
ARC
  5
30E
330
2
100
AcDbEntity
  8
0
 62
     3
100
AcDbCircle
 10
95.63166854039998
 20
186.132180468
 30
0.0
 40
0.1999999881
100
AcDbArc
 50
270.0000179861
 51
0.0
  0
ARC
  5
30F
330
2
100
AcDbEntity
  8
0
 62
     3
100
AcDbCircle
 10
96.63166854040001
 20
186.132180468
 30
0.0
 40
0.1999999881
100
AcDbArc
 50
270.0000179861
 51
0.0
  0
LINE
  5
310
330
2
100
AcDbEntity
  8
0
 62
     3
100
AcDbLine
 10
96.63166854040001
 20
185.9321835197
 30
0.0
 11
95.64935347699998
 21
185.9321835197
 31
0.0
  0
LINE
  5
311
330
2
100
AcDbEntity
  8
0
 62
     3
100
AcDbLine
 10
94.93167159219998
 20
217.4321835196999
 30
0.0
 11
94.93167159219998
 21
211.4321835196999
 31
0.0
  0
LINE
  5
312
330
2
100
AcDbEntity
  8
0
 62
     3
100
AcDbLine
 10
95.03167769569998
 20
211.3321774161999
 30
0.0
 11
95.03167769569998
 21
217.5321896233
 31
0.0
  0
CIRCLE
  5
313
330
2
100
AcDbEntity
  8
0
 62
     3
100
AcDbCircle
 10
91.93167159219999
 20
214.4321835197
 30
0.0
 40
1.5
  0
LINE
  5
314
330
2
100
AcDbEntity
  8
0
  6
CENTER
 62
     3
100
AcDbLine
 10
91.93167159219999
 20
219.4321835196999
 30
0.0
 11
91.93167159219999
 21
209.4321835196998
 31
0.0
  0
LINE
  5
315
330
2
100
AcDbEntity
  8
0
 62
     3
100
AcDbLine
 10
96.83166548869998
 20
205.132180468
 30
0.0
 11
96.83166548869998
 21
223.7321865715
 31
0.0
  0
LINE
  5
316
330
2
100
AcDbEntity
  8
0
 62
     3
100
AcDbLine
 10
88.93167159219999
 20
217.4321835196999
 30
0.0
 11
88.93167159219999
 21
211.4321835196999
 31
0.0
  0
LINE
  5
317
330
2
100
AcDbEntity
  8
0
 62
     3
100
AcDbLine
 10
88.83166548869999
 20
217.5321896233
 30
0.0
 11
88.83166548869999
 21
211.3321774161999
 31
0.0
  0
LINE
  5
318
330
2
100
AcDbEntity
  8
0
 62
     3
100
AcDbLine
 10
86.58166548869997
 20
205.132180468
 30
0.0
 11
86.58166548869997
 21
223.7321865715
 31
0.0
  0
LINE
  5
319
330
2
100
AcDbEntity
  8
0
 62
     3
100
AcDbLine
 10
94.43167159219999
 20
210.4321835197
 30
0.0
 11
89.43167159219999
 21
210.4321835197
 31
0.0
  0
LINE
  5
31A
330
2
100
AcDbEntity
  8
0
 62
     3
100
AcDbLine
 10
89.33166548869998
 20
210.3321774162
 30
0.0
 11
94.53167769569999
 21
210.3321774162
 31
0.0
  0
LINE
  5
31B
330
2
100
AcDbEntity
  8
0
 62
     3
100
AcDbLine
 10
89.33166548869998
 20
191.3321774161999
 30
0.0
 11
94.53167769569999
 21
191.3321774161999
 31
0.0
  0
LINE
  5
31C
330
2
100
AcDbEntity
  8
0
  6
CENTER
 62
     3
100
AcDbLine
 10
93.93167159219999
 20
195.4321835196998
 30
0.0
 11
89.93167159219998
 21
195.4321835196998
 31
0.0
  0
LINE
  5
31D
330
2
100
AcDbEntity
  8
0
 62
     3
100
AcDbLine
 10
94.43167159219999
 20
191.4321835197
 30
0.0
 11
89.43167159219999
 21
191.4321835197
 31
0.0
  0
LINE
  5
31E
330
2
100
AcDbEntity
  8
0
 62
     3
100
AcDbLine
 10
94.43167159219999
 20
199.4321835196998
 30
0.0
 11
89.43167159219999
 21
199.4321835196998
 31
0.0
  0
LINE
  5
31F
330
2
100
AcDbEntity
  8
0
 62
     3
100
AcDbLine
 10
89.33166548869998
 20
199.5321896233
 30
0.0
 11
94.53167769569999
 21
199.5321896233
 31
0.0
  0
LINE
  5
320
330
2
100
AcDbEntity
  8
0
 62
     3
100
AcDbLine
 10
88.83166548869999
 20
198.5321896233
 30
0.0
 11
88.83166548869999
 21
192.3321774161999
 31
0.0
  0
LINE
  5
321
330
2
100
AcDbEntity
  8
0
 62
     3
100
AcDbLine
 10
88.93167159219999
 20
198.4321835197
 30
0.0
 11
88.93167159219999
 21
192.4321835197
 31
0.0
  0
LINE
  5
322
330
2
100
AcDbEntity
  8
0
 62
     3
100
AcDbLine
 10
88.83166548869999
 20
192.3321774161999
 30
0.0
 11
89.33166548869998
 21
192.3321774161999
 31
0.0
  0
LINE
  5
323
330
2
100
AcDbEntity
  8
0
 62
     3
100
AcDbLine
 10
89.33166548869998
 20
191.3321774161999
 30
0.0
 11
89.33166548869998
 21
192.4404537834
 31
0.0
  0
LINE
  5
324
330
2
100
AcDbEntity
  8
0
 62
     3
100
AcDbLine
 10
89.43167159219999
 20
192.4321835197
 30
0.0
 11
88.93167159219999
 21
192.4321835197
 31
0.0
  0
LINE
  5
325
330
2
100
AcDbEntity
  8
0
 62
     3
100
AcDbLine
 10
89.43167159219999
 20
192.4321835197
 30
0.0
 11
89.43167159219999
 21
191.4321835197
 31
0.0
  0
LINE
  5
326
330
2
100
AcDbEntity
  8
0
 62
     3
100
AcDbLine
 10
89.33166548869998
 20
199.5321896233
 30
0.0
 11
89.33166548869998
 21
198.4364864983
 31
0.0
  0
LINE
  5
327
330
2
100
AcDbEntity
  8
0
 62
     3
100
AcDbLine
 10
88.83166548869999
 20
198.5321896233
 30
0.0
 11
89.33166548869998
 21
198.5321896233
 31
0.0
  0
LINE
  5
328
330
2
100
AcDbEntity
  8
0
 62
     3
100
AcDbLine
 10
89.43167159219999
 20
198.4321835197
 30
0.0
 11
88.93167159219999
 21
198.4321835197
 31
0.0
  0
LINE
  5
329
330
2
100
AcDbEntity
  8
0
 62
     3
100
AcDbLine
 10
89.43167159219999
 20
199.4321835196998
 30
0.0
 11
89.43167159219999
 21
198.4321835197
 31
0.0
  0
CIRCLE
  5
32A
330
2
100
AcDbEntity
  8
0
 62
     3
100
AcDbCircle
 10
91.93167159219999
 20
195.4321835196998
 30
0.0
 40
1.229499816899999
  0
CIRCLE
  5
32B
330
2
100
AcDbEntity
  8
0
 62
     3
100
AcDbCircle
 10
91.93167159219999
 20
195.4321835196998
 30
0.0
 40
1.5
  0
LINE
  5
32C
330
2
100
AcDbEntity
  8
0
  6
CENTER
 62
     3
100
AcDbLine
 10
91.93167159219999
 20
200.4321835197
 30
0.0
 11
91.93167159219999
 21
190.4321835197
 31
0.0
  0
LINE
  5
32D
330
2
100
AcDbEntity
  8
0
 62
     3
100
AcDbLine
 10
90.78167769569999
 20
195.8671200432
 30
0.0
 11
90.78167769569999
 21
194.9972469963
 31
0.0
  0
LINE
  5
32E
330
2
100
AcDbEntity
  8
0
 62
     3
100
AcDbLine
 10
93.08166548869998
 20
195.8671200432
 30
0.0
 11
93.08166548869998
 21
194.9972469963
 31
0.0
  0
ARC
  5
32F
330
2
100
AcDbEntity
  8
0
 62
     3
100
AcDbCircle
 10
86.38166854039999
 20
205.132180468
 30
0.0
 40
0.1999999881
100
AcDbArc
 50
270.0000179861
 51
0.0
  0
ARC
  5
330
330
2
100
AcDbEntity
  8
0
 62
     3
100
AcDbCircle
 10
86.38166854039999
 20
204.7321865715
 30
0.0
 40
0.1999999881
100
AcDbArc
 50
0.0
 51
89.99998201389999
  0
LINE
  5
331
330
2
100
AcDbEntity
  8
0
 62
     3
100
AcDbLine
 10
89.43167159219999
 20
211.4321835196999
 30
0.0
 11
89.43167159219999
 21
210.4321835197
 31
0.0
  0
LINE
  5
332
330
2
100
AcDbEntity
  8
0
 62
     3
100
AcDbLine
 10
89.43167159219999
 20
211.4321835196999
 30
0.0
 11
88.93167159219999
 21
211.4321835196999
 31
0.0
  0
LINE
  5
333
330
2
100
AcDbEntity
  8
0
 62
     3
100
AcDbLine
 10
89.33166548869998
 20
210.3321774162
 30
0.0
 11
89.33166548869998
 21
211.4404537833999
 31
0.0
  0
LINE
  5
334
330
2
100
AcDbEntity
  8
0
 62
     3
100
AcDbLine
 10
88.83166548869999
 20
211.3321774161999
 30
0.0
 11
89.33166548869998
 21
211.3321774161999
 31
0.0
  0
LINE
  5
335
330
2
100
AcDbEntity
  8
0
 62
     3
100
AcDbLine
 10
95.83166548869998
 20
204.7321865715
 30
0.0
 11
95.83166548869998
 21
199.9321835197
 31
0.0
  0
LINE
  5
336
330
2
100
AcDbEntity
  8
0
 62
     3
100
AcDbLine
 10
95.03167769569998
 20
192.3321774161999
 30
0.0
 11
95.03167769569998
 21
198.5321896233
 31
0.0
  0
LINE
  5
337
330
2
100
AcDbEntity
  8
0
 62
     3
100
AcDbLine
 10
94.93167159219998
 20
198.4321835197
 30
0.0
 11
94.93167159219998
 21
192.4321835197
 31
0.0
  0
LINE
  5
338
330
2
100
AcDbEntity
  8
0
 62
     3
100
AcDbLine
 10
94.93167159219998
 20
195.4321835196998
 30
0.0
 11
96.83166548869998
 21
195.4321835196998
 31
0.0
  0
LINE
  5
339
330
2
100
AcDbEntity
  8
0
 62
     3
100
AcDbLine
 10
94.53167769569999
 20
192.3321774161999
 30
0.0
 11
95.03167769569998
 21
192.3321774161999
 31
0.0
  0
LINE
  5
33A
330
2
100
AcDbEntity
  8
0
 62
     3
100
AcDbLine
 10
94.53167769569999
 20
191.3321774161999
 30
0.0
 11
94.53167769569999
 21
192.4295284903998
 31
0.0
  0
LINE
  5
33B
330
2
100
AcDbEntity
  8
0
 62
     3
100
AcDbLine
 10
94.43167159219999
 20
192.4321835197
 30
0.0
 11
94.43167159219999
 21
191.4321835197
 31
0.0
  0
LINE
  5
33C
330
2
100
AcDbEntity
  8
0
 62
     3
100
AcDbLine
 10
94.93167159219998
 20
192.4321835197
 30
0.0
 11
94.43167159219999
 21
192.4321835197
 31
0.0
  0
ARC
  5
33D
330
2
100
AcDbEntity
  8
0
 62
     3
100
AcDbCircle
 10
96.63166854040001
 20
191.632180468
 30
0.0
 40
0.1999999881
100
AcDbArc
 50
270.0000179861
 51
0.0
  0
ARC
  5
33E
330
2
100
AcDbEntity
  8
0
 62
     3
100
AcDbCircle
 10
96.63166854040001
 20
190.632180468
 30
0.0
 40
0.1999999881
100
AcDbArc
 50
270.0000179861
 51
0.0
  0
LINE
  5
33F
330
2
100
AcDbEntity
  8
0
 62
     3
100
AcDbLine
 10
96.63166854040001
 20
191.4321835197
 30
0.0
 11
95.83166548869998
 21
191.4321835197
 31
0.0
  0
LINE
  5
340
330
2
100
AcDbEntity
  8
0
 62
     3
100
AcDbLine
 10
96.63166854040001
 20
190.4321835197
 30
0.0
 11
95.83166548869998
 21
190.4321835197
 31
0.0
  0
LINE
  5
341
330
2
100
AcDbEntity
  8
0
 62
     3
100
AcDbLine
 10
94.53167769569999
 20
198.5321896233
 30
0.0
 11
95.03167769569998
 21
198.5321896233
 31
0.0
  0
LINE
  5
342
330
2
100
AcDbEntity
  8
0
 62
     3
100
AcDbLine
 10
94.93167159219998
 20
198.4321835197
 30
0.0
 11
94.43167159219999
 21
198.4321835197
 31
0.0
  0
LINE
  5
343
330
2
100
AcDbEntity
  8
0
 62
     3
100
AcDbLine
 10
94.43167159219999
 20
199.4321835196998
 30
0.0
 11
94.43167159219999
 21
198.4321835197
 31
0.0
  0
LINE
  5
344
330
2
100
AcDbEntity
  8
0
 62
     3
100
AcDbLine
 10
94.53167769569999
 20
199.5321896233
 30
0.0
 11
94.53167769569999
 21
198.4255764641
 31
0.0
  0
LINE
  5
345
330
2
100
AcDbEntity
  8
0
 62
     3
100
AcDbLine
 10
95.83166548869998
 20
199.9321835197
 30
0.0
 11
96.63166854040001
 21
199.9321835197
 31
0.0
  0
ARC
  5
346
330
2
100
AcDbEntity
  8
0
 62
     3
100
AcDbCircle
 10
96.63166854040001
 20
199.7321865715
 30
0.0
 40
0.1999999881
100
AcDbArc
 50
0.0
 51
89.99992737239997
  0
ARC
  5
347
330
2
100
AcDbEntity
  8
0
 62
     3
100
AcDbCircle
 10
96.63166854040001
 20
200.7321865715
 30
0.0
 40
0.1999999881
100
AcDbArc
 50
0.0
 51
89.99992737239997
  0
LINE
  5
348
330
2
100
AcDbEntity
  8
0
 62
     3
100
AcDbLine
 10
95.83166548869998
 20
200.9321835196999
 30
0.0
 11
96.63166854040001
 21
200.9321835196999
 31
0.0
  0
LINE
  5
349
330
2
100
AcDbEntity
  8
0
 62
     3
100
AcDbLine
 10
95.83166548869998
 20
205.132180468
 30
0.0
 11
95.83166548869998
 21
210.4321835197
 31
0.0
  0
ARC
  5
34A
330
2
100
AcDbEntity
  8
0
 62
     3
100
AcDbCircle
 10
96.63166854040001
 20
205.132180468
 30
0.0
 40
0.1999999881
100
AcDbArc
 50
270.0000179861
 51
0.0
  0
ARC
  5
34B
330
2
100
AcDbEntity
  8
0
 62
     3
100
AcDbCircle
 10
95.63166854039998
 20
205.132180468
 30
0.0
 40
0.1999999881
100
AcDbArc
 50
270.0000179861
 51
0.0
  0
LINE
  5
34C
330
2
100
AcDbEntity
  8
0
 62
     3
100
AcDbLine
 10
96.63166854040001
 20
204.9321835196999
 30
0.0
 11
95.63729903359995
 21
204.9321835196999
 31
0.0
  0
ARC
  5
34D
330
2
100
AcDbEntity
  8
0
 62
     3
100
AcDbCircle
 10
96.63166854040001
 20
204.7321865715
 30
0.0
 40
0.1999999881
100
AcDbArc
 50
0.0
 51
89.99998201389999
  0
ARC
  5
34E
330
2
100
AcDbEntity
  8
0
 62
     3
100
AcDbCircle
 10
95.63166854039998
 20
204.7321865715
 30
0.0
 40
0.1999999881
100
AcDbArc
 50
0.0
 51
89.99998201389999
  0
LINE
  5
34F
330
2
100
AcDbEntity
  8
0
 62
     3
100
AcDbLine
 10
94.93167159219998
 20
211.4321835196999
 30
0.0
 11
94.43167159219999
 21
211.4321835196999
 31
0.0
  0
LINE
  5
350
330
2
100
AcDbEntity
  8
0
 62
     3
100
AcDbLine
 10
94.43167159219999
 20
211.4321835196999
 30
0.0
 11
94.43167159219999
 21
210.4321835197
 31
0.0
  0
LINE
  5
351
330
2
100
AcDbEntity
  8
0
 62
     3
100
AcDbLine
 10
94.53167769569999
 20
210.3321774162
 30
0.0
 11
94.53167769569999
 21
211.4295284904
 31
0.0
  0
LINE
  5
352
330
2
100
AcDbEntity
  8
0
 62
     3
100
AcDbLine
 10
94.53167769569999
 20
211.3321774161999
 30
0.0
 11
95.03167769569998
 21
211.3321774161999
 31
0.0
  0
LINE
  5
353
330
2
100
AcDbEntity
  8
0
 62
     3
100
AcDbLine
 10
96.63166854040001
 20
209.4321835196998
 30
0.0
 11
95.83166548869998
 21
209.4321835196998
 31
0.0
  0
LINE
  5
354
330
2
100
AcDbEntity
  8
0
 62
     3
100
AcDbLine
 10
96.63166854040001
 20
210.4321835197
 30
0.0
 11
95.83166548869998
 21
210.4321835197
 31
0.0
  0
ARC
  5
355
330
2
100
AcDbEntity
  8
0
 62
     3
100
AcDbCircle
 10
96.63166854040001
 20
209.632180468
 30
0.0
 40
0.1999999881
100
AcDbArc
 50
270.0000179861
 51
0.0
  0
ARC
  5
356
330
2
100
AcDbEntity
  8
0
 62
     3
100
AcDbCircle
 10
96.63166854040001
 20
210.6321804679999
 30
0.0
 40
0.1999999881
100
AcDbArc
 50
270.0000179861
 51
0.0
  0
LINE
  5
357
330
2
100
AcDbEntity
  8
0
  6
CENTER
 62
     3
100
AcDbLine
 10
93.93167159219999
 20
233.4321835197
 30
0.0
 11
89.93167159219998
 21
233.4321835197
 31
0.0
  0
LINE
  5
358
330
2
100
AcDbEntity
  8
0
 62
     3
100
AcDbLine
 10
89.33166548869998
 20
229.3321774162
 30
0.0
 11
94.53167769569999
 21
229.3321774162
 31
0.0
  0
LINE
  5
359
330
2
100
AcDbEntity
  8
0
 62
     3
100
AcDbLine
 10
94.43167159219999
 20
229.4321835197
 30
0.0
 11
89.43167159219999
 21
229.4321835197
 31
0.0
  0
LINE
  5
35A
330
2
100
AcDbEntity
  8
0
 62
     3
100
AcDbLine
 10
89.33166548869998
 20
218.5321896233
 30
0.0
 11
94.53167769569999
 21
218.5321896233
 31
0.0
  0
LINE
  5
35B
330
2
100
AcDbEntity
  8
0
 62
     3
100
AcDbLine
 10
94.43167159219999
 20
218.4321835197
 30
0.0
 11
89.43167159219999
 21
218.4321835197
 31
0.0
  0
LINE
  5
35C
330
2
100
AcDbEntity
  8
0
  6
CENTER
 62
     3
100
AcDbLine
 10
93.93167159219999
 20
214.4321835197
 30
0.0
 11
89.93167159219998
 21
214.4321835197
 31
0.0
  0
LINE
  5
35D
330
2
100
AcDbEntity
  8
0
 62
     3
100
AcDbLine
 10
89.43167159219999
 20
218.4321835197
 30
0.0
 11
89.43167159219999
 21
217.4321835196999
 31
0.0
  0
LINE
  5
35E
330
2
100
AcDbEntity
  8
0
 62
     3
100
AcDbLine
 10
89.43167159219999
 20
217.4321835196999
 30
0.0
 11
88.93167159219999
 21
217.4321835196999
 31
0.0
  0
LINE
  5
35F
330
2
100
AcDbEntity
  8
0
 62
     3
100
AcDbLine
 10
88.83166548869999
 20
217.5321896233
 30
0.0
 11
89.33166548869998
 21
217.5321896233
 31
0.0
  0
LINE
  5
360
330
2
100
AcDbEntity
  8
0
 62
     3
100
AcDbLine
 10
89.33166548869998
 20
218.5321896233
 30
0.0
 11
89.33166548869998
 21
217.4364864983
 31
0.0
  0
ARC
  5
361
330
2
100
AcDbEntity
  8
0
 62
     3
100
AcDbCircle
 10
86.38166854039999
 20
224.132180468
 30
0.0
 40
0.1999999881
100
AcDbArc
 50
270.0000179861
 51
0.0
  0
ARC
  5
362
330
2
100
AcDbEntity
  8
0
 62
     3
100
AcDbCircle
 10
86.38166854039999
 20
223.7321865715
 30
0.0
 40
0.1999999881
100
AcDbArc
 50
0.0
 51
89.99998201389999
  0
CIRCLE
  5
363
330
2
100
AcDbEntity
  8
0
 62
     3
100
AcDbCircle
 10
91.93167159219999
 20
214.4321835197
 30
0.0
 40
1.229499816899999
  0
LINE
  5
364
330
2
100
AcDbEntity
  8
0
 62
     3
100
AcDbLine
 10
90.78167769569999
 20
214.8671200432
 30
0.0
 11
90.78167769569999
 21
213.9972469963
 31
0.0
  0
LINE
  5
365
330
2
100
AcDbEntity
  8
0
 62
     3
100
AcDbLine
 10
93.08166548869998
 20
214.8671200432
 30
0.0
 11
93.08166548869998
 21
213.9972469963
 31
0.0
  0
LINE
  5
366
330
2
100
AcDbEntity
  8
0
 62
     3
100
AcDbLine
 10
89.33166548869998
 20
229.3321774162
 30
0.0
 11
89.33166548869998
 21
230.4404537833999
 31
0.0
  0
LINE
  5
367
330
2
100
AcDbEntity
  8
0
 62
     3
100
AcDbLine
 10
89.43167159219999
 20
230.4321835197
 30
0.0
 11
89.43167159219999
 21
229.4321835197
 31
0.0
  0
LINE
  5
368
330
2
100
AcDbEntity
  8
0
 62
     3
100
AcDbLine
 10
88.83166548869999
 20
230.3321774161999
 30
0.0
 11
89.33166548869998
 21
230.3321774161999
 31
0.0
  0
LINE
  5
369
330
2
100
AcDbEntity
  8
0
 62
     3
100
AcDbLine
 10
89.43167159219999
 20
230.4321835197
 30
0.0
 11
88.93167159219999
 21
230.4321835197
 31
0.0
  0
CIRCLE
  5
36A
330
2
100
AcDbEntity
  8
0
 62
     3
100
AcDbCircle
 10
91.93167159219999
 20
233.4321835197
 30
0.0
 40
1.229499816899999
  0
CIRCLE
  5
36B
330
2
100
AcDbEntity
  8
0
 62
     3
100
AcDbCircle
 10
91.93167159219999
 20
233.4321835197
 30
0.0
 40
1.5
  0
LINE
  5
36C
330
2
100
AcDbEntity
  8
0
 62
     3
100
AcDbLine
 10
90.78167769569999
 20
233.8671200432
 30
0.0
 11
90.78167769569999
 21
232.9972469963
 31
0.0
  0
LINE
  5
36D
330
2
100
AcDbEntity
  8
0
 62
     3
100
AcDbLine
 10
93.08166548869998
 20
233.8671200432
 30
0.0
 11
93.08166548869998
 21
232.9972469963
 31
0.0
  0
LINE
  5
36E
330
2
100
AcDbEntity
  8
0
 62
     3
100
AcDbLine
 10
95.83166548869998
 20
224.132180468
 30
0.0
 11
95.83166548869998
 21
229.4321835197
 31
0.0
  0
ARC
  5
36F
330
2
100
AcDbEntity
  8
0
 62
     3
100
AcDbCircle
 10
96.63166854040001
 20
218.7321865715
 30
0.0
 40
0.1999999881
100
AcDbArc
 50
0.0
 51
89.99992737239997
  0
LINE
  5
370
330
2
100
AcDbEntity
  8
0
 62
     3
100
AcDbLine
 10
94.93167159219998
 20
214.4321835197
 30
0.0
 11
96.83166548869998
 21
214.4321835197
 31
0.0
  0
LINE
  5
371
330
2
100
AcDbEntity
  8
0
 62
     3
100
AcDbLine
 10
94.53167769569999
 20
217.5321896233
 30
0.0
 11
95.03167769569998
 21
217.5321896233
 31
0.0
  0
LINE
  5
372
330
2
100
AcDbEntity
  8
0
 62
     3
100
AcDbLine
 10
94.53167769569999
 20
218.5321896233
 30
0.0
 11
94.53167769569999
 21
217.4255764640999
 31
0.0
  0
LINE
  5
373
330
2
100
AcDbEntity
  8
0
 62
     3
100
AcDbLine
 10
94.43167159219999
 20
218.4321835197
 30
0.0
 11
94.43167159219999
 21
217.4321835196999
 31
0.0
  0
LINE
  5
374
330
2
100
AcDbEntity
  8
0
 62
     3
100
AcDbLine
 10
94.93167159219998
 20
217.4321835196999
 30
0.0
 11
94.43167159219999
 21
217.4321835196999
 31
0.0
  0
ARC
  5
375
330
2
100
AcDbEntity
  8
0
 62
     3
100
AcDbCircle
 10
95.63166854039998
 20
224.132180468
 30
0.0
 40
0.1999999881
100
AcDbArc
 50
270.0000179861
 51
0.0
  0
ARC
  5
376
330
2
100
AcDbEntity
  8
0
 62
     3
100
AcDbCircle
 10
96.63166854040001
 20
224.132180468
 30
0.0
 40
0.1999999881
100
AcDbArc
 50
270.0000179861
 51
0.0
  0
LINE
  5
377
330
2
100
AcDbEntity
  8
0
 62
     3
100
AcDbLine
 10
95.83166548869998
 20
218.9321835197
 30
0.0
 11
96.63166854040001
 21
218.9321835197
 31
0.0
  0
LINE
  5
378
330
2
100
AcDbEntity
  8
0
 62
     3
100
AcDbLine
 10
95.83166548869998
 20
219.9321835197
 30
0.0
 11
96.63166854040001
 21
219.9321835197
 31
0.0
  0
ARC
  5
379
330
2
100
AcDbEntity
  8
0
 62
     3
100
AcDbCircle
 10
96.63166854040001
 20
219.7321865715
 30
0.0
 40
0.1999999881
100
AcDbArc
 50
0.0
 51
89.99992737239997
  0
ARC
  5
37A
330
2
100
AcDbEntity
  8
0
 62
     3
100
AcDbCircle
 10
95.63166854039998
 20
223.7321865715
 30
0.0
 40
0.1999999881
100
AcDbArc
 50
0.0
 51
89.99998201389999
  0
ARC
  5
37B
330
2
100
AcDbEntity
  8
0
 62
     3
100
AcDbCircle
 10
96.63166854040001
 20
223.7321865715
 30
0.0
 40
0.1999999881
100
AcDbArc
 50
0.0
 51
89.99998201389999
  0
LINE
  5
37C
330
2
100
AcDbEntity
  8
0
 62
     3
100
AcDbLine
 10
96.63166854040001
 20
223.9321835196999
 30
0.0
 11
95.63729903359995
 21
223.9321835196999
 31
0.0
  0
LINE
  5
37D
330
2
100
AcDbEntity
  8
0
 62
     3
100
AcDbLine
 10
95.83166548869998
 20
223.7321865715
 30
0.0
 11
95.83166548869998
 21
218.9321835197
 31
0.0
  0
LINE
  5
37E
330
2
100
AcDbEntity
  8
0
 62
     3
100
AcDbLine
 10
94.53167769569999
 20
229.3321774162
 30
0.0
 11
94.53167769569999
 21
230.4295284904
 31
0.0
  0
LINE
  5
37F
330
2
100
AcDbEntity
  8
0
 62
     3
100
AcDbLine
 10
94.43167159219999
 20
230.4321835197
 30
0.0
 11
94.43167159219999
 21
229.4321835197
 31
0.0
  0
ARC
  5
380
330
2
100
AcDbEntity
  8
0
 62
     3
100
AcDbCircle
 10
96.63166854040001
 20
229.632180468
 30
0.0
 40
0.1999999881
100
AcDbArc
 50
270.0000179861
 51
0.0
  0
ARC
  5
381
330
2
100
AcDbEntity
  8
0
 62
     3
100
AcDbCircle
 10
96.63166854040001
 20
228.632180468
 30
0.0
 40
0.1999999881
100
AcDbArc
 50
270.0000179861
 51
0.0
  0
LINE
  5
382
330
2
100
AcDbEntity
  8
0
 62
     3
100
AcDbLine
 10
96.63166854040001
 20
229.4321835197
 30
0.0
 11
95.83166548869998
 21
229.4321835197
 31
0.0
  0
LINE
  5
383
330
2
100
AcDbEntity
  8
0
 62
     3
100
AcDbLine
 10
96.63166854040001
 20
228.4321835197
 30
0.0
 11
95.83166548869998
 21
228.4321835197
 31
0.0
  0
LINE
  5
384
330
2
100
AcDbEntity
  8
0
 62
     3
100
AcDbLine
 10
94.93167159219998
 20
233.4321835197
 30
0.0
 11
96.83166548869998
 21
233.4321835197
 31
0.0
  0
LINE
  5
385
330
2
100
AcDbEntity
  8
0
 62
     3
100
AcDbLine
 10
94.53167769569999
 20
230.3321774161999
 30
0.0
 11
95.03167769569998
 21
230.3321774161999
 31
0.0
  0
LINE
  5
386
330
2
100
AcDbEntity
  8
0
 62
     3
100
AcDbLine
 10
94.93167159219998
 20
230.4321835197
 30
0.0
 11
94.43167159219999
 21
230.4321835197
 31
0.0
  0
LINE
  5
387
330
2
100
AcDbEntity
  8
0
 62
     3
100
AcDbLine
 10
94.43167159219999
 20
237.4321835197
 30
0.0
 11
89.43167159219999
 21
237.4321835197
 31
0.0
  0
LINE
  5
388
330
2
100
AcDbEntity
  8
0
 62
     3
100
AcDbLine
 10
89.33166548869998
 20
237.5321896233
 30
0.0
 11
94.53167769569999
 21
237.5321896233
 31
0.0
  0
LINE
  5
389
330
2
100
AcDbEntity
  8
0
 62
     3
100
AcDbLine
 10
89.33166548869998
 20
237.5321896233
 30
0.0
 11
89.33166548869998
 21
236.4364864983
 31
0.0
  0
LINE
  5
38A
330
2
100
AcDbEntity
  8
0
 62
     3
100
AcDbLine
 10
88.83166548869999
 20
236.5321896233
 30
0.0
 11
89.33166548869998
 21
236.5321896233
 31
0.0
  0
LINE
  5
38B
330
2
100
AcDbEntity
  8
0
 62
     3
100
AcDbLine
 10
89.43167159219999
 20
236.4321835196999
 30
0.0
 11
88.93167159219999
 21
236.4321835196999
 31
0.0
  0
LINE
  5
38C
330
2
100
AcDbEntity
  8
0
 62
     3
100
AcDbLine
 10
89.43167159219999
 20
237.4321835197
 30
0.0
 11
89.43167159219999
 21
236.4321835196999
 31
0.0
  0
ARC
  5
38D
330
2
100
AcDbEntity
  8
0
 62
     3
100
AcDbCircle
 10
86.38166854039999
 20
242.7321865715
 30
0.0
 40
0.1999999881
100
AcDbArc
 50
0.0
 51
89.99998201389999
  0
LINE
  5
38E
330
2
100
AcDbEntity
  8
0
 62
     3
100
AcDbLine
 10
95.83166548869998
 20
242.7321865715
 30
0.0
 11
95.83166548869998
 21
237.9321835197
 31
0.0
  0
LINE
  5
38F
330
2
100
AcDbEntity
  8
0
 62
     3
100
AcDbLine
 10
94.93167159219998
 20
236.4321835196999
 30
0.0
 11
94.43167159219999
 21
236.4321835196999
 31
0.0
  0
LINE
  5
390
330
2
100
AcDbEntity
  8
0
 62
     3
100
AcDbLine
 10
94.43167159219999
 20
237.4321835197
 30
0.0
 11
94.43167159219999
 21
236.4321835196999
 31
0.0
  0
LINE
  5
391
330
2
100
AcDbEntity
  8
0
 62
     3
100
AcDbLine
 10
94.53167769569999
 20
237.5321896233
 30
0.0
 11
94.53167769569999
 21
236.4255764641
 31
0.0
  0
LINE
  5
392
330
2
100
AcDbEntity
  8
0
 62
     3
100
AcDbLine
 10
94.53167769569999
 20
236.5321896233
 30
0.0
 11
95.03167769569998
 21
236.5321896233
 31
0.0
  0
ARC
  5
393
330
2
100
AcDbEntity
  8
0
 62
     3
100
AcDbCircle
 10
96.63166854040001
 20
237.7321865715
 30
0.0
 40
0.1999999881
100
AcDbArc
 50
0.0
 51
89.99992737239997
  0
ARC
  5
394
330
2
100
AcDbEntity
  8
0
 62
     3
100
AcDbCircle
 10
96.63166854040001
 20
238.7321865715
 30
0.0
 40
0.1999999881
100
AcDbArc
 50
0.0
 51
89.99992737239997
  0
LINE
  5
395
330
2
100
AcDbEntity
  8
0
 62
     3
100
AcDbLine
 10
95.83166548869998
 20
238.9321835197
 30
0.0
 11
96.63166854040001
 21
238.9321835197
 31
0.0
  0
LINE
  5
396
330
2
100
AcDbEntity
  8
0
 62
     3
100
AcDbLine
 10
95.83166548869998
 20
237.9321835197
 30
0.0
 11
96.63166854040001
 21
237.9321835197
 31
0.0
  0
ARC
  5
397
330
2
100
AcDbEntity
  8
0
 62
     3
100
AcDbCircle
 10
96.63166854040001
 20
242.7321865715
 30
0.0
 40
0.1999999881
100
AcDbArc
 50
0.0
 51
89.99998201389999
  0
ARC
  5
398
330
2
100
AcDbEntity
  8
0
 62
     3
100
AcDbCircle
 10
95.63166854039998
 20
242.7321865715
 30
0.0
 40
0.1999999881
100
AcDbArc
 50
0.0
 51
89.99998201389999
  0
TEXT
  5
3AE
330
2
100
AcDbEntity
  8
0
 62
     7
100
AcDbText
 10
146.0
 20
110.0000029552498
 30
0.0
 40
2.999994089499998
  1
NRAN3100F
 11
146.0
 21
111.4999999999999
 31
0.0
100
AcDbText
 73
     2
  0
TEXT
  5
3AF
330
2
100
AcDbEntity
  8
0
 62
     7
100
AcDbText
 10
146.0
 20
115.0000029552499
 30
0.0
 40
2.999994089499998
  1
NRAN3100
 11
146.0
 21
116.5
 31
0.0
100
AcDbText
 73
     2
  0
ENDSEC
  0
SECTION
  2
OBJECTS
  0
DICTIONARY
  5
7
330
0
100
AcDbDictionary
281
     1
  3
ACAD_GROUP
350
1F
  3
ACAD_LAYOUT
350
B
  3
ACAD_MLINESTYLE
350
20
  3
ACAD_PLOTSETTINGS
350
21
  3
ACAD_PLOTSTYLENAME
350
6
  3
AcDbVariableDictionary
350
3B0
  0
DICTIONARY
  5
1F
102
{ACAD_REACTORS
330
7
102
}
330
7
100
AcDbDictionary
281
     1
  0
DICTIONARY
  5
B
102
{ACAD_REACTORS
330
7
102
}
330
7
100
AcDbDictionary
281
     1
  3
Model
350
A
  3
ﾚｲｱｳﾄ1
350
F
  0
DICTIONARY
  5
20
102
{ACAD_REACTORS
330
7
102
}
330
7
100
AcDbDictionary
281
     1
  3
Standard
350
22
  0
DICTIONARY
  5
21
102
{ACAD_REACTORS
330
7
102
}
330
7
100
AcDbDictionary
281
     1
  0
ACDBDICTIONARYWDFLT
  5
6
102
{ACAD_REACTORS
330
7
102
}
330
7
100
AcDbDictionary
281
     1
  3
Normal
350
5
100
AcDbDictionaryWithDefault
340
5
  0
DICTIONARY
  5
3B0
102
{ACAD_REACTORS
330
7
102
}
330
7
100
AcDbDictionary
281
     1
  3
DIMASSOC
350
3B1
  0
LAYOUT
  5
A
102
{ACAD_REACTORS
330
B
102
}
330
B
100
AcDbPlotSettings
  1

  2
C:\Program Files\AutoCAD 2000i\plotters\DWF Classic.pc3
  4

  6

 40
0.0
 41
0.0
 42
0.0
 43
0.0
 44
0.0
 45
0.0
 46
0.0
 47
0.0
 48
0.0
 49
0.0
140
0.0
141
0.0
142
1.0
143
1.0
 70
  1712
 72
     0
 73
     0
 74
     0
  7

 75
     0
147
1.0
148
0.0
149
0.0
100
AcDbLayout
  1
Model
 70
     1
 71
     0
 10
0.0
 20
0.0
 11
12.0
 21
9.0
 12
0.0
 22
0.0
 32
0.0
 14
0.0
 24
0.0
 34
0.0
 15
0.0
 25
0.0
 35
0.0
146
0.0
 13
0.0
 23
0.0
 33
0.0
 16
1.0
 26
0.0
 36
0.0
 17
0.0
 27
1.0
 37
0.0
 76
     0
330
2
  0
LAYOUT
  5
F
102
{ACAD_REACTORS
330
B
102
}
330
B
100
AcDbPlotSettings
  1

  2
C:\Program Files\AutoCAD 2000i\plotters\DWF Classic.pc3
  4

  6

 40
0.0
 41
0.0
 42
0.0
 43
0.0
 44
0.0
 45
0.0
 46
0.0
 47
0.0
 48
0.0
 49
0.0
140
0.0
141
0.0
142
1.0
143
1.0
 70
   688
 72
     0
 73
     0
 74
     5
  7

 75
    16
147
1.0
148
0.0
149
0.0
100
AcDbLayout
  1
ﾚｲｱｳﾄ1
 70
     1
 71
     1
 10
0.0
 20
0.0
 11
12.0
 21
9.0
 12
0.0
 22
0.0
 32
0.0
 14
1.000000000000000E+20
 24
1.000000000000000E+20
 34
1.000000000000000E+20
 15
-1.000000000000000E+20
 25
-1.000000000000000E+20
 35
-1.000000000000000E+20
146
0.0
 13
0.0
 23
0.0
 33
0.0
 16
1.0
 26
0.0
 36
0.0
 17
0.0
 27
1.0
 37
0.0
 76
     0
330
C
  0
MLINESTYLE
  5
22
102
{ACAD_REACTORS
330
20
102
}
330
20
100
AcDbMlineStyle
  2
STANDARD
 70
     0
  3

 62
   256
 51
90.0
 52
90.0
 71
     2
 49
0.5
 62
   256
  6
BYLAYER
 49
-0.5
 62
   256
  6
BYLAYER
  0
ACDBPLACEHOLDER
  5
5
102
{ACAD_REACTORS
330
6
102
}
330
6
  0
DICTIONARYVAR
  5
3B1
102
{ACAD_REACTORS
330
3B0
102
}
330
3B0
100
DictionaryVariables
280
     0
  1
1
  0
ENDSEC
  0
EOF
