  0
SECTION
  2
HEADER
  9
$ACADVER
  1
AC1015
  9
$ACADMAINTVER
 70
    13
  9
$DWGCODEPAGE
  3
ANSI_932
  9
$INSBASE
 10
0.0
 20
0.0
 30
0.0
  9
$EXTMIN
 10
-0.0016627992503118
 20
-0.0006826078846416
 30
-0.0000000349181948
  9
$EXTMAX
 10
210.0208084825492
 20
297.0017620437712
 30
0.0000000814935747
  9
$LIMMIN
 10
-188.3714569091999
 20
-3.174999999999998
  9
$LIMMAX
 10
3.174999999999998
 20
291.2585876465
  9
$ORTHOMODE
 70
     0
  9
$REGENMODE
 70
     1
  9
$FILLMODE
 70
     1
  9
$QTEXTMODE
 70
     0
  9
$MIRRTEXT
 70
     0
  9
$LTSCALE
 40
1.0
  9
$ATTMODE
 70
     1
  9
$TEXTSIZE
 40
2.999994039499997
  9
$TRACEWID
 40
0.05
  9
$TEXTSTYLE
  7
STANDARD
  9
$CLAYER
  8
0
  9
$CELTYPE
  6
ByLayer
  9
$CECOLOR
 62
   256
  9
$CELTSCALE
 40
1.0
  9
$DISPSILH
 70
     0
  9
$DIMSCALE
 40
1.0
  9
$DIMASZ
 40
1.9727878465
  9
$DIMEXO
 40
2.539999961899999
  9
$DIMDLI
 40
0.38
  9
$DIMRND
 40
0.0
  9
$DIMDLE
 40
0.0
  9
$DIMEXE
 40
3.809999942799997
  9
$DIMTP
 40
0.0
  9
$DIMTM
 40
0.0
  9
$DIMTXT
 40
2.999994039499997
  9
$DIMCEN
 40
0.09
  9
$DIMTSZ
 40
0.0
  9
$DIMTOL
 70
     0
  9
$DIMLIM
 70
     0
  9
$DIMTIH
 70
     0
  9
$DIMTOH
 70
     1
  9
$DIMSE1
 70
     0
  9
$DIMSE2
 70
     0
  9
$DIMTAD
 70
     0
  9
$DIMZIN
 70
     0
  9
$DIMBLK
  1

  9
$DIMASO
 70
     1
  9
$DIMSHO
 70
     0
  9
$DIMPOST
  1

  9
$DIMAPOST
  1

  9
$DIMALT
 70
     0
  9
$DIMALTD
 70
     2
  9
$DIMALTF
 40
25.4
  9
$DIMLFAC
 40
1.0
  9
$DIMTOFL
 70
     0
  9
$DIMTVP
 40
0.0
  9
$DIMTIX
 70
     0
  9
$DIMSOXD
 70
     0
  9
$DIMSAH
 70
     0
  9
$DIMBLK1
  1

  9
$DIMBLK2
  1

  9
$DIMSTYLE
  2
Standard
  9
$DIMCLRD
 70
     0
  9
$DIMCLRE
 70
     0
  9
$DIMCLRT
 70
     0
  9
$DIMTFAC
 40
1.0
  9
$DIMGAP
 40
0.09
  9
$DIMJUST
 70
     0
  9
$DIMSD1
 70
     0
  9
$DIMSD2
 70
     0
  9
$DIMTOLJ
 70
     1
  9
$DIMTZIN
 70
     0
  9
$DIMALTZ
 70
     0
  9
$DIMALTTZ
 70
     0
  9
$DIMUPT
 70
     0
  9
$DIMDEC
 70
     4
  9
$DIMTDEC
 70
     4
  9
$DIMALTU
 70
     2
  9
$DIMALTTD
 70
     2
  9
$DIMTXSTY
  7
STANDARD
  9
$DIMAUNIT
 70
     0
  9
$DIMADEC
 70
     0
  9
$DIMALTRND
 40
0.0
  9
$DIMAZIN
 70
     0
  9
$DIMDSEP
 70
    46
  9
$DIMATFIT
 70
     3
  9
$DIMFRAC
 70
     0
  9
$DIMLDRBLK
  1

  9
$DIMLUNIT
 70
     2
  9
$DIMLWD
 70
    -2
  9
$DIMLWE
 70
    -2
  9
$DIMTMOVE
 70
     0
  9
$LUNITS
 70
     2
  9
$LUPREC
 70
     3
  9
$SKETCHINC
 40
0.1
  9
$FILLETRAD
 40
0.0625
  9
$AUNITS
 70
     0
  9
$AUPREC
 70
     0
  9
$MENU
  1
ACAD
  9
$ELEVATION
 40
0.0
  9
$PELEVATION
 40
0.0
  9
$THICKNESS
 40
0.0
  9
$LIMCHECK
 70
     0
  9
$CHAMFERA
 40
0.0
  9
$CHAMFERB
 40
0.0
  9
$CHAMFERC
 40
0.0
  9
$CHAMFERD
 40
0.0
  9
$SKPOLY
 70
     0
  9
$TDCREATE
 40
2452527.733287037
  9
$TDUCREATE
 40
2452527.358287036
  9
$TDUPDATE
 40
2453339.681324317
  9
$TDUUPDATE
 40
2453339.306324317
  9
$TDINDWG
 40
0.0022547801
  9
$TDUSRTIMER
 40
0.0022529745
  9
$USRTIMER
 70
     1
  9
$ANGBASE
 50
0.0
  9
$ANGDIR
 70
     0
  9
$PDMODE
 70
     0
  9
$PDSIZE
 40
0.0
  9
$PLINEWID
 40
0.0
  9
$SPLFRAME
 70
     0
  9
$SPLINETYPE
 70
     6
  9
$SPLINESEGS
 70
     8
  9
$HANDSEED
  5
2E4
  9
$SURFTAB1
 70
     6
  9
$SURFTAB2
 70
     6
  9
$SURFTYPE
 70
     6
  9
$SURFU
 70
     6
  9
$SURFV
 70
     6
  9
$UCSBASE
  2

  9
$UCSNAME
  2

  9
$UCSORG
 10
0.0
 20
0.0
 30
0.0
  9
$UCSXDIR
 10
1.0
 20
0.0
 30
0.0
  9
$UCSYDIR
 10
0.0
 20
1.0
 30
0.0
  9
$UCSORTHOREF
  2

  9
$UCSORTHOVIEW
 70
     0
  9
$UCSORGTOP
 10
0.0
 20
0.0
 30
0.0
  9
$UCSORGBOTTOM
 10
0.0
 20
0.0
 30
0.0
  9
$UCSORGLEFT
 10
0.0
 20
0.0
 30
0.0
  9
$UCSORGRIGHT
 10
0.0
 20
0.0
 30
0.0
  9
$UCSORGFRONT
 10
0.0
 20
0.0
 30
0.0
  9
$UCSORGBACK
 10
0.0
 20
0.0
 30
0.0
  9
$PUCSBASE
  2

  9
$PUCSNAME
  2

  9
$PUCSORG
 10
0.0
 20
0.0
 30
0.0
  9
$PUCSXDIR
 10
1.0
 20
0.0
 30
0.0
  9
$PUCSYDIR
 10
0.0
 20
1.0
 30
0.0
  9
$PUCSORTHOREF
  2

  9
$PUCSORTHOVIEW
 70
     0
  9
$PUCSORGTOP
 10
0.0
 20
0.0
 30
0.0
  9
$PUCSORGBOTTOM
 10
0.0
 20
0.0
 30
0.0
  9
$PUCSORGLEFT
 10
0.0
 20
0.0
 30
0.0
  9
$PUCSORGRIGHT
 10
0.0
 20
0.0
 30
0.0
  9
$PUCSORGFRONT
 10
0.0
 20
0.0
 30
0.0
  9
$PUCSORGBACK
 10
0.0
 20
0.0
 30
0.0
  9
$USERI1
 70
     8
  9
$USERI2
 70
     0
  9
$USERI3
 70
     0
  9
$USERI4
 70
     0
  9
$USERI5
 70
     0
  9
$USERR1
 40
0.0
  9
$USERR2
 40
0.0
  9
$USERR3
 40
0.0
  9
$USERR4
 40
0.0
  9
$USERR5
 40
0.0
  9
$WORLDVIEW
 70
     1
  9
$SHADEDGE
 70
     3
  9
$SHADEDIF
 70
    70
  9
$TILEMODE
 70
     1
  9
$MAXACTVP
 70
    64
  9
$PINSBASE
 10
0.0
 20
0.0
 30
0.0
  9
$PLIMCHECK
 70
     0
  9
$PEXTMIN
 10
1.000000000000000E+20
 20
1.000000000000000E+20
 30
1.000000000000000E+20
  9
$PEXTMAX
 10
-1.000000000000000E+20
 20
-1.000000000000000E+20
 30
-1.000000000000000E+20
  9
$PLIMMIN
 10
0.0
 20
0.0
  9
$PLIMMAX
 10
12.0
 20
9.0
  9
$UNITMODE
 70
     0
  9
$VISRETAIN
 70
     1
  9
$PLINEGEN
 70
     0
  9
$PSLTSCALE
 70
     1
  9
$TREEDEPTH
 70
  3020
  9
$CMLSTYLE
  2
Standard
  9
$CMLJUST
 70
     0
  9
$CMLSCALE
 40
1.0
  9
$PROXYGRAPHICS
 70
     1
  9
$MEASUREMENT
 70
     0
  9
$CELWEIGHT
370
    -1
  9
$ENDCAPS
280
     0
  9
$JOINSTYLE
280
     0
  9
$LWDISPLAY
290
     0
  9
$INSUNITS
 70
     0
  9
$HYPERLINKBASE
  1

  9
$STYLESHEET
  1

  9
$XEDIT
290
     1
  9
$CEPSNTYPE
380
     0
  9
$PSTYLEMODE
290
     1
  9
$FINGERPRINTGUID
  2
{C8B7BEB0-F797-4AA8-A347-72E565B52539}
  9
$VERSIONGUID
  2
{216EC018-54D9-419D-8F72-227D0D7EC6CC}
  9
$EXTNAMES
290
     1
  9
$PSVPSCALE
 40
0.0
  9
$OLESTARTUP
290
     0
  0
ENDSEC
  0
SECTION
  2
CLASSES
  0
CLASS
  1
ACDBDICTIONARYWDFLT
  2
AcDbDictionaryWithDefault
  3
AutoCAD 2000
 90
        0
280
     0
281
     0
  0
CLASS
  1
ACDBPLACEHOLDER
  2
AcDbPlaceHolder
  3
AutoCAD 2000
 90
        0
280
     0
281
     0
  0
CLASS
  1
LAYOUT
  2
AcDbLayout
  3
AutoCAD 2000
 90
        0
280
     0
281
     0
  0
CLASS
  1
DICTIONARYVAR
  2
AcDbDictionaryVar
  3
AutoCAD 2000
 90
        0
280
     0
281
     0
  0
ENDSEC
  0
SECTION
  2
TABLES
  0
TABLE
  2
VPORT
  5
19
330
0
100
AcDbSymbolTable
 70
     2
  0
VPORT
  5
2E3
330
19
100
AcDbSymbolTableRecord
100
AcDbViewportTableRecord
  2
*Active
 70
     0
 10
0.0
 20
0.0
 11
1.0
 21
1.0
 12
105.0095728416494
 22
148.5005397179433
 13
0.0
 23
0.0
 14
1.0
 24
1.0
 15
0.0
 25
0.0
 16
0.0
 26
0.0
 36
1.0
 17
0.0
 27
0.0
 37
0.0
 40
301.3382467633589
 41
2.407317073170731
 42
50.0
 43
0.0
 44
0.0
 50
0.0
 51
0.0
 71
     0
 72
   100
 73
     1
 74
     1
 75
     0
 76
     0
 77
     0
 78
     0
281
     0
 65
     1
110
0.0
120
0.0
130
0.0
111
1.0
121
0.0
131
0.0
112
0.0
122
1.0
132
0.0
 79
     0
146
0.0
  0
ENDTAB
  0
TABLE
  2
LTYPE
  5
14
330
0
100
AcDbSymbolTable
 70
     3
  0
LTYPE
  5
15
330
14
100
AcDbSymbolTableRecord
100
AcDbLinetypeTableRecord
  2
ByBlock
 70
     0
  3

 72
    65
 73
     0
 40
0.0
  0
LTYPE
  5
16
330
14
100
AcDbSymbolTableRecord
100
AcDbLinetypeTableRecord
  2
ByLayer
 70
     0
  3

 72
    65
 73
     0
 40
0.0
  0
LTYPE
  5
8
330
14
100
AcDbSymbolTableRecord
100
AcDbLinetypeTableRecord
  2
Continuous
 70
     0
  3
Solid line
 72
    65
 73
     0
 40
0.0
  0
LTYPE
  5
2E
330
14
100
AcDbSymbolTableRecord
100
AcDbLinetypeTableRecord
  2
CENTER
 70
     0
  3
Center
 72
    65
 73
     4
 40
9.100006759199999
 49
6.5000119209
 74
     0
 49
-0.7999984026000001
 74
     0
 49
0.9999980329999999
 74
     0
 49
-0.7999984026000001
 74
     0
  0
LTYPE
  5
130
330
14
100
AcDbSymbolTableRecord
100
AcDbLinetypeTableRecord
  2
PHANTOM
 70
     0
  3
Phantom
 72
    65
 73
     6
 40
9.499981462999999
 49
4.799990654
 74
     0
 49
-0.8999982475999999
 74
     0
 49
0.9999980329999999
 74
     0
 49
-0.8999982475999999
 74
     0
 49
0.9999980329999999
 74
     0
 49
-0.8999982475999999
 74
     0
  0
ENDTAB
  0
TABLE
  2
LAYER
  5
10
330
0
100
AcDbSymbolTable
 70
     1
  0
LAYER
  5
4
330
10
100
AcDbSymbolTableRecord
100
AcDbLayerTableRecord
  2
0
 70
     0
 62
     7
  6
Continuous
370
    -3
390
5
  0
ENDTAB
  0
TABLE
  2
STYLE
  5
11
330
0
100
AcDbSymbolTable
 70
     1
  0
STYLE
  5
12
330
11
100
AcDbSymbolTableRecord
100
AcDbTextStyleTableRecord
  2
STANDARD
 70
     0
 40
0.0
 41
1.0
 50
0.0
 71
     0
 42
2.999994039499997
  3
romans.shx
  4
bigfont.shx
  0
ENDTAB
  0
TABLE
  2
VIEW
  5
17
330
0
100
AcDbSymbolTable
 70
     0
  0
ENDTAB
  0
TABLE
  2
UCS
  5
18
330
0
100
AcDbSymbolTable
 70
     0
  0
ENDTAB
  0
TABLE
  2
APPID
  5
1B
330
0
100
AcDbSymbolTable
 70
     1
  0
APPID
  5
1C
330
1B
100
AcDbSymbolTableRecord
100
AcDbRegAppTableRecord
  2
ACAD
 70
     0
  0
ENDTAB
  0
TABLE
  2
DIMSTYLE
  5
1D
330
0
100
AcDbSymbolTable
 70
     1
100
AcDbDimStyleTable
 71
     0
  0
DIMSTYLE
105
23
330
1D
100
AcDbSymbolTableRecord
100
AcDbDimStyleTableRecord
  2
Standard
 70
     0
340
12
  0
ENDTAB
  0
TABLE
  2
BLOCK_RECORD
  5
1
330
0
100
AcDbSymbolTable
 70
     1
  0
BLOCK_RECORD
  5
2
330
1
100
AcDbSymbolTableRecord
100
AcDbBlockTableRecord
  2
*Model_Space
340
A
  0
BLOCK_RECORD
  5
C
330
1
100
AcDbSymbolTableRecord
100
AcDbBlockTableRecord
  2
*Paper_Space
340
F
  0
ENDTAB
  0
ENDSEC
  0
SECTION
  2
BLOCKS
  0
BLOCK
  5
3
330
2
100
AcDbEntity
  8
0
100
AcDbBlockBegin
  2
*Model_Space
 70
     2
 10
0.0
 20
0.0
 30
0.0
  3
*Model_Space
  1

  0
ENDBLK
  5
9
330
2
100
AcDbEntity
  8
0
100
AcDbBlockEnd
  0
BLOCK
  5
D
330
C
100
AcDbEntity
 67
     1
  8
0
100
AcDbBlockBegin
  2
*Paper_Space
 70
     0
 10
0.0
 20
0.0
 30
0.0
  3
*Paper_Space
  1

  0
ENDBLK
  5
E
330
C
100
AcDbEntity
 67
     1
  8
0
100
AcDbBlockEnd
  0
ENDSEC
  0
SECTION
  2
ENTITIES
  0
LINE
  5
24
330
2
100
AcDbEntity
  8
0
100
AcDbLine
 10
210.0
 20
0.0
 30
0.0
 11
210.0
 21
297.0
 31
0.0
  0
LINE
  5
25
330
2
100
AcDbEntity
  8
0
 62
     3
100
AcDbLine
 10
43.31528253309995
 20
144.2415864363999
 30
0.0
 11
43.31528253309995
 21
139.6415803329
 31
0.0
  0
LINE
  5
26
330
2
100
AcDbEntity
  8
0
100
AcDbLine
 10
0.0
 20
297.0
 30
0.0
 11
0.0
 21
0.0
 31
0.0
  0
LINE
  5
27
330
2
100
AcDbEntity
  8
0
 62
     3
100
AcDbLine
 10
95.31526727440001
 20
144.2415864363999
 30
0.0
 11
95.31526727440001
 21
118.4415833846
 31
0.0
  0
LINE
  5
28
330
2
100
AcDbEntity
  8
0
 62
     3
100
AcDbLine
 10
50.21527642959998
 20
145.9415833845999
 30
0.0
 11
50.21527642959998
 21
126.2415864363999
 31
0.0
  0
LINE
  5
29
330
2
100
AcDbEntity
  8
0
 62
     3
100
AcDbLine
 10
88.41527337789996
 20
145.9415833845999
 30
0.0
 11
88.41527337789996
 21
126.2415864363999
 31
0.0
  0
TEXT
  5
2A
330
2
100
AcDbEntity
  8
0
 62
     5
100
AcDbText
 10
145.0
 20
10.0
 30
0.0
 40
5.0
  1
ＭＡ４－Ｃ０００８３Ｂ
 41
0.8443967743953098
 72
     5
 11
199.0413935612998
 21
10.0
 31
0.0
100
AcDbText
  0
LINE
  5
2B
330
2
100
AcDbEntity
  8
0
100
AcDbLine
 10
0.0
 20
0.0
 30
0.0
 11
210.0
 21
0.0
 31
0.0
  0
ARC
  5
2C
330
2
100
AcDbEntity
  8
0
 62
     3
100
AcDbCircle
 10
86.4152733779
 20
126.2415864363999
 30
0.0
 40
2.0
100
AcDbArc
 50
270.0000179861
 51
0.0
  0
LINE
  5
2D
330
2
100
AcDbEntity
  8
0
  6
CENTER
 62
     3
100
AcDbLine
 10
83.31526727439998
 20
119.9415681258
 30
0.0
 11
87.31526727439998
 21
119.9415681258
 31
0.0
  0
LINE
  5
2F
330
2
100
AcDbEntity
  8
0
 62
     3
100
AcDbLine
 10
82.71527642959998
 20
69.29482435140001
 30
0.0
 11
88.46527642959999
 21
69.29482435140001
 31
0.0
  0
LINE
  5
30
330
2
100
AcDbEntity
  8
0
 62
     3
100
AcDbLine
 10
82.71527642959998
 20
50.2948243514
 30
0.0
 11
88.46527642959999
 21
50.2948243514
 31
0.0
  0
LINE
  5
31
330
2
100
AcDbEntity
  8
0
 62
     3
100
AcDbLine
 10
43.50374383689998
 20
78.79482435140001
 30
0.0
 11
95.1223504042
 21
78.79482435140001
 31
0.0
  0
LINE
  5
32
330
2
100
AcDbEntity
  8
0
 62
     3
100
AcDbLine
 10
47.46080560439998
 20
59.7948243514
 30
0.0
 11
91.1652886367
 21
59.7948243514
 31
0.0
  0
LINE
  5
33
330
2
100
AcDbEntity
  8
0
 62
     3
100
AcDbLine
 10
43.50374383689998
 20
40.7948243514
 30
0.0
 11
95.1223504042
 21
40.7948243514
 31
0.0
  0
LINE
  5
34
330
2
100
AcDbEntity
  8
0
 62
     3
100
AcDbLine
 10
94.36523980849996
 20
117.4415833846
 30
0.0
 11
49.5152794814
 21
117.4415833846
 31
0.0
  0
LINE
  5
35
330
2
100
AcDbEntity
  8
0
 62
     3
100
AcDbLine
 10
82.81528253309998
 20
47.0448243514
 30
0.0
 11
82.81528253309998
 21
53.5448243514
 31
0.0
  0
LINE
  5
36
330
2
100
AcDbEntity
  8
0
 62
     3
100
AcDbLine
 10
82.71527642959998
 20
53.5448243514
 30
0.0
 11
82.71527642959998
 21
47.0448243514
 31
0.0
  0
LINE
  5
37
330
2
100
AcDbEntity
  8
0
 62
     3
100
AcDbLine
 10
62.81528253309995
 20
47.0448243514
 30
0.0
 11
62.81528253309995
 21
53.5448243514
 31
0.0
  0
LINE
  5
38
330
2
100
AcDbEntity
  8
0
 62
     3
100
AcDbLine
 10
62.91528863669999
 20
53.5448243514
 30
0.0
 11
62.91528863669999
 21
47.0448243514
 31
0.0
  0
LINE
  5
39
330
2
100
AcDbEntity
  8
0
 62
     3
100
AcDbLine
 10
85.31529779189998
 20
43.7948243514
 30
0.0
 11
85.31529779189998
 21
56.7948243514
 31
0.0
  0
LINE
  5
3A
330
2
100
AcDbEntity
  8
0
 62
     3
100
AcDbLine
 10
84.81529779189996
 20
43.7948243514
 30
0.0
 11
84.81529779189996
 21
56.7948243514
 31
0.0
  0
LINE
  5
3B
330
2
100
AcDbEntity
  8
0
 62
     3
100
AcDbLine
 10
50.16527337789998
 20
47.0448243514
 30
0.0
 11
50.16527337789998
 21
53.5448243514
 31
0.0
  0
LINE
  5
3C
330
2
100
AcDbEntity
  8
0
 62
     3
100
AcDbLine
 10
49.31526727439996
 20
47.0448243514
 30
0.0
 11
49.31526727439996
 21
53.5448243514
 31
0.0
  0
LINE
  5
3D
330
2
100
AcDbEntity
  8
0
 62
     3
100
AcDbLine
 10
49.31526727439996
 20
46.29487012779999
 30
0.0
 11
49.31526727439996
 21
54.2948701278
 31
0.0
  0
LINE
  5
3E
330
2
100
AcDbEntity
  8
0
 62
     3
100
AcDbLine
 10
49.5152794814
 20
52.4948823348
 30
0.0
 11
49.5152794814
 21
48.0948579208
 31
0.0
  0
LINE
  5
3F
330
2
100
AcDbEntity
  8
0
 62
     3
100
AcDbLine
 10
50.1153161025
 20
46.29487012779999
 30
0.0
 11
50.1153161025
 21
54.2948701278
 31
0.0
  0
LINE
  5
40
330
2
100
AcDbEntity
  8
0
 62
     3
100
AcDbLine
 10
49.91524286029997
 20
48.0948579208
 30
0.0
 11
49.91524286029997
 21
52.4948823348
 31
0.0
  0
LINE
  5
41
330
2
100
AcDbEntity
  8
0
 62
     3
100
AcDbLine
 10
53.3152672744
 20
43.7948243514
 30
0.0
 11
53.3152672744
 21
56.7948243514
 31
0.0
  0
LINE
  5
42
330
2
100
AcDbEntity
  8
0
 62
     3
100
AcDbLine
 10
53.81526727439998
 20
43.7948243514
 30
0.0
 11
53.81526727439998
 21
56.7948243514
 31
0.0
  0
LINE
  5
43
330
2
100
AcDbEntity
  8
0
 62
     3
100
AcDbLine
 10
43.31526727439999
 20
40.9948365585
 30
0.0
 11
43.31526727439999
 21
59.5948274032
 31
0.0
  0
LINE
  5
44
330
2
100
AcDbEntity
  8
0
 62
     3
100
AcDbLine
 10
54.31526727439996
 20
42.79482435139999
 30
0.0
 11
84.31529779189999
 21
42.79482435139999
 31
0.0
  0
LINE
  5
45
330
2
100
AcDbEntity
  8
0
 62
     3
100
AcDbLine
 10
50.1153161025
 20
50.2948243514
 30
0.0
 11
62.81528253309995
 21
50.2948243514
 31
0.0
  0
LINE
  5
46
330
2
100
AcDbEntity
  8
0
 62
     3
100
AcDbLine
 10
49.91512079
 20
48.09481214439999
 30
0.0
 11
49.51515741109997
 21
48.09481214439999
 31
0.0
  0
LINE
  5
47
330
2
100
AcDbEntity
  8
0
 62
     3
100
AcDbLine
 10
50.11519403219996
 20
46.2948853866
 30
0.0
 11
49.31514520399996
 21
46.2948853866
 31
0.0
  0
LINE
  5
48
330
2
100
AcDbEntity
  8
0
 62
     3
100
AcDbLine
 10
50.11519403219996
 20
47.09481214439999
 30
0.0
 11
49.31514520399996
 21
47.09481214439999
 31
0.0
  0
LINE
  5
49
330
2
100
AcDbEntity
  8
0
 62
     3
100
AcDbLine
 10
43.33159417859997
 20
50.2948243514
 30
0.0
 11
49.31526727439996
 21
50.2948243514
 31
0.0
  0
ARC
  5
4A
330
2
100
AcDbEntity
  8
0
 62
     3
100
AcDbCircle
 10
46.31520623919999
 20
49.894830455
 30
0.0
 40
9.0
100
AcDbArc
 50
260.3479771416
 51
269.9999087031
  0
LINE
  5
4B
330
2
100
AcDbEntity
  8
0
 62
     3
100
AcDbLine
 10
43.5152794814
 20
41.894830455
 30
0.0
 11
49.31526727439996
 21
41.894830455
 31
0.0
  0
ARC
  5
4C
330
2
100
AcDbEntity
  8
0
 62
     3
100
AcDbCircle
 10
43.5152794814
 20
42.0948274032
 30
0.0
 40
0.1999999881
100
AcDbArc
 50
179.9999640277999
 51
270.0000006831999
  0
ARC
  5
4D
330
2
100
AcDbEntity
  8
0
 62
     3
100
AcDbCircle
 10
43.5152794814
 20
40.9948365585
 30
0.0
 40
0.1999999881
100
AcDbArc
 50
179.9999640277999
 51
270.0000006831999
  0
ARC
  5
4E
330
2
100
AcDbEntity
  8
0
 62
     3
100
AcDbCircle
 10
46.26521844619998
 20
41.894830455
 30
0.0
 40
1.6999998093
100
AcDbArc
 50
179.9999093863
 51
210.883456662
  0
ARC
  5
4F
330
2
100
AcDbEntity
  8
0
 62
     3
100
AcDbCircle
 10
46.31520623919999
 20
49.894830455
 30
0.0
 40
9.0
100
AcDbArc
 50
270.0000179861
 51
279.6519495475
  0
LINE
  5
50
330
2
100
AcDbEntity
  8
0
 62
     3
100
AcDbLine
 10
49.31526727439996
 20
41.894830455
 30
0.0
 11
49.31526727439996
 21
40.7948243514
 31
0.0
  0
ARC
  5
51
330
2
100
AcDbEntity
  8
0
 62
     3
100
AcDbCircle
 10
46.36525506729998
 20
41.894830455
 30
0.0
 40
1.6999998093
100
AcDbArc
 50
329.1163605168
 51
359.9999360237998
  0
LINE
  5
52
330
2
100
AcDbEntity
  8
0
 62
     3
100
AcDbLine
 10
49.51505500279997
 20
48.0948396574
 30
0.0
 11
49.31503657409999
 21
47.0948101853
 31
0.0
  0
ARC
  5
53
330
2
100
AcDbEntity
  8
0
 62
     3
100
AcDbCircle
 10
54.31526727439996
 20
43.7948243514
 30
0.0
 40
1.0
100
AcDbArc
 50
179.9999640277999
 51
270.0000006831999
  0
LINE
  5
54
330
2
100
AcDbEntity
  8
0
 62
     3
100
AcDbLine
 10
50.1153161025
 20
47.0448243514
 30
0.0
 11
50.16527337789998
 21
47.0448243514
 31
0.0
  0
LINE
  5
55
330
2
100
AcDbEntity
  8
0
 62
     3
100
AcDbLine
 10
50.11534408799997
 20
47.0949499562
 30
0.0
 11
49.91532711819999
 21
48.0949797322
 31
0.0
  0
ARC
  5
56
330
2
100
AcDbEntity
  8
0
 62
     3
100
AcDbCircle
 10
54.81526727439998
 20
43.7948243514
 30
0.0
 40
1.0
100
AcDbArc
 50
179.9999640277999
 51
270.0000006831999
  0
LINE
  5
57
330
2
100
AcDbEntity
  8
0
 62
     3
100
AcDbLine
 10
62.81528253309995
 20
47.0448243514
 30
0.0
 11
82.81528253309998
 21
47.0448243514
 31
0.0
  0
LINE
  5
58
330
2
100
AcDbEntity
  8
0
 62
     3
100
AcDbLine
 10
82.71527642959998
 20
47.0448243514
 30
0.0
 11
62.91528863669999
 21
47.0448243514
 31
0.0
  0
ARC
  5
59
330
2
100
AcDbEntity
  8
0
 62
     3
100
AcDbCircle
 10
84.31529779189999
 20
43.7948243514
 30
0.0
 40
1.0
100
AcDbArc
 50
270.0000179861
 51
0.0
  0
ARC
  5
5A
330
2
100
AcDbEntity
  8
0
 62
     3
100
AcDbCircle
 10
83.81529779189998
 20
43.7948243514
 30
0.0
 40
1.0
100
AcDbArc
 50
270.0000179861
 51
0.0
  0
LINE
  5
5B
330
2
100
AcDbEntity
  8
0
 62
     3
100
AcDbLine
 10
50.1153161025
 20
69.29482435140001
 30
0.0
 11
62.81528253309995
 21
69.29482435140001
 31
0.0
  0
LINE
  5
5C
330
2
100
AcDbEntity
  8
0
 62
     3
100
AcDbLine
 10
54.31526727439996
 20
76.79482435140001
 30
0.0
 11
84.31529779189999
 21
76.79482435140001
 31
0.0
  0
LINE
  5
5D
330
2
100
AcDbEntity
  8
0
 62
     3
100
AcDbLine
 10
54.31526727439996
 20
61.7948243514
 30
0.0
 11
84.31529779189999
 21
61.7948243514
 31
0.0
  0
LINE
  5
5E
330
2
100
AcDbEntity
  8
0
 62
     3
100
AcDbLine
 10
52.21527642959998
 20
124.2415864363999
 30
0.0
 11
86.4152733779
 21
124.2415864363999
 31
0.0
  0
LINE
  5
5F
330
2
100
AcDbEntity
  8
0
 62
     3
100
AcDbLine
 10
54.72025079489998
 20
112.4415833845999
 30
0.0
 11
83.91028375379999
 21
112.4415833845999
 31
0.0
  0
LINE
  5
60
330
2
100
AcDbEntity
  8
0
 62
     3
100
AcDbLine
 10
54.31526727439996
 20
57.7948243514
 30
0.0
 11
84.31529779189999
 21
57.7948243514
 31
0.0
  0
LINE
  5
61
330
2
100
AcDbEntity
  8
0
 62
     3
100
AcDbLine
 10
53.81526727439998
 20
75.7948243514
 30
0.0
 11
53.81526727439998
 21
62.7948243514
 31
0.0
  0
LINE
  5
62
330
2
100
AcDbEntity
  8
0
 62
     3
100
AcDbLine
 10
53.3152672744
 20
75.7948243514
 30
0.0
 11
53.3152672744
 21
62.7948243514
 31
0.0
  0
LINE
  5
63
330
2
100
AcDbEntity
  8
0
 62
     3
100
AcDbLine
 10
43.31526727439999
 20
78.59481214439998
 30
0.0
 11
43.31526727439999
 21
59.99482129970001
 31
0.0
  0
LINE
  5
64
330
2
100
AcDbEntity
  8
0
 62
     3
100
AcDbLine
 10
50.11519403219996
 20
72.49483655849998
 30
0.0
 11
49.31514520399996
 21
72.49483655849998
 31
0.0
  0
LINE
  5
65
330
2
100
AcDbEntity
  8
0
 62
     3
100
AcDbLine
 10
50.11519403219996
 20
73.29476331630002
 30
0.0
 11
49.31514520399996
 21
73.29476331630002
 31
0.0
  0
LINE
  5
66
330
2
100
AcDbEntity
  8
0
 62
     3
100
AcDbLine
 10
49.91512079
 20
71.4948365585
 30
0.0
 11
49.51515741109997
 21
71.4948365585
 31
0.0
  0
LINE
  5
67
330
2
100
AcDbEntity
  8
0
 62
     3
100
AcDbLine
 10
49.91512079
 20
67.0948121444
 30
0.0
 11
49.51515741109997
 21
67.0948121444
 31
0.0
  0
LINE
  5
68
330
2
100
AcDbEntity
  8
0
 62
     3
100
AcDbLine
 10
50.11519403219996
 20
65.2947633163
 30
0.0
 11
49.31514520399996
 21
65.2947633163
 31
0.0
  0
LINE
  5
69
330
2
100
AcDbEntity
  8
0
 62
     3
100
AcDbLine
 10
50.11519403219996
 20
66.09481214439999
 30
0.0
 11
49.31514520399996
 21
66.09481214439999
 31
0.0
  0
LINE
  5
6A
330
2
100
AcDbEntity
  8
0
 62
     3
100
AcDbLine
 10
50.11519403219996
 20
53.49483655850001
 30
0.0
 11
49.31514520399996
 21
53.49483655850001
 31
0.0
  0
LINE
  5
6B
330
2
100
AcDbEntity
  8
0
 62
     3
100
AcDbLine
 10
50.11519403219996
 20
54.2948853866
 30
0.0
 11
49.31514520399996
 21
54.2948853866
 31
0.0
  0
LINE
  5
6C
330
2
100
AcDbEntity
  8
0
 62
     3
100
AcDbLine
 10
49.91512079
 20
52.4948365585
 30
0.0
 11
49.51515741109997
 21
52.4948365585
 31
0.0
  0
LINE
  5
6D
330
2
100
AcDbEntity
  8
0
 62
     3
100
AcDbLine
 10
43.5152794814
 20
60.8948151962
 30
0.0
 11
49.31526727439996
 21
60.8948151962
 31
0.0
  0
LINE
  5
6E
330
2
100
AcDbEntity
  8
0
 62
     3
100
AcDbLine
 10
43.5152794814
 20
58.69483350670001
 30
0.0
 11
49.31526727439996
 21
58.69483350670001
 31
0.0
  0
LINE
  5
6F
330
2
100
AcDbEntity
  8
0
 62
     3
100
AcDbLine
 10
43.52925653219997
 20
59.7948243514
 30
0.0
 11
45.16080255269995
 21
59.7948243514
 31
0.0
  0
ARC
  5
70
330
2
100
AcDbEntity
  8
0
 62
     3
100
AcDbCircle
 10
43.5152794814
 20
59.99482129970001
 30
0.0
 40
0.1999999881
100
AcDbArc
 50
180.0000359722
 51
270.0000179861
  0
ARC
  5
71
330
2
100
AcDbEntity
  8
0
 62
     3
100
AcDbCircle
 10
43.5152794814
 20
61.0948274032
 30
0.0
 40
0.1999999881
100
AcDbArc
 50
180.0000359722
 51
270.0000179861
  0
ARC
  5
72
330
2
100
AcDbEntity
  8
0
 62
     3
100
AcDbCircle
 10
43.5152794814
 20
58.49482129970001
 30
0.0
 40
0.1999999881
100
AcDbArc
 50
89.99998201389999
 51
179.9999640277999
  0
ARC
  5
73
330
2
100
AcDbEntity
  8
0
 62
     3
100
AcDbCircle
 10
43.5152794814
 20
59.5948274032
 30
0.0
 40
0.1999999881
100
AcDbArc
 50
89.99998201389999
 51
179.9999640277999
  0
LINE
  5
74
330
2
100
AcDbEntity
  8
0
 62
     3
100
AcDbLine
 10
45.16080255269995
 20
60.8948151962
 30
0.0
 11
45.16080255269995
 21
58.69483350670001
 31
0.0
  0
LINE
  5
75
330
2
100
AcDbEntity
  8
0
 62
     3
100
AcDbLine
 10
49.31514858149999
 20
53.49482877839999
 30
0.0
 11
49.51516482179997
 21
52.49479888079999
 31
0.0
  0
LINE
  5
76
330
2
100
AcDbEntity
  8
0
 62
     3
100
AcDbLine
 10
47.46080560439998
 20
60.8948151962
 30
0.0
 11
47.46080560439998
 21
58.69483350670001
 31
0.0
  0
LINE
  5
77
330
2
100
AcDbEntity
  8
0
 62
     3
100
AcDbLine
 10
49.31526727439996
 20
60.8948151962
 30
0.0
 11
49.31526727439996
 21
58.69483350670001
 31
0.0
  0
LINE
  5
78
330
2
100
AcDbEntity
  8
0
 62
     3
100
AcDbLine
 10
43.33159417859997
 20
69.29482435140001
 30
0.0
 11
49.31526727439996
 21
69.29482435140001
 31
0.0
  0
LINE
  5
79
330
2
100
AcDbEntity
  8
0
 62
     3
100
AcDbLine
 10
49.5152794814
 20
67.09476636799999
 30
0.0
 11
49.5152794814
 21
71.49479078209998
 31
0.0
  0
LINE
  5
7A
330
2
100
AcDbEntity
  8
0
 62
     3
100
AcDbLine
 10
49.31526727439996
 20
73.29477857509998
 30
0.0
 11
49.31526727439996
 21
65.29477857509999
 31
0.0
  0
LINE
  5
7B
330
2
100
AcDbEntity
  8
0
 62
     3
100
AcDbLine
 10
49.31526727439996
 20
72.54482435140001
 30
0.0
 11
49.31526727439996
 21
66.04482435140001
 31
0.0
  0
LINE
  5
7C
330
2
100
AcDbEntity
  8
0
 62
     3
100
AcDbLine
 10
49.31514858149999
 20
66.0948199245
 30
0.0
 11
49.51516482179997
 21
67.094849822
 31
0.0
  0
LINE
  5
7D
330
2
100
AcDbEntity
  8
0
 62
     3
100
AcDbLine
 10
49.51505500279997
 20
71.4948090455
 30
0.0
 11
49.31503657409999
 21
72.4948385176
 31
0.0
  0
ARC
  5
7E
330
2
100
AcDbEntity
  8
0
 62
     3
100
AcDbCircle
 10
54.31526727439996
 20
62.7948243514
 30
0.0
 40
1.0
100
AcDbArc
 50
180.0000359722
 51
270.0000179861
  0
ARC
  5
7F
330
2
100
AcDbEntity
  8
0
 62
     3
100
AcDbCircle
 10
54.31526727439996
 20
56.7948243514
 30
0.0
 40
1.0
100
AcDbArc
 50
89.99998201389999
 51
179.9999640277999
  0
LINE
  5
80
330
2
100
AcDbEntity
  8
0
 62
     3
100
AcDbLine
 10
50.1153161025
 20
53.5448243514
 30
0.0
 11
50.16527337789998
 21
53.5448243514
 31
0.0
  0
LINE
  5
81
330
2
100
AcDbEntity
  8
0
 62
     3
100
AcDbLine
 10
49.91497116169997
 20
52.4950529262
 30
0.0
 11
50.1149776197
 21
53.4950225485
 31
0.0
  0
ARC
  5
82
330
2
100
AcDbEntity
  8
0
 62
     3
100
AcDbCircle
 10
54.81526727439998
 20
56.7948243514
 30
0.0
 40
1.0
100
AcDbArc
 50
89.99998201389999
 51
179.9999640277999
  0
ARC
  5
83
330
2
100
AcDbEntity
  8
0
 62
     3
100
AcDbCircle
 10
54.81526727439998
 20
62.7948243514
 30
0.0
 40
1.0
100
AcDbArc
 50
180.0000359722
 51
270.0000179861
  0
LINE
  5
84
330
2
100
AcDbEntity
  8
0
 62
     3
100
AcDbLine
 10
49.91524286029997
 20
71.49479078209998
 30
0.0
 11
49.91524286029997
 21
67.09476636799999
 31
0.0
  0
LINE
  5
85
330
2
100
AcDbEntity
  8
0
 62
     3
100
AcDbLine
 10
50.1153161025
 20
73.29477857509998
 30
0.0
 11
50.1153161025
 21
65.29477857509999
 31
0.0
  0
LINE
  5
86
330
2
100
AcDbEntity
  8
0
 62
     3
100
AcDbLine
 10
50.16527337789998
 20
72.54482435140001
 30
0.0
 11
50.16527337789998
 21
66.04482435140001
 31
0.0
  0
LINE
  5
87
330
2
100
AcDbEntity
  8
0
 62
     3
100
AcDbLine
 10
49.91497116169997
 20
67.0945957766
 30
0.0
 11
50.1149776197
 21
66.0946261543
 31
0.0
  0
LINE
  5
88
330
2
100
AcDbEntity
  8
0
 62
     3
100
AcDbLine
 10
50.1153161025
 20
66.04482435140001
 30
0.0
 11
50.16527337789998
 21
66.04482435140001
 31
0.0
  0
LINE
  5
89
330
2
100
AcDbEntity
  8
0
 62
     3
100
AcDbLine
 10
50.11534408799997
 20
72.49469874669998
 30
0.0
 11
49.91532711819999
 21
71.49466897069999
 31
0.0
  0
LINE
  5
8A
330
2
100
AcDbEntity
  8
0
 62
     3
100
AcDbLine
 10
50.1153161025
 20
72.54482435140001
 30
0.0
 11
50.16527337789998
 21
72.54482435140001
 31
0.0
  0
LINE
  5
8B
330
2
100
AcDbEntity
  8
0
 62
     3
100
AcDbLine
 10
44.91087884659997
 20
78.09475110920002
 30
0.0
 11
47.71086663959997
 21
78.09475110920002
 31
0.0
  0
LINE
  5
8C
330
2
100
AcDbEntity
  8
0
 62
     3
100
AcDbLine
 10
43.5152794814
 20
77.6948182479
 30
0.0
 11
49.31526727439996
 21
77.6948182479
 31
0.0
  0
ARC
  5
8D
330
2
100
AcDbEntity
  8
0
 62
     3
100
AcDbCircle
 10
43.5152794814
 20
78.59481214439998
 30
0.0
 40
0.1999999881
100
AcDbArc
 50
89.99999931679999
 51
180.0000359722
  0
ARC
  5
8E
330
2
100
AcDbEntity
  8
0
 62
     3
100
AcDbCircle
 10
43.5152794814
 20
77.49482129970001
 30
0.0
 40
0.1999999881
100
AcDbArc
 50
89.99999931679999
 51
180.0000359722
  0
LINE
  5
8F
330
2
100
AcDbEntity
  8
0
 62
     3
100
AcDbLine
 10
44.91081781149996
 20
78.0947816268
 30
0.0
 11
44.91081781149996
 21
77.6948182479
 31
0.0
  0
LINE
  5
90
330
2
100
AcDbEntity
  8
0
 62
     3
100
AcDbLine
 10
49.31526727439996
 20
77.6948182479
 30
0.0
 11
49.31526727439996
 21
78.79482435140001
 31
0.0
  0
LINE
  5
91
330
2
100
AcDbEntity
  8
0
 62
     3
100
AcDbLine
 10
47.71080560439997
 20
78.0947816268
 30
0.0
 11
47.71080560439997
 21
77.6948182479
 31
0.0
  0
ARC
  5
92
330
2
100
AcDbEntity
  8
0
 62
     3
100
AcDbCircle
 10
54.31526727439996
 20
75.7948243514
 30
0.0
 40
1.0
100
AcDbArc
 50
89.99999931679999
 51
180.0000359722
  0
ARC
  5
93
330
2
100
AcDbEntity
  8
0
 62
     3
100
AcDbCircle
 10
54.81526727439998
 20
75.7948243514
 30
0.0
 40
1.0
100
AcDbArc
 50
89.99999931679999
 51
180.0000359722
  0
CIRCLE
  5
94
330
2
100
AcDbEntity
  8
0
 62
     3
100
AcDbCircle
 10
46.31528253309997
 20
120.2415711776
 30
0.0
 40
1.1999998093
  0
LINE
  5
95
330
2
100
AcDbEntity
  8
0
  6
CENTER
 62
     3
100
AcDbLine
 10
46.31528253309997
 20
122.2415711776
 30
0.0
 11
46.31528253309997
 21
118.2415711776
 31
0.0
  0
CIRCLE
  5
96
330
2
100
AcDbEntity
  8
0
 62
     3
100
AcDbCircle
 10
46.31526727439998
 20
120.2415711776
 30
0.0
 40
1.1999998093
  0
LINE
  5
97
330
2
100
AcDbEntity
  8
0
  6
CENTER
 62
     3
100
AcDbLine
 10
46.31526727439998
 20
122.2415711776
 30
0.0
 11
46.31526727439998
 21
118.2415711776
 31
0.0
  0
ARC
  5
98
330
2
100
AcDbEntity
  8
0
 62
     3
100
AcDbCircle
 10
46.31528253309997
 20
120.4415833846
 30
0.0
 40
3.0
100
AcDbArc
 50
0.0
 51
89.99998201389999
  0
ARC
  5
99
330
2
100
AcDbEntity
  8
0
 62
     3
100
AcDbCircle
 10
46.31526727439998
 20
120.4415833846
 30
0.0
 40
3.0
100
AcDbArc
 50
0.0
 51
89.99998201389999
  0
LINE
  5
9A
330
2
100
AcDbEntity
  8
0
 62
     3
100
AcDbLine
 10
43.31528253309995
 20
123.4415833846
 30
0.0
 11
43.31528253309995
 21
118.4415833846
 31
0.0
  0
LINE
  5
9B
330
2
100
AcDbEntity
  8
0
 62
     3
100
AcDbLine
 10
49.31528253309998
 20
115.9415681258
 30
0.0
 11
50.11528558489999
 21
115.9415681258
 31
0.0
  0
LINE
  5
9C
330
2
100
AcDbEntity
  8
0
 62
     3
100
AcDbLine
 10
49.31528253309998
 20
117.4415681257999
 30
0.0
 11
50.11528558489999
 21
117.4415681257999
 31
0.0
  0
LINE
  5
9D
330
2
100
AcDbEntity
  8
0
 62
     3
100
AcDbLine
 10
49.5152794814
 20
107.9415833846
 30
0.0
 11
49.91528863669997
 21
107.9415833846
 31
0.0
  0
LINE
  5
9E
330
2
100
AcDbEntity
  8
0
 62
     3
100
AcDbLine
 10
49.31528253309998
 20
108.9415833846
 30
0.0
 11
50.11528558489999
 21
108.9415833846
 31
0.0
  0
LINE
  5
9F
330
2
100
AcDbEntity
  8
0
 62
     3
100
AcDbLine
 10
49.31528253309998
 20
117.4065339462
 30
0.0
 11
49.31528253309998
 21
108.9415833846
 31
0.0
  0
LINE
  5
A0
330
2
100
AcDbEntity
  8
0
 62
     3
100
AcDbLine
 10
49.3152893252
 20
108.9415892513999
 30
0.0
 11
49.5152885782
 21
107.9415870295999
 31
0.0
  0
LINE
  5
A1
330
2
100
AcDbEntity
  8
0
 62
     3
100
AcDbLine
 10
49.49554986709998
 20
117.4415833846
 30
0.0
 11
44.31528253309998
 21
117.4415833846
 31
0.0
  0
LINE
  5
A2
330
2
100
AcDbEntity
  8
0
  6
CENTER
 62
     3
100
AcDbLine
 10
44.31526727439996
 20
120.2415711776
 30
0.0
 11
48.31528253309997
 21
120.2415711776
 31
0.0
  0
ARC
  5
A3
330
2
100
AcDbEntity
  8
0
 62
     3
100
AcDbCircle
 10
44.31528253309998
 20
118.4415833846
 30
0.0
 40
1.0
100
AcDbArc
 50
179.9999640277999
 51
270.0000006831999
  0
ARC
  5
A4
330
2
100
AcDbEntity
  8
0
 62
     3
100
AcDbCircle
 10
44.31526727439996
 20
118.4415833846
 30
0.0
 40
1.0
100
AcDbArc
 50
179.9999640277999
 51
270.0000006831999
  0
ARC
  5
A5
330
2
100
AcDbEntity
  8
0
 62
     3
100
AcDbCircle
 10
49.5152794814
 20
117.6415803328999
 30
0.0
 40
0.1999999881
100
AcDbArc
 50
179.9999640277999
 51
270.0000006831999
  0
LINE
  5
A6
330
2
100
AcDbEntity
  8
0
 62
     3
100
AcDbLine
 10
49.31528253309998
 20
120.4415833846
 30
0.0
 11
49.31528253309998
 21
117.6415803328999
 31
0.0
  0
ARC
  5
A7
330
2
100
AcDbEntity
  8
0
 62
     3
100
AcDbCircle
 10
49.51526422259997
 20
117.6415803328999
 30
0.0
 40
0.1999999881
100
AcDbArc
 50
179.9999640277999
 51
270.0000006831999
  0
LINE
  5
A8
330
2
100
AcDbEntity
  8
0
 62
     3
100
AcDbLine
 10
49.31526727439996
 20
120.4415833846
 30
0.0
 11
49.31526727439996
 21
117.6415803328999
 31
0.0
  0
LINE
  5
A9
330
2
100
AcDbEntity
  8
0
 62
     3
100
AcDbLine
 10
50.11528558489999
 20
117.4909913435999
 30
0.0
 11
50.11528558489999
 21
108.9415833846
 31
0.0
  0
LINE
  5
AA
330
2
100
AcDbEntity
  8
0
 62
     3
100
AcDbLine
 10
50.11527489799999
 20
108.9415709292
 30
0.0
 11
49.91527570579997
 21
107.9415687073999
 31
0.0
  0
ARC
  5
AB
330
2
100
AcDbEntity
  8
0
 62
     3
100
AcDbCircle
 10
52.41028375379997
 20
116.4415833846
 30
0.0
 40
1.0
100
AcDbArc
 50
5.710591391499997
 51
89.99998201389999
  0
LINE
  5
AC
330
2
100
AcDbEntity
  8
0
 62
     3
100
AcDbLine
 10
53.40531791429999
 20
116.5410895573
 30
0.0
 11
53.72521889579999
 21
113.3420789756
 31
0.0
  0
ARC
  5
AD
330
2
100
AcDbEntity
  8
0
 62
     3
100
AcDbCircle
 10
54.72025079489998
 20
113.4415833845999
 30
0.0
 40
1.0
100
AcDbArc
 50
185.7106205333999
 51
270.0000179861
  0
LINE
  5
AE
330
2
100
AcDbEntity
  8
0
 62
     3
100
AcDbLine
 10
43.51526422259996
 20
139.6415803329
 30
0.0
 11
43.51526422259996
 21
123.4450013533999
 31
0.0
  0
LINE
  5
AF
330
2
100
AcDbEntity
  8
0
 62
     3
100
AcDbLine
 10
43.31528253309995
 20
123.4415833846
 30
0.0
 11
46.37647027729999
 21
123.4415833846
 31
0.0
  0
ARC
  5
B0
330
2
100
AcDbEntity
  8
0
 62
     3
100
AcDbCircle
 10
43.71527642959998
 20
123.6415803329
 30
0.0
 40
0.1999999881
100
AcDbArc
 50
179.9999640277999
 51
270.0000006831999
  0
LINE
  5
B1
330
2
100
AcDbEntity
  8
0
 62
     3
100
AcDbLine
 10
43.31528253309995
 20
139.6415803329
 30
0.0
 11
43.51526422259996
 21
139.6415803329
 31
0.0
  0
ARC
  5
B2
330
2
100
AcDbEntity
  8
0
 62
     3
100
AcDbCircle
 10
52.21527642959998
 20
126.2415864363999
 30
0.0
 40
2.0
100
AcDbArc
 50
179.9999640277999
 51
270.0000006831999
  0
LINE
  5
B3
330
2
100
AcDbEntity
  8
0
 62
     3
100
AcDbLine
 10
62.91528863669999
 20
66.04482435140001
 30
0.0
 11
82.71527642959998
 21
66.04482435140001
 31
0.0
  0
LINE
  5
B4
330
2
100
AcDbEntity
  8
0
 62
     3
100
AcDbLine
 10
82.71527642959998
 20
72.54482435140001
 30
0.0
 11
62.91528863669999
 21
72.54482435140001
 31
0.0
  0
LINE
  5
B5
330
2
100
AcDbEntity
  8
0
 62
     3
100
AcDbLine
 10
62.81528253309995
 20
72.54482435140001
 30
0.0
 11
82.81528253309998
 21
72.54482435140001
 31
0.0
  0
LINE
  5
B6
330
2
100
AcDbEntity
  8
0
 62
     3
100
AcDbLine
 10
62.81528253309995
 20
66.04482435140001
 30
0.0
 11
82.81528253309998
 21
66.04482435140001
 31
0.0
  0
LINE
  5
B7
330
2
100
AcDbEntity
  8
0
 62
     3
100
AcDbLine
 10
62.81528253309995
 20
53.5448243514
 30
0.0
 11
82.81528253309998
 21
53.5448243514
 31
0.0
  0
LINE
  5
B8
330
2
100
AcDbEntity
  8
0
 62
     3
100
AcDbLine
 10
62.91528863669999
 20
53.5448243514
 30
0.0
 11
82.71527642959998
 21
53.5448243514
 31
0.0
  0
LINE
  5
B9
330
2
100
AcDbEntity
  8
0
 62
     3
100
AcDbLine
 10
62.91528863669999
 20
66.04482435140001
 30
0.0
 11
62.91528863669999
 21
72.54482435140001
 31
0.0
  0
LINE
  5
BA
330
2
100
AcDbEntity
  8
0
 62
     3
100
AcDbLine
 10
62.81528253309995
 20
72.54482435140001
 30
0.0
 11
62.81528253309995
 21
66.04482435140001
 31
0.0
  0
LINE
  5
BB
330
2
100
AcDbEntity
  8
0
 62
     3
100
AcDbLine
 10
84.81529779189996
 20
75.7948243514
 30
0.0
 11
84.81529779189996
 21
62.7948243514
 31
0.0
  0
LINE
  5
BC
330
2
100
AcDbEntity
  8
0
 62
     3
100
AcDbLine
 10
85.31529779189998
 20
75.7948243514
 30
0.0
 11
85.31529779189998
 21
62.7948243514
 31
0.0
  0
ARC
  5
BD
330
2
100
AcDbEntity
  8
0
 62
     3
100
AcDbCircle
 10
83.81529779189998
 20
56.7948243514
 30
0.0
 40
1.0
100
AcDbArc
 50
0.0
 51
89.99998201389999
  0
ARC
  5
BE
330
2
100
AcDbEntity
  8
0
 62
     3
100
AcDbCircle
 10
84.31529779189999
 20
56.7948243514
 30
0.0
 40
1.0
100
AcDbArc
 50
0.0
 51
89.99998201389999
  0
ARC
  5
BF
330
2
100
AcDbEntity
  8
0
 62
     3
100
AcDbCircle
 10
84.31529779189999
 20
62.7948243514
 30
0.0
 40
1.0
100
AcDbArc
 50
270.0000179861
 51
0.0
  0
ARC
  5
C0
330
2
100
AcDbEntity
  8
0
 62
     3
100
AcDbCircle
 10
83.81529779189998
 20
62.7948243514
 30
0.0
 40
1.0
100
AcDbArc
 50
270.0000179861
 51
0.0
  0
LINE
  5
C1
330
2
100
AcDbEntity
  8
0
 62
     3
100
AcDbLine
 10
82.71527642959998
 20
66.04482435140001
 30
0.0
 11
82.71527642959998
 21
72.54482435140001
 31
0.0
  0
LINE
  5
C2
330
2
100
AcDbEntity
  8
0
 62
     3
100
AcDbLine
 10
82.81528253309998
 20
72.54482435140001
 30
0.0
 11
82.81528253309998
 21
66.04482435140001
 31
0.0
  0
ARC
  5
C3
330
2
100
AcDbEntity
  8
0
 62
     3
100
AcDbCircle
 10
84.31529779189999
 20
75.7948243514
 30
0.0
 40
1.0
100
AcDbArc
 50
0.0
 51
89.99998201389999
  0
ARC
  5
C4
330
2
100
AcDbEntity
  8
0
 62
     3
100
AcDbCircle
 10
83.81529779189998
 20
75.7948243514
 30
0.0
 40
1.0
100
AcDbArc
 50
0.0
 51
89.99998201389999
  0
LINE
  5
C5
330
2
100
AcDbEntity
  8
0
  6
CENTER
 62
     3
100
AcDbLine
 10
85.31526727439999
 20
121.9415681258
 30
0.0
 11
85.31526727439999
 21
117.9415681258
 31
0.0
  0
CIRCLE
  5
C6
330
2
100
AcDbEntity
  8
0
 62
     3
100
AcDbCircle
 10
85.31526727439999
 20
119.9415681258
 30
0.0
 40
1.0999994278
  0
LINE
  5
C7
330
2
100
AcDbEntity
  8
0
 62
     3
100
AcDbLine
 10
85.22521312089997
 20
116.5410908517
 30
0.0
 11
84.90531213939998
 21
113.3420802699999
 31
0.0
  0
ARC
  5
C8
330
2
100
AcDbEntity
  8
0
 62
     3
100
AcDbCircle
 10
83.91028375379999
 20
113.4415833845999
 30
0.0
 40
1.0
100
AcDbArc
 50
270.0000179861
 51
354.2894086084999
  0
CIRCLE
  5
C9
330
2
100
AcDbEntity
  8
0
 62
     3
100
AcDbCircle
 10
85.31526727439999
 20
119.9415681258
 30
0.0
 40
0.6999999881
  0
ARC
  5
CA
330
2
100
AcDbEntity
  8
0
 62
     3
100
AcDbCircle
 10
86.22026605359998
 20
116.4415833846
 30
0.0
 40
1.0
100
AcDbArc
 50
89.99998201389999
 51
174.2893794665999
  0
LINE
  5
CB
330
2
100
AcDbEntity
  8
0
 62
     3
100
AcDbLine
 10
89.31528253309997
 20
47.0448243514
 30
0.0
 11
89.31528253309997
 21
53.5448243514
 31
0.0
  0
LINE
  5
CC
330
2
100
AcDbEntity
  8
0
 62
     3
100
AcDbLine
 10
89.31528253309997
 20
46.29487012779999
 30
0.0
 11
89.31528253309997
 21
54.2948701278
 31
0.0
  0
LINE
  5
CD
330
2
100
AcDbEntity
  8
0
 62
     3
100
AcDbLine
 10
89.11527032609997
 20
52.4948823348
 30
0.0
 11
89.11527032609997
 21
48.0948579208
 31
0.0
  0
LINE
  5
CE
330
2
100
AcDbEntity
  8
0
 62
     3
100
AcDbLine
 10
88.46527642959999
 20
47.0448243514
 30
0.0
 11
88.46527642959999
 21
53.5448243514
 31
0.0
  0
LINE
  5
CF
330
2
100
AcDbEntity
  8
0
 62
     3
100
AcDbLine
 10
88.51523370499998
 20
46.29487012779999
 30
0.0
 11
88.51523370499998
 21
54.2948701278
 31
0.0
  0
LINE
  5
D0
330
2
100
AcDbEntity
  8
0
 62
     3
100
AcDbLine
 10
88.71530694719998
 20
48.0948579208
 30
0.0
 11
88.71530694719998
 21
52.4948823348
 31
0.0
  0
LINE
  5
D1
330
2
100
AcDbEntity
  8
0
 62
     3
100
AcDbLine
 10
95.31528253309998
 20
40.9948365585
 30
0.0
 11
95.31528253309998
 21
59.5948274032
 31
0.0
  0
LINE
  5
D2
330
2
100
AcDbEntity
  8
0
 62
     3
100
AcDbLine
 10
89.31528253309997
 20
50.2948243514
 30
0.0
 11
95.28819818259995
 21
50.2948243514
 31
0.0
  0
LINE
  5
D3
330
2
100
AcDbEntity
  8
0
 62
     3
100
AcDbLine
 10
89.31528253309997
 20
41.894830455
 30
0.0
 11
95.11528558489999
 21
41.894830455
 31
0.0
  0
ARC
  5
D4
330
2
100
AcDbEntity
  8
0
 62
     3
100
AcDbCircle
 10
92.26523370499998
 20
41.894830455
 30
0.0
 40
1.6999998093
100
AcDbArc
 50
179.9999093863
 51
210.883456662
  0
LINE
  5
D5
330
2
100
AcDbEntity
  8
0
 62
     3
100
AcDbLine
 10
89.31528253309997
 20
41.894830455
 30
0.0
 11
89.31528253309997
 21
40.7948243514
 31
0.0
  0
LINE
  5
D6
330
2
100
AcDbEntity
  8
0
 62
     3
100
AcDbLine
 10
88.51511163469998
 20
46.2948853866
 30
0.0
 11
89.3151604628
 21
46.2948853866
 31
0.0
  0
LINE
  5
D7
330
2
100
AcDbEntity
  8
0
 62
     3
100
AcDbLine
 10
88.51511163469998
 20
47.09481214439999
 30
0.0
 11
89.3151604628
 21
47.09481214439999
 31
0.0
  0
LINE
  5
D8
330
2
100
AcDbEntity
  8
0
 62
     3
100
AcDbLine
 10
88.71518487689998
 20
48.09481214439999
 30
0.0
 11
89.11514825579997
 21
48.09481214439999
 31
0.0
  0
LINE
  5
D9
330
2
100
AcDbEntity
  8
0
 62
     3
100
AcDbLine
 10
88.46527642959999
 20
47.0448243514
 30
0.0
 11
88.51523370499998
 21
47.0448243514
 31
0.0
  0
LINE
  5
DA
330
2
100
AcDbEntity
  8
0
 62
     3
100
AcDbLine
 10
88.51521492099998
 20
47.09479852149999
 30
0.0
 11
88.71521992009997
 21
48.0947684477
 31
0.0
  0
LINE
  5
DB
330
2
100
AcDbEntity
  8
0
 62
     3
100
AcDbLine
 10
89.11518653989999
 20
48.0948009608
 30
0.0
 11
89.3151908097
 21
47.094830913
 31
0.0
  0
ARC
  5
DC
330
2
100
AcDbEntity
  8
0
 62
     3
100
AcDbCircle
 10
92.31522149799998
 20
49.894830455
 30
0.0
 40
9.0
100
AcDbArc
 50
270.0000179861
 51
279.6519495475
  0
ARC
  5
DD
330
2
100
AcDbEntity
  8
0
 62
     3
100
AcDbCircle
 10
92.31522149799998
 20
49.894830455
 30
0.0
 40
9.0
100
AcDbArc
 50
260.3479771416
 51
269.9999087031
  0
ARC
  5
DE
330
2
100
AcDbEntity
  8
0
 62
     3
100
AcDbCircle
 10
92.36527032609995
 20
41.894830455
 30
0.0
 40
1.6999998093
100
AcDbArc
 50
329.1163605168
 51
359.9999360237998
  0
ARC
  5
DF
330
2
100
AcDbEntity
  8
0
 62
     3
100
AcDbCircle
 10
95.11528558489999
 20
42.0948274032
 30
0.0
 40
0.1999999881
100
AcDbArc
 50
270.0000179861
 51
0.0
  0
ARC
  5
E0
330
2
100
AcDbEntity
  8
0
 62
     3
100
AcDbCircle
 10
95.11528558489999
 20
40.9948365585
 30
0.0
 40
0.1999999881
100
AcDbArc
 50
270.0000179861
 51
0.0
  0
LINE
  5
E1
330
2
100
AcDbEntity
  8
0
 62
     3
100
AcDbLine
 10
95.31528253309998
 20
78.59481214439998
 30
0.0
 11
95.31528253309998
 21
59.99482129970001
 31
0.0
  0
LINE
  5
E2
330
2
100
AcDbEntity
  8
0
 62
     3
100
AcDbLine
 10
89.31528253309997
 20
69.29482435140001
 30
0.0
 11
95.28819818259995
 21
69.29482435140001
 31
0.0
  0
LINE
  5
E3
330
2
100
AcDbEntity
  8
0
 62
     3
100
AcDbLine
 10
93.46529168839998
 20
59.7948243514
 30
0.0
 11
95.10286493059998
 21
59.7948243514
 31
0.0
  0
LINE
  5
E4
330
2
100
AcDbEntity
  8
0
 62
     3
100
AcDbLine
 10
89.31528253309997
 20
60.8948151962
 30
0.0
 11
95.11528558489999
 21
60.8948151962
 31
0.0
  0
LINE
  5
E5
330
2
100
AcDbEntity
  8
0
 62
     3
100
AcDbLine
 10
89.31528253309997
 20
58.69483350670001
 30
0.0
 11
95.11528558489999
 21
58.69483350670001
 31
0.0
  0
LINE
  5
E6
330
2
100
AcDbEntity
  8
0
 62
     3
100
AcDbLine
 10
88.51511163469998
 20
53.49483655850001
 30
0.0
 11
89.3151604628
 21
53.49483655850001
 31
0.0
  0
LINE
  5
E7
330
2
100
AcDbEntity
  8
0
 62
     3
100
AcDbLine
 10
88.51511163469998
 20
54.2948853866
 30
0.0
 11
89.3151604628
 21
54.2948853866
 31
0.0
  0
LINE
  5
E8
330
2
100
AcDbEntity
  8
0
 62
     3
100
AcDbLine
 10
88.71518487689998
 20
52.4948365585
 30
0.0
 11
89.11514825579997
 21
52.4948365585
 31
0.0
  0
LINE
  5
E9
330
2
100
AcDbEntity
  8
0
 62
     3
100
AcDbLine
 10
88.46527642959999
 20
53.5448243514
 30
0.0
 11
88.51523370499998
 21
53.5448243514
 31
0.0
  0
LINE
  5
EA
330
2
100
AcDbEntity
  8
0
 62
     3
100
AcDbLine
 10
88.71519023189998
 20
52.49476368189999
 30
0.0
 11
88.51517399149997
 21
53.49479357949999
 31
0.0
  0
LINE
  5
EB
330
2
100
AcDbEntity
  8
0
 62
     3
100
AcDbLine
 10
89.31515559939997
 20
53.49482360100001
 30
0.0
 11
89.11513862959997
 21
52.494793825
 31
0.0
  0
LINE
  5
EC
330
2
100
AcDbEntity
  8
0
 62
     3
100
AcDbLine
 10
89.31528253309997
 20
60.8948151962
 30
0.0
 11
89.31528253309997
 21
58.69483350670001
 31
0.0
  0
LINE
  5
ED
330
2
100
AcDbEntity
  8
0
 62
     3
100
AcDbLine
 10
91.1652886367
 20
60.8948151962
 30
0.0
 11
91.1652886367
 21
58.69483350670001
 31
0.0
  0
LINE
  5
EE
330
2
100
AcDbEntity
  8
0
 62
     3
100
AcDbLine
 10
93.46529168839998
 20
60.8948151962
 30
0.0
 11
93.46529168839998
 21
58.69483350670001
 31
0.0
  0
LINE
  5
EF
330
2
100
AcDbEntity
  8
0
 62
     3
100
AcDbLine
 10
89.11527032609997
 20
67.09476636799999
 30
0.0
 11
89.11527032609997
 21
71.49479078209998
 31
0.0
  0
LINE
  5
F0
330
2
100
AcDbEntity
  8
0
 62
     3
100
AcDbLine
 10
89.31528253309997
 20
73.29477857509998
 30
0.0
 11
89.31528253309997
 21
65.29477857509999
 31
0.0
  0
LINE
  5
F1
330
2
100
AcDbEntity
  8
0
 62
     3
100
AcDbLine
 10
89.31528253309997
 20
72.54482435140001
 30
0.0
 11
89.31528253309997
 21
66.04482435140001
 31
0.0
  0
LINE
  5
F2
330
2
100
AcDbEntity
  8
0
 62
     3
100
AcDbLine
 10
88.71530694719998
 20
71.49479078209998
 30
0.0
 11
88.71530694719998
 21
67.09476636799999
 31
0.0
  0
LINE
  5
F3
330
2
100
AcDbEntity
  8
0
 62
     3
100
AcDbLine
 10
88.51523370499998
 20
73.29477857509998
 30
0.0
 11
88.51523370499998
 21
65.29477857509999
 31
0.0
  0
LINE
  5
F4
330
2
100
AcDbEntity
  8
0
 62
     3
100
AcDbLine
 10
88.46527642959999
 20
72.54482435140001
 30
0.0
 11
88.46527642959999
 21
66.04482435140001
 31
0.0
  0
LINE
  5
F5
330
2
100
AcDbEntity
  8
0
 62
     3
100
AcDbLine
 10
88.71518487689998
 20
67.0948121444
 30
0.0
 11
89.11514825579997
 21
67.0948121444
 31
0.0
  0
LINE
  5
F6
330
2
100
AcDbEntity
  8
0
 62
     3
100
AcDbLine
 10
88.51511163469998
 20
65.2947633163
 30
0.0
 11
89.3151604628
 21
65.2947633163
 31
0.0
  0
LINE
  5
F7
330
2
100
AcDbEntity
  8
0
 62
     3
100
AcDbLine
 10
88.51511163469998
 20
66.09481214439999
 30
0.0
 11
89.3151604628
 21
66.09481214439999
 31
0.0
  0
LINE
  5
F8
330
2
100
AcDbEntity
  8
0
 62
     3
100
AcDbLine
 10
88.71519023189998
 20
67.09488502100001
 30
0.0
 11
88.51517399149997
 21
66.0948551234
 31
0.0
  0
LINE
  5
F9
330
2
100
AcDbEntity
  8
0
 62
     3
100
AcDbLine
 10
88.46527642959999
 20
66.04482435140001
 30
0.0
 11
88.51523370499998
 21
66.04482435140001
 31
0.0
  0
LINE
  5
FA
330
2
100
AcDbEntity
  8
0
 62
     3
100
AcDbLine
 10
89.31515559939997
 20
66.0948251019
 30
0.0
 11
89.11513862959997
 21
67.09485487790001
 31
0.0
  0
LINE
  5
FB
330
2
100
AcDbEntity
  8
0
 62
     3
100
AcDbLine
 10
88.71518487689998
 20
71.4948365585
 30
0.0
 11
89.11514825579997
 21
71.4948365585
 31
0.0
  0
LINE
  5
FC
330
2
100
AcDbEntity
  8
0
 62
     3
100
AcDbLine
 10
88.51511163469998
 20
72.49483655849998
 30
0.0
 11
89.3151604628
 21
72.49483655849998
 31
0.0
  0
LINE
  5
FD
330
2
100
AcDbEntity
  8
0
 62
     3
100
AcDbLine
 10
88.51511163469998
 20
73.29476331630002
 30
0.0
 11
89.3151604628
 21
73.29476331630002
 31
0.0
  0
LINE
  5
FE
330
2
100
AcDbEntity
  8
0
 62
     3
100
AcDbLine
 10
88.51521492099998
 20
72.49485018139998
 30
0.0
 11
88.71521992009997
 21
71.4948802552
 31
0.0
  0
LINE
  5
FF
330
2
100
AcDbEntity
  8
0
 62
     3
100
AcDbLine
 10
88.46527642959999
 20
72.54482435140001
 30
0.0
 11
88.51523370499998
 21
72.54482435140001
 31
0.0
  0
LINE
  5
100
330
2
100
AcDbEntity
  8
0
 62
     3
100
AcDbLine
 10
89.11518653989999
 20
71.49484774200002
 30
0.0
 11
89.3151908097
 21
72.49481778979998
 31
0.0
  0
ARC
  5
101
330
2
100
AcDbEntity
  8
0
 62
     3
100
AcDbCircle
 10
95.11528558489999
 20
59.99482129970001
 30
0.0
 40
0.1999999881
100
AcDbArc
 50
270.0000179861
 51
0.0
  0
ARC
  5
102
330
2
100
AcDbEntity
  8
0
 62
     3
100
AcDbCircle
 10
95.11528558489999
 20
61.0948274032
 30
0.0
 40
0.1999999881
100
AcDbArc
 50
270.0000179861
 51
0.0
  0
ARC
  5
103
330
2
100
AcDbEntity
  8
0
 62
     3
100
AcDbCircle
 10
95.11528558489999
 20
58.49482129970001
 30
0.0
 40
0.1999999881
100
AcDbArc
 50
0.0
 51
89.99998201389999
  0
ARC
  5
104
330
2
100
AcDbEntity
  8
0
 62
     3
100
AcDbCircle
 10
95.11528558489999
 20
59.5948274032
 30
0.0
 40
0.1999999881
100
AcDbArc
 50
0.0
 51
89.99998201389999
  0
LINE
  5
105
330
2
100
AcDbEntity
  8
0
 62
     3
100
AcDbLine
 10
89.31528253309997
 20
77.6948182479
 30
0.0
 11
95.11528558489999
 21
77.6948182479
 31
0.0
  0
LINE
  5
106
330
2
100
AcDbEntity
  8
0
 62
     3
100
AcDbLine
 10
89.31528253309997
 20
77.6948182479
 30
0.0
 11
89.31528253309997
 21
78.79482435140001
 31
0.0
  0
LINE
  5
107
330
2
100
AcDbEntity
  8
0
 62
     3
100
AcDbLine
 10
93.71521539449998
 20
78.09475110920002
 30
0.0
 11
90.91522760149999
 21
78.09475110920002
 31
0.0
  0
LINE
  5
108
330
2
100
AcDbEntity
  8
0
 62
     3
100
AcDbLine
 10
90.91528863669999
 20
78.0947816268
 30
0.0
 11
90.91528863669999
 21
77.6948182479
 31
0.0
  0
LINE
  5
109
330
2
100
AcDbEntity
  8
0
 62
     3
100
AcDbLine
 10
93.7152764296
 20
78.0947816268
 30
0.0
 11
93.7152764296
 21
77.6948182479
 31
0.0
  0
ARC
  5
10A
330
2
100
AcDbEntity
  8
0
 62
     3
100
AcDbCircle
 10
95.11528558489999
 20
78.59481214439998
 30
0.0
 40
0.1999999881
100
AcDbArc
 50
0.0
 51
89.99998201389999
  0
ARC
  5
10B
330
2
100
AcDbEntity
  8
0
 62
     3
100
AcDbCircle
 10
95.11528558489999
 20
77.49482129970001
 30
0.0
 40
0.1999999881
100
AcDbArc
 50
0.0
 51
89.99998201389999
  0
POINT
  5
10C
330
2
100
AcDbEntity
  8
0
 62
     3
100
AcDbPoint
 10
95.31528253309998
 20
78.79482435140001
 30
0.0
  0
LINE
  5
10D
330
2
100
AcDbEntity
  8
0
  6
CENTER
 62
     3
100
AcDbLine
 10
92.31528253309999
 20
122.2415711776
 30
0.0
 11
92.31528253309999
 21
118.2415711776
 31
0.0
  0
LINE
  5
10E
330
2
100
AcDbEntity
  8
0
  6
CENTER
 62
     3
100
AcDbLine
 10
92.31526727439998
 20
122.2415711776
 30
0.0
 11
92.31526727439998
 21
118.2415711776
 31
0.0
  0
CIRCLE
  5
10F
330
2
100
AcDbEntity
  8
0
 62
     3
100
AcDbCircle
 10
92.31528253309999
 20
120.2415711776
 30
0.0
 40
1.1999998093
  0
ARC
  5
110
330
2
100
AcDbEntity
  8
0
 62
     3
100
AcDbCircle
 10
92.31526727439998
 20
120.4415833846
 30
0.0
 40
3.0
100
AcDbArc
 50
89.99998201389999
 51
179.9999640277999
  0
ARC
  5
111
330
2
100
AcDbEntity
  8
0
 62
     3
100
AcDbCircle
 10
94.31526727439999
 20
118.4415681257999
 30
0.0
 40
1.0
100
AcDbArc
 50
270.0000179861
 51
0.0
  0
ARC
  5
112
330
2
100
AcDbEntity
  8
0
 62
     3
100
AcDbCircle
 10
94.31526727439999
 20
118.4415833846
 30
0.0
 40
1.0
100
AcDbArc
 50
270.0000179861
 51
0.0
  0
LINE
  5
113
330
2
100
AcDbEntity
  8
0
 62
     3
100
AcDbLine
 10
89.31528253309997
 20
117.4074494735
 30
0.0
 11
89.31528253309997
 21
108.9415986434
 31
0.0
  0
LINE
  5
114
330
2
100
AcDbEntity
  8
0
 62
     3
100
AcDbLine
 10
88.51527948140001
 20
117.4074494735
 30
0.0
 11
88.51527948140001
 21
108.9415986434
 31
0.0
  0
LINE
  5
115
330
2
100
AcDbEntity
  8
0
 62
     3
100
AcDbLine
 10
88.51527948140001
 20
108.9415986434
 30
0.0
 11
89.31528253309997
 21
108.9415986434
 31
0.0
  0
LINE
  5
116
330
2
100
AcDbEntity
  8
0
 62
     3
100
AcDbLine
 10
88.7152764296
 20
107.9415986434
 30
0.0
 11
89.11527032609997
 21
107.9415986434
 31
0.0
  0
LINE
  5
117
330
2
100
AcDbEntity
  8
0
 62
     3
100
AcDbLine
 10
88.51529682589998
 20
108.9415959461
 30
0.0
 11
88.71529717299997
 21
107.9415939675
 31
0.0
  0
LINE
  5
118
330
2
100
AcDbEntity
  8
0
 62
     3
100
AcDbLine
 10
89.31525635239998
 20
108.941581593
 30
0.0
 11
89.11525594449996
 21
107.9415796144
 31
0.0
  0
LINE
  5
119
330
2
100
AcDbEntity
  8
0
  6
CENTER
 62
     3
100
AcDbLine
 10
94.31528253309997
 20
120.2415711776
 30
0.0
 11
90.31526727440001
 21
120.2415711776
 31
0.0
  0
LINE
  5
11A
330
2
100
AcDbEntity
  8
0
 62
     3
100
AcDbLine
 10
88.51527948140001
 20
115.9415681258
 30
0.0
 11
89.31528253309997
 21
115.9415681258
 31
0.0
  0
LINE
  5
11B
330
2
100
AcDbEntity
  8
0
 62
     3
100
AcDbLine
 10
88.51527948140001
 20
117.4415681257999
 30
0.0
 11
89.31528253309997
 21
117.4415681257999
 31
0.0
  0
LINE
  5
11C
330
2
100
AcDbEntity
  8
0
 62
     3
100
AcDbLine
 10
89.31528253309997
 20
120.4415833846
 30
0.0
 11
89.31528253309997
 21
117.6415803328999
 31
0.0
  0
ARC
  5
11D
330
2
100
AcDbEntity
  8
0
 62
     3
100
AcDbCircle
 10
89.11527032609997
 20
117.6415803328999
 30
0.0
 40
0.1999999881
100
AcDbArc
 50
270.0000179861
 51
0.0
  0
LINE
  5
11E
330
2
100
AcDbEntity
  8
0
 62
     3
100
AcDbLine
 10
89.31526727439999
 20
120.4415833846
 30
0.0
 11
89.31526727439999
 21
117.6415803328999
 31
0.0
  0
LINE
  5
11F
330
2
100
AcDbEntity
  8
0
 62
     3
100
AcDbLine
 10
92.28735894919999
 20
123.4415833846
 30
0.0
 11
95.11527032609995
 21
123.4415833846
 31
0.0
  0
ARC
  5
120
330
2
100
AcDbEntity
  8
0
 62
     3
100
AcDbCircle
 10
95.11527032609995
 20
123.6415803329
 30
0.0
 40
0.1999999881
100
AcDbArc
 50
270.0000179861
 51
0.0
  0
LINE
  5
121
330
2
100
AcDbEntity
  8
0
100
AcDbLine
 10
210.0
 20
297.0
 30
0.0
 11
0.0
 21
297.0
 31
0.0
  0
LINE
  5
125
330
2
100
AcDbEntity
  8
0
 62
     3
100
AcDbLine
 10
94.11528558489999
 20
230.7173913043
 30
0.0
 11
84.87872857809998
 21
230.7173913043
 31
0.0
  0
LINE
  5
126
330
2
100
AcDbEntity
  8
0
 62
     3
100
AcDbLine
 10
87.39830560439996
 20
221.2173913043
 30
0.0
 11
79.85896844619998
 21
221.2173913043
 31
0.0
  0
LINE
  5
127
330
2
100
AcDbEntity
  8
0
 62
     3
100
AcDbLine
 10
79.85896844619998
 20
221.2173913043
 30
0.0
 11
87.4152886367
 21
221.2173913043
 31
0.0
  0
LINE
  5
128
330
2
100
AcDbEntity
  8
0
 62
     3
100
AcDbLine
 10
87.39830560439996
 20
202.2173913043
 30
0.0
 11
79.85896844619998
 21
202.2173913043
 31
0.0
  0
LINE
  5
129
330
2
100
AcDbEntity
  8
0
 62
     3
100
AcDbLine
 10
79.85896844619998
 20
202.2173913043
 30
0.0
 11
87.4152886367
 21
202.2173913043
 31
0.0
  0
ARC
  5
12A
330
2
100
AcDbEntity
  8
0
 62
     3
100
AcDbCircle
 10
86.4152733779
 20
145.9415833845999
 30
0.0
 40
2.0
100
AcDbArc
 50
0.0
 51
89.99998201389999
  0
LINE
  5
12B
330
2
100
AcDbEntity
  8
0
 62
     3
100
AcDbLine
 10
94.11528558489999
 20
211.7173913043
 30
0.0
 11
70.42706842179999
 21
211.7173913043
 31
0.0
  0
LINE
  5
12C
330
2
100
AcDbEntity
  8
0
 62
     3
100
AcDbLine
 10
94.3483178115
 20
158.4415681257999
 30
0.0
 11
85.15430230849998
 21
158.4415681257999
 31
0.0
  0
LINE
  5
12D
330
2
100
AcDbEntity
  8
0
 62
     3
100
AcDbLine
 10
85.06526727439998
 20
158.4415833845999
 30
0.0
 11
93.31526727439998
 21
158.4415833845999
 31
0.0
  0
LINE
  5
12E
330
2
100
AcDbEntity
  8
0
 62
     3
100
AcDbLine
 10
94.11528558489999
 20
192.7173913043
 30
0.0
 11
43.5152794814
 21
192.7173913043
 31
0.0
  0
LINE
  5
12F
330
2
100
AcDbEntity
  8
0
  6
PHANTOM
 62
     3
100
AcDbLine
 10
97.37358636609998
 20
159.4915864363999
 30
0.0
 11
42.27492303609998
 21
159.4915864363999
 31
0.0
  0
CIRCLE
  5
131
330
2
100
AcDbEntity
  8
0
 62
     3
100
AcDbCircle
 10
56.81526727439996
 20
153.9415681258
 30
0.0
 40
1.0999994278
  0
CIRCLE
  5
132
330
2
100
AcDbEntity
  8
0
 62
     3
100
AcDbCircle
 10
56.81526727439996
 20
153.9415681258
 30
0.0
 40
0.6999999881
  0
LINE
  5
133
330
2
100
AcDbEntity
  8
0
 62
     3
100
AcDbLine
 10
63.6381127333
 20
213.7173913043
 30
0.0
 11
55.36528558489997
 21
213.7173913043
 31
0.0
  0
LINE
  5
134
330
2
100
AcDbEntity
  8
0
 62
     3
100
AcDbLine
 10
84.86528558489998
 20
230.7173913043
 30
0.0
 11
44.51527948139999
 21
230.7173913043
 31
0.0
  0
LINE
  5
135
330
2
100
AcDbEntity
  8
0
 62
     3
100
AcDbLine
 10
65.36528558489999
 20
228.7173913042999
 30
0.0
 11
55.36528558489997
 21
228.7173913042999
 31
0.0
  0
LINE
  5
136
330
2
100
AcDbEntity
  8
0
 62
     3
100
AcDbLine
 10
65.36528558489999
 20
194.7173913043
 30
0.0
 11
55.36528558489997
 21
194.7173913043
 31
0.0
  0
LINE
  5
137
330
2
100
AcDbEntity
  8
0
 62
     3
100
AcDbLine
 10
63.62962884659999
 20
211.7173913043
 30
0.0
 11
43.5152794814
 21
211.7173913043
 31
0.0
  0
LINE
  5
138
330
2
100
AcDbEntity
  8
0
 62
     3
100
AcDbLine
 10
63.61507196189998
 20
209.7173913043
 30
0.0
 11
55.36528558489997
 21
209.7173913043
 31
0.0
  0
LINE
  5
139
330
2
100
AcDbEntity
  8
0
  6
CENTER
 62
     3
100
AcDbLine
 10
54.66075677629999
 20
153.9415681258
 30
0.0
 11
59.21642083879999
 21
153.9415681258
 31
0.0
  0
LINE
  5
13A
330
2
100
AcDbEntity
  8
0
 62
     3
100
AcDbLine
 10
52.21527642959998
 20
147.9415833845999
 30
0.0
 11
86.4152733779
 21
147.9415833845999
 31
0.0
  0
LINE
  5
13B
330
2
100
AcDbEntity
  8
0
 62
     3
100
AcDbLine
 10
84.56526727439998
 20
162.9415681257999
 30
0.0
 11
54.06526727439999
 21
162.9415681257999
 31
0.0
  0
LINE
  5
13C
330
2
100
AcDbEntity
  8
0
 62
     3
100
AcDbLine
 10
54.06526727439999
 20
162.9415833846
 30
0.0
 11
84.56526727439998
 21
162.9415833846
 31
0.0
  0
CIRCLE
  5
13D
330
2
100
AcDbEntity
  8
0
 62
     3
100
AcDbCircle
 10
48.21527642959998
 20
153.0415742294
 30
0.0
 40
2.024999618499998
  0
LINE
  5
13E
330
2
100
AcDbEntity
  8
0
  6
CENTER
 62
     3
100
AcDbLine
 10
45.71527642959998
 20
153.0415742294
 30
0.0
 11
50.71527642959998
 21
153.0415742294
 31
0.0
  0
CIRCLE
  5
13F
330
2
100
AcDbEntity
  8
0
 62
     3
100
AcDbCircle
 10
48.21526117080001
 20
153.0415742294
 30
0.0
 40
2.024999618499998
  0
LINE
  5
140
330
2
100
AcDbEntity
  8
0
 62
     3
100
AcDbLine
 10
53.56526727439998
 20
158.4415681257999
 30
0.0
 11
44.3332879042
 21
158.4415681257999
 31
0.0
  0
LINE
  5
141
330
2
100
AcDbEntity
  8
0
 62
     3
100
AcDbLine
 10
45.31526727439998
 20
158.4415833845999
 30
0.0
 11
53.47623224019997
 21
158.4415833845999
 31
0.0
  0
ARC
  5
142
330
2
100
AcDbEntity
  8
0
  6
PHANTOM
 62
     3
100
AcDbCircle
 10
48.21526117080001
 20
155.3248994247
 30
0.0
 40
5.8333330154
100
AcDbArc
 50
74.13285151530002
 51
105.8671125125
  0
LINE
  5
143
330
2
100
AcDbEntity
  8
0
 62
     3
100
AcDbLine
 10
44.31526727439996
 20
157.4415833845999
 30
0.0
 11
44.31526727439996
 21
145.2415864363999
 31
0.0
  0
LINE
  5
144
330
2
100
AcDbEntity
  8
0
  6
CENTER
 62
     3
100
AcDbLine
 10
48.21526117080001
 20
161.9659974471
 30
0.0
 11
48.21526117080001
 21
150.1079957382
 31
0.0
  0
LINE
  5
145
330
2
100
AcDbEntity
  8
0
 62
     3
100
AcDbLine
 10
43.31528253309995
 20
157.399820079
 30
0.0
 11
43.31528253309995
 21
149.6415803329
 31
0.0
  0
LINE
  5
146
330
2
100
AcDbEntity
  8
0
 62
     3
100
AcDbLine
 10
43.31526727439999
 20
157.4415833845999
 30
0.0
 11
43.31526727439999
 21
149.6415803329
 31
0.0
  0
ARC
  5
147
330
2
100
AcDbEntity
  8
0
 62
     3
100
AcDbCircle
 10
44.31528253309998
 20
144.2415864363999
 30
0.0
 40
1.0
100
AcDbArc
 50
89.99992737239997
 51
179.9999640277999
  0
LINE
  5
148
330
2
100
AcDbEntity
  8
0
 62
     3
100
AcDbLine
 10
43.51526422259996
 20
149.4415681257999
 30
0.0
 11
44.31528253309998
 21
149.4415681257999
 31
0.0
  0
ARC
  5
149
330
2
100
AcDbEntity
  8
0
 62
     3
100
AcDbCircle
 10
44.31526727439996
 20
144.2415864363999
 30
0.0
 40
1.0
100
AcDbArc
 50
89.99998201389999
 51
179.9999640277999
  0
LINE
  5
14A
330
2
100
AcDbEntity
  8
0
 62
     3
100
AcDbLine
 10
44.31526727439996
 20
149.4415833846
 30
0.0
 11
43.51526422259996
 21
149.4415833846
 31
0.0
  0
ARC
  5
14B
330
2
100
AcDbEntity
  8
0
 62
     3
100
AcDbCircle
 10
43.51526422259996
 20
149.6415803329
 30
0.0
 40
0.1999999881
100
AcDbArc
 50
179.9999640277999
 51
270.0000006831999
  0
LINE
  5
14C
330
2
100
AcDbEntity
  8
0
 62
     3
100
AcDbLine
 10
43.31531305069996
 20
154.4415833845999
 30
0.0
 11
44.31320733779998
 21
154.4415833845999
 31
0.0
  0
CIRCLE
  5
14D
330
2
100
AcDbEntity
  8
0
 62
     3
100
AcDbCircle
 10
48.21527642959998
 20
153.0415742294
 30
0.0
 40
1.1999998093
  0
CIRCLE
  5
14E
330
2
100
AcDbEntity
  8
0
 62
     3
100
AcDbCircle
 10
48.21526117080001
 20
153.0415742294
 30
0.0
 40
1.1999998093
  0
ARC
  5
14F
330
2
100
AcDbEntity
  8
0
  6
PHANTOM
 62
     3
100
AcDbCircle
 10
46.87100763079999
 20
160.0542390243
 30
0.0
 40
0.9166666864999999
100
AcDbArc
 50
105.8671125125
 51
176.9999810198
  0
ARC
  5
150
330
2
100
AcDbEntity
  8
0
 62
     3
100
AcDbCircle
 10
44.31528253309998
 20
157.4415681257999
 30
0.0
 40
1.0
100
AcDbArc
 50
89.99992737239997
 51
179.9999640277999
  0
ARC
  5
151
330
2
100
AcDbEntity
  8
0
 62
     3
100
AcDbCircle
 10
44.31526727439996
 20
157.4415833845999
 30
0.0
 40
1.0
100
AcDbArc
 50
89.99998201389999
 51
179.9999640277999
  0
ARC
  5
152
330
2
100
AcDbEntity
  8
0
 62
     3
100
AcDbCircle
 10
45.31528253309995
 20
157.4415681257999
 30
0.0
 40
1.0
100
AcDbArc
 50
89.99998201389999
 51
179.9999640277999
  0
ARC
  5
153
330
2
100
AcDbEntity
  8
0
 62
     3
100
AcDbCircle
 10
45.31526727439998
 20
157.4415833845999
 30
0.0
 40
1.0
100
AcDbArc
 50
89.99998201389999
 51
179.9999640277999
  0
LINE
  5
154
330
2
100
AcDbEntity
  8
0
 62
     3
100
AcDbLine
 10
44.31526727439996
 20
158.4415833845999
 30
0.0
 11
45.04364557029997
 21
158.4415833845999
 31
0.0
  0
LINE
  5
155
330
2
100
AcDbEntity
  8
0
  6
PHANTOM
 62
     3
100
AcDbLine
 10
45.9556033539
 20
160.1022327021999
 30
0.0
 11
45.9236009267
 21
159.4915900172999
 31
0.0
  0
LINE
  5
156
330
2
100
AcDbEntity
  8
0
  6
CENTER
 62
     3
100
AcDbLine
 10
56.81526727439996
 20
155.9415681257999
 30
0.0
 11
56.81526727439996
 21
151.9415681257999
 31
0.0
  0
ARC
  5
157
330
2
100
AcDbEntity
  8
0
 62
     3
100
AcDbCircle
 10
52.21527642959998
 20
145.9415833845999
 30
0.0
 40
2.0
100
AcDbArc
 50
89.99998201389999
 51
179.9999640277999
  0
ARC
  5
158
330
2
100
AcDbEntity
  8
0
  6
PHANTOM
 62
     3
100
AcDbCircle
 10
49.55951471089997
 20
160.0542390243
 30
0.0
 40
0.9166666864999999
100
AcDbArc
 50
2.9999992297
 51
74.13285151530002
  0
LINE
  5
159
330
2
100
AcDbEntity
  8
0
  6
PHANTOM
 62
     3
100
AcDbLine
 10
50.47495345829998
 20
160.102217412
 30
0.0
 11
50.50695588549999
 21
159.4915747269999
 31
0.0
  0
LINE
  5
15A
330
2
100
AcDbEntity
  8
0
 62
     3
100
AcDbLine
 10
53.56526727439998
 20
162.4415833846
 30
0.0
 11
53.56526727439998
 21
158.4415681257999
 31
0.0
  0
ARC
  5
15B
330
2
100
AcDbEntity
  8
0
 62
     3
100
AcDbCircle
 10
54.06526727439999
 20
162.4415681257999
 30
0.0
 40
0.5
100
AcDbArc
 50
89.99998201389999
 51
179.9999640277999
  0
ARC
  5
15C
330
2
100
AcDbEntity
  8
0
 62
     3
100
AcDbCircle
 10
54.06526727439999
 20
162.4415833846
 30
0.0
 40
0.5
100
AcDbArc
 50
89.99998201389999
 51
179.9999640277999
  0
LINE
  5
15D
330
2
100
AcDbEntity
  8
0
 62
     3
100
AcDbLine
 10
44.31528253309998
 20
211.9174035113999
 30
0.0
 11
44.31528253309998
 21
217.2173913043
 31
0.0
  0
LINE
  5
15E
330
2
100
AcDbEntity
  8
0
  6
CENTER
 62
     3
100
AcDbLine
 10
48.21527642959998
 20
226.2173913043
 30
0.0
 11
48.21527642959998
 21
197.1906116628
 31
0.0
  0
LINE
  5
15F
330
2
100
AcDbEntity
  8
0
 62
     3
100
AcDbLine
 10
53.56528253309996
 20
230.5174096148999
 30
0.0
 11
53.56528253309996
 21
211.9174035113999
 31
0.0
  0
LINE
  5
160
330
2
100
AcDbEntity
  8
0
 62
     3
100
AcDbLine
 10
43.31528253309995
 20
230.4973595661
 30
0.0
 11
43.31528253309995
 21
211.9174035113999
 31
0.0
  0
CIRCLE
  5
161
330
2
100
AcDbEntity
  8
0
 62
     3
100
AcDbCircle
 10
48.21527642959998
 20
202.2173913043
 30
0.0
 40
1.5
  0
LINE
  5
162
330
2
100
AcDbEntity
  8
0
 62
     3
100
AcDbLine
 10
45.61528558489999
 20
198.1173852008
 30
0.0
 11
50.81529779189998
 21
198.1173852008
 31
0.0
  0
LINE
  5
163
330
2
100
AcDbEntity
  8
0
  6
CENTER
 62
     3
100
AcDbLine
 10
50.21527642959998
 20
202.2173913043
 30
0.0
 11
46.21527642959998
 21
202.2173913043
 31
0.0
  0
LINE
  5
164
330
2
100
AcDbEntity
  8
0
 62
     3
100
AcDbLine
 10
50.71527642959998
 20
206.2173913042999
 30
0.0
 11
45.71527642959998
 21
206.2173913042999
 31
0.0
  0
LINE
  5
165
330
2
100
AcDbEntity
  8
0
 62
     3
100
AcDbLine
 10
50.71527642959998
 20
198.2173913043
 30
0.0
 11
45.71527642959998
 21
198.2173913043
 31
0.0
  0
LINE
  5
166
330
2
100
AcDbEntity
  8
0
 62
     3
100
AcDbLine
 10
45.61528558489999
 20
206.3173974079
 30
0.0
 11
50.81529779189998
 21
206.3173974079
 31
0.0
  0
LINE
  5
167
330
2
100
AcDbEntity
  8
0
 62
     3
100
AcDbLine
 10
45.21527642959997
 20
205.2173913043
 30
0.0
 11
45.21527642959997
 21
199.2173913043
 31
0.0
  0
LINE
  5
168
330
2
100
AcDbEntity
  8
0
 62
     3
100
AcDbLine
 10
45.11528558489998
 20
205.3173974079
 30
0.0
 11
45.11528558489998
 21
199.1173852008
 31
0.0
  0
CIRCLE
  5
169
330
2
100
AcDbEntity
  8
0
 62
     3
100
AcDbCircle
 10
48.21527642959998
 20
202.2173913043
 30
0.0
 40
1.229499816899999
  0
LINE
  5
16A
330
2
100
AcDbEntity
  8
0
 62
     3
100
AcDbLine
 10
43.31528253309995
 20
211.4973595661
 30
0.0
 11
43.31528253309995
 21
192.9174035113999
 31
0.0
  0
LINE
  5
16B
330
2
100
AcDbEntity
  8
0
 62
     3
100
AcDbLine
 10
44.31528253309998
 20
192.9174035113999
 30
0.0
 11
44.31528253309998
 21
198.2173913043
 31
0.0
  0
ARC
  5
16C
330
2
100
AcDbEntity
  8
0
 62
     3
100
AcDbCircle
 10
43.5152794814
 20
192.9174035113999
 30
0.0
 40
0.1999999881
100
AcDbArc
 50
179.9999640277999
 51
270.0000006831999
  0
ARC
  5
16D
330
2
100
AcDbEntity
  8
0
 62
     3
100
AcDbCircle
 10
44.51527948139999
 20
192.9174035113999
 30
0.0
 40
0.1999999881
100
AcDbArc
 50
179.9999640277999
 51
270.0000006831999
  0
LINE
  5
16E
330
2
100
AcDbEntity
  8
0
 62
     3
100
AcDbLine
 10
43.5152794814
 20
198.2173913043
 30
0.0
 11
44.31528253309998
 21
198.2173913043
 31
0.0
  0
LINE
  5
16F
330
2
100
AcDbEntity
  8
0
 62
     3
100
AcDbLine
 10
43.5152794814
 20
197.2173913043
 30
0.0
 11
44.31528253309998
 21
197.2173913043
 31
0.0
  0
LINE
  5
170
330
2
100
AcDbEntity
  8
0
 62
     3
100
AcDbLine
 10
43.33707208389998
 20
198.1173852008
 30
0.0
 11
43.32028741599996
 21
198.1173852008
 31
0.0
  0
ARC
  5
171
330
2
100
AcDbEntity
  8
0
 62
     3
100
AcDbCircle
 10
43.5152794814
 20
197.4174035113999
 30
0.0
 40
0.1999999881
100
AcDbArc
 50
179.9999640277999
 51
269.9999460416999
  0
ARC
  5
172
330
2
100
AcDbEntity
  8
0
 62
     3
100
AcDbCircle
 10
43.5152794814
 20
198.4174035113999
 30
0.0
 40
0.1999999881
100
AcDbArc
 50
179.9999640277999
 51
269.9999460416999
  0
LINE
  5
173
330
2
100
AcDbEntity
  8
0
 62
     3
100
AcDbLine
 10
45.11528558489998
 20
199.1173852008
 30
0.0
 11
45.61528558489999
 21
199.1173852008
 31
0.0
  0
LINE
  5
174
330
2
100
AcDbEntity
  8
0
 62
     3
100
AcDbLine
 10
45.61528558489999
 20
198.1173852008
 30
0.0
 11
45.61528558489999
 21
199.2125390093999
 31
0.0
  0
LINE
  5
175
330
2
100
AcDbEntity
  8
0
 62
     3
100
AcDbLine
 10
45.71527642959998
 20
199.2173913043
 30
0.0
 11
45.71527642959998
 21
198.2173913043
 31
0.0
  0
LINE
  5
176
330
2
100
AcDbEntity
  8
0
 62
     3
100
AcDbLine
 10
45.71527642959998
 20
199.2173913043
 30
0.0
 11
45.21527642959997
 21
199.2173913043
 31
0.0
  0
LINE
  5
177
330
2
100
AcDbEntity
  8
0
 62
     3
100
AcDbLine
 10
44.31528253309998
 20
211.5174096148999
 30
0.0
 11
44.31528253309998
 21
206.7173913043
 31
0.0
  0
LINE
  5
178
330
2
100
AcDbEntity
  8
0
 62
     3
100
AcDbLine
 10
44.31528253309998
 20
206.7173913043
 30
0.0
 11
43.5152794814
 21
206.7173913043
 31
0.0
  0
LINE
  5
179
330
2
100
AcDbEntity
  8
0
 62
     3
100
AcDbLine
 10
45.11925287009996
 20
202.2173913043
 30
0.0
 11
43.31528253309995
 21
202.2173913043
 31
0.0
  0
ARC
  5
17A
330
2
100
AcDbEntity
  8
0
 62
     3
100
AcDbCircle
 10
43.5152794814
 20
206.5174096149
 30
0.0
 40
0.1999999881
100
AcDbArc
 50
89.99992737239997
 51
179.9999640277999
  0
LINE
  5
17B
330
2
100
AcDbEntity
  8
0
 62
     3
100
AcDbLine
 10
45.71527642959998
 20
205.2173913043
 30
0.0
 11
45.21527642959997
 21
205.2173913043
 31
0.0
  0
LINE
  5
17C
330
2
100
AcDbEntity
  8
0
 62
     3
100
AcDbLine
 10
45.71527642959998
 20
206.2173913042999
 30
0.0
 11
45.71527642959998
 21
205.2173913043
 31
0.0
  0
LINE
  5
17D
330
2
100
AcDbEntity
  8
0
 62
     3
100
AcDbLine
 10
45.61528558489999
 20
206.3173974079
 30
0.0
 11
45.61528558489999
 21
205.2367089312999
 31
0.0
  0
LINE
  5
17E
330
2
100
AcDbEntity
  8
0
 62
     3
100
AcDbLine
 10
45.11528558489998
 20
205.3173974079
 30
0.0
 11
45.61528558489999
 21
205.3173974079
 31
0.0
  0
LINE
  5
17F
330
2
100
AcDbEntity
  8
0
 62
     3
100
AcDbLine
 10
44.31528253309998
 20
207.7173913043
 30
0.0
 11
43.5152794814
 21
207.7173913043
 31
0.0
  0
ARC
  5
180
330
2
100
AcDbEntity
  8
0
 62
     3
100
AcDbCircle
 10
43.5152794814
 20
211.5174096148999
 30
0.0
 40
0.1999999881
100
AcDbArc
 50
89.99998201389999
 51
179.9999640277999
  0
ARC
  5
181
330
2
100
AcDbEntity
  8
0
 62
     3
100
AcDbCircle
 10
43.5152794814
 20
207.5174096148999
 30
0.0
 40
0.1999999881
100
AcDbArc
 50
89.99992737239997
 51
179.9999640277999
  0
ARC
  5
182
330
2
100
AcDbEntity
  8
0
 62
     3
100
AcDbCircle
 10
43.5152794814
 20
211.9174035113999
 30
0.0
 40
0.1999999881
100
AcDbArc
 50
179.9999640277999
 51
270.0000006831999
  0
ARC
  5
183
330
2
100
AcDbEntity
  8
0
 62
     3
100
AcDbCircle
 10
44.51527948139999
 20
211.5174096148999
 30
0.0
 40
0.1999999881
100
AcDbArc
 50
89.99998201389999
 51
179.9999640277999
  0
ARC
  5
184
330
2
100
AcDbEntity
  8
0
 62
     3
100
AcDbCircle
 10
44.51527948139999
 20
211.9174035113999
 30
0.0
 40
0.1999999881
100
AcDbArc
 50
179.9999640277999
 51
270.0000006831999
  0
LINE
  5
185
330
2
100
AcDbEntity
  8
0
 62
     3
100
AcDbLine
 10
47.06526727439999
 20
202.6523278277999
 30
0.0
 11
47.06526727439999
 21
201.7824547809
 31
0.0
  0
LINE
  5
186
330
2
100
AcDbEntity
  8
0
 62
     3
100
AcDbLine
 10
49.3652855849
 20
202.6523278277999
 30
0.0
 11
49.3652855849
 21
201.7824547809
 31
0.0
  0
LINE
  5
187
330
2
100
AcDbEntity
  8
0
 62
     3
100
AcDbLine
 10
51.21527642959998
 20
205.2173913043
 30
0.0
 11
51.21527642959998
 21
199.2173913043
 31
0.0
  0
LINE
  5
188
330
2
100
AcDbEntity
  8
0
 62
     3
100
AcDbLine
 10
51.31529779189998
 20
205.3173974079
 30
0.0
 11
51.31529779189998
 21
199.1173852008
 31
0.0
  0
LINE
  5
189
330
2
100
AcDbEntity
  8
0
 62
     3
100
AcDbLine
 10
55.36528558489997
 20
209.7173913043
 30
0.0
 11
55.36528558489997
 21
194.7173913043
 31
0.0
  0
LINE
  5
18A
330
2
100
AcDbEntity
  8
0
 62
     3
100
AcDbLine
 10
53.56528253309996
 20
211.5174096148999
 30
0.0
 11
53.56528253309996
 21
192.9174035113999
 31
0.0
  0
LINE
  5
18B
330
2
100
AcDbEntity
  8
0
 62
     3
100
AcDbLine
 10
50.81529779189998
 20
199.1173852008
 30
0.0
 11
51.31529779189998
 21
199.1173852008
 31
0.0
  0
LINE
  5
18C
330
2
100
AcDbEntity
  8
0
 62
     3
100
AcDbLine
 10
50.81529779189998
 20
198.1173852008
 30
0.0
 11
50.81529779189998
 21
199.2125390093999
 31
0.0
  0
LINE
  5
18D
330
2
100
AcDbEntity
  8
0
 62
     3
100
AcDbLine
 10
50.71527642959998
 20
199.2173913043
 30
0.0
 11
50.71527642959998
 21
198.2173913043
 31
0.0
  0
LINE
  5
18E
330
2
100
AcDbEntity
  8
0
 62
     3
100
AcDbLine
 10
51.21527642959998
 20
199.2173913043
 30
0.0
 11
50.71527642959998
 21
199.2173913043
 31
0.0
  0
ARC
  5
18F
330
2
100
AcDbEntity
  8
0
 62
     3
100
AcDbCircle
 10
53.7652794814
 20
192.9174035113999
 30
0.0
 40
0.1999999881
100
AcDbArc
 50
179.9999640277999
 51
270.0000006831999
  0
LINE
  5
190
330
2
100
AcDbEntity
  8
0
 62
     3
100
AcDbLine
 10
51.21744317769998
 20
202.2173913043
 30
0.0
 11
55.44914788959997
 21
202.2173913043
 31
0.0
  0
LINE
  5
191
330
2
100
AcDbEntity
  8
0
 62
     3
100
AcDbLine
 10
51.21527642959998
 20
202.2173913043
 30
0.0
 11
55.37805719129997
 21
202.2173913043
 31
0.0
  0
LINE
  5
192
330
2
100
AcDbEntity
  8
0
 62
     3
100
AcDbLine
 10
51.21527642959998
 20
205.2173913043
 30
0.0
 11
50.71527642959998
 21
205.2173913043
 31
0.0
  0
LINE
  5
193
330
2
100
AcDbEntity
  8
0
 62
     3
100
AcDbLine
 10
50.71527642959998
 20
206.2173913042999
 30
0.0
 11
50.71527642959998
 21
205.2173913043
 31
0.0
  0
LINE
  5
194
330
2
100
AcDbEntity
  8
0
 62
     3
100
AcDbLine
 10
50.81529779189998
 20
206.3173974079
 30
0.0
 11
50.81529779189998
 21
205.2269738239
 31
0.0
  0
LINE
  5
195
330
2
100
AcDbEntity
  8
0
 62
     3
100
AcDbLine
 10
50.81529779189998
 20
205.3173974079
 30
0.0
 11
51.31529779189998
 21
205.3173974079
 31
0.0
  0
ARC
  5
196
330
2
100
AcDbEntity
  8
0
 62
     3
100
AcDbCircle
 10
53.7652794814
 20
211.5174096148999
 30
0.0
 40
0.1999999881
100
AcDbArc
 50
89.99998201389999
 51
179.9999640277999
  0
ARC
  5
197
330
2
100
AcDbEntity
  8
0
 62
     3
100
AcDbCircle
 10
53.7652794814
 20
211.9174035113999
 30
0.0
 40
0.1999999881
100
AcDbArc
 50
179.9999640277999
 51
270.0000006831999
  0
LINE
  5
198
330
2
100
AcDbEntity
  8
0
  6
CENTER
 62
     3
100
AcDbLine
 10
50.21527642959998
 20
221.2173913043
 30
0.0
 11
46.21527642959998
 21
221.2173913043
 31
0.0
  0
LINE
  5
199
330
2
100
AcDbEntity
  8
0
 62
     3
100
AcDbLine
 10
50.71527642959998
 20
225.2173913043
 30
0.0
 11
45.71527642959998
 21
225.2173913043
 31
0.0
  0
LINE
  5
19A
330
2
100
AcDbEntity
  8
0
 62
     3
100
AcDbLine
 10
45.61528558489999
 20
225.3173974079
 30
0.0
 11
50.81529779189998
 21
225.3173974079
 31
0.0
  0
CIRCLE
  5
19B
330
2
100
AcDbEntity
  8
0
 62
     3
100
AcDbCircle
 10
48.21527642959998
 20
221.2173913043
 30
0.0
 40
1.5
  0
LINE
  5
19C
330
2
100
AcDbEntity
  8
0
 62
     3
100
AcDbLine
 10
45.61528558489999
 20
217.1173852008
 30
0.0
 11
50.81529779189998
 21
217.1173852008
 31
0.0
  0
LINE
  5
19D
330
2
100
AcDbEntity
  8
0
 62
     3
100
AcDbLine
 10
50.71527642959998
 20
217.2173913043
 30
0.0
 11
45.71527642959998
 21
217.2173913043
 31
0.0
  0
LINE
  5
19E
330
2
100
AcDbEntity
  8
0
 62
     3
100
AcDbLine
 10
45.71527642959998
 20
225.2173913043
 30
0.0
 11
45.71527642959998
 21
224.2173913043
 31
0.0
  0
LINE
  5
19F
330
2
100
AcDbEntity
  8
0
 62
     3
100
AcDbLine
 10
45.61528558489999
 20
225.3173974079
 30
0.0
 11
45.61528558489999
 21
224.2367089312998
 31
0.0
  0
LINE
  5
1A0
330
2
100
AcDbEntity
  8
0
 62
     3
100
AcDbLine
 10
45.21527642959997
 20
224.2173913043
 30
0.0
 11
45.21527642959997
 21
218.2173913043
 31
0.0
  0
LINE
  5
1A1
330
2
100
AcDbEntity
  8
0
 62
     3
100
AcDbLine
 10
45.11528558489998
 20
224.3173974079
 30
0.0
 11
45.11528558489998
 21
218.1173852008
 31
0.0
  0
LINE
  5
1A2
330
2
100
AcDbEntity
  8
0
 62
     3
100
AcDbLine
 10
43.5152794814
 20
217.2173913043
 30
0.0
 11
44.31528253309998
 21
217.2173913043
 31
0.0
  0
LINE
  5
1A3
330
2
100
AcDbEntity
  8
0
 62
     3
100
AcDbLine
 10
43.5152794814
 20
216.2173913042999
 30
0.0
 11
44.31528253309998
 21
216.2173913042999
 31
0.0
  0
LINE
  5
1A4
330
2
100
AcDbEntity
  8
0
 62
     3
100
AcDbLine
 10
43.33707208389998
 20
217.1173852008
 30
0.0
 11
43.32028741599996
 21
217.1173852008
 31
0.0
  0
ARC
  5
1A5
330
2
100
AcDbEntity
  8
0
 62
     3
100
AcDbCircle
 10
43.5152794814
 20
216.4174035113999
 30
0.0
 40
0.1999999881
100
AcDbArc
 50
179.9999640277999
 51
269.9999460416999
  0
ARC
  5
1A6
330
2
100
AcDbEntity
  8
0
 62
     3
100
AcDbCircle
 10
43.5152794814
 20
217.4174035113999
 30
0.0
 40
0.1999999881
100
AcDbArc
 50
179.9999640277999
 51
269.9999460416999
  0
LINE
  5
1A7
330
2
100
AcDbEntity
  8
0
 62
     3
100
AcDbLine
 10
45.11528558489998
 20
218.1173852008
 30
0.0
 11
45.61528558489999
 21
218.1173852008
 31
0.0
  0
LINE
  5
1A8
330
2
100
AcDbEntity
  8
0
 62
     3
100
AcDbLine
 10
45.61528558489999
 20
217.1173852008
 30
0.0
 11
45.61528558489999
 21
218.2125390093998
 31
0.0
  0
LINE
  5
1A9
330
2
100
AcDbEntity
  8
0
 62
     3
100
AcDbLine
 10
45.71527642959998
 20
218.2173913043
 30
0.0
 11
45.71527642959998
 21
217.2173913043
 31
0.0
  0
LINE
  5
1AA
330
2
100
AcDbEntity
  8
0
 62
     3
100
AcDbLine
 10
45.71527642959998
 20
218.2173913043
 30
0.0
 11
45.21527642959997
 21
218.2173913043
 31
0.0
  0
LINE
  5
1AB
330
2
100
AcDbEntity
  8
0
 62
     3
100
AcDbLine
 10
45.11925287009996
 20
221.2173913043
 30
0.0
 11
43.31528253309995
 21
221.2173913043
 31
0.0
  0
LINE
  5
1AC
330
2
100
AcDbEntity
  8
0
 62
     3
100
AcDbLine
 10
45.11528558489998
 20
224.3173974079
 30
0.0
 11
45.61528558489999
 21
224.3173974079
 31
0.0
  0
LINE
  5
1AD
330
2
100
AcDbEntity
  8
0
 62
     3
100
AcDbLine
 10
45.71527642959998
 20
224.2173913043
 30
0.0
 11
45.21527642959997
 21
224.2173913043
 31
0.0
  0
CIRCLE
  5
1AE
330
2
100
AcDbEntity
  8
0
 62
     3
100
AcDbCircle
 10
48.21527642959998
 20
221.2173913043
 30
0.0
 40
1.229499816899999
  0
LINE
  5
1AF
330
2
100
AcDbEntity
  8
0
 62
     3
100
AcDbLine
 10
47.06526727439999
 20
221.6523278277999
 30
0.0
 11
47.06526727439999
 21
220.7824547808999
 31
0.0
  0
LINE
  5
1B0
330
2
100
AcDbEntity
  8
0
 62
     3
100
AcDbLine
 10
49.3652855849
 20
221.6523278277999
 30
0.0
 11
49.3652855849
 21
220.7824547808999
 31
0.0
  0
LINE
  5
1B1
330
2
100
AcDbEntity
  8
0
 62
     3
100
AcDbLine
 10
44.31528253309998
 20
230.5174096148999
 30
0.0
 11
44.31528253309998
 21
225.7173913043
 31
0.0
  0
LINE
  5
1B2
330
2
100
AcDbEntity
  8
0
 62
     3
100
AcDbLine
 10
44.31528253309998
 20
225.7173913043
 30
0.0
 11
43.5152794814
 21
225.7173913043
 31
0.0
  0
LINE
  5
1B3
330
2
100
AcDbEntity
  8
0
 62
     3
100
AcDbLine
 10
44.31528253309998
 20
226.7173913042999
 30
0.0
 11
43.5152794814
 21
226.7173913042999
 31
0.0
  0
ARC
  5
1B4
330
2
100
AcDbEntity
  8
0
 62
     3
100
AcDbCircle
 10
43.5152794814
 20
225.5174096149
 30
0.0
 40
0.1999999881
100
AcDbArc
 50
89.99992737239997
 51
179.9999640277999
  0
ARC
  5
1B5
330
2
100
AcDbEntity
  8
0
 62
     3
100
AcDbCircle
 10
43.5152794814
 20
226.5174096148999
 30
0.0
 40
0.1999999881
100
AcDbArc
 50
89.99992737239997
 51
179.9999640277999
  0
LINE
  5
1B6
330
2
100
AcDbEntity
  8
0
 62
     3
100
AcDbLine
 10
44.44072503799997
 20
230.7173913043
 30
0.0
 11
43.5152794814
 21
230.7173913043
 31
0.0
  0
ARC
  5
1B7
330
2
100
AcDbEntity
  8
0
 62
     3
100
AcDbCircle
 10
43.5152794814
 20
230.5174096148999
 30
0.0
 40
0.1999999881
100
AcDbArc
 50
89.99998201389999
 51
179.9999640277999
  0
ARC
  5
1B8
330
2
100
AcDbEntity
  8
0
 62
     3
100
AcDbCircle
 10
44.51527948139999
 20
230.5174096148999
 30
0.0
 40
0.1999999881
100
AcDbArc
 50
89.99998201389999
 51
179.9999640277999
  0
LINE
  5
1B9
330
2
100
AcDbEntity
  8
0
 62
     3
100
AcDbLine
 10
55.36528558489997
 20
228.7173913042999
 30
0.0
 11
55.36528558489997
 21
213.7173913043
 31
0.0
  0
LINE
  5
1BA
330
2
100
AcDbEntity
  8
0
 62
     3
100
AcDbLine
 10
50.71527642959998
 20
225.2173913043
 30
0.0
 11
50.71527642959998
 21
224.2173913043
 31
0.0
  0
LINE
  5
1BB
330
2
100
AcDbEntity
  8
0
 62
     3
100
AcDbLine
 10
50.81529779189998
 20
225.3173974079
 30
0.0
 11
50.81529779189998
 21
224.2269738238999
 31
0.0
  0
LINE
  5
1BC
330
2
100
AcDbEntity
  8
0
 62
     3
100
AcDbLine
 10
51.21744317769998
 20
221.2173913043
 30
0.0
 11
55.44914788959997
 21
221.2173913043
 31
0.0
  0
LINE
  5
1BD
330
2
100
AcDbEntity
  8
0
 62
     3
100
AcDbLine
 10
51.21527642959998
 20
221.2173913043
 30
0.0
 11
55.37805719129997
 21
221.2173913043
 31
0.0
  0
LINE
  5
1BE
330
2
100
AcDbEntity
  8
0
 62
     3
100
AcDbLine
 10
51.21527642959998
 20
224.2173913043
 30
0.0
 11
51.21527642959998
 21
218.2173913043
 31
0.0
  0
LINE
  5
1BF
330
2
100
AcDbEntity
  8
0
 62
     3
100
AcDbLine
 10
51.31529779189998
 20
224.3173974079
 30
0.0
 11
51.31529779189998
 21
218.1173852008
 31
0.0
  0
LINE
  5
1C0
330
2
100
AcDbEntity
  8
0
 62
     3
100
AcDbLine
 10
50.81529779189998
 20
218.1173852008
 30
0.0
 11
51.31529779189998
 21
218.1173852008
 31
0.0
  0
LINE
  5
1C1
330
2
100
AcDbEntity
  8
0
 62
     3
100
AcDbLine
 10
50.81529779189998
 20
217.1173852008
 30
0.0
 11
50.81529779189998
 21
218.2125390093998
 31
0.0
  0
LINE
  5
1C2
330
2
100
AcDbEntity
  8
0
 62
     3
100
AcDbLine
 10
50.71527642959998
 20
218.2173913043
 30
0.0
 11
50.71527642959998
 21
217.2173913043
 31
0.0
  0
LINE
  5
1C3
330
2
100
AcDbEntity
  8
0
 62
     3
100
AcDbLine
 10
51.21527642959998
 20
218.2173913043
 30
0.0
 11
50.71527642959998
 21
218.2173913043
 31
0.0
  0
LINE
  5
1C4
330
2
100
AcDbEntity
  8
0
 62
     3
100
AcDbLine
 10
50.81529779189998
 20
224.3173974079
 30
0.0
 11
51.31529779189998
 21
224.3173974079
 31
0.0
  0
LINE
  5
1C5
330
2
100
AcDbEntity
  8
0
 62
     3
100
AcDbLine
 10
51.21527642959998
 20
224.2173913043
 30
0.0
 11
50.71527642959998
 21
224.2173913043
 31
0.0
  0
ARC
  5
1C6
330
2
100
AcDbEntity
  8
0
 62
     3
100
AcDbCircle
 10
53.7652794814
 20
230.5174096148999
 30
0.0
 40
0.1999999881
100
AcDbArc
 50
89.99998201389999
 51
179.9999640277999
  0
LINE
  5
1C7
330
2
100
AcDbEntity
  8
0
 62
     3
100
AcDbLine
 10
72.68336015059998
 20
162.9415833846
 30
0.0
 11
70.68232569379998
 21
166.9638237033
 31
0.0
  0
LINE
  5
1C8
330
2
100
AcDbEntity
  8
0
 62
     3
100
AcDbLine
 10
72.0132044145
 20
162.9415833846
 30
0.0
 11
70.14512619179999
 21
166.6965709713998
 31
0.0
  0
ARC
  5
1C9
330
2
100
AcDbEntity
  8
0
  6
PHANTOM
 62
     3
100
AcDbCircle
 10
74.81528253309996
 20
153.9415833846
 30
0.0
 40
21.0
100
AcDbArc
 50
60.04998499399999
 51
116.4499715371
  0
LINE
  5
1CA
330
2
100
AcDbEntity
  8
0
  6
CENTER
 62
     3
100
AcDbLine
 10
65.46154502479999
 20
172.7433708206
 30
0.0
 11
74.81529245069999
 21
153.9415956752
 31
0.0
  0
LINE
  5
1CB
330
2
100
AcDbEntity
  8
0
  6
CENTER
 62
     3
100
AcDbLine
 10
65.4615313633
 20
172.7433640241
 30
0.0
 11
74.81527878909997
 21
153.9415888786999
 31
0.0
  0
LINE
  5
1CC
330
2
100
AcDbEntity
  8
0
 62
     3
100
AcDbLine
 10
70.68234636469998
 20
166.9638298104
 30
0.0
 11
70.51444678179999
 21
169.8154738983999
 31
0.0
  0
ARC
  5
1CD
330
2
100
AcDbEntity
  8
0
 62
     3
100
AcDbCircle
 10
67.02048272849999
 20
169.6097352400999
 30
0.0
 40
3.5
100
AcDbArc
 50
3.369580765699998
 51
229.5304741528
  0
LINE
  5
1CE
330
2
100
AcDbEntity
  8
0
 62
     3
100
AcDbLine
 10
68.61527032609997
 20
152.5415742294
 30
0.0
 11
63.11527032609999
 21
152.5415742294
 31
0.0
  0
LINE
  5
1CF
330
2
100
AcDbEntity
  8
0
 62
     3
100
AcDbLine
 10
63.11527032609999
 20
152.5415742294
 30
0.0
 11
63.11527032609999
 21
147.9415833845999
 31
0.0
  0
LINE
  5
1D0
330
2
100
AcDbEntity
  8
0
 62
     3
100
AcDbLine
 10
68.61527032609997
 20
152.5415742294
 30
0.0
 11
68.61527032609997
 21
147.9415833845999
 31
0.0
  0
LINE
  5
1D1
330
2
100
AcDbEntity
  8
0
 62
     3
100
AcDbLine
 10
68.66245981939997
 20
162.9415833846
 30
0.0
 11
67.45915600459998
 21
165.3603209045999
 31
0.0
  0
LINE
  5
1D2
330
2
100
AcDbEntity
  8
0
 62
     3
100
AcDbLine
 10
66.92197355969998
 20
165.0930910655
 30
0.0
 11
64.74883533839997
 21
166.9471265372999
 31
0.0
  0
LINE
  5
1D3
330
2
100
AcDbEntity
  8
0
 62
     3
100
AcDbLine
 10
67.45915600459998
 20
165.3603209045999
 30
0.0
 11
66.9219701641
 21
165.0930749691999
 31
0.0
  0
LINE
  5
1D4
330
2
100
AcDbEntity
  8
0
 62
     3
100
AcDbLine
 10
67.99232112599998
 20
162.9415833846
 30
0.0
 11
66.9219701641
 21
165.0930749691999
 31
0.0
  0
LINE
  5
1D5
330
2
100
AcDbEntity
  8
0
 62
     3
100
AcDbLine
 10
70.68232569379998
 20
166.9638237033
 30
0.0
 11
70.14512619179999
 21
166.6965709713998
 31
0.0
  0
ARC
  5
1D6
330
2
100
AcDbEntity
  8
0
 62
     3
100
AcDbCircle
 10
67.02048272849999
 20
169.6097504988999
 30
0.0
 40
2.5
100
AcDbArc
 50
216.2362658966
 51
143.7637341033999
  0
ARC
  5
1D7
330
2
100
AcDbEntity
  8
0
 62
     3
100
AcDbCircle
 10
67.02048272849999
 20
169.6097504988999
 30
0.0
 40
1.799999237099997
100
AcDbArc
 50
22.1807524617
 51
82.81921289420003
  0
ARC
  5
1D8
330
2
100
AcDbEntity
  8
0
 62
     3
100
AcDbCircle
 10
67.02048272849999
 20
169.6097504988999
 30
0.0
 40
1.799999237099997
100
AcDbArc
 50
277.1807871057998
 51
337.8192441232
  0
CIRCLE
  5
1D9
330
2
100
AcDbEntity
  8
0
 62
     3
100
AcDbCircle
 10
67.02048272849999
 20
169.6097504988999
 30
0.0
 40
1.399999618499998
  0
CIRCLE
  5
1DA
330
2
100
AcDbEntity
  8
0
 62
     3
100
AcDbCircle
 10
67.02048272849999
 20
169.6097504988999
 30
0.0
 40
1.5
  0
LINE
  5
1DB
330
2
100
AcDbEntity
  8
0
 62
     3
100
AcDbLine
 10
65.11357239559996
 20
168.4433840676
 30
0.0
 11
65.85831216299999
 21
168.6429364884999
 31
0.0
  0
LINE
  5
1DC
330
2
100
AcDbEntity
  8
0
 62
     3
100
AcDbLine
 10
65.1135587789
 20
170.7761508294
 30
0.0
 11
65.8831335223
 21
170.5699438966999
 31
0.0
  0
ARC
  5
1DD
330
2
100
AcDbEntity
  8
0
 62
     3
100
AcDbCircle
 10
65.16533441299997
 20
170.9693086044
 30
0.0
 40
0.1999999881
100
AcDbArc
 50
143.7637341033999
 51
254.9999763602
  0
ARC
  5
1DE
330
2
100
AcDbEntity
  8
0
 62
     3
100
AcDbCircle
 10
65.16533441299997
 20
168.2501923933999
 30
0.0
 40
0.1999999881
100
AcDbArc
 50
105.0000063369999
 51
216.2362485938
  0
LINE
  5
1DF
330
2
100
AcDbEntity
  8
0
 62
     3
100
AcDbLine
 10
67.02048272849999
 20
171.1201875106
 30
0.0
 11
67.02048272849999
 21
171.1972138777999
 31
0.0
  0
LINE
  5
1E0
330
2
100
AcDbEntity
  8
0
 62
     3
100
AcDbLine
 10
67.02048272849999
 20
168.0222871199999
 30
0.0
 11
67.02048272849999
 21
168.1016023055
 31
0.0
  0
ARC
  5
1E1
330
2
100
AcDbEntity
  8
0
 62
     3
100
AcDbCircle
 10
67.2204796767
 20
168.0222871199999
 30
0.0
 40
0.1999999881
100
AcDbArc
 50
179.9999640277999
 51
277.1807151615
  0
ARC
  5
1E2
330
2
100
AcDbEntity
  8
0
 62
     3
100
AcDbCircle
 10
67.2204796767
 20
171.1972138777999
 30
0.0
 40
0.1999999881
100
AcDbArc
 50
82.81921289420003
 51
179.9999640277999
  0
LINE
  5
1E3
330
2
100
AcDbEntity
  8
0
 62
     3
100
AcDbLine
 10
68.47305730279997
 20
169.2205558588999
 30
0.0
 11
68.55384098469996
 21
169.1989099363999
 31
0.0
  0
LINE
  5
1E4
330
2
100
AcDbEntity
  8
0
 62
     3
100
AcDbLine
 10
68.45526637879999
 20
169.9942083256999
 30
0.0
 11
68.55385460149998
 21
170.0206249605997
 31
0.0
  0
ARC
  5
1E5
330
2
100
AcDbEntity
  8
0
 62
     3
100
AcDbCircle
 10
68.50208062879997
 20
169.0057160750999
 30
0.0
 40
0.1999999881
100
AcDbArc
 50
337.8192441232
 51
74.99995769080006
  0
ARC
  5
1E6
330
2
100
AcDbEntity
  8
0
 62
     3
100
AcDbCircle
 10
68.50208062879997
 20
170.2137849227
 30
0.0
 40
0.1999999881
100
AcDbArc
 50
285.0000423092
 51
22.18075246169996
  0
LINE
  5
1E7
330
2
100
AcDbEntity
  8
0
  6
CENTER
 62
     3
100
AcDbLine
 10
74.81526274409998
 20
153.9415713798
 30
0.0
 11
85.29938746419999
 21
172.1372607004
 31
0.0
  0
LINE
  5
1E8
330
2
100
AcDbEntity
  8
0
  6
CENTER
 62
     3
100
AcDbLine
 10
74.81526727439998
 20
177.2007281383
 30
0.0
 11
74.81526727439998
 21
148.816705455
 31
0.0
  0
LINE
  5
1E9
330
2
100
AcDbEntity
  8
0
 62
     3
100
AcDbLine
 10
85.06526727439998
 20
162.4415833846
 30
0.0
 11
85.06526727439998
 21
158.4415681257999
 31
0.0
  0
ARC
  5
1EA
330
2
100
AcDbEntity
  8
0
 62
     3
100
AcDbCircle
 10
84.56526727439998
 20
162.4415681257999
 30
0.0
 40
0.5
100
AcDbArc
 50
0.0
 51
89.99998201389999
  0
ARC
  5
1EB
330
2
100
AcDbEntity
  8
0
 62
     3
100
AcDbCircle
 10
84.56526727439998
 20
162.4415833846
 30
0.0
 40
0.5
100
AcDbArc
 50
0.0
 51
89.99998201389999
  0
POINT
  5
1EC
330
2
100
AcDbEntity
  8
0
 62
     3
100
AcDbPoint
 10
85.06526727439998
 20
162.9415833846
 30
0.0
  0
LINE
  5
1ED
330
2
100
AcDbEntity
  8
0
 62
     3
100
AcDbLine
 10
83.2652794814
 20
213.7173913043
 30
0.0
 11
70.39528436419998
 21
213.7173913043
 31
0.0
  0
LINE
  5
1EE
330
2
100
AcDbEntity
  8
0
 62
     3
100
AcDbLine
 10
67.9718529677
 20
218.0174096148999
 30
0.0
 11
81.65872735739998
 21
218.0174096148999
 31
0.0
  0
LINE
  5
1EF
330
2
100
AcDbEntity
  8
0
 62
     3
100
AcDbLine
 10
70.68233270399995
 20
223.6173852008
 30
0.0
 11
74.19200677629998
 21
223.6173852008
 31
0.0
  0
LINE
  5
1F0
330
2
100
AcDbEntity
  8
0
 62
     3
100
AcDbLine
 10
70.68233270399995
 20
218.8173974079
 30
0.0
 11
74.19200677629998
 21
218.8173974079
 31
0.0
  0
LINE
  5
1F1
330
2
100
AcDbEntity
  8
0
 62
     3
100
AcDbLine
 10
63.52049798719996
 20
224.2173913043
 30
0.0
 11
79.8479363417
 21
224.2173913043
 31
0.0
  0
LINE
  5
1F2
330
2
100
AcDbEntity
  8
0
 62
     3
100
AcDbLine
 10
63.52049798719996
 20
218.2173913043
 30
0.0
 11
79.87196893449999
 21
218.2173913043
 31
0.0
  0
LINE
  5
1F3
330
2
100
AcDbEntity
  8
0
 62
     3
100
AcDbLine
 10
83.2652794814
 20
228.7173913042999
 30
0.0
 11
66.36528558489999
 21
228.7173913042999
 31
0.0
  0
LINE
  5
1F4
330
2
100
AcDbEntity
  8
0
 62
     3
100
AcDbLine
 10
69.51637811419999
 20
224.4174035113999
 30
0.0
 11
81.65872735739998
 21
224.4174035113999
 31
0.0
  0
LINE
  5
1F5
330
2
100
AcDbEntity
  8
0
 62
     3
100
AcDbLine
 10
83.2652794814
 20
194.7173913043
 30
0.0
 11
66.36528558489999
 21
194.7173913043
 31
0.0
  0
LINE
  5
1F6
330
2
100
AcDbEntity
  8
0
 62
     3
100
AcDbLine
 10
69.5410668349
 20
199.0174096148998
 30
0.0
 11
81.65872735739998
 21
199.0174096148998
 31
0.0
  0
LINE
  5
1F7
330
2
100
AcDbEntity
  8
0
 62
     3
100
AcDbLine
 10
70.68233270399995
 20
204.6173852008
 30
0.0
 11
74.19200677629998
 21
204.6173852008
 31
0.0
  0
LINE
  5
1F8
330
2
100
AcDbEntity
  8
0
 62
     3
100
AcDbLine
 10
70.68233270399995
 20
199.8173974079
 30
0.0
 11
74.19200677629998
 21
199.8173974079
 31
0.0
  0
LINE
  5
1F9
330
2
100
AcDbEntity
  8
0
 62
     3
100
AcDbLine
 10
63.52049798719996
 20
205.2173913043
 30
0.0
 11
79.8479363417
 21
205.2173913043
 31
0.0
  0
LINE
  5
1FA
330
2
100
AcDbEntity
  8
0
 62
     3
100
AcDbLine
 10
63.52049798719996
 20
199.2173913043
 30
0.0
 11
79.87196893449999
 21
199.2173913043
 31
0.0
  0
LINE
  5
1FB
330
2
100
AcDbEntity
  8
0
 62
     3
100
AcDbLine
 10
83.2652794814
 20
209.7173913043
 30
0.0
 11
70.4331719374
 21
209.7173913043
 31
0.0
  0
LINE
  5
1FC
330
2
100
AcDbEntity
  8
0
 62
     3
100
AcDbLine
 10
67.97183770889997
 20
205.4174035113999
 30
0.0
 11
81.65872735739998
 21
205.4174035113999
 31
0.0
  0
LINE
  5
1FD
330
2
100
AcDbEntity
  8
0
 62
     3
100
AcDbLine
 10
70.42049188369998
 20
218.0174096148999
 30
0.0
 11
70.42049188369998
 21
205.4173729937998
 31
0.0
  0
LINE
  5
1FE
330
2
100
AcDbEntity
  8
0
 62
     3
100
AcDbLine
 10
63.62048883199998
 20
218.0174096148999
 30
0.0
 11
63.62048883199998
 21
205.4173729937998
 31
0.0
  0
LINE
  5
1FF
330
2
100
AcDbEntity
  8
0
 62
     3
100
AcDbLine
 10
69.52049798719996
 20
199.1673729938
 30
0.0
 11
64.52049798719996
 21
199.1673729938
 31
0.0
  0
LINE
  5
200
330
2
100
AcDbEntity
  8
0
 62
     3
100
AcDbLine
 10
69.52049798719996
 20
198.7674096149
 30
0.0
 11
64.52049798719996
 21
198.7674096149
 31
0.0
  0
LINE
  5
201
330
2
100
AcDbEntity
  8
0
 62
     3
100
AcDbLine
 10
70.42049188369998
 20
205.4173729937998
 30
0.0
 11
63.62048883199998
 21
205.4173729937998
 31
0.0
  0
LINE
  5
202
330
2
100
AcDbEntity
  8
0
 62
     3
100
AcDbLine
 10
63.52049798719996
 20
205.2173913043
 30
0.0
 11
63.52049798719996
 21
199.2173913043
 31
0.0
  0
LINE
  5
203
330
2
100
AcDbEntity
  8
0
 62
     3
100
AcDbLine
 10
64.52049798719996
 20
199.1673729938
 30
0.0
 11
64.52049798719996
 21
198.7674096149
 31
0.0
  0
LINE
  5
204
330
2
100
AcDbEntity
  8
0
 62
     3
100
AcDbLine
 10
70.68233270399995
 20
205.2173913043
 30
0.0
 11
70.68233270399995
 21
199.2173913043
 31
0.0
  0
LINE
  5
205
330
2
100
AcDbEntity
  8
0
 62
     3
100
AcDbLine
 10
68.52049798719995
 20
199.2173913043
 30
0.0
 11
65.52049798719996
 21
199.2173913043
 31
0.0
  0
LINE
  5
206
330
2
100
AcDbEntity
  8
0
 62
     3
100
AcDbLine
 10
68.52049798719995
 20
197.8173974079
 30
0.0
 11
65.52049798719996
 21
197.8173974079
 31
0.0
  0
LINE
  5
207
330
2
100
AcDbEntity
  8
0
 62
     3
100
AcDbLine
 10
68.42049188369998
 20
197.7173913043
 30
0.0
 11
65.62048883199998
 21
197.7173913043
 31
0.0
  0
LINE
  5
208
330
2
100
AcDbEntity
  8
0
 62
     3
100
AcDbLine
 10
68.52049798719995
 20
198.7173913043
 30
0.0
 11
65.52049798719996
 21
198.7173913043
 31
0.0
  0
LINE
  5
209
330
2
100
AcDbEntity
  8
0
 62
     3
100
AcDbLine
 10
66.36528558489999
 20
194.7173913043
 30
0.0
 11
66.36528558489999
 21
197.7185357135
 31
0.0
  0
LINE
  5
20A
330
2
100
AcDbEntity
  8
0
 62
     3
100
AcDbLine
 10
65.36528558489999
 20
194.7173913043
 30
0.0
 11
65.36528558489999
 21
198.7705529254
 31
0.0
  0
LINE
  5
20B
330
2
100
AcDbEntity
  8
0
 62
     3
100
AcDbLine
 10
65.36528558489999
 20
199.1685326618
 30
0.0
 11
65.36528558489999
 21
199.2162926715
 31
0.0
  0
LINE
  5
20C
330
2
100
AcDbEntity
  8
0
 62
     3
100
AcDbLine
 10
66.02049798719995
 20
198.7674096149
 30
0.0
 11
66.02049798719995
 21
198.7223046343999
 31
0.0
  0
LINE
  5
20D
330
2
100
AcDbEntity
  8
0
 62
     3
100
AcDbLine
 10
65.6204887191
 20
197.7174288479
 30
0.0
 11
65.52049077079999
 21
197.8174268045
 31
0.0
  0
LINE
  5
20E
330
2
100
AcDbEntity
  8
0
 62
     3
100
AcDbLine
 10
65.52049798719996
 20
198.7173913043
 30
0.0
 11
65.52049798719996
 21
197.8173974079
 31
0.0
  0
LINE
  5
20F
330
2
100
AcDbEntity
  8
0
 62
     3
100
AcDbLine
 10
66.02049798719995
 20
199.2199547809
 30
0.0
 11
66.02049798719995
 21
199.1673729938
 31
0.0
  0
LINE
  5
210
330
2
100
AcDbEntity
  8
0
 62
     3
100
AcDbLine
 10
68.02049798719996
 20
199.2199547809
 30
0.0
 11
68.02049798719996
 21
199.1673729938
 31
0.0
  0
LINE
  5
211
330
2
100
AcDbEntity
  8
0
 62
     3
100
AcDbLine
 10
68.02049798719996
 20
198.7674096149
 30
0.0
 11
68.02049798719996
 21
198.7129357379
 31
0.0
  0
LINE
  5
212
330
2
100
AcDbEntity
  8
0
 62
     3
100
AcDbLine
 10
69.52049798719996
 20
199.1673729938
 30
0.0
 11
69.52049798719996
 21
198.7674096149
 31
0.0
  0
LINE
  5
213
330
2
100
AcDbEntity
  8
0
 62
     3
100
AcDbLine
 10
68.52048329249999
 20
197.8174158885
 30
0.0
 11
68.42048533579998
 21
197.7174179401998
 31
0.0
  0
LINE
  5
214
330
2
100
AcDbEntity
  8
0
 62
     3
100
AcDbLine
 10
68.52049798719995
 20
198.7173913043
 30
0.0
 11
68.52049798719995
 21
197.8173974079
 31
0.0
  0
LINE
  5
215
330
2
100
AcDbEntity
  8
0
 62
     3
100
AcDbLine
 10
69.7715966201
 20
199.0224755329
 30
0.0
 11
69.7715966201
 21
199.2155297320999
 31
0.0
  0
LINE
  5
216
330
2
100
AcDbEntity
  8
0
 62
     3
100
AcDbLine
 10
65.52049798719996
 20
205.4173729937998
 30
0.0
 11
65.52049798719996
 21
205.2173913043
 31
0.0
  0
LINE
  5
217
330
2
100
AcDbEntity
  8
0
 62
     3
100
AcDbLine
 10
65.36528558489999
 20
205.4229882281999
 30
0.0
 11
65.36528558489999
 21
205.2050011676
 31
0.0
  0
LINE
  5
218
330
2
100
AcDbEntity
  8
0
 62
     3
100
AcDbLine
 10
68.52049798719995
 20
205.4173729937998
 30
0.0
 11
68.52049798719995
 21
205.2173913043
 31
0.0
  0
LINE
  5
219
330
2
100
AcDbEntity
  8
0
 62
     3
100
AcDbLine
 10
69.7715966201
 20
205.4112084429998
 30
0.0
 11
69.7715966201
 21
205.2168419879
 31
0.0
  0
LINE
  5
21A
330
2
100
AcDbEntity
  8
0
 62
     3
100
AcDbLine
 10
69.52049798719996
 20
224.6673729938
 30
0.0
 11
64.52049798719996
 21
224.6673729938
 31
0.0
  0
LINE
  5
21B
330
2
100
AcDbEntity
  8
0
 62
     3
100
AcDbLine
 10
69.52049798719996
 20
224.2674096148999
 30
0.0
 11
64.52049798719996
 21
224.2674096148999
 31
0.0
  0
LINE
  5
21C
330
2
100
AcDbEntity
  8
0
 62
     3
100
AcDbLine
 10
70.42049188369998
 20
218.0174096148999
 30
0.0
 11
63.62048883199998
 21
218.0174096148999
 31
0.0
  0
LINE
  5
21D
330
2
100
AcDbEntity
  8
0
 62
     3
100
AcDbLine
 10
64.52049798719996
 20
224.6673729938
 30
0.0
 11
64.52049798719996
 21
224.2674096148999
 31
0.0
  0
LINE
  5
21E
330
2
100
AcDbEntity
  8
0
 62
     3
100
AcDbLine
 10
63.52049798719996
 20
224.2173913043
 30
0.0
 11
63.52049798719996
 21
218.2173913043
 31
0.0
  0
LINE
  5
21F
330
2
100
AcDbEntity
  8
0
 62
     3
100
AcDbLine
 10
69.52049798719996
 20
224.6673729938
 30
0.0
 11
69.52049798719996
 21
224.2674096148999
 31
0.0
  0
LINE
  5
220
330
2
100
AcDbEntity
  8
0
 62
     3
100
AcDbLine
 10
68.52049798719995
 20
224.2173913043
 30
0.0
 11
65.52049798719996
 21
224.2173913043
 31
0.0
  0
LINE
  5
221
330
2
100
AcDbEntity
  8
0
 62
     3
100
AcDbLine
 10
65.52049798719996
 20
218.2173913043
 30
0.0
 11
65.52049798719996
 21
218.0174096148999
 31
0.0
  0
LINE
  5
222
330
2
100
AcDbEntity
  8
0
 62
     3
100
AcDbLine
 10
65.36528558489999
 20
218.0136864704
 30
0.0
 11
65.36528558489999
 21
218.2180169147
 31
0.0
  0
LINE
  5
223
330
2
100
AcDbEntity
  8
0
 62
     3
100
AcDbLine
 10
65.36528558489999
 20
224.2730401081
 30
0.0
 11
65.36528558489999
 21
224.2050011676
 31
0.0
  0
LINE
  5
224
330
2
100
AcDbEntity
  8
0
 62
     3
100
AcDbLine
 10
66.02049798719995
 20
224.2674096148999
 30
0.0
 11
66.02049798719995
 21
224.2173913043
 31
0.0
  0
LINE
  5
225
330
2
100
AcDbEntity
  8
0
 62
     3
100
AcDbLine
 10
68.02049798719996
 20
224.2674096148999
 30
0.0
 11
68.02049798719996
 21
224.2275536579
 31
0.0
  0
LINE
  5
226
330
2
100
AcDbEntity
  8
0
 62
     3
100
AcDbLine
 10
70.68233270399995
 20
224.2173913043
 30
0.0
 11
70.68233270399995
 21
218.2173913043
 31
0.0
  0
LINE
  5
227
330
2
100
AcDbEntity
  8
0
 62
     3
100
AcDbLine
 10
68.52049798719995
 20
218.2173913043
 30
0.0
 11
68.52049798719995
 21
218.0174096148999
 31
0.0
  0
LINE
  5
228
330
2
100
AcDbEntity
  8
0
 62
     3
100
AcDbLine
 10
69.7715966201
 20
218.0224755329
 30
0.0
 11
69.7715966201
 21
218.2155297320999
 31
0.0
  0
LINE
  5
229
330
2
100
AcDbEntity
  8
0
 62
     3
100
AcDbLine
 10
69.7715966201
 20
224.4112084429999
 30
0.0
 11
69.7715966201
 21
224.2168419878999
 31
0.0
  0
LINE
  5
22A
330
2
100
AcDbEntity
  8
0
 62
     3
100
AcDbLine
 10
68.42049188369998
 20
225.7173913043
 30
0.0
 11
65.62048883199998
 21
225.7173913043
 31
0.0
  0
LINE
  5
22B
330
2
100
AcDbEntity
  8
0
 62
     3
100
AcDbLine
 10
68.52049798719995
 20
224.7173913042999
 30
0.0
 11
65.52049798719996
 21
224.7173913042999
 31
0.0
  0
LINE
  5
22C
330
2
100
AcDbEntity
  8
0
 62
     3
100
AcDbLine
 10
68.52049798719995
 20
225.6173852008
 30
0.0
 11
65.52049798719996
 21
225.6173852008
 31
0.0
  0
LINE
  5
22D
330
2
100
AcDbEntity
  8
0
 62
     3
100
AcDbLine
 10
66.02049798719995
 20
224.7173913042999
 30
0.0
 11
66.02049798719995
 21
224.6673729938
 31
0.0
  0
LINE
  5
22E
330
2
100
AcDbEntity
  8
0
 62
     3
100
AcDbLine
 10
65.62055640359996
 20
225.717361068
 30
0.0
 11
65.52055845529998
 21
225.6173631113999
 31
0.0
  0
LINE
  5
22F
330
2
100
AcDbEntity
  8
0
 62
     3
100
AcDbLine
 10
65.52049798719996
 20
225.6173852008
 30
0.0
 11
65.52049798719996
 21
224.7173913042999
 31
0.0
  0
LINE
  5
230
330
2
100
AcDbEntity
  8
0
 62
     3
100
AcDbLine
 10
65.36528558489999
 20
228.7173913042999
 30
0.0
 11
65.36528558489999
 21
224.671553902
 31
0.0
  0
LINE
  5
231
330
2
100
AcDbEntity
  8
0
 62
     3
100
AcDbLine
 10
66.36528558489999
 20
228.7173913042999
 30
0.0
 11
66.36528558489999
 21
225.7243340533999
 31
0.0
  0
LINE
  5
232
330
2
100
AcDbEntity
  8
0
 62
     3
100
AcDbLine
 10
68.02049798719996
 20
224.7165673297
 30
0.0
 11
68.02049798719996
 21
224.6673729938
 31
0.0
  0
LINE
  5
233
330
2
100
AcDbEntity
  8
0
 62
     3
100
AcDbLine
 10
68.52049798719995
 20
225.6173852008
 30
0.0
 11
68.52049798719995
 21
224.7173913042999
 31
0.0
  0
LINE
  5
234
330
2
100
AcDbEntity
  8
0
 62
     3
100
AcDbLine
 10
68.52056176649998
 20
225.6173416585999
 30
0.0
 11
68.42060696819999
 21
225.7172964485
 31
0.0
  0
LINE
  5
235
330
2
100
AcDbEntity
  8
0
 62
     3
100
AcDbLine
 10
85.06528253309999
 20
230.5174096148999
 30
0.0
 11
85.06528253309999
 21
211.9174035113999
 31
0.0
  0
LINE
  5
236
330
2
100
AcDbEntity
  8
0
 62
     3
100
AcDbLine
 10
78.93987054580001
 20
204.7173913043
 30
0.0
 11
78.93987054580001
 21
199.7173913043
 31
0.0
  0
LINE
  5
237
330
2
100
AcDbEntity
  8
0
 62
     3
100
AcDbLine
 10
74.19200677629998
 20
204.6173852008
 30
0.0
 11
74.19200677629998
 21
199.8173974079
 31
0.0
  0
LINE
  5
238
330
2
100
AcDbEntity
  8
0
 62
     3
100
AcDbLine
 10
75.19966668839998
 20
204.7173913043
 30
0.0
 11
75.19966668839998
 21
199.7173913043
 31
0.0
  0
LINE
  5
239
330
2
100
AcDbEntity
  8
0
 62
     3
100
AcDbLine
 10
73.57063604889998
 20
199.2173947433
 30
0.0
 11
74.19200697269997
 21
199.817391392
 31
0.0
  0
CIRCLE
  5
23A
330
2
100
AcDbEntity
  8
0
 62
     3
100
AcDbCircle
 10
78.0697533583
 20
200.2674096149
 30
0.0
 40
0.6999999881
  0
CIRCLE
  5
23B
330
2
100
AcDbEntity
  8
0
 62
     3
100
AcDbCircle
 10
78.0697533583
 20
200.2674096149
 30
0.0
 40
0.5
  0
LINE
  5
23C
330
2
100
AcDbEntity
  8
0
 62
     3
100
AcDbLine
 10
77.5697533583
 20
200.2674096149
 30
0.0
 11
77.3697716689
 21
200.2674096149
 31
0.0
  0
LINE
  5
23D
330
2
100
AcDbEntity
  8
0
 62
     3
100
AcDbLine
 10
78.76976556539998
 20
200.2674096149
 30
0.0
 11
78.5697533583
 21
200.2674096149
 31
0.0
  0
LINE
  5
23E
330
2
100
AcDbEntity
  8
0
 62
     3
100
AcDbLine
 10
73.57062727379997
 20
205.2173972786
 30
0.0
 11
74.19199819759999
 21
204.6174006299
 31
0.0
  0
LINE
  5
23F
330
2
100
AcDbEntity
  8
0
 62
     3
100
AcDbLine
 10
81.65872735739998
 20
205.4174035113999
 30
0.0
 11
81.65872735739998
 21
199.0174096148998
 31
0.0
  0
LINE
  5
240
330
2
100
AcDbEntity
  8
0
 62
     3
100
AcDbLine
 10
79.85896844619998
 20
205.3768456500999
 30
0.0
 11
79.85896844619998
 21
199.0229943316998
 31
0.0
  0
LINE
  5
241
330
2
100
AcDbEntity
  8
0
 62
     3
100
AcDbLine
 10
85.06528253309999
 20
211.5174096148999
 30
0.0
 11
85.06528253309999
 21
192.9174035113999
 31
0.0
  0
LINE
  5
242
330
2
100
AcDbEntity
  8
0
 62
     3
100
AcDbLine
 10
83.2652794814
 20
209.7173913043
 30
0.0
 11
83.2652794814
 21
194.7173913043
 31
0.0
  0
ARC
  5
243
330
2
100
AcDbEntity
  8
0
 62
     3
100
AcDbCircle
 10
84.86528558489998
 20
192.9174035113999
 30
0.0
 40
0.1999999881
100
AcDbArc
 50
270.0000179861
 51
0.0
  0
ARC
  5
244
330
2
100
AcDbEntity
  8
0
 62
     3
100
AcDbCircle
 10
84.86528558489998
 20
211.5174096148999
 30
0.0
 40
0.1999999881
100
AcDbArc
 50
0.0
 51
89.99998201389999
  0
ARC
  5
245
330
2
100
AcDbEntity
  8
0
 62
     3
100
AcDbCircle
 10
84.86528558489998
 20
211.9174035113999
 30
0.0
 40
0.1999999881
100
AcDbArc
 50
270.0000179861
 51
0.0
  0
LINE
  5
246
330
2
100
AcDbEntity
  8
0
 62
     3
100
AcDbLine
 10
75.19966668839998
 20
223.7173913043
 30
0.0
 11
75.19966668839998
 21
218.7173913043
 31
0.0
  0
LINE
  5
247
330
2
100
AcDbEntity
  8
0
 62
     3
100
AcDbLine
 10
73.57064067609996
 20
218.2173460279
 30
0.0
 11
74.19201159989999
 21
218.8173426766998
 31
0.0
  0
LINE
  5
248
330
2
100
AcDbEntity
  8
0
 62
     3
100
AcDbLine
 10
73.57063249049997
 20
224.2174026918
 30
0.0
 11
74.19200341439999
 21
223.6174060429998
 31
0.0
  0
LINE
  5
249
330
2
100
AcDbEntity
  8
0
 62
     3
100
AcDbLine
 10
74.19200677629998
 20
223.6173852008
 30
0.0
 11
74.19200677629998
 21
218.8173974079
 31
0.0
  0
LINE
  5
24A
330
2
100
AcDbEntity
  8
0
 62
     3
100
AcDbLine
 10
78.93987054580001
 20
223.7173913043
 30
0.0
 11
78.93987054580001
 21
218.7173913043
 31
0.0
  0
CIRCLE
  5
24B
330
2
100
AcDbEntity
  8
0
 62
     3
100
AcDbCircle
 10
78.0697533583
 20
219.2674096149
 30
0.0
 40
0.6999999881
  0
CIRCLE
  5
24C
330
2
100
AcDbEntity
  8
0
 62
     3
100
AcDbCircle
 10
78.0697533583
 20
219.2674096149
 30
0.0
 40
0.5
  0
LINE
  5
24D
330
2
100
AcDbEntity
  8
0
 62
     3
100
AcDbLine
 10
77.5697533583
 20
219.2674096149
 30
0.0
 11
77.3697716689
 21
219.2674096149
 31
0.0
  0
LINE
  5
24E
330
2
100
AcDbEntity
  8
0
 62
     3
100
AcDbLine
 10
78.76976556539998
 20
219.2674096149
 30
0.0
 11
78.5697533583
 21
219.2674096149
 31
0.0
  0
LINE
  5
24F
330
2
100
AcDbEntity
  8
0
 62
     3
100
AcDbLine
 10
83.2652794814
 20
228.7173913042999
 30
0.0
 11
83.2652794814
 21
213.7173913043
 31
0.0
  0
LINE
  5
250
330
2
100
AcDbEntity
  8
0
 62
     3
100
AcDbLine
 10
81.65872735739998
 20
224.4174035113999
 30
0.0
 11
81.65872735739998
 21
218.0174096148999
 31
0.0
  0
LINE
  5
251
330
2
100
AcDbEntity
  8
0
 62
     3
100
AcDbLine
 10
79.85896844619998
 20
224.3768456500998
 30
0.0
 11
79.85896844619998
 21
218.0229943316998
 31
0.0
  0
ARC
  5
252
330
2
100
AcDbEntity
  8
0
 62
     3
100
AcDbCircle
 10
84.86528558489998
 20
230.5174096148999
 30
0.0
 40
0.1999999881
100
AcDbArc
 50
0.0
 51
89.99998201389999
  0
ARC
  5
253
330
2
100
AcDbEntity
  8
0
 62
     3
100
AcDbCircle
 10
93.31526727439998
 20
157.4415681257999
 30
0.0
 40
1.0
100
AcDbArc
 50
0.0
 51
89.99998201389999
  0
ARC
  5
254
330
2
100
AcDbEntity
  8
0
 62
     3
100
AcDbCircle
 10
93.31526727439998
 20
157.4415833845999
 30
0.0
 40
1.0
100
AcDbArc
 50
0.0
 51
89.99998201389999
  0
ARC
  5
255
330
2
100
AcDbEntity
  8
0
 62
     3
100
AcDbCircle
 10
94.31526727439999
 20
157.4415681257999
 30
0.0
 40
1.0
100
AcDbArc
 50
0.0
 51
89.99992737239997
  0
ARC
  5
256
330
2
100
AcDbEntity
  8
0
 62
     3
100
AcDbCircle
 10
94.31526727439999
 20
157.4415833845999
 30
0.0
 40
1.0
100
AcDbArc
 50
0.0
 51
89.99998201389999
  0
LINE
  5
257
330
2
100
AcDbEntity
  8
0
 62
     3
100
AcDbLine
 10
94.32941217179999
 20
154.4415833845999
 30
0.0
 11
95.31476373429994
 21
154.4415833845999
 31
0.0
  0
LINE
  5
258
330
2
100
AcDbEntity
  8
0
 62
     3
100
AcDbLine
 10
94.31526727439999
 20
149.4415681257999
 30
0.0
 11
95.11527032609995
 21
149.4415681257999
 31
0.0
  0
ARC
  5
259
330
2
100
AcDbEntity
  8
0
 62
     3
100
AcDbCircle
 10
94.31526727439999
 20
144.2415864363999
 30
0.0
 40
1.0
100
AcDbArc
 50
0.0
 51
89.99998201389999
  0
LINE
  5
25A
330
2
100
AcDbEntity
  8
0
 62
     3
100
AcDbLine
 10
95.11527032609995
 20
149.4415833846
 30
0.0
 11
94.31526727439999
 21
149.4415833846
 31
0.0
  0
LINE
  5
25B
330
2
100
AcDbEntity
  8
0
 62
     3
100
AcDbLine
 10
94.31526727439999
 20
157.4415681257999
 30
0.0
 11
94.31526727439999
 21
145.2415864363999
 31
0.0
  0
LINE
  5
25C
330
2
100
AcDbEntity
  8
0
  6
CENTER
 62
     3
100
AcDbLine
 10
90.41527337789998
 20
162.2414185897
 30
0.0
 11
90.41527337789998
 21
150.5415742293999
 31
0.0
  0
CIRCLE
  5
25D
330
2
100
AcDbEntity
  8
0
 62
     3
100
AcDbCircle
 10
90.41527337789998
 20
153.0415742294
 30
0.0
 40
1.1999998093
  0
CIRCLE
  5
25E
330
2
100
AcDbEntity
  8
0
 62
     3
100
AcDbCircle
 10
90.41527337789998
 20
153.0415742294
 30
0.0
 40
2.024999618499998
  0
LINE
  5
25F
330
2
100
AcDbEntity
  8
0
  6
CENTER
 62
     3
100
AcDbLine
 10
92.91527337789998
 20
153.0415742294
 30
0.0
 11
87.91527337789998
 21
153.0415742294
 31
0.0
  0
ARC
  5
260
330
2
100
AcDbEntity
  8
0
  6
PHANTOM
 62
     3
100
AcDbCircle
 10
90.41527337789998
 20
155.3248994247
 30
0.0
 40
5.8333330154
100
AcDbArc
 50
74.13285151530002
 51
105.8671125125
  0
ARC
  5
261
330
2
100
AcDbEntity
  8
0
  6
PHANTOM
 62
     3
100
AcDbCircle
 10
89.07100457899998
 20
160.0542390243
 30
0.0
 40
0.9166666864999999
100
AcDbArc
 50
105.8671125125
 51
176.9999810198
  0
LINE
  5
262
330
2
100
AcDbEntity
  8
0
  6
PHANTOM
 62
     3
100
AcDbLine
 10
88.15558659889999
 20
160.1022285438999
 30
0.0
 11
88.12358417169999
 21
159.491585859
 31
0.0
  0
ARC
  5
263
330
2
100
AcDbEntity
  8
0
  6
PHANTOM
 62
     3
100
AcDbCircle
 10
91.75951165909998
 20
160.0542390243
 30
0.0
 40
0.9166666864999999
100
AcDbArc
 50
2.9999992297
 51
74.13285151530002
  0
LINE
  5
264
330
2
100
AcDbEntity
  8
0
 62
     3
100
AcDbLine
 10
93.49068231339995
 20
158.4415833845999
 30
0.0
 11
94.31526727439999
 21
158.4415833845999
 31
0.0
  0
LINE
  5
265
330
2
100
AcDbEntity
  8
0
  6
PHANTOM
 62
     3
100
AcDbLine
 10
92.67489098979998
 20
160.1022191745999
 30
0.0
 11
92.70689341699995
 21
159.4915764895999
 31
0.0
  0
LINE
  5
266
330
2
100
AcDbEntity
  8
0
 62
     3
100
AcDbLine
 10
95.31526727440001
 20
157.4841706649
 30
0.0
 11
95.31526727440001
 21
149.6415803329
 31
0.0
  0
ARC
  5
267
330
2
100
AcDbEntity
  8
0
 62
     3
100
AcDbCircle
 10
95.11527032609995
 20
149.6415803329
 30
0.0
 40
0.1999999881
100
AcDbArc
 50
270.0000179861
 51
0.0
  0
POINT
  5
268
330
2
100
AcDbEntity
  8
0
 62
     3
100
AcDbPoint
 10
95.31526727440001
 20
158.4415833845999
 30
0.0
  0
LINE
  5
269
330
2
100
AcDbEntity
  8
0
 62
     3
100
AcDbLine
 10
94.31528253309997
 20
211.9174035113999
 30
0.0
 11
94.31528253309997
 21
217.2173913043
 31
0.0
  0
LINE
  5
26A
330
2
100
AcDbEntity
  8
0
  6
CENTER
 62
     3
100
AcDbLine
 10
90.4152886367
 20
226.2173913043
 30
0.0
 11
90.4152886367
 21
197.1906116628
 31
0.0
  0
LINE
  5
26B
330
2
100
AcDbEntity
  8
0
 62
     3
100
AcDbLine
 10
95.31528253309998
 20
230.5174096148999
 30
0.0
 11
95.31528253309998
 21
211.9174035113999
 31
0.0
  0
LINE
  5
26C
330
2
100
AcDbEntity
  8
0
 62
     3
100
AcDbLine
 10
95.11528558489999
 20
211.7173913043
 30
0.0
 11
94.12090081929994
 21
211.7173913043
 31
0.0
  0
LINE
  5
26D
330
2
100
AcDbEntity
  8
0
 62
     3
100
AcDbLine
 10
94.31528253309997
 20
207.7173913043
 30
0.0
 11
95.11528558489999
 21
207.7173913043
 31
0.0
  0
LINE
  5
26E
330
2
100
AcDbEntity
  8
0
 62
     3
100
AcDbLine
 10
93.41528863669999
 20
202.2173913043
 30
0.0
 11
94.6152855849
 21
202.2173913043
 31
0.0
  0
LINE
  5
26F
330
2
100
AcDbEntity
  8
0
 62
     3
100
AcDbLine
 10
95.31528253309998
 20
202.2173913043
 30
0.0
 11
93.39809198140001
 21
202.2173913043
 31
0.0
  0
LINE
  5
270
330
2
100
AcDbEntity
  8
0
 62
     3
100
AcDbLine
 10
94.31528253309997
 20
206.7173913043
 30
0.0
 11
95.11528558489999
 21
206.7173913043
 31
0.0
  0
LINE
  5
271
330
2
100
AcDbEntity
  8
0
 62
     3
100
AcDbLine
 10
95.11528558489999
 20
198.2173913043
 30
0.0
 11
94.31528253309997
 21
198.2173913043
 31
0.0
  0
LINE
  5
272
330
2
100
AcDbEntity
  8
0
 62
     3
100
AcDbLine
 10
95.11528558489999
 20
197.2173913043
 30
0.0
 11
94.31528253309997
 21
197.2173913043
 31
0.0
  0
LINE
  5
273
330
2
100
AcDbEntity
  8
0
 62
     3
100
AcDbLine
 10
95.11528558489999
 20
192.7173913043
 30
0.0
 11
94.1329705214
 21
192.7173913043
 31
0.0
  0
LINE
  5
274
330
2
100
AcDbEntity
  8
0
 62
     3
100
AcDbLine
 10
93.51529474019995
 20
199.1173852008
 30
0.0
 11
93.51529474019995
 21
202.2173913043
 31
0.0
  0
LINE
  5
275
330
2
100
AcDbEntity
  8
0
 62
     3
100
AcDbLine
 10
93.41528863669999
 20
205.2173913043
 30
0.0
 11
93.41528863669999
 21
199.2173913043
 31
0.0
  0
CIRCLE
  5
276
330
2
100
AcDbEntity
  8
0
 62
     3
100
AcDbCircle
 10
90.4152886367
 20
202.2173913043
 30
0.0
 40
1.229499816899999
  0
LINE
  5
277
330
2
100
AcDbEntity
  8
0
 62
     3
100
AcDbLine
 10
87.4152886367
 20
205.2173913043
 30
0.0
 11
87.4152886367
 21
199.2173913043
 31
0.0
  0
LINE
  5
278
330
2
100
AcDbEntity
  8
0
 62
     3
100
AcDbLine
 10
87.31528253309997
 20
205.3173974079
 30
0.0
 11
87.31528253309997
 21
199.1173852008
 31
0.0
  0
CIRCLE
  5
279
330
2
100
AcDbEntity
  8
0
 62
     3
100
AcDbCircle
 10
90.4152886367
 20
202.2173913043
 30
0.0
 40
1.5
  0
LINE
  5
27A
330
2
100
AcDbEntity
  8
0
 62
     3
100
AcDbLine
 10
87.81528253309998
 20
198.1173852008
 30
0.0
 11
93.01529474019998
 21
198.1173852008
 31
0.0
  0
LINE
  5
27B
330
2
100
AcDbEntity
  8
0
 62
     3
100
AcDbLine
 10
92.9152886367
 20
198.2173913043
 30
0.0
 11
87.9152886367
 21
198.2173913043
 31
0.0
  0
LINE
  5
27C
330
2
100
AcDbEntity
  8
0
 62
     3
100
AcDbLine
 10
87.31528253309997
 20
199.1173852008
 30
0.0
 11
87.81528253309998
 21
199.1173852008
 31
0.0
  0
LINE
  5
27D
330
2
100
AcDbEntity
  8
0
 62
     3
100
AcDbLine
 10
87.81528253309998
 20
198.1173852008
 30
0.0
 11
87.81528253309998
 21
199.2256615679997
 31
0.0
  0
LINE
  5
27E
330
2
100
AcDbEntity
  8
0
 62
     3
100
AcDbLine
 10
87.9152886367
 20
199.2173913043
 30
0.0
 11
87.4152886367
 21
199.2173913043
 31
0.0
  0
LINE
  5
27F
330
2
100
AcDbEntity
  8
0
 62
     3
100
AcDbLine
 10
87.9152886367
 20
199.2173913043
 30
0.0
 11
87.9152886367
 21
198.2173913043
 31
0.0
  0
LINE
  5
280
330
2
100
AcDbEntity
  8
0
 62
     3
100
AcDbLine
 10
94.31528253309997
 20
192.9174035113999
 30
0.0
 11
94.31528253309997
 21
198.2173913043
 31
0.0
  0
ARC
  5
281
330
2
100
AcDbEntity
  8
0
 62
     3
100
AcDbCircle
 10
94.11528558489999
 20
192.9174035113999
 30
0.0
 40
0.1999999881
100
AcDbArc
 50
270.0000179861
 51
0.0
  0
LINE
  5
282
330
2
100
AcDbEntity
  8
0
 62
     3
100
AcDbLine
 10
93.01529474019998
 20
199.1173852008
 30
0.0
 11
93.51529474019995
 21
199.1173852008
 31
0.0
  0
LINE
  5
283
330
2
100
AcDbEntity
  8
0
 62
     3
100
AcDbLine
 10
93.01529474019998
 20
198.1173852008
 30
0.0
 11
93.01529474019998
 21
199.2147362751
 31
0.0
  0
LINE
  5
284
330
2
100
AcDbEntity
  8
0
 62
     3
100
AcDbLine
 10
92.9152886367
 20
199.2173913043
 30
0.0
 11
92.9152886367
 21
198.2173913043
 31
0.0
  0
LINE
  5
285
330
2
100
AcDbEntity
  8
0
 62
     3
100
AcDbLine
 10
93.41528863669999
 20
199.2173913043
 30
0.0
 11
92.9152886367
 21
199.2173913043
 31
0.0
  0
LINE
  5
286
330
2
100
AcDbEntity
  8
0
  6
CENTER
 62
     3
100
AcDbLine
 10
92.4152886367
 20
202.2173913043
 30
0.0
 11
88.41528863669998
 21
202.2173913043
 31
0.0
  0
LINE
  5
287
330
2
100
AcDbEntity
  8
0
 62
     3
100
AcDbLine
 10
92.9152886367
 20
206.2173913042999
 30
0.0
 11
87.9152886367
 21
206.2173913042999
 31
0.0
  0
LINE
  5
288
330
2
100
AcDbEntity
  8
0
 62
     3
100
AcDbLine
 10
87.81528253309998
 20
206.3173974079
 30
0.0
 11
93.0152794814
 21
206.3173974079
 31
0.0
  0
LINE
  5
289
330
2
100
AcDbEntity
  8
0
 62
     3
100
AcDbLine
 10
87.9152886367
 20
205.2173913043
 30
0.0
 11
87.4152886367
 21
205.2173913043
 31
0.0
  0
LINE
  5
28A
330
2
100
AcDbEntity
  8
0
 62
     3
100
AcDbLine
 10
87.9152886367
 20
206.2173913042999
 30
0.0
 11
87.9152886367
 21
205.2173913043
 31
0.0
  0
LINE
  5
28B
330
2
100
AcDbEntity
  8
0
 62
     3
100
AcDbLine
 10
87.31528253309997
 20
205.3173974079
 30
0.0
 11
87.81528253309998
 21
205.3173974079
 31
0.0
  0
LINE
  5
28C
330
2
100
AcDbEntity
  8
0
 62
     3
100
AcDbLine
 10
87.81528253309998
 20
206.3173974079
 30
0.0
 11
87.81528253309998
 21
205.2216942829
 31
0.0
  0
LINE
  5
28D
330
2
100
AcDbEntity
  8
0
 62
     3
100
AcDbLine
 10
89.2652794814
 20
202.6523278277999
 30
0.0
 11
89.2652794814
 21
201.7824547809
 31
0.0
  0
LINE
  5
28E
330
2
100
AcDbEntity
  8
0
 62
     3
100
AcDbLine
 10
94.31528253309997
 20
211.5174096148999
 30
0.0
 11
94.31528253309997
 21
206.7173913043
 31
0.0
  0
LINE
  5
28F
330
2
100
AcDbEntity
  8
0
 62
     3
100
AcDbLine
 10
91.56529779189998
 20
202.6523278277999
 30
0.0
 11
91.56529779189998
 21
201.7824547809
 31
0.0
  0
LINE
  5
290
330
2
100
AcDbEntity
  8
0
 62
     3
100
AcDbLine
 10
93.41528863669999
 20
205.2173913043
 30
0.0
 11
92.9152886367
 21
205.2173913043
 31
0.0
  0
LINE
  5
291
330
2
100
AcDbEntity
  8
0
 62
     3
100
AcDbLine
 10
92.9152886367
 20
206.2173913042999
 30
0.0
 11
92.9152886367
 21
205.2173913043
 31
0.0
  0
LINE
  5
292
330
2
100
AcDbEntity
  8
0
 62
     3
100
AcDbLine
 10
93.0152794814
 20
206.3173974079
 30
0.0
 11
93.0152794814
 21
205.2107995075
 31
0.0
  0
LINE
  5
293
330
2
100
AcDbEntity
  8
0
 62
     3
100
AcDbLine
 10
93.0152794814
 20
205.3173974079
 30
0.0
 11
93.51527948140001
 21
205.3173974079
 31
0.0
  0
LINE
  5
294
330
2
100
AcDbEntity
  8
0
 62
     3
100
AcDbLine
 10
93.51527948140001
 20
205.3173974079
 30
0.0
 11
93.51527948140001
 21
202.2173913043
 31
0.0
  0
ARC
  5
295
330
2
100
AcDbEntity
  8
0
 62
     3
100
AcDbCircle
 10
94.11528558489999
 20
211.5174096148999
 30
0.0
 40
0.1999999881
100
AcDbArc
 50
0.0
 51
89.99998201389999
  0
ARC
  5
296
330
2
100
AcDbEntity
  8
0
 62
     3
100
AcDbCircle
 10
94.11528558489999
 20
211.9174035113999
 30
0.0
 40
0.1999999881
100
AcDbArc
 50
270.0000179861
 51
0.0
  0
LINE
  5
297
330
2
100
AcDbEntity
  8
0
 62
     3
100
AcDbLine
 10
95.31528253309998
 20
211.5174096148999
 30
0.0
 11
95.31528253309998
 21
192.9174035113999
 31
0.0
  0
ARC
  5
298
330
2
100
AcDbEntity
  8
0
 62
     3
100
AcDbCircle
 10
95.11528558489999
 20
192.9174035113999
 30
0.0
 40
0.1999999881
100
AcDbArc
 50
270.0000179861
 51
0.0
  0
ARC
  5
299
330
2
100
AcDbEntity
  8
0
 62
     3
100
AcDbCircle
 10
95.11528558489999
 20
198.4174035113999
 30
0.0
 40
0.1999999881
100
AcDbArc
 50
270.0000179861
 51
0.0
  0
ARC
  5
29A
330
2
100
AcDbEntity
  8
0
 62
     3
100
AcDbCircle
 10
95.11528558489999
 20
197.4174035113999
 30
0.0
 40
0.1999999881
100
AcDbArc
 50
270.0000179861
 51
0.0
  0
ARC
  5
29B
330
2
100
AcDbEntity
  8
0
 62
     3
100
AcDbCircle
 10
95.11528558489999
 20
206.5174096149
 30
0.0
 40
0.1999999881
100
AcDbArc
 50
0.0
 51
89.99992737239997
  0
ARC
  5
29C
330
2
100
AcDbEntity
  8
0
 62
     3
100
AcDbCircle
 10
95.11528558489999
 20
211.5174096148999
 30
0.0
 40
0.1999999881
100
AcDbArc
 50
0.0
 51
89.99998201389999
  0
ARC
  5
29D
330
2
100
AcDbEntity
  8
0
 62
     3
100
AcDbCircle
 10
95.11528558489999
 20
207.5174096148999
 30
0.0
 40
0.1999999881
100
AcDbArc
 50
0.0
 51
89.99992737239997
  0
ARC
  5
29E
330
2
100
AcDbEntity
  8
0
 62
     3
100
AcDbCircle
 10
95.11528558489999
 20
211.9174035113999
 30
0.0
 40
0.1999999881
100
AcDbArc
 50
270.0000179861
 51
0.0
  0
LINE
  5
29F
330
2
100
AcDbEntity
  8
0
 62
     3
100
AcDbLine
 10
95.11528558489999
 20
230.7173913043
 30
0.0
 11
94.12090081929994
 21
230.7173913043
 31
0.0
  0
LINE
  5
2A0
330
2
100
AcDbEntity
  8
0
 62
     3
100
AcDbLine
 10
94.31528253309997
 20
225.7173913043
 30
0.0
 11
95.11528558489999
 21
225.7173913043
 31
0.0
  0
LINE
  5
2A1
330
2
100
AcDbEntity
  8
0
 62
     3
100
AcDbLine
 10
94.31528253309997
 20
226.7173913042999
 30
0.0
 11
95.11528558489999
 21
226.7173913042999
 31
0.0
  0
LINE
  5
2A2
330
2
100
AcDbEntity
  8
0
 62
     3
100
AcDbLine
 10
93.41528863669999
 20
221.2173913043
 30
0.0
 11
95.31528253309998
 21
221.2173913043
 31
0.0
  0
LINE
  5
2A3
330
2
100
AcDbEntity
  8
0
 62
     3
100
AcDbLine
 10
95.11528558489999
 20
217.2173913043
 30
0.0
 11
94.31528253309997
 21
217.2173913043
 31
0.0
  0
LINE
  5
2A4
330
2
100
AcDbEntity
  8
0
 62
     3
100
AcDbLine
 10
95.11528558489999
 20
216.2173913042999
 30
0.0
 11
94.31528253309997
 21
216.2173913042999
 31
0.0
  0
LINE
  5
2A5
330
2
100
AcDbEntity
  8
0
 62
     3
100
AcDbLine
 10
92.9152886367
 20
225.2173913043
 30
0.0
 11
92.9152886367
 21
224.2173913043
 31
0.0
  0
LINE
  5
2A6
330
2
100
AcDbEntity
  8
0
 62
     3
100
AcDbLine
 10
93.0152794814
 20
225.3173974079
 30
0.0
 11
93.0152794814
 21
224.2107995075
 31
0.0
  0
LINE
  5
2A7
330
2
100
AcDbEntity
  8
0
 62
     3
100
AcDbLine
 10
87.9152886367
 20
225.2173913043
 30
0.0
 11
87.9152886367
 21
224.2173913043
 31
0.0
  0
LINE
  5
2A8
330
2
100
AcDbEntity
  8
0
 62
     3
100
AcDbLine
 10
87.81528253309998
 20
225.3173974079
 30
0.0
 11
87.81528253309998
 21
224.2216942829
 31
0.0
  0
CIRCLE
  5
2A9
330
2
100
AcDbEntity
  8
0
 62
     3
100
AcDbCircle
 10
90.4152886367
 20
221.2173913043
 30
0.0
 40
1.229499816899999
  0
LINE
  5
2AA
330
2
100
AcDbEntity
  8
0
 62
     3
100
AcDbLine
 10
87.81528253309998
 20
217.1173852008
 30
0.0
 11
93.01529474019998
 21
217.1173852008
 31
0.0
  0
LINE
  5
2AB
330
2
100
AcDbEntity
  8
0
  6
CENTER
 62
     3
100
AcDbLine
 10
92.4152886367
 20
221.2173913043
 30
0.0
 11
88.41528863669998
 21
221.2173913043
 31
0.0
  0
LINE
  5
2AC
330
2
100
AcDbEntity
  8
0
 62
     3
100
AcDbLine
 10
92.9152886367
 20
217.2173913043
 30
0.0
 11
87.9152886367
 21
217.2173913043
 31
0.0
  0
CIRCLE
  5
2AD
330
2
100
AcDbEntity
  8
0
 62
     3
100
AcDbCircle
 10
90.4152886367
 20
221.2173913043
 30
0.0
 40
1.5
  0
LINE
  5
2AE
330
2
100
AcDbEntity
  8
0
 62
     3
100
AcDbLine
 10
87.4152886367
 20
224.2173913043
 30
0.0
 11
87.4152886367
 21
218.2173913043
 31
0.0
  0
LINE
  5
2AF
330
2
100
AcDbEntity
  8
0
 62
     3
100
AcDbLine
 10
87.31528253309997
 20
224.3173974079
 30
0.0
 11
87.31528253309997
 21
218.1173852008
 31
0.0
  0
LINE
  5
2B0
330
2
100
AcDbEntity
  8
0
 62
     3
100
AcDbLine
 10
87.31528253309997
 20
218.1173852008
 30
0.0
 11
87.81528253309998
 21
218.1173852008
 31
0.0
  0
LINE
  5
2B1
330
2
100
AcDbEntity
  8
0
 62
     3
100
AcDbLine
 10
87.81528253309998
 20
217.1173852008
 30
0.0
 11
87.81528253309998
 21
218.225661568
 31
0.0
  0
LINE
  5
2B2
330
2
100
AcDbEntity
  8
0
 62
     3
100
AcDbLine
 10
87.9152886367
 20
218.2173913043
 30
0.0
 11
87.4152886367
 21
218.2173913043
 31
0.0
  0
LINE
  5
2B3
330
2
100
AcDbEntity
  8
0
 62
     3
100
AcDbLine
 10
87.9152886367
 20
218.2173913043
 30
0.0
 11
87.9152886367
 21
217.2173913043
 31
0.0
  0
LINE
  5
2B4
330
2
100
AcDbEntity
  8
0
 62
     3
100
AcDbLine
 10
87.31528253309997
 20
224.3173974079
 30
0.0
 11
87.81528253309998
 21
224.3173974079
 31
0.0
  0
LINE
  5
2B5
330
2
100
AcDbEntity
  8
0
 62
     3
100
AcDbLine
 10
87.9152886367
 20
224.2173913043
 30
0.0
 11
87.4152886367
 21
224.2173913043
 31
0.0
  0
LINE
  5
2B6
330
2
100
AcDbEntity
  8
0
 62
     3
100
AcDbLine
 10
89.2652794814
 20
221.6523278277999
 30
0.0
 11
89.2652794814
 21
220.7824547808999
 31
0.0
  0
LINE
  5
2B7
330
2
100
AcDbEntity
  8
0
 62
     3
100
AcDbLine
 10
93.51529474019995
 20
218.1173852008
 30
0.0
 11
93.51529474019995
 21
221.2173913043
 31
0.0
  0
LINE
  5
2B8
330
2
100
AcDbEntity
  8
0
 62
     3
100
AcDbLine
 10
93.41528863669999
 20
224.2173913043
 30
0.0
 11
93.41528863669999
 21
218.2173913043
 31
0.0
  0
LINE
  5
2B9
330
2
100
AcDbEntity
  8
0
 62
     3
100
AcDbLine
 10
93.01529474019998
 20
218.1173852008
 30
0.0
 11
93.51529474019995
 21
218.1173852008
 31
0.0
  0
LINE
  5
2BA
330
2
100
AcDbEntity
  8
0
 62
     3
100
AcDbLine
 10
93.01529474019998
 20
217.1173852008
 30
0.0
 11
93.01529474019998
 21
218.2147362750999
 31
0.0
  0
LINE
  5
2BB
330
2
100
AcDbEntity
  8
0
 62
     3
100
AcDbLine
 10
92.9152886367
 20
218.2173913043
 30
0.0
 11
92.9152886367
 21
217.2173913043
 31
0.0
  0
LINE
  5
2BC
330
2
100
AcDbEntity
  8
0
 62
     3
100
AcDbLine
 10
93.41528863669999
 20
218.2173913043
 30
0.0
 11
92.9152886367
 21
218.2173913043
 31
0.0
  0
LINE
  5
2BD
330
2
100
AcDbEntity
  8
0
 62
     3
100
AcDbLine
 10
91.56529779189998
 20
221.6523278277999
 30
0.0
 11
91.56529779189998
 21
220.7824547808999
 31
0.0
  0
LINE
  5
2BE
330
2
100
AcDbEntity
  8
0
 62
     3
100
AcDbLine
 10
93.0152794814
 20
224.3173974079
 30
0.0
 11
93.51527948140001
 21
224.3173974079
 31
0.0
  0
LINE
  5
2BF
330
2
100
AcDbEntity
  8
0
 62
     3
100
AcDbLine
 10
93.41528863669999
 20
224.2173913043
 30
0.0
 11
92.9152886367
 21
224.2173913043
 31
0.0
  0
LINE
  5
2C0
330
2
100
AcDbEntity
  8
0
 62
     3
100
AcDbLine
 10
93.51527948140001
 20
224.3173974079
 30
0.0
 11
93.51527948140001
 21
221.2173913043
 31
0.0
  0
LINE
  5
2C1
330
2
100
AcDbEntity
  8
0
 62
     3
100
AcDbLine
 10
92.9152886367
 20
225.2173913043
 30
0.0
 11
87.9152886367
 21
225.2173913043
 31
0.0
  0
LINE
  5
2C2
330
2
100
AcDbEntity
  8
0
 62
     3
100
AcDbLine
 10
87.81528253309998
 20
225.3173974079
 30
0.0
 11
93.0152794814
 21
225.3173974079
 31
0.0
  0
LINE
  5
2C3
330
2
100
AcDbEntity
  8
0
 62
     3
100
AcDbLine
 10
94.31528253309997
 20
230.5174096148999
 30
0.0
 11
94.31528253309997
 21
225.7173913043
 31
0.0
  0
ARC
  5
2C4
330
2
100
AcDbEntity
  8
0
 62
     3
100
AcDbCircle
 10
94.11528558489999
 20
230.5174096148999
 30
0.0
 40
0.1999999881
100
AcDbArc
 50
0.0
 51
89.99998201389999
  0
ARC
  5
2C5
330
2
100
AcDbEntity
  8
0
 62
     3
100
AcDbCircle
 10
95.11528558489999
 20
217.4174035113999
 30
0.0
 40
0.1999999881
100
AcDbArc
 50
270.0000179861
 51
0.0
  0
ARC
  5
2C6
330
2
100
AcDbEntity
  8
0
 62
     3
100
AcDbCircle
 10
95.11528558489999
 20
216.4174035113999
 30
0.0
 40
0.1999999881
100
AcDbArc
 50
270.0000179861
 51
0.0
  0
ARC
  5
2C7
330
2
100
AcDbEntity
  8
0
 62
     3
100
AcDbCircle
 10
95.11528558489999
 20
225.5174096149
 30
0.0
 40
0.1999999881
100
AcDbArc
 50
0.0
 51
89.99992737239997
  0
ARC
  5
2C8
330
2
100
AcDbEntity
  8
0
 62
     3
100
AcDbCircle
 10
95.11528558489999
 20
226.5174096148999
 30
0.0
 40
0.1999999881
100
AcDbArc
 50
0.0
 51
89.99992737239997
  0
ARC
  5
2C9
330
2
100
AcDbEntity
  8
0
 62
     3
100
AcDbCircle
 10
95.11528558489999
 20
230.5174096148999
 30
0.0
 40
0.1999999881
100
AcDbArc
 50
0.0
 51
89.99998201389999
  0
TEXT
  5
2DF
330
2
100
AcDbEntity
  8
0
 62
     7
100
AcDbText
 10
146.0
 20
110.0000029552498
 30
0.0
 40
2.999994089499998
  1
NRAN2100F
 11
146.0
 21
111.4999999999999
 31
0.0
100
AcDbText
 73
     2
  0
TEXT
  5
2E0
330
2
100
AcDbEntity
  8
0
 62
     7
100
AcDbText
 10
146.0
 20
115.0000029552499
 30
0.0
 40
2.999994089499998
  1
NRAN2100
 11
146.0
 21
116.5
 31
0.0
100
AcDbText
 73
     2
  0
ENDSEC
  0
SECTION
  2
OBJECTS
  0
DICTIONARY
  5
7
330
0
100
AcDbDictionary
281
     1
  3
ACAD_GROUP
350
1F
  3
ACAD_LAYOUT
350
B
  3
ACAD_MLINESTYLE
350
20
  3
ACAD_PLOTSETTINGS
350
21
  3
ACAD_PLOTSTYLENAME
350
6
  3
AcDbVariableDictionary
350
2E1
  0
DICTIONARY
  5
1F
102
{ACAD_REACTORS
330
7
102
}
330
7
100
AcDbDictionary
281
     1
  0
DICTIONARY
  5
B
102
{ACAD_REACTORS
330
7
102
}
330
7
100
AcDbDictionary
281
     1
  3
Model
350
A
  3
ﾚｲｱｳﾄ1
350
F
  0
DICTIONARY
  5
20
102
{ACAD_REACTORS
330
7
102
}
330
7
100
AcDbDictionary
281
     1
  3
Standard
350
22
  0
DICTIONARY
  5
21
102
{ACAD_REACTORS
330
7
102
}
330
7
100
AcDbDictionary
281
     1
  0
ACDBDICTIONARYWDFLT
  5
6
102
{ACAD_REACTORS
330
7
102
}
330
7
100
AcDbDictionary
281
     1
  3
Normal
350
5
100
AcDbDictionaryWithDefault
340
5
  0
DICTIONARY
  5
2E1
102
{ACAD_REACTORS
330
7
102
}
330
7
100
AcDbDictionary
281
     1
  3
DIMASSOC
350
2E2
  0
LAYOUT
  5
A
102
{ACAD_REACTORS
330
B
102
}
330
B
100
AcDbPlotSettings
  1

  2
C:\Program Files\AutoCAD 2000i\plotters\DWF Classic.pc3
  4

  6

 40
0.0
 41
0.0
 42
0.0
 43
0.0
 44
0.0
 45
0.0
 46
0.0
 47
0.0
 48
0.0
 49
0.0
140
0.0
141
0.0
142
1.0
143
1.0
 70
  1712
 72
     0
 73
     0
 74
     0
  7

 75
     0
147
1.0
148
0.0
149
0.0
100
AcDbLayout
  1
Model
 70
     1
 71
     0
 10
0.0
 20
0.0
 11
12.0
 21
9.0
 12
0.0
 22
0.0
 32
0.0
 14
0.0
 24
0.0
 34
0.0
 15
0.0
 25
0.0
 35
0.0
146
0.0
 13
0.0
 23
0.0
 33
0.0
 16
1.0
 26
0.0
 36
0.0
 17
0.0
 27
1.0
 37
0.0
 76
     0
330
2
  0
LAYOUT
  5
F
102
{ACAD_REACTORS
330
B
102
}
330
B
100
AcDbPlotSettings
  1

  2
C:\Program Files\AutoCAD 2000i\plotters\DWF Classic.pc3
  4

  6

 40
0.0
 41
0.0
 42
0.0
 43
0.0
 44
0.0
 45
0.0
 46
0.0
 47
0.0
 48
0.0
 49
0.0
140
0.0
141
0.0
142
1.0
143
1.0
 70
   688
 72
     0
 73
     0
 74
     5
  7

 75
    16
147
1.0
148
0.0
149
0.0
100
AcDbLayout
  1
ﾚｲｱｳﾄ1
 70
     1
 71
     1
 10
0.0
 20
0.0
 11
12.0
 21
9.0
 12
0.0
 22
0.0
 32
0.0
 14
1.000000000000000E+20
 24
1.000000000000000E+20
 34
1.000000000000000E+20
 15
-1.000000000000000E+20
 25
-1.000000000000000E+20
 35
-1.000000000000000E+20
146
0.0
 13
0.0
 23
0.0
 33
0.0
 16
1.0
 26
0.0
 36
0.0
 17
0.0
 27
1.0
 37
0.0
 76
     0
330
C
  0
MLINESTYLE
  5
22
102
{ACAD_REACTORS
330
20
102
}
330
20
100
AcDbMlineStyle
  2
STANDARD
 70
     0
  3

 62
   256
 51
90.0
 52
90.0
 71
     2
 49
0.5
 62
   256
  6
BYLAYER
 49
-0.5
 62
   256
  6
BYLAYER
  0
ACDBPLACEHOLDER
  5
5
102
{ACAD_REACTORS
330
6
102
}
330
6
  0
DICTIONARYVAR
  5
2E2
102
{ACAD_REACTORS
330
2E1
102
}
330
2E1
100
DictionaryVariables
280
     0
  1
1
  0
ENDSEC
  0
EOF
