  0
SECTION
  2
HEADER
  9
$ACADVER
  1
AC1015
  9
$ACADMAINTVER
 70
    13
  9
$DWGCODEPAGE
  3
ANSI_932
  9
$INSBASE
 10
0.0
 20
0.0
 30
0.0
  9
$EXTMIN
 10
-0.0038090476708703
 20
-0.000725177882714
 30
-0.0000000349181948
  9
$EXTMAX
 10
210.0249621114186
 20
297.0206388569679
 30
0.0000000814935747
  9
$LIMMIN
 10
-186.3714569092
 20
-3.174999999999998
  9
$LIMMAX
 10
3.174999999999998
 20
291.2585876465
  9
$ORTHOMODE
 70
     0
  9
$REGENMODE
 70
     1
  9
$FILLMODE
 70
     1
  9
$QTEXTMODE
 70
     0
  9
$MIRRTEXT
 70
     0
  9
$LTSCALE
 40
1.0
  9
$ATTMODE
 70
     1
  9
$TEXTSIZE
 40
2.999994039499997
  9
$TRACEWID
 40
0.05
  9
$TEXTSTYLE
  7
STANDARD
  9
$CLAYER
  8
0
  9
$CELTYPE
  6
ByLayer
  9
$CECOLOR
 62
   256
  9
$CELTSCALE
 40
1.0
  9
$DISPSILH
 70
     0
  9
$DIMSCALE
 40
1.0
  9
$DIMASZ
 40
1.9727878465
  9
$DIMEXO
 40
2.539999961899999
  9
$DIMDLI
 40
0.38
  9
$DIMRND
 40
0.0
  9
$DIMDLE
 40
0.0
  9
$DIMEXE
 40
3.809999942799997
  9
$DIMTP
 40
0.0
  9
$DIMTM
 40
0.0
  9
$DIMTXT
 40
2.999994039499997
  9
$DIMCEN
 40
0.09
  9
$DIMTSZ
 40
0.0
  9
$DIMTOL
 70
     0
  9
$DIMLIM
 70
     0
  9
$DIMTIH
 70
     0
  9
$DIMTOH
 70
     1
  9
$DIMSE1
 70
     0
  9
$DIMSE2
 70
     0
  9
$DIMTAD
 70
     0
  9
$DIMZIN
 70
     0
  9
$DIMBLK
  1

  9
$DIMASO
 70
     1
  9
$DIMSHO
 70
     0
  9
$DIMPOST
  1

  9
$DIMAPOST
  1

  9
$DIMALT
 70
     0
  9
$DIMALTD
 70
     2
  9
$DIMALTF
 40
25.4
  9
$DIMLFAC
 40
1.0
  9
$DIMTOFL
 70
     0
  9
$DIMTVP
 40
0.0
  9
$DIMTIX
 70
     0
  9
$DIMSOXD
 70
     0
  9
$DIMSAH
 70
     0
  9
$DIMBLK1
  1

  9
$DIMBLK2
  1

  9
$DIMSTYLE
  2
Standard
  9
$DIMCLRD
 70
     0
  9
$DIMCLRE
 70
     0
  9
$DIMCLRT
 70
     0
  9
$DIMTFAC
 40
1.0
  9
$DIMGAP
 40
0.09
  9
$DIMJUST
 70
     0
  9
$DIMSD1
 70
     0
  9
$DIMSD2
 70
     0
  9
$DIMTOLJ
 70
     1
  9
$DIMTZIN
 70
     0
  9
$DIMALTZ
 70
     0
  9
$DIMALTTZ
 70
     0
  9
$DIMUPT
 70
     0
  9
$DIMDEC
 70
     4
  9
$DIMTDEC
 70
     4
  9
$DIMALTU
 70
     2
  9
$DIMALTTD
 70
     2
  9
$DIMTXSTY
  7
STANDARD
  9
$DIMAUNIT
 70
     0
  9
$DIMADEC
 70
     0
  9
$DIMALTRND
 40
0.0
  9
$DIMAZIN
 70
     0
  9
$DIMDSEP
 70
    46
  9
$DIMATFIT
 70
     3
  9
$DIMFRAC
 70
     0
  9
$DIMLDRBLK
  1

  9
$DIMLUNIT
 70
     2
  9
$DIMLWD
 70
    -2
  9
$DIMLWE
 70
    -2
  9
$DIMTMOVE
 70
     0
  9
$LUNITS
 70
     2
  9
$LUPREC
 70
     3
  9
$SKETCHINC
 40
0.1
  9
$FILLETRAD
 40
0.0625
  9
$AUNITS
 70
     0
  9
$AUPREC
 70
     0
  9
$MENU
  1
ACAD
  9
$ELEVATION
 40
0.0
  9
$PELEVATION
 40
0.0
  9
$THICKNESS
 40
0.0
  9
$LIMCHECK
 70
     0
  9
$CHAMFERA
 40
0.0
  9
$CHAMFERB
 40
0.0
  9
$CHAMFERC
 40
0.0
  9
$CHAMFERD
 40
0.0
  9
$SKPOLY
 70
     0
  9
$TDCREATE
 40
2452527.731469907
  9
$TDUCREATE
 40
2452527.356469907
  9
$TDUPDATE
 40
2453339.680206157
  9
$TDUUPDATE
 40
2453339.305206157
  9
$TDINDWG
 40
0.0022278472
  9
$TDUSRTIMER
 40
0.0022254977
  9
$USRTIMER
 70
     1
  9
$ANGBASE
 50
0.0
  9
$ANGDIR
 70
     0
  9
$PDMODE
 70
     0
  9
$PDSIZE
 40
0.0
  9
$PLINEWID
 40
0.0
  9
$SPLFRAME
 70
     0
  9
$SPLINETYPE
 70
     6
  9
$SPLINESEGS
 70
     8
  9
$HANDSEED
  5
1CD
  9
$SURFTAB1
 70
     6
  9
$SURFTAB2
 70
     6
  9
$SURFTYPE
 70
     6
  9
$SURFU
 70
     6
  9
$SURFV
 70
     6
  9
$UCSBASE
  2

  9
$UCSNAME
  2

  9
$UCSORG
 10
0.0
 20
0.0
 30
0.0
  9
$UCSXDIR
 10
1.0
 20
0.0
 30
0.0
  9
$UCSYDIR
 10
0.0
 20
1.0
 30
0.0
  9
$UCSORTHOREF
  2

  9
$UCSORTHOVIEW
 70
     0
  9
$UCSORGTOP
 10
0.0
 20
0.0
 30
0.0
  9
$UCSORGBOTTOM
 10
0.0
 20
0.0
 30
0.0
  9
$UCSORGLEFT
 10
0.0
 20
0.0
 30
0.0
  9
$UCSORGRIGHT
 10
0.0
 20
0.0
 30
0.0
  9
$UCSORGFRONT
 10
0.0
 20
0.0
 30
0.0
  9
$UCSORGBACK
 10
0.0
 20
0.0
 30
0.0
  9
$PUCSBASE
  2

  9
$PUCSNAME
  2

  9
$PUCSORG
 10
0.0
 20
0.0
 30
0.0
  9
$PUCSXDIR
 10
1.0
 20
0.0
 30
0.0
  9
$PUCSYDIR
 10
0.0
 20
1.0
 30
0.0
  9
$PUCSORTHOREF
  2

  9
$PUCSORTHOVIEW
 70
     0
  9
$PUCSORGTOP
 10
0.0
 20
0.0
 30
0.0
  9
$PUCSORGBOTTOM
 10
0.0
 20
0.0
 30
0.0
  9
$PUCSORGLEFT
 10
0.0
 20
0.0
 30
0.0
  9
$PUCSORGRIGHT
 10
0.0
 20
0.0
 30
0.0
  9
$PUCSORGFRONT
 10
0.0
 20
0.0
 30
0.0
  9
$PUCSORGBACK
 10
0.0
 20
0.0
 30
0.0
  9
$USERI1
 70
     8
  9
$USERI2
 70
     0
  9
$USERI3
 70
     0
  9
$USERI4
 70
     0
  9
$USERI5
 70
     0
  9
$USERR1
 40
0.0
  9
$USERR2
 40
0.0
  9
$USERR3
 40
0.0
  9
$USERR4
 40
0.0
  9
$USERR5
 40
0.0
  9
$WORLDVIEW
 70
     1
  9
$SHADEDGE
 70
     3
  9
$SHADEDIF
 70
    70
  9
$TILEMODE
 70
     1
  9
$MAXACTVP
 70
    64
  9
$PINSBASE
 10
0.0
 20
0.0
 30
0.0
  9
$PLIMCHECK
 70
     0
  9
$PEXTMIN
 10
1.000000000000000E+20
 20
1.000000000000000E+20
 30
1.000000000000000E+20
  9
$PEXTMAX
 10
-1.000000000000000E+20
 20
-1.000000000000000E+20
 30
-1.000000000000000E+20
  9
$PLIMMIN
 10
0.0
 20
0.0
  9
$PLIMMAX
 10
12.0
 20
9.0
  9
$UNITMODE
 70
     0
  9
$VISRETAIN
 70
     1
  9
$PLINEGEN
 70
     0
  9
$PSLTSCALE
 70
     1
  9
$TREEDEPTH
 70
  3020
  9
$CMLSTYLE
  2
Standard
  9
$CMLJUST
 70
     0
  9
$CMLSCALE
 40
1.0
  9
$PROXYGRAPHICS
 70
     1
  9
$MEASUREMENT
 70
     0
  9
$CELWEIGHT
370
    -1
  9
$ENDCAPS
280
     0
  9
$JOINSTYLE
280
     0
  9
$LWDISPLAY
290
     0
  9
$INSUNITS
 70
     0
  9
$HYPERLINKBASE
  1

  9
$STYLESHEET
  1

  9
$XEDIT
290
     1
  9
$CEPSNTYPE
380
     0
  9
$PSTYLEMODE
290
     1
  9
$FINGERPRINTGUID
  2
{BE325AD6-92D8-4AD1-A6FE-15A6C692E2CE}
  9
$VERSIONGUID
  2
{1F3CF361-1848-41D4-913E-D45878B9FA4D}
  9
$EXTNAMES
290
     1
  9
$PSVPSCALE
 40
0.0
  9
$OLESTARTUP
290
     0
  0
ENDSEC
  0
SECTION
  2
CLASSES
  0
CLASS
  1
ACDBDICTIONARYWDFLT
  2
AcDbDictionaryWithDefault
  3
AutoCAD 2000
 90
        0
280
     0
281
     0
  0
CLASS
  1
ACDBPLACEHOLDER
  2
AcDbPlaceHolder
  3
AutoCAD 2000
 90
        0
280
     0
281
     0
  0
CLASS
  1
LAYOUT
  2
AcDbLayout
  3
AutoCAD 2000
 90
        0
280
     0
281
     0
  0
CLASS
  1
DICTIONARYVAR
  2
AcDbDictionaryVar
  3
AutoCAD 2000
 90
        0
280
     0
281
     0
  0
ENDSEC
  0
SECTION
  2
TABLES
  0
TABLE
  2
VPORT
  5
19
330
0
100
AcDbSymbolTable
 70
     2
  0
VPORT
  5
1CC
330
19
100
AcDbSymbolTableRecord
100
AcDbViewportTableRecord
  2
*Active
 70
     0
 10
0.0
 20
0.0
 11
1.0
 21
1.0
 12
105.0105765318739
 22
148.5099568395425
 13
0.0
 23
0.0
 14
1.0
 24
1.0
 15
0.0
 25
0.0
 16
0.0
 26
0.0
 36
1.0
 17
0.0
 27
0.0
 37
0.0
 40
301.3574423419287
 41
2.407317073170731
 42
50.0
 43
0.0
 44
0.0
 50
0.0
 51
0.0
 71
     0
 72
   100
 73
     1
 74
     1
 75
     0
 76
     0
 77
     0
 78
     0
281
     0
 65
     1
110
0.0
120
0.0
130
0.0
111
1.0
121
0.0
131
0.0
112
0.0
122
1.0
132
0.0
 79
     0
146
0.0
  0
ENDTAB
  0
TABLE
  2
LTYPE
  5
14
330
0
100
AcDbSymbolTable
 70
     3
  0
LTYPE
  5
15
330
14
100
AcDbSymbolTableRecord
100
AcDbLinetypeTableRecord
  2
ByBlock
 70
     0
  3

 72
    65
 73
     0
 40
0.0
  0
LTYPE
  5
16
330
14
100
AcDbSymbolTableRecord
100
AcDbLinetypeTableRecord
  2
ByLayer
 70
     0
  3

 72
    65
 73
     0
 40
0.0
  0
LTYPE
  5
8
330
14
100
AcDbSymbolTableRecord
100
AcDbLinetypeTableRecord
  2
Continuous
 70
     0
  3
Solid line
 72
    65
 73
     0
 40
0.0
  0
LTYPE
  5
30
330
14
100
AcDbSymbolTableRecord
100
AcDbLinetypeTableRecord
  2
CENTER
 70
     0
  3
Center
 72
    65
 73
     4
 40
9.100006759199999
 49
6.5000119209
 74
     0
 49
-0.7999984026000001
 74
     0
 49
0.9999980329999999
 74
     0
 49
-0.7999984026000001
 74
     0
  0
LTYPE
  5
DD
330
14
100
AcDbSymbolTableRecord
100
AcDbLinetypeTableRecord
  2
PHANTOM
 70
     0
  3
Phantom
 72
    65
 73
     6
 40
9.499981462999999
 49
4.799990654
 74
     0
 49
-0.8999982475999999
 74
     0
 49
0.9999980329999999
 74
     0
 49
-0.8999982475999999
 74
     0
 49
0.9999980329999999
 74
     0
 49
-0.8999982475999999
 74
     0
  0
ENDTAB
  0
TABLE
  2
LAYER
  5
10
330
0
100
AcDbSymbolTable
 70
     1
  0
LAYER
  5
4
330
10
100
AcDbSymbolTableRecord
100
AcDbLayerTableRecord
  2
0
 70
     0
 62
     7
  6
Continuous
370
    -3
390
5
  0
ENDTAB
  0
TABLE
  2
STYLE
  5
11
330
0
100
AcDbSymbolTable
 70
     1
  0
STYLE
  5
12
330
11
100
AcDbSymbolTableRecord
100
AcDbTextStyleTableRecord
  2
STANDARD
 70
     0
 40
0.0
 41
1.0
 50
0.0
 71
     0
 42
2.999994039499997
  3
romans.shx
  4
bigfont.shx
  0
ENDTAB
  0
TABLE
  2
VIEW
  5
17
330
0
100
AcDbSymbolTable
 70
     0
  0
ENDTAB
  0
TABLE
  2
UCS
  5
18
330
0
100
AcDbSymbolTable
 70
     0
  0
ENDTAB
  0
TABLE
  2
APPID
  5
1B
330
0
100
AcDbSymbolTable
 70
     1
  0
APPID
  5
1C
330
1B
100
AcDbSymbolTableRecord
100
AcDbRegAppTableRecord
  2
ACAD
 70
     0
  0
ENDTAB
  0
TABLE
  2
DIMSTYLE
  5
1D
330
0
100
AcDbSymbolTable
 70
     1
100
AcDbDimStyleTable
 71
     0
  0
DIMSTYLE
105
23
330
1D
100
AcDbSymbolTableRecord
100
AcDbDimStyleTableRecord
  2
Standard
 70
     0
340
12
  0
ENDTAB
  0
TABLE
  2
BLOCK_RECORD
  5
1
330
0
100
AcDbSymbolTable
 70
     1
  0
BLOCK_RECORD
  5
2
330
1
100
AcDbSymbolTableRecord
100
AcDbBlockTableRecord
  2
*Model_Space
340
A
  0
BLOCK_RECORD
  5
C
330
1
100
AcDbSymbolTableRecord
100
AcDbBlockTableRecord
  2
*Paper_Space
340
F
  0
ENDTAB
  0
ENDSEC
  0
SECTION
  2
BLOCKS
  0
BLOCK
  5
3
330
2
100
AcDbEntity
  8
0
100
AcDbBlockBegin
  2
*Model_Space
 70
     2
 10
0.0
 20
0.0
 30
0.0
  3
*Model_Space
  1

  0
ENDBLK
  5
9
330
2
100
AcDbEntity
  8
0
100
AcDbBlockEnd
  0
BLOCK
  5
D
330
C
100
AcDbEntity
 67
     1
  8
0
100
AcDbBlockBegin
  2
*Paper_Space
 70
     0
 10
0.0
 20
0.0
 30
0.0
  3
*Paper_Space
  1

  0
ENDBLK
  5
E
330
C
100
AcDbEntity
 67
     1
  8
0
100
AcDbBlockEnd
  0
ENDSEC
  0
SECTION
  2
ENTITIES
  0
LINE
  5
24
330
2
100
AcDbEntity
  8
0
100
AcDbLine
 10
210.0
 20
0.0
 30
0.0
 11
210.0
 21
297.0
 31
0.0
  0
LINE
  5
25
330
2
100
AcDbEntity
  8
0
 62
     3
100
AcDbLine
 10
96.31526727439998
 20
153.4415681257998
 30
0.0
 11
96.31526727439998
 21
141.2415864363999
 31
0.0
  0
LINE
  5
26
330
2
100
AcDbEntity
  8
0
 62
     3
100
AcDbLine
 10
70.61527032609999
 20
148.5415742294
 30
0.0
 11
70.61527032609999
 21
143.9415833845998
 31
0.0
  0
LINE
  5
27
330
2
100
AcDbEntity
  8
0
 62
     3
100
AcDbLine
 10
65.1152703261
 20
148.5415742294
 30
0.0
 11
65.1152703261
 21
143.9415833845998
 31
0.0
  0
ARC
  5
28
330
2
100
AcDbEntity
  8
0
 62
     3
100
AcDbCircle
 10
88.41527337789996
 20
141.9415833845999
 30
0.0
 40
2.0
100
AcDbArc
 50
0.0
 51
89.99998201389999
  0
LINE
  5
29
330
2
100
AcDbEntity
  8
0
 62
     3
100
AcDbLine
 10
46.31526727439998
 20
153.4415833845999
 30
0.0
 11
46.31526727439998
 21
141.2415864363999
 31
0.0
  0
ARC
  5
2A
330
2
100
AcDbEntity
  8
0
 62
     3
100
AcDbCircle
 10
54.21527642959998
 20
141.9415833845999
 30
0.0
 40
2.0
100
AcDbArc
 50
89.99998201389999
 51
179.9999640277999
  0
LINE
  5
2B
330
2
100
AcDbEntity
  8
0
100
AcDbLine
 10
0.0
 20
297.0
 30
0.0
 11
0.0
 21
0.0
 31
0.0
  0
TEXT
  5
2C
330
2
100
AcDbEntity
  8
0
 62
     5
100
AcDbText
 10
145.0
 20
10.0
 30
0.0
 40
5.0
  1
ＭＡ４－Ｃ０００８０Ｂ
 41
0.8443967743953098
 72
     5
 11
199.0413935612998
 21
10.0
 31
0.0
100
AcDbText
  0
LINE
  5
2D
330
2
100
AcDbEntity
  8
0
100
AcDbLine
 10
0.0
 20
0.0
 30
0.0
 11
210.0
 21
0.0
 31
0.0
  0
LINE
  5
2E
330
2
100
AcDbEntity
  8
0
 62
     3
100
AcDbLine
 10
54.21527642959998
 20
143.9415833845998
 30
0.0
 11
88.41527337789996
 21
143.9415833845998
 31
0.0
  0
LINE
  5
2F
330
2
100
AcDbEntity
  8
0
  6
CENTER
 62
     3
100
AcDbLine
 10
85.31526727439999
 20
115.9415681258
 30
0.0
 11
89.31526727439999
 21
115.9415681258
 31
0.0
  0
ARC
  5
31
330
2
100
AcDbEntity
  8
0
 62
     3
100
AcDbCircle
 10
85.91028375379998
 20
109.4415833845999
 30
0.0
 40
1.0
100
AcDbArc
 50
270.0000179861
 51
354.2894086084999
  0
ARC
  5
32
330
2
100
AcDbEntity
  8
0
 62
     3
100
AcDbCircle
 10
85.81529779189997
 20
70.7948243514
 30
0.0
 40
1.0
100
AcDbArc
 50
0.0
 51
89.99998201389999
  0
ARC
  5
33
330
2
100
AcDbEntity
  8
0
 62
     3
100
AcDbCircle
 10
85.81529779189997
 20
57.7948243514
 30
0.0
 40
1.0
100
AcDbArc
 50
270.0000179861
 51
0.0
  0
LINE
  5
34
330
2
100
AcDbEntity
  8
0
 62
     3
100
AcDbLine
 10
84.71527642959998
 20
64.29482435140001
 30
0.0
 11
90.46527642959999
 21
64.29482435140001
 31
0.0
  0
LINE
  5
35
330
2
100
AcDbEntity
  8
0
 62
     3
100
AcDbLine
 10
54.21527642959998
 20
120.2415864363999
 30
0.0
 11
88.41527337789996
 21
120.2415864363999
 31
0.0
  0
LINE
  5
36
330
2
100
AcDbEntity
  8
0
 62
     3
100
AcDbLine
 10
56.31526727439998
 20
71.79482435140001
 30
0.0
 11
86.31529779189998
 21
71.79482435140001
 31
0.0
  0
LINE
  5
37
330
2
100
AcDbEntity
  8
0
 62
     3
100
AcDbLine
 10
45.52925653219996
 20
73.79482435140001
 30
0.0
 11
97.10286493059999
 21
73.79482435140001
 31
0.0
  0
LINE
  5
38
330
2
100
AcDbEntity
  8
0
 62
     3
100
AcDbLine
 10
56.31526727439998
 20
56.7948243514
 30
0.0
 11
86.31529779189998
 21
56.7948243514
 31
0.0
  0
LINE
  5
39
330
2
100
AcDbEntity
  8
0
 62
     3
100
AcDbLine
 10
45.50374383689996
 20
54.7948243514
 30
0.0
 11
97.12235040420001
 21
54.7948243514
 31
0.0
  0
LINE
  5
3A
330
2
100
AcDbEntity
  8
0
 62
     3
100
AcDbLine
 10
96.36523980849998
 20
113.4415833845999
 30
0.0
 11
51.5152794814
 21
113.4415833845999
 31
0.0
  0
ARC
  5
3B
330
2
100
AcDbEntity
  8
0
 62
     3
100
AcDbCircle
 10
56.72025079489998
 20
109.4415833845999
 30
0.0
 40
1.0
100
AcDbArc
 50
185.7106205333999
 51
270.0000179861
  0
ARC
  5
3C
330
2
100
AcDbEntity
  8
0
 62
     3
100
AcDbCircle
 10
56.81526727439996
 20
70.7948243514
 30
0.0
 40
1.0
100
AcDbArc
 50
89.99998201389999
 51
179.9999640277999
  0
ARC
  5
3D
330
2
100
AcDbEntity
  8
0
 62
     3
100
AcDbCircle
 10
56.81526727439996
 20
57.7948243514
 30
0.0
 40
1.0
100
AcDbArc
 50
179.9999640277999
 51
270.0000006831999
  0
LINE
  5
3E
330
2
100
AcDbEntity
  8
0
 62
     3
100
AcDbLine
 10
52.1153161025
 20
64.29482435140001
 30
0.0
 11
64.81528253309996
 21
64.29482435140001
 31
0.0
  0
LINE
  5
3F
330
2
100
AcDbEntity
  8
0
 62
     3
100
AcDbLine
 10
49.7152001357
 20
73.09476636799998
 30
0.0
 11
46.91521234269997
 21
73.09476636799998
 31
0.0
  0
ARC
  5
40
330
2
100
AcDbEntity
  8
0
 62
     3
100
AcDbCircle
 10
48.31520623919999
 20
63.894830455
 30
0.0
 40
9.0
100
AcDbArc
 50
270.0000179861
 51
279.6519495475
  0
LINE
  5
41
330
2
100
AcDbEntity
  8
0
 62
     3
100
AcDbLine
 10
45.5152794814
 20
72.6948335067
 30
0.0
 11
51.31526727439998
 21
72.6948335067
 31
0.0
  0
LINE
  5
42
330
2
100
AcDbEntity
  8
0
 62
     3
100
AcDbLine
 10
45.5152794814
 20
55.89483045499999
 30
0.0
 11
51.31526727439998
 21
55.89483045499999
 31
0.0
  0
LINE
  5
43
330
2
100
AcDbEntity
  8
0
 62
     3
100
AcDbLine
 10
45.33159417859997
 20
64.29482435140001
 30
0.0
 11
51.31526727439998
 21
64.29482435140001
 31
0.0
  0
LINE
  5
44
330
2
100
AcDbEntity
  8
0
 62
     3
100
AcDbLine
 10
45.31526727439998
 20
54.9948365585
 30
0.0
 11
45.31526727439998
 21
73.5948274032
 31
0.0
  0
ARC
  5
45
330
2
100
AcDbEntity
  8
0
 62
     3
100
AcDbCircle
 10
45.5152794814
 20
56.0948274032
 30
0.0
 40
0.1999999881
100
AcDbArc
 50
179.9999640277999
 51
270.0000006831999
  0
ARC
  5
46
330
2
100
AcDbEntity
  8
0
 62
     3
100
AcDbCircle
 10
45.5152794814
 20
54.9948365585
 30
0.0
 40
0.1999999881
100
AcDbArc
 50
179.9999640277999
 51
270.0000006831999
  0
ARC
  5
47
330
2
100
AcDbEntity
  8
0
 62
     3
100
AcDbCircle
 10
48.31520623919999
 20
63.894830455
 30
0.0
 40
9.0
100
AcDbArc
 50
260.3479771416
 51
269.9999087031
  0
ARC
  5
48
330
2
100
AcDbEntity
  8
0
 62
     3
100
AcDbCircle
 10
48.26521844619998
 20
55.89483045499999
 30
0.0
 40
1.6999998093
100
AcDbArc
 50
179.9999093863
 51
210.883456662
  0
ARC
  5
49
330
2
100
AcDbEntity
  8
0
 62
     3
100
AcDbCircle
 10
45.5152794814
 20
72.49482129970001
 30
0.0
 40
0.1999999881
100
AcDbArc
 50
89.99998201389999
 51
179.9999640277999
  0
ARC
  5
4A
330
2
100
AcDbEntity
  8
0
 62
     3
100
AcDbCircle
 10
45.5152794814
 20
73.5948274032
 30
0.0
 40
0.1999999881
100
AcDbArc
 50
89.99998201389999
 51
179.9999640277999
  0
LINE
  5
4B
330
2
100
AcDbEntity
  8
0
 62
     3
100
AcDbLine
 10
46.91527337789998
 20
73.0947816268
 30
0.0
 11
46.91527337789998
 21
72.6948182479
 31
0.0
  0
LINE
  5
4C
330
2
100
AcDbEntity
  8
0
 62
     3
100
AcDbLine
 10
52.16527337789997
 20
61.0448243514
 30
0.0
 11
52.16527337789997
 21
67.54482435140001
 31
0.0
  0
LINE
  5
4D
330
2
100
AcDbEntity
  8
0
 62
     3
100
AcDbLine
 10
51.31526727439998
 20
61.0448243514
 30
0.0
 11
51.31526727439998
 21
67.54482435140001
 31
0.0
  0
LINE
  5
4E
330
2
100
AcDbEntity
  8
0
 62
     3
100
AcDbLine
 10
51.31526727439998
 20
60.29487012779998
 30
0.0
 11
51.31526727439998
 21
68.29487012779998
 31
0.0
  0
LINE
  5
4F
330
2
100
AcDbEntity
  8
0
 62
     3
100
AcDbLine
 10
51.5152794814
 20
66.49488233479999
 30
0.0
 11
51.5152794814
 21
62.09485792079998
 31
0.0
  0
LINE
  5
50
330
2
100
AcDbEntity
  8
0
 62
     3
100
AcDbLine
 10
52.1153161025
 20
60.29487012779998
 30
0.0
 11
52.1153161025
 21
68.29487012779998
 31
0.0
  0
LINE
  5
51
330
2
100
AcDbEntity
  8
0
 62
     3
100
AcDbLine
 10
51.91524286029997
 20
62.09485792079998
 30
0.0
 11
51.91524286029997
 21
66.49488233479999
 31
0.0
  0
LINE
  5
52
330
2
100
AcDbEntity
  8
0
 62
     3
100
AcDbLine
 10
55.31526727439999
 20
57.7948243514
 30
0.0
 11
55.31526727439999
 21
70.7948243514
 31
0.0
  0
LINE
  5
53
330
2
100
AcDbEntity
  8
0
 62
     3
100
AcDbLine
 10
55.8152672744
 20
57.7948243514
 30
0.0
 11
55.8152672744
 21
70.7948243514
 31
0.0
  0
ARC
  5
54
330
2
100
AcDbEntity
  8
0
 62
     3
100
AcDbCircle
 10
48.36525506729998
 20
55.89483045499999
 30
0.0
 40
1.6999998093
100
AcDbArc
 50
329.1163605168
 51
359.9999360237998
  0
LINE
  5
55
330
2
100
AcDbEntity
  8
0
 62
     3
100
AcDbLine
 10
51.31526727439998
 20
55.89483045499999
 30
0.0
 11
51.31526727439998
 21
54.7948243514
 31
0.0
  0
LINE
  5
56
330
2
100
AcDbEntity
  8
0
 62
     3
100
AcDbLine
 10
52.1153161025
 20
61.0448243514
 30
0.0
 11
52.16527337789997
 21
61.0448243514
 31
0.0
  0
LINE
  5
57
330
2
100
AcDbEntity
  8
0
 62
     3
100
AcDbLine
 10
51.91512079
 20
62.0948121444
 30
0.0
 11
51.51515741109998
 21
62.0948121444
 31
0.0
  0
LINE
  5
58
330
2
100
AcDbEntity
  8
0
 62
     3
100
AcDbLine
 10
52.11534408799997
 20
61.0949499562
 30
0.0
 11
51.91532711819999
 21
62.0949797322
 31
0.0
  0
LINE
  5
59
330
2
100
AcDbEntity
  8
0
 62
     3
100
AcDbLine
 10
51.51505500279998
 20
62.09483965739998
 30
0.0
 11
51.31503657409999
 21
61.09481018529999
 31
0.0
  0
LINE
  5
5A
330
2
100
AcDbEntity
  8
0
 62
     3
100
AcDbLine
 10
52.11519403219996
 20
60.2948853866
 30
0.0
 11
51.31514520399997
 21
60.2948853866
 31
0.0
  0
LINE
  5
5B
330
2
100
AcDbEntity
  8
0
 62
     3
100
AcDbLine
 10
52.11519403219996
 20
61.09481214439999
 30
0.0
 11
51.31514520399997
 21
61.09481214439999
 31
0.0
  0
ARC
  5
5C
330
2
100
AcDbEntity
  8
0
 62
     3
100
AcDbCircle
 10
56.31526727439998
 20
57.7948243514
 30
0.0
 40
1.0
100
AcDbArc
 50
179.9999640277999
 51
270.0000006831999
  0
LINE
  5
5D
330
2
100
AcDbEntity
  8
0
 62
     3
100
AcDbLine
 10
52.1153161025
 20
67.54482435140001
 30
0.0
 11
52.16527337789997
 21
67.54482435140001
 31
0.0
  0
LINE
  5
5E
330
2
100
AcDbEntity
  8
0
 62
     3
100
AcDbLine
 10
51.91512079
 20
66.4948365585
 30
0.0
 11
51.51515741109998
 21
66.4948365585
 31
0.0
  0
LINE
  5
5F
330
2
100
AcDbEntity
  8
0
 62
     3
100
AcDbLine
 10
51.91497116169998
 20
66.4950529262
 30
0.0
 11
52.1149776197
 21
67.4950225485
 31
0.0
  0
LINE
  5
60
330
2
100
AcDbEntity
  8
0
 62
     3
100
AcDbLine
 10
52.11519403219996
 20
67.49483655849999
 30
0.0
 11
51.31514520399997
 21
67.49483655849999
 31
0.0
  0
LINE
  5
61
330
2
100
AcDbEntity
  8
0
 62
     3
100
AcDbLine
 10
52.11519403219996
 20
68.2948853866
 30
0.0
 11
51.31514520399997
 21
68.2948853866
 31
0.0
  0
LINE
  5
62
330
2
100
AcDbEntity
  8
0
 62
     3
100
AcDbLine
 10
51.31514858149998
 20
67.49482877840001
 30
0.0
 11
51.51516482179996
 21
66.49479888080001
 31
0.0
  0
LINE
  5
63
330
2
100
AcDbEntity
  8
0
 62
     3
100
AcDbLine
 10
49.71526117079999
 20
73.0947816268
 30
0.0
 11
49.71526117079999
 21
72.6948182479
 31
0.0
  0
LINE
  5
64
330
2
100
AcDbEntity
  8
0
 62
     3
100
AcDbLine
 10
51.31526727439998
 20
72.6948335067
 30
0.0
 11
51.31526727439998
 21
73.79482435140001
 31
0.0
  0
ARC
  5
65
330
2
100
AcDbEntity
  8
0
 62
     3
100
AcDbCircle
 10
56.31526727439998
 20
70.7948243514
 30
0.0
 40
1.0
100
AcDbArc
 50
89.99998201389999
 51
179.9999640277999
  0
ARC
  5
66
330
2
100
AcDbEntity
  8
0
 62
     3
100
AcDbCircle
 10
54.21527642959998
 20
122.2415864363999
 30
0.0
 40
2.0
100
AcDbArc
 50
179.9999640277999
 51
270.0000006831999
  0
LINE
  5
67
330
2
100
AcDbEntity
  8
0
 62
     3
100
AcDbLine
 10
45.51526422259996
 20
135.6415803329
 30
0.0
 11
45.51526422259996
 21
119.4450013534
 31
0.0
  0
CIRCLE
  5
68
330
2
100
AcDbEntity
  8
0
 62
     3
100
AcDbCircle
 10
48.31528253309997
 20
116.2415711776
 30
0.0
 40
1.1999998093
  0
CIRCLE
  5
69
330
2
100
AcDbEntity
  8
0
 62
     3
100
AcDbCircle
 10
48.3152672744
 20
116.2415711776
 30
0.0
 40
1.1999998093
  0
ARC
  5
6A
330
2
100
AcDbEntity
  8
0
 62
     3
100
AcDbCircle
 10
48.31528253309997
 20
116.4415833846
 30
0.0
 40
3.0
100
AcDbArc
 50
0.0
 51
89.99998201389999
  0
ARC
  5
6B
330
2
100
AcDbEntity
  8
0
 62
     3
100
AcDbCircle
 10
48.3152672744
 20
116.4415833846
 30
0.0
 40
3.0
100
AcDbArc
 50
0.0
 51
89.99998201389999
  0
LINE
  5
6C
330
2
100
AcDbEntity
  8
0
  6
CENTER
 62
     3
100
AcDbLine
 10
46.31526727439998
 20
116.2415711776
 30
0.0
 11
50.31528253309995
 21
116.2415711776
 31
0.0
  0
LINE
  5
6D
330
2
100
AcDbEntity
  8
0
 62
     3
100
AcDbLine
 10
51.49554986709998
 20
113.4415833845999
 30
0.0
 11
46.31528253309997
 21
113.4415833845999
 31
0.0
  0
ARC
  5
6E
330
2
100
AcDbEntity
  8
0
 62
     3
100
AcDbCircle
 10
46.31528253309997
 20
114.4415833845999
 30
0.0
 40
1.0
100
AcDbArc
 50
179.9999640277999
 51
270.0000006831999
  0
ARC
  5
6F
330
2
100
AcDbEntity
  8
0
 62
     3
100
AcDbCircle
 10
46.31526727439998
 20
114.4415833845999
 30
0.0
 40
1.0
100
AcDbArc
 50
179.9999640277999
 51
270.0000006831999
  0
LINE
  5
70
330
2
100
AcDbEntity
  8
0
 62
     3
100
AcDbLine
 10
45.31528253309995
 20
119.4415833846
 30
0.0
 11
48.3764702773
 21
119.4415833846
 31
0.0
  0
LINE
  5
71
330
2
100
AcDbEntity
  8
0
 62
     3
100
AcDbLine
 10
45.31528253309995
 20
119.4415833846
 30
0.0
 11
45.31528253309995
 21
114.4415833845999
 31
0.0
  0
LINE
  5
72
330
2
100
AcDbEntity
  8
0
  6
CENTER
 62
     3
100
AcDbLine
 10
48.31528253309997
 20
118.2415711776
 30
0.0
 11
48.31528253309997
 21
114.2415711776
 31
0.0
  0
LINE
  5
73
330
2
100
AcDbEntity
  8
0
  6
CENTER
 62
     3
100
AcDbLine
 10
48.3152672744
 20
118.2415711776
 30
0.0
 11
48.3152672744
 21
114.2415711776
 31
0.0
  0
ARC
  5
74
330
2
100
AcDbEntity
  8
0
 62
     3
100
AcDbCircle
 10
45.71527642959998
 20
119.6415803328999
 30
0.0
 40
0.1999999881
100
AcDbArc
 50
179.9999640277999
 51
270.0000006831999
  0
LINE
  5
75
330
2
100
AcDbEntity
  8
0
 62
     3
100
AcDbLine
 10
55.40531791429996
 20
112.5410895573
 30
0.0
 11
55.72521889579999
 21
109.3420789755999
 31
0.0
  0
LINE
  5
76
330
2
100
AcDbEntity
  8
0
 62
     3
100
AcDbLine
 10
52.11528558489998
 20
113.4909913436
 30
0.0
 11
52.11528558489998
 21
104.9415833846
 31
0.0
  0
LINE
  5
77
330
2
100
AcDbEntity
  8
0
 62
     3
100
AcDbLine
 10
51.31528253309998
 20
113.4065339462
 30
0.0
 11
51.31528253309998
 21
104.9415833846
 31
0.0
  0
LINE
  5
78
330
2
100
AcDbEntity
  8
0
 62
     3
100
AcDbLine
 10
52.11527489799999
 20
104.9415709292
 30
0.0
 11
51.91527570579999
 21
103.9415687073999
 31
0.0
  0
LINE
  5
79
330
2
100
AcDbEntity
  8
0
 62
     3
100
AcDbLine
 10
51.5152794814
 20
103.9415833846
 30
0.0
 11
51.91528863669997
 21
103.9415833846
 31
0.0
  0
LINE
  5
7A
330
2
100
AcDbEntity
  8
0
 62
     3
100
AcDbLine
 10
51.31528932519998
 20
104.9415892513999
 30
0.0
 11
51.5152885782
 21
103.9415870295999
 31
0.0
  0
LINE
  5
7B
330
2
100
AcDbEntity
  8
0
 62
     3
100
AcDbLine
 10
51.31528253309998
 20
104.9415833846
 30
0.0
 11
52.11528558489998
 21
104.9415833846
 31
0.0
  0
LINE
  5
7C
330
2
100
AcDbEntity
  8
0
 62
     3
100
AcDbLine
 10
51.31528253309998
 20
116.4415833846
 30
0.0
 11
51.31528253309998
 21
113.6415803329
 31
0.0
  0
LINE
  5
7D
330
2
100
AcDbEntity
  8
0
 62
     3
100
AcDbLine
 10
51.31526727439998
 20
116.4415833846
 30
0.0
 11
51.31526727439998
 21
113.6415803329
 31
0.0
  0
ARC
  5
7E
330
2
100
AcDbEntity
  8
0
 62
     3
100
AcDbCircle
 10
51.5152794814
 20
113.6415803329
 30
0.0
 40
0.1999999881
100
AcDbArc
 50
179.9999640277999
 51
270.0000006831999
  0
ARC
  5
7F
330
2
100
AcDbEntity
  8
0
 62
     3
100
AcDbCircle
 10
51.51526422259997
 20
113.6415803329
 30
0.0
 40
0.1999999881
100
AcDbArc
 50
179.9999640277999
 51
270.0000006831999
  0
LINE
  5
80
330
2
100
AcDbEntity
  8
0
 62
     3
100
AcDbLine
 10
51.31528253309998
 20
111.9415681258
 30
0.0
 11
52.11528558489998
 21
111.9415681258
 31
0.0
  0
LINE
  5
81
330
2
100
AcDbEntity
  8
0
 62
     3
100
AcDbLine
 10
51.31528253309998
 20
113.4415681257999
 30
0.0
 11
52.11528558489998
 21
113.4415681257999
 31
0.0
  0
ARC
  5
82
330
2
100
AcDbEntity
  8
0
 62
     3
100
AcDbCircle
 10
54.41028375379997
 20
112.4415833845999
 30
0.0
 40
1.0
100
AcDbArc
 50
5.710591391499997
 51
89.99998201389999
  0
ARC
  5
83
330
2
100
AcDbEntity
  8
0
 62
     3
100
AcDbCircle
 10
46.31528253309997
 20
140.2415864363999
 30
0.0
 40
1.0
100
AcDbArc
 50
89.99992737239997
 51
179.9999640277999
  0
ARC
  5
84
330
2
100
AcDbEntity
  8
0
 62
     3
100
AcDbCircle
 10
46.31526727439998
 20
140.2415864363999
 30
0.0
 40
1.0
100
AcDbArc
 50
89.99998201389999
 51
179.9999640277999
  0
LINE
  5
85
330
2
100
AcDbEntity
  8
0
 62
     3
100
AcDbLine
 10
45.31528253309995
 20
135.6415803329
 30
0.0
 11
45.51526422259996
 21
135.6415803329
 31
0.0
  0
LINE
  5
86
330
2
100
AcDbEntity
  8
0
 62
     3
100
AcDbLine
 10
45.31528253309995
 20
140.2415864363999
 30
0.0
 11
45.31528253309995
 21
135.6415803329
 31
0.0
  0
LINE
  5
87
330
2
100
AcDbEntity
  8
0
 62
     3
100
AcDbLine
 10
52.21527642959998
 20
141.9415833845999
 30
0.0
 11
52.21527642959998
 21
122.2415864363999
 31
0.0
  0
LINE
  5
88
330
2
100
AcDbEntity
  8
0
 62
     3
100
AcDbLine
 10
64.81528253309996
 20
67.54482435140001
 30
0.0
 11
84.81528253309999
 21
67.54482435140001
 31
0.0
  0
LINE
  5
89
330
2
100
AcDbEntity
  8
0
 62
     3
100
AcDbLine
 10
64.81528253309996
 20
61.0448243514
 30
0.0
 11
84.81528253309999
 21
61.0448243514
 31
0.0
  0
LINE
  5
8A
330
2
100
AcDbEntity
  8
0
 62
     3
100
AcDbLine
 10
84.71527642959998
 20
61.0448243514
 30
0.0
 11
64.91528863669997
 21
61.0448243514
 31
0.0
  0
LINE
  5
8B
330
2
100
AcDbEntity
  8
0
 62
     3
100
AcDbLine
 10
64.91528863669997
 20
67.54482435140001
 30
0.0
 11
84.71527642959998
 21
67.54482435140001
 31
0.0
  0
LINE
  5
8C
330
2
100
AcDbEntity
  8
0
 62
     3
100
AcDbLine
 10
64.81528253309996
 20
61.0448243514
 30
0.0
 11
64.81528253309996
 21
67.54482435140001
 31
0.0
  0
LINE
  5
8D
330
2
100
AcDbEntity
  8
0
 62
     3
100
AcDbLine
 10
64.91528863669997
 20
67.54482435140001
 30
0.0
 11
64.91528863669997
 21
61.0448243514
 31
0.0
  0
LINE
  5
8E
330
2
100
AcDbEntity
  8
0
 62
     3
100
AcDbLine
 10
84.81528253309999
 20
61.0448243514
 30
0.0
 11
84.81528253309999
 21
67.54482435140001
 31
0.0
  0
LINE
  5
8F
330
2
100
AcDbEntity
  8
0
 62
     3
100
AcDbLine
 10
84.71527642959998
 20
67.54482435140001
 30
0.0
 11
84.71527642959998
 21
61.0448243514
 31
0.0
  0
LINE
  5
90
330
2
100
AcDbEntity
  8
0
 62
     3
100
AcDbLine
 10
56.72025079489998
 20
108.4415833845999
 30
0.0
 11
85.91028375379998
 21
108.4415833845999
 31
0.0
  0
LINE
  5
91
330
2
100
AcDbEntity
  8
0
 62
     3
100
AcDbLine
 10
91.31528253309999
 20
72.6948335067
 30
0.0
 11
97.1152855849
 21
72.6948335067
 31
0.0
  0
LINE
  5
92
330
2
100
AcDbEntity
  8
0
 62
     3
100
AcDbLine
 10
95.71521539450001
 20
73.09476636799998
 30
0.0
 11
92.9152276015
 21
73.09476636799998
 31
0.0
  0
LINE
  5
93
330
2
100
AcDbEntity
  8
0
 62
     3
100
AcDbLine
 10
91.31528253309999
 20
64.29482435140001
 30
0.0
 11
97.28819818259999
 21
64.29482435140001
 31
0.0
  0
ARC
  5
94
330
2
100
AcDbEntity
  8
0
 62
     3
100
AcDbCircle
 10
94.31522149799999
 20
63.894830455
 30
0.0
 40
9.0
100
AcDbArc
 50
260.3479771416
 51
269.9999087031
  0
LINE
  5
95
330
2
100
AcDbEntity
  8
0
 62
     3
100
AcDbLine
 10
91.31528253309999
 20
55.89483045499999
 30
0.0
 11
97.1152855849
 21
55.89483045499999
 31
0.0
  0
LINE
  5
96
330
2
100
AcDbEntity
  8
0
 62
     3
100
AcDbLine
 10
91.31528253309999
 20
61.0448243514
 30
0.0
 11
91.31528253309999
 21
67.54482435140001
 31
0.0
  0
LINE
  5
97
330
2
100
AcDbEntity
  8
0
 62
     3
100
AcDbLine
 10
90.46527642959999
 20
61.0448243514
 30
0.0
 11
90.46527642959999
 21
67.54482435140001
 31
0.0
  0
LINE
  5
98
330
2
100
AcDbEntity
  8
0
 62
     3
100
AcDbLine
 10
91.31528253309999
 20
60.29487012779998
 30
0.0
 11
91.31528253309999
 21
68.29487012779998
 31
0.0
  0
LINE
  5
99
330
2
100
AcDbEntity
  8
0
 62
     3
100
AcDbLine
 10
90.51523370499998
 20
60.29487012779998
 30
0.0
 11
90.51523370499998
 21
68.29487012779998
 31
0.0
  0
LINE
  5
9A
330
2
100
AcDbEntity
  8
0
 62
     3
100
AcDbLine
 10
90.71530694719999
 20
62.09485792079998
 30
0.0
 11
90.71530694719999
 21
66.49488233479999
 31
0.0
  0
LINE
  5
9B
330
2
100
AcDbEntity
  8
0
 62
     3
100
AcDbLine
 10
91.11527032609995
 20
66.49488233479999
 30
0.0
 11
91.11527032609995
 21
62.09485792079998
 31
0.0
  0
LINE
  5
9C
330
2
100
AcDbEntity
  8
0
 62
     3
100
AcDbLine
 10
87.31529779189996
 20
57.7948243514
 30
0.0
 11
87.31529779189996
 21
70.7948243514
 31
0.0
  0
LINE
  5
9D
330
2
100
AcDbEntity
  8
0
 62
     3
100
AcDbLine
 10
86.81529779189999
 20
57.7948243514
 30
0.0
 11
86.81529779189999
 21
70.7948243514
 31
0.0
  0
ARC
  5
9E
330
2
100
AcDbEntity
  8
0
 62
     3
100
AcDbCircle
 10
86.31529779189998
 20
57.7948243514
 30
0.0
 40
1.0
100
AcDbArc
 50
270.0000179861
 51
0.0
  0
LINE
  5
9F
330
2
100
AcDbEntity
  8
0
 62
     3
100
AcDbLine
 10
91.31528253309999
 20
55.89483045499999
 30
0.0
 11
91.31528253309999
 21
54.7948243514
 31
0.0
  0
ARC
  5
A0
330
2
100
AcDbEntity
  8
0
 62
     3
100
AcDbCircle
 10
94.26523370499998
 20
55.89483045499999
 30
0.0
 40
1.6999998093
100
AcDbArc
 50
179.9999093863
 51
210.883456662
  0
LINE
  5
A1
330
2
100
AcDbEntity
  8
0
 62
     3
100
AcDbLine
 10
90.46527642959999
 20
61.0448243514
 30
0.0
 11
90.51523370499998
 21
61.0448243514
 31
0.0
  0
LINE
  5
A2
330
2
100
AcDbEntity
  8
0
 62
     3
100
AcDbLine
 10
90.51511163469999
 20
60.2948853866
 30
0.0
 11
91.31516046280001
 21
60.2948853866
 31
0.0
  0
LINE
  5
A3
330
2
100
AcDbEntity
  8
0
 62
     3
100
AcDbLine
 10
90.51511163469999
 20
61.09481214439999
 30
0.0
 11
91.31516046280001
 21
61.09481214439999
 31
0.0
  0
LINE
  5
A4
330
2
100
AcDbEntity
  8
0
 62
     3
100
AcDbLine
 10
90.515214921
 20
61.09479852149999
 30
0.0
 11
90.71521992009994
 21
62.09476844770001
 31
0.0
  0
LINE
  5
A5
330
2
100
AcDbEntity
  8
0
 62
     3
100
AcDbLine
 10
91.1151865399
 20
62.0948009608
 30
0.0
 11
91.31519080969999
 21
61.09483091299999
 31
0.0
  0
LINE
  5
A6
330
2
100
AcDbEntity
  8
0
 62
     3
100
AcDbLine
 10
90.71518487689996
 20
62.0948121444
 30
0.0
 11
91.1151482558
 21
62.0948121444
 31
0.0
  0
ARC
  5
A7
330
2
100
AcDbEntity
  8
0
 62
     3
100
AcDbCircle
 10
86.31529779189998
 20
70.7948243514
 30
0.0
 40
1.0
100
AcDbArc
 50
0.0
 51
89.99998201389999
  0
LINE
  5
A8
330
2
100
AcDbEntity
  8
0
 62
     3
100
AcDbLine
 10
90.46527642959999
 20
67.54482435140001
 30
0.0
 11
90.51523370499998
 21
67.54482435140001
 31
0.0
  0
LINE
  5
A9
330
2
100
AcDbEntity
  8
0
 62
     3
100
AcDbLine
 10
90.51511163469999
 20
67.49483655849999
 30
0.0
 11
91.31516046280001
 21
67.49483655849999
 31
0.0
  0
LINE
  5
AA
330
2
100
AcDbEntity
  8
0
 62
     3
100
AcDbLine
 10
90.51511163469999
 20
68.2948853866
 30
0.0
 11
91.31516046280001
 21
68.2948853866
 31
0.0
  0
LINE
  5
AB
330
2
100
AcDbEntity
  8
0
 62
     3
100
AcDbLine
 10
90.71519023189996
 20
66.4947636819
 30
0.0
 11
90.51517399149998
 21
67.4947935795
 31
0.0
  0
LINE
  5
AC
330
2
100
AcDbEntity
  8
0
 62
     3
100
AcDbLine
 10
91.31515559939995
 20
67.494823601
 30
0.0
 11
91.1151386296
 21
66.494793825
 31
0.0
  0
LINE
  5
AD
330
2
100
AcDbEntity
  8
0
 62
     3
100
AcDbLine
 10
90.71518487689996
 20
66.4948365585
 30
0.0
 11
91.1151482558
 21
66.4948365585
 31
0.0
  0
LINE
  5
AE
330
2
100
AcDbEntity
  8
0
 62
     3
100
AcDbLine
 10
91.31528253309999
 20
72.6948335067
 30
0.0
 11
91.31528253309999
 21
73.79482435140001
 31
0.0
  0
LINE
  5
AF
330
2
100
AcDbEntity
  8
0
 62
     3
100
AcDbLine
 10
92.9152886367
 20
73.0947816268
 30
0.0
 11
92.9152886367
 21
72.6948182479
 31
0.0
  0
LINE
  5
B0
330
2
100
AcDbEntity
  8
0
 62
     3
100
AcDbLine
 10
97.31528253309999
 20
54.9948365585
 30
0.0
 11
97.31528253309999
 21
73.5948274032
 31
0.0
  0
ARC
  5
B1
330
2
100
AcDbEntity
  8
0
 62
     3
100
AcDbCircle
 10
97.1152855849
 20
56.0948274032
 30
0.0
 40
0.1999999881
100
AcDbArc
 50
270.0000179861
 51
0.0
  0
ARC
  5
B2
330
2
100
AcDbEntity
  8
0
 62
     3
100
AcDbCircle
 10
97.1152855849
 20
54.9948365585
 30
0.0
 40
0.1999999881
100
AcDbArc
 50
270.0000179861
 51
0.0
  0
ARC
  5
B3
330
2
100
AcDbEntity
  8
0
 62
     3
100
AcDbCircle
 10
94.31522149799999
 20
63.894830455
 30
0.0
 40
9.0
100
AcDbArc
 50
270.0000179861
 51
279.6519495475
  0
ARC
  5
B4
330
2
100
AcDbEntity
  8
0
 62
     3
100
AcDbCircle
 10
94.36527032609999
 20
55.89483045499999
 30
0.0
 40
1.6999998093
100
AcDbArc
 50
329.1163605168
 51
359.9999360237998
  0
ARC
  5
B5
330
2
100
AcDbEntity
  8
0
 62
     3
100
AcDbCircle
 10
97.1152855849
 20
72.49482129970001
 30
0.0
 40
0.1999999881
100
AcDbArc
 50
0.0
 51
89.99998201389999
  0
ARC
  5
B6
330
2
100
AcDbEntity
  8
0
 62
     3
100
AcDbCircle
 10
97.1152855849
 20
73.5948274032
 30
0.0
 40
0.1999999881
100
AcDbArc
 50
0.0
 51
89.99998201389999
  0
LINE
  5
B7
330
2
100
AcDbEntity
  8
0
 62
     3
100
AcDbLine
 10
95.71527642959996
 20
73.0947816268
 30
0.0
 11
95.71527642959996
 21
72.6948182479
 31
0.0
  0
ARC
  5
B8
330
2
100
AcDbEntity
  8
0
 62
     3
100
AcDbCircle
 10
88.41527337789996
 20
122.2415864363999
 30
0.0
 40
2.0
100
AcDbArc
 50
270.0000179861
 51
0.0
  0
LINE
  5
B9
330
2
100
AcDbEntity
  8
0
 62
     3
100
AcDbLine
 10
97.31526727439998
 20
140.2415864363999
 30
0.0
 11
97.31526727439998
 21
114.4415833845999
 31
0.0
  0
CIRCLE
  5
BA
330
2
100
AcDbEntity
  8
0
 62
     3
100
AcDbCircle
 10
94.31528253309997
 20
116.2415711776
 30
0.0
 40
1.1999998093
  0
ARC
  5
BB
330
2
100
AcDbEntity
  8
0
 62
     3
100
AcDbCircle
 10
94.31526727439999
 20
116.4415833846
 30
0.0
 40
3.0
100
AcDbArc
 50
89.99998201389999
 51
179.9999640277999
  0
LINE
  5
BC
330
2
100
AcDbEntity
  8
0
  6
CENTER
 62
     3
100
AcDbLine
 10
96.31528253309999
 20
116.2415711776
 30
0.0
 11
92.31526727439998
 21
116.2415711776
 31
0.0
  0
LINE
  5
BD
330
2
100
AcDbEntity
  8
0
 62
     3
100
AcDbLine
 10
90.5152794814
 20
113.4074494735
 30
0.0
 11
90.5152794814
 21
104.9415986434
 31
0.0
  0
LINE
  5
BE
330
2
100
AcDbEntity
  8
0
 62
     3
100
AcDbLine
 10
91.31528253309999
 20
113.4074494735
 30
0.0
 11
91.31528253309999
 21
104.9415986434
 31
0.0
  0
LINE
  5
BF
330
2
100
AcDbEntity
  8
0
 62
     3
100
AcDbLine
 10
87.22521312089998
 20
112.5410908517
 30
0.0
 11
86.90531213939998
 21
109.34208027
 31
0.0
  0
LINE
  5
C0
330
2
100
AcDbEntity
  8
0
 62
     3
100
AcDbLine
 10
91.3152563524
 20
104.9415815929997
 30
0.0
 11
91.11525594449998
 21
103.9415796144
 31
0.0
  0
LINE
  5
C1
330
2
100
AcDbEntity
  8
0
 62
     3
100
AcDbLine
 10
90.51529682589999
 20
104.9415959461
 30
0.0
 11
90.715297173
 21
103.9415939675
 31
0.0
  0
LINE
  5
C2
330
2
100
AcDbEntity
  8
0
 62
     3
100
AcDbLine
 10
90.5152794814
 20
104.9415986434
 30
0.0
 11
91.31528253309999
 21
104.9415986434
 31
0.0
  0
LINE
  5
C3
330
2
100
AcDbEntity
  8
0
 62
     3
100
AcDbLine
 10
90.71527642959996
 20
103.9415986434
 30
0.0
 11
91.11527032609995
 21
103.9415986434
 31
0.0
  0
CIRCLE
  5
C4
330
2
100
AcDbEntity
  8
0
 62
     3
100
AcDbCircle
 10
87.31526727439998
 20
115.9415681258
 30
0.0
 40
0.6999999881
  0
CIRCLE
  5
C5
330
2
100
AcDbEntity
  8
0
 62
     3
100
AcDbCircle
 10
87.31526727439998
 20
115.9415681258
 30
0.0
 40
1.0999994278
  0
LINE
  5
C6
330
2
100
AcDbEntity
  8
0
  6
CENTER
 62
     3
100
AcDbLine
 10
87.31526727439998
 20
117.9415681258
 30
0.0
 11
87.31526727439998
 21
113.9415681258
 31
0.0
  0
ARC
  5
C7
330
2
100
AcDbEntity
  8
0
 62
     3
100
AcDbCircle
 10
88.22026605359999
 20
112.4415833845999
 30
0.0
 40
1.0
100
AcDbArc
 50
89.99998201389999
 51
174.2893794665999
  0
LINE
  5
C8
330
2
100
AcDbEntity
  8
0
 62
     3
100
AcDbLine
 10
91.31528253309999
 20
116.4415833846
 30
0.0
 11
91.31528253309999
 21
113.6415803329
 31
0.0
  0
LINE
  5
C9
330
2
100
AcDbEntity
  8
0
 62
     3
100
AcDbLine
 10
91.31526727439998
 20
116.4415833846
 30
0.0
 11
91.31526727439998
 21
113.6415803329
 31
0.0
  0
ARC
  5
CA
330
2
100
AcDbEntity
  8
0
 62
     3
100
AcDbCircle
 10
91.11527032609995
 20
113.6415803329
 30
0.0
 40
0.1999999881
100
AcDbArc
 50
270.0000179861
 51
0.0
  0
LINE
  5
CB
330
2
100
AcDbEntity
  8
0
 62
     3
100
AcDbLine
 10
90.5152794814
 20
111.9415681258
 30
0.0
 11
91.31528253309999
 21
111.9415681258
 31
0.0
  0
LINE
  5
CC
330
2
100
AcDbEntity
  8
0
 62
     3
100
AcDbLine
 10
90.5152794814
 20
113.4415681257999
 30
0.0
 11
91.31528253309999
 21
113.4415681257999
 31
0.0
  0
ARC
  5
CD
330
2
100
AcDbEntity
  8
0
 62
     3
100
AcDbCircle
 10
97.1152703261
 20
119.6415803328999
 30
0.0
 40
0.1999999881
100
AcDbArc
 50
270.0000179861
 51
0.0
  0
ARC
  5
CE
330
2
100
AcDbEntity
  8
0
 62
     3
100
AcDbCircle
 10
96.31526727439998
 20
114.4415681257999
 30
0.0
 40
1.0
100
AcDbArc
 50
270.0000179861
 51
0.0
  0
ARC
  5
CF
330
2
100
AcDbEntity
  8
0
 62
     3
100
AcDbCircle
 10
96.31526727439998
 20
114.4415833845999
 30
0.0
 40
1.0
100
AcDbArc
 50
270.0000179861
 51
0.0
  0
LINE
  5
D0
330
2
100
AcDbEntity
  8
0
  6
CENTER
 62
     3
100
AcDbLine
 10
94.31528253309997
 20
118.2415711776
 30
0.0
 11
94.31528253309997
 21
114.2415711776
 31
0.0
  0
LINE
  5
D1
330
2
100
AcDbEntity
  8
0
  6
CENTER
 62
     3
100
AcDbLine
 10
94.31526727439999
 20
118.2415711776
 30
0.0
 11
94.31526727439999
 21
114.2415711776
 31
0.0
  0
LINE
  5
D2
330
2
100
AcDbEntity
  8
0
 62
     3
100
AcDbLine
 10
94.2873589492
 20
119.4415833846
 30
0.0
 11
97.1152703261
 21
119.4415833846
 31
0.0
  0
LINE
  5
D3
330
2
100
AcDbEntity
  8
0
 62
     3
100
AcDbLine
 10
90.41527337789998
 20
141.9415833845999
 30
0.0
 11
90.41527337789998
 21
122.2415864363999
 31
0.0
  0
ARC
  5
D4
330
2
100
AcDbEntity
  8
0
 62
     3
100
AcDbCircle
 10
96.31526727439998
 20
140.2415864363999
 30
0.0
 40
1.0
100
AcDbArc
 50
0.0
 51
89.99998201389999
  0
LINE
  5
D6
330
2
100
AcDbEntity
  8
0
100
AcDbLine
 10
210.0
 20
297.0
 30
0.0
 11
0.0
 21
297.0
 31
0.0
  0
LINE
  5
D9
330
2
100
AcDbEntity
  8
0
 62
     3
100
AcDbLine
 10
89.39829034559997
 20
210.9415986434
 30
0.0
 11
81.85896844619998
 21
210.9415986434
 31
0.0
  0
LINE
  5
DA
330
2
100
AcDbEntity
  8
0
 62
     3
100
AcDbLine
 10
81.85896844619998
 20
210.9415986434
 30
0.0
 11
89.41528863669999
 21
210.9415986434
 31
0.0
  0
LINE
  5
DB
330
2
100
AcDbEntity
  8
0
  6
CENTER
 62
     3
100
AcDbLine
 10
76.81526274409998
 20
149.9415713798
 30
0.0
 11
87.2993874642
 21
168.1372607004
 31
0.0
  0
ARC
  5
DC
330
2
100
AcDbEntity
  8
0
  6
PHANTOM
 62
     3
100
AcDbCircle
 10
76.81528253309998
 20
149.9415833846
 30
0.0
 40
21.0
100
AcDbArc
 50
60.04998499399999
 51
116.4499715371
  0
LINE
  5
DE
330
2
100
AcDbEntity
  8
0
 62
     3
100
AcDbLine
 10
86.56526727439999
 20
158.9415681258
 30
0.0
 11
56.06526727439998
 21
158.9415681258
 31
0.0
  0
LINE
  5
DF
330
2
100
AcDbEntity
  8
0
 62
     3
100
AcDbLine
 10
56.06526727439998
 20
158.9415833846
 30
0.0
 11
86.56526727439999
 21
158.9415833846
 31
0.0
  0
LINE
  5
E0
330
2
100
AcDbEntity
  8
0
 62
     3
100
AcDbLine
 10
96.1152855849
 20
201.4415986433998
 30
0.0
 11
45.5152794814
 21
201.4415986433998
 31
0.0
  0
LINE
  5
E1
330
2
100
AcDbEntity
  8
0
 62
     3
100
AcDbLine
 10
86.8652855849
 20
220.4415986433999
 30
0.0
 11
46.5152794814
 21
220.4415986433999
 31
0.0
  0
LINE
  5
E2
330
2
100
AcDbEntity
  8
0
  6
PHANTOM
 62
     3
100
AcDbLine
 10
99.37358636609999
 20
155.4915864364
 30
0.0
 11
44.27492303609997
 21
155.4915864364
 31
0.0
  0
LINE
  5
E3
330
2
100
AcDbEntity
  8
0
 62
     3
100
AcDbLine
 10
53.21527642959998
 20
210.9415986434
 30
0.0
 11
57.39304132219999
 21
210.9415986434
 31
0.0
  0
LINE
  5
E4
330
2
100
AcDbEntity
  8
0
 62
     3
100
AcDbLine
 10
53.21744317769997
 20
210.9415986434
 30
0.0
 11
57.39304132219999
 21
210.9415986434
 31
0.0
  0
ARC
  5
E5
330
2
100
AcDbEntity
  8
0
  6
PHANTOM
 62
     3
100
AcDbCircle
 10
50.2152611708
 20
151.3248994247
 30
0.0
 40
5.8333330154
100
AcDbArc
 50
74.13285151530002
 51
105.8671125125
  0
LINE
  5
E6
330
2
100
AcDbEntity
  8
0
  6
CENTER
 62
     3
100
AcDbLine
 10
47.71527642959997
 20
149.0415742294
 30
0.0
 11
52.71527642959998
 21
149.0415742294
 31
0.0
  0
CIRCLE
  5
E7
330
2
100
AcDbEntity
  8
0
 62
     3
100
AcDbCircle
 10
50.21527642959998
 20
149.0415742294
 30
0.0
 40
2.024999618499998
  0
CIRCLE
  5
E8
330
2
100
AcDbEntity
  8
0
 62
     3
100
AcDbCircle
 10
50.21527642959998
 20
149.0415742294
 30
0.0
 40
1.1999998093
  0
CIRCLE
  5
E9
330
2
100
AcDbEntity
  8
0
 62
     3
100
AcDbCircle
 10
50.2152611708
 20
149.0415742294
 30
0.0
 40
2.024999618499998
  0
CIRCLE
  5
EA
330
2
100
AcDbEntity
  8
0
 62
     3
100
AcDbCircle
 10
50.2152611708
 20
149.0415742294
 30
0.0
 40
1.1999998093
  0
LINE
  5
EB
330
2
100
AcDbEntity
  8
0
 62
     3
100
AcDbLine
 10
55.56526727439996
 20
154.4415681257999
 30
0.0
 11
46.33328790420001
 21
154.4415681257999
 31
0.0
  0
LINE
  5
EC
330
2
100
AcDbEntity
  8
0
 62
     3
100
AcDbLine
 10
47.31526727439996
 20
154.4415833845999
 30
0.0
 11
55.47623224019996
 21
154.4415833845999
 31
0.0
  0
LINE
  5
ED
330
2
100
AcDbEntity
  8
0
  6
PHANTOM
 62
     3
100
AcDbLine
 10
47.95560335389999
 20
156.1022327021998
 30
0.0
 11
47.9236009267
 21
155.4915900172999
 31
0.0
  0
ARC
  5
EE
330
2
100
AcDbEntity
  8
0
 62
     3
100
AcDbCircle
 10
45.51526422259996
 20
145.6415803329
 30
0.0
 40
0.1999999881
100
AcDbArc
 50
179.9999640277999
 51
270.0000006831999
  0
ARC
  5
EF
330
2
100
AcDbEntity
  8
0
 62
     3
100
AcDbCircle
 10
46.31528253309997
 20
153.4415681257998
 30
0.0
 40
1.0
100
AcDbArc
 50
89.99992737239997
 51
179.9999640277999
  0
LINE
  5
F0
330
2
100
AcDbEntity
  8
0
 62
     3
100
AcDbLine
 10
45.31531305069997
 20
150.4415833846
 30
0.0
 11
46.31320733779998
 21
150.4415833846
 31
0.0
  0
ARC
  5
F1
330
2
100
AcDbEntity
  8
0
 62
     3
100
AcDbCircle
 10
46.31526727439998
 20
153.4415833845999
 30
0.0
 40
1.0
100
AcDbArc
 50
89.99998201389999
 51
179.9999640277999
  0
LINE
  5
F2
330
2
100
AcDbEntity
  8
0
 62
     3
100
AcDbLine
 10
45.31528253309995
 20
153.3998200789999
 30
0.0
 11
45.31528253309995
 21
145.6415803329
 31
0.0
  0
LINE
  5
F3
330
2
100
AcDbEntity
  8
0
 62
     3
100
AcDbLine
 10
45.31526727439998
 20
153.4415833845999
 30
0.0
 11
45.31526727439998
 21
145.6415803329
 31
0.0
  0
LINE
  5
F4
330
2
100
AcDbEntity
  8
0
 62
     3
100
AcDbLine
 10
45.51526422259996
 20
145.4415681258
 30
0.0
 11
46.31528253309997
 21
145.4415681258
 31
0.0
  0
LINE
  5
F5
330
2
100
AcDbEntity
  8
0
 62
     3
100
AcDbLine
 10
46.31526727439998
 20
145.4415833846
 30
0.0
 11
45.51526422259996
 21
145.4415833846
 31
0.0
  0
ARC
  5
F6
330
2
100
AcDbEntity
  8
0
 62
     3
100
AcDbCircle
 10
47.31528253309995
 20
153.4415681257998
 30
0.0
 40
1.0
100
AcDbArc
 50
89.99998201389999
 51
179.9999640277999
  0
ARC
  5
F7
330
2
100
AcDbEntity
  8
0
 62
     3
100
AcDbCircle
 10
47.31526727439996
 20
153.4415833845999
 30
0.0
 40
1.0
100
AcDbArc
 50
89.99998201389999
 51
179.9999640277999
  0
LINE
  5
F8
330
2
100
AcDbEntity
  8
0
 62
     3
100
AcDbLine
 10
46.31526727439998
 20
154.4415833845999
 30
0.0
 11
47.04364557029999
 21
154.4415833845999
 31
0.0
  0
ARC
  5
F9
330
2
100
AcDbEntity
  8
0
  6
PHANTOM
 62
     3
100
AcDbCircle
 10
48.87100763079999
 20
156.0542390243
 30
0.0
 40
0.9166666864999999
100
AcDbArc
 50
105.8671125125
 51
176.9999810198
  0
LINE
  5
FA
330
2
100
AcDbEntity
  8
0
 62
     3
100
AcDbLine
 10
55.56526727439996
 20
158.4415833845999
 30
0.0
 11
55.56526727439996
 21
154.4415681257999
 31
0.0
  0
LINE
  5
FB
330
2
100
AcDbEntity
  8
0
  6
PHANTOM
 62
     3
100
AcDbLine
 10
52.47495345829998
 20
156.102217412
 30
0.0
 11
52.50695588549999
 21
155.4915747269999
 31
0.0
  0
LINE
  5
FC
330
2
100
AcDbEntity
  8
0
  6
CENTER
 62
     3
100
AcDbLine
 10
50.2152611708
 20
157.9659974471
 30
0.0
 11
50.2152611708
 21
146.1079957382
 31
0.0
  0
ARC
  5
FD
330
2
100
AcDbEntity
  8
0
  6
PHANTOM
 62
     3
100
AcDbCircle
 10
51.55951471089998
 20
156.0542390243
 30
0.0
 40
0.9166666864999999
100
AcDbArc
 50
2.9999992297
 51
74.13285151530002
  0
ARC
  5
FE
330
2
100
AcDbEntity
  8
0
 62
     3
100
AcDbCircle
 10
56.06526727439998
 20
158.4415681257999
 30
0.0
 40
0.5
100
AcDbArc
 50
89.99998201389999
 51
179.9999640277999
  0
ARC
  5
FF
330
2
100
AcDbEntity
  8
0
 62
     3
100
AcDbCircle
 10
56.06526727439998
 20
158.4415833845999
 30
0.0
 40
0.5
100
AcDbArc
 50
89.99998201389999
 51
179.9999640277999
  0
LINE
  5
100
330
2
100
AcDbEntity
  8
0
 62
     3
100
AcDbLine
 10
53.31529779189998
 20
214.0416047468999
 30
0.0
 11
53.31529779189998
 21
207.8415925399
 31
0.0
  0
LINE
  5
101
330
2
100
AcDbEntity
  8
0
 62
     3
100
AcDbLine
 10
53.21527642959998
 20
213.9415986433998
 30
0.0
 11
53.21527642959998
 21
207.9415986433999
 31
0.0
  0
LINE
  5
102
330
2
100
AcDbEntity
  8
0
 62
     3
100
AcDbLine
 10
47.11528558489997
 20
207.8415925399
 30
0.0
 11
47.11528558489997
 21
214.0416047468999
 31
0.0
  0
LINE
  5
103
330
2
100
AcDbEntity
  8
0
 62
     3
100
AcDbLine
 10
47.21527642959998
 20
213.9415986433998
 30
0.0
 11
47.21527642959998
 21
207.9415986433999
 31
0.0
  0
LINE
  5
104
330
2
100
AcDbEntity
  8
0
 62
     3
100
AcDbLine
 10
55.56528253309998
 20
220.2416016952
 30
0.0
 11
55.56528253309998
 21
201.6415955916999
 31
0.0
  0
LINE
  5
105
330
2
100
AcDbEntity
  8
0
  6
CENTER
 62
     3
100
AcDbLine
 10
50.21527642959998
 20
215.9415986433999
 30
0.0
 11
50.21527642959998
 21
205.9415986433999
 31
0.0
  0
LINE
  5
106
330
2
100
AcDbEntity
  8
0
 62
     3
100
AcDbLine
 10
45.31528253309995
 20
220.2215516464
 30
0.0
 11
45.31528253309995
 21
201.6415955916999
 31
0.0
  0
CIRCLE
  5
107
330
2
100
AcDbEntity
  8
0
 62
     3
100
AcDbCircle
 10
50.21527642959998
 20
210.9415986434
 30
0.0
 40
1.229499816899999
  0
CIRCLE
  5
108
330
2
100
AcDbEntity
  8
0
 62
     3
100
AcDbCircle
 10
50.21527642959998
 20
210.9415986434
 30
0.0
 40
1.5
  0
LINE
  5
109
330
2
100
AcDbEntity
  8
0
  6
CENTER
 62
     3
100
AcDbLine
 10
52.21527642959998
 20
210.9415986434
 30
0.0
 11
48.21527642959998
 21
210.9415986434
 31
0.0
  0
LINE
  5
10A
330
2
100
AcDbEntity
  8
0
 62
     3
100
AcDbLine
 10
47.61528558489998
 20
206.8415925398999
 30
0.0
 11
52.81529779189998
 21
206.8415925398999
 31
0.0
  0
LINE
  5
10B
330
2
100
AcDbEntity
  8
0
 62
     3
100
AcDbLine
 10
52.71527642959998
 20
206.9415986434
 30
0.0
 11
47.71527642959997
 21
206.9415986434
 31
0.0
  0
ARC
  5
10C
330
2
100
AcDbEntity
  8
0
 62
     3
100
AcDbCircle
 10
46.5152794814
 20
201.6415955916999
 30
0.0
 40
0.1999999881
100
AcDbArc
 50
179.9999640277999
 51
270.0000006831999
  0
ARC
  5
10D
330
2
100
AcDbEntity
  8
0
 62
     3
100
AcDbCircle
 10
45.5152794814
 20
201.6415955916999
 30
0.0
 40
0.1999999881
100
AcDbArc
 50
179.9999640277999
 51
270.0000006831999
  0
ARC
  5
10E
330
2
100
AcDbEntity
  8
0
 62
     3
100
AcDbCircle
 10
45.5152794814
 20
206.1415955916999
 30
0.0
 40
0.1999999881
100
AcDbArc
 50
179.9999640277999
 51
269.9999460416999
  0
ARC
  5
10F
330
2
100
AcDbEntity
  8
0
 62
     3
100
AcDbCircle
 10
45.5152794814
 20
207.1415955916999
 30
0.0
 40
0.1999999881
100
AcDbArc
 50
179.9999640277999
 51
269.9999460416999
  0
LINE
  5
110
330
2
100
AcDbEntity
  8
0
 62
     3
100
AcDbLine
 10
47.11925287009996
 20
210.9415986434
 30
0.0
 11
45.31528253309995
 21
210.9415986434
 31
0.0
  0
LINE
  5
111
330
2
100
AcDbEntity
  8
0
 62
     3
100
AcDbLine
 10
45.33707208389997
 20
206.8415925398999
 30
0.0
 11
45.32028741599996
 21
206.8415925398999
 31
0.0
  0
LINE
  5
112
330
2
100
AcDbEntity
  8
0
 62
     3
100
AcDbLine
 10
47.61528558489998
 20
206.8415925398999
 30
0.0
 11
47.61528558489998
 21
207.9367310897
 31
0.0
  0
LINE
  5
113
330
2
100
AcDbEntity
  8
0
 62
     3
100
AcDbLine
 10
47.71527642959997
 20
207.9415986433999
 30
0.0
 11
47.71527642959997
 21
206.9415986434
 31
0.0
  0
LINE
  5
114
330
2
100
AcDbEntity
  8
0
 62
     3
100
AcDbLine
 10
46.31528253309997
 20
201.6415955916999
 30
0.0
 11
46.31528253309997
 21
206.9415986434
 31
0.0
  0
LINE
  5
115
330
2
100
AcDbEntity
  8
0
 62
     3
100
AcDbLine
 10
45.5152794814
 20
206.9415986434
 30
0.0
 11
46.31528253309997
 21
206.9415986434
 31
0.0
  0
LINE
  5
116
330
2
100
AcDbEntity
  8
0
 62
     3
100
AcDbLine
 10
45.5152794814
 20
205.9415986433999
 30
0.0
 11
46.31528253309997
 21
205.9415986433999
 31
0.0
  0
LINE
  5
117
330
2
100
AcDbEntity
  8
0
 62
     3
100
AcDbLine
 10
47.11528558489997
 20
207.8415925399
 30
0.0
 11
47.61528558489998
 21
207.8415925399
 31
0.0
  0
LINE
  5
118
330
2
100
AcDbEntity
  8
0
 62
     3
100
AcDbLine
 10
47.71527642959997
 20
207.9415986433999
 30
0.0
 11
47.21527642959998
 21
207.9415986433999
 31
0.0
  0
LINE
  5
119
330
2
100
AcDbEntity
  8
0
 62
     3
100
AcDbLine
 10
49.06528253309995
 20
211.3765351669
 30
0.0
 11
49.06528253309995
 21
210.5066621199999
 31
0.0
  0
ARC
  5
11A
330
2
100
AcDbEntity
  8
0
 62
     3
100
AcDbCircle
 10
55.7652794814
 20
201.6415955916999
 30
0.0
 40
0.1999999881
100
AcDbArc
 50
179.9999640277999
 51
270.0000006831999
  0
LINE
  5
11B
330
2
100
AcDbEntity
  8
0
 62
     3
100
AcDbLine
 10
53.21527642959998
 20
207.9415986433999
 30
0.0
 11
52.71527642959998
 21
207.9415986433999
 31
0.0
  0
LINE
  5
11C
330
2
100
AcDbEntity
  8
0
 62
     3
100
AcDbLine
 10
52.71527642959998
 20
207.9415986433999
 30
0.0
 11
52.71527642959998
 21
206.9415986434
 31
0.0
  0
LINE
  5
11D
330
2
100
AcDbEntity
  8
0
 62
     3
100
AcDbLine
 10
51.3652703261
 20
211.3765351669
 30
0.0
 11
51.3652703261
 21
210.5066621199999
 31
0.0
  0
LINE
  5
11E
330
2
100
AcDbEntity
  8
0
 62
     3
100
AcDbLine
 10
52.81529779189998
 20
206.8415925398999
 30
0.0
 11
52.81529779189998
 21
207.9367310897
 31
0.0
  0
LINE
  5
11F
330
2
100
AcDbEntity
  8
0
 62
     3
100
AcDbLine
 10
52.81529779189998
 20
207.8415925399
 30
0.0
 11
53.31529779189998
 21
207.8415925399
 31
0.0
  0
LINE
  5
120
330
2
100
AcDbEntity
  8
0
 62
     3
100
AcDbLine
 10
47.61528558489998
 20
215.0416047469
 30
0.0
 11
52.81529779189998
 21
215.0416047469
 31
0.0
  0
LINE
  5
121
330
2
100
AcDbEntity
  8
0
 62
     3
100
AcDbLine
 10
52.71527642959998
 20
214.9415986434
 30
0.0
 11
47.71527642959997
 21
214.9415986434
 31
0.0
  0
ARC
  5
122
330
2
100
AcDbEntity
  8
0
 62
     3
100
AcDbCircle
 10
45.5152794814
 20
220.2416016952
 30
0.0
 40
0.1999999881
100
AcDbArc
 50
89.99998201389999
 51
179.9999640277999
  0
ARC
  5
123
330
2
100
AcDbEntity
  8
0
 62
     3
100
AcDbCircle
 10
45.5152794814
 20
215.2416016952
 30
0.0
 40
0.1999999881
100
AcDbArc
 50
89.99992737239997
 51
179.9999640277999
  0
ARC
  5
124
330
2
100
AcDbEntity
  8
0
 62
     3
100
AcDbCircle
 10
45.5152794814
 20
216.2416016952
 30
0.0
 40
0.1999999881
100
AcDbArc
 50
89.99992737239997
 51
179.9999640277999
  0
LINE
  5
125
330
2
100
AcDbEntity
  8
0
 62
     3
100
AcDbLine
 10
46.31528253309997
 20
220.2416016952
 30
0.0
 11
46.31528253309997
 21
215.4415986434
 31
0.0
  0
LINE
  5
126
330
2
100
AcDbEntity
  8
0
 62
     3
100
AcDbLine
 10
47.11528558489997
 20
214.0416047468999
 30
0.0
 11
47.61528558489998
 21
214.0416047468999
 31
0.0
  0
LINE
  5
127
330
2
100
AcDbEntity
  8
0
 62
     3
100
AcDbLine
 10
47.71527642959997
 20
213.9415986433998
 30
0.0
 11
47.21527642959998
 21
213.9415986433998
 31
0.0
  0
LINE
  5
128
330
2
100
AcDbEntity
  8
0
 62
     3
100
AcDbLine
 10
46.31528253309997
 20
216.4415986434
 30
0.0
 11
45.5152794814
 21
216.4415986434
 31
0.0
  0
LINE
  5
129
330
2
100
AcDbEntity
  8
0
 62
     3
100
AcDbLine
 10
46.31528253309997
 20
215.4415986434
 30
0.0
 11
45.5152794814
 21
215.4415986434
 31
0.0
  0
LINE
  5
12A
330
2
100
AcDbEntity
  8
0
 62
     3
100
AcDbLine
 10
47.71527642959997
 20
214.9415986434
 30
0.0
 11
47.71527642959997
 21
213.9415986433998
 31
0.0
  0
LINE
  5
12B
330
2
100
AcDbEntity
  8
0
 62
     3
100
AcDbLine
 10
47.61528558489998
 20
215.0416047469
 30
0.0
 11
47.61528558489998
 21
213.9609162704
 31
0.0
  0
ARC
  5
12C
330
2
100
AcDbEntity
  8
0
 62
     3
100
AcDbCircle
 10
46.5152794814
 20
220.2416016952
 30
0.0
 40
0.1999999881
100
AcDbArc
 50
89.99998201389999
 51
179.9999640277999
  0
LINE
  5
12D
330
2
100
AcDbEntity
  8
0
 62
     3
100
AcDbLine
 10
46.44072503799997
 20
220.4415986433999
 30
0.0
 11
45.5152794814
 21
220.4415986433999
 31
0.0
  0
LINE
  5
12E
330
2
100
AcDbEntity
  8
0
 62
     3
100
AcDbLine
 10
53.21527642959998
 20
213.9415986433998
 30
0.0
 11
52.71527642959998
 21
213.9415986433998
 31
0.0
  0
LINE
  5
12F
330
2
100
AcDbEntity
  8
0
 62
     3
100
AcDbLine
 10
52.71527642959998
 20
214.9415986434
 30
0.0
 11
52.71527642959998
 21
213.9415986433998
 31
0.0
  0
LINE
  5
130
330
2
100
AcDbEntity
  8
0
 62
     3
100
AcDbLine
 10
52.81529779189998
 20
215.0416047469
 30
0.0
 11
52.81529779189998
 21
213.9511659041999
 31
0.0
  0
LINE
  5
131
330
2
100
AcDbEntity
  8
0
 62
     3
100
AcDbLine
 10
52.81529779189998
 20
214.0416047468999
 30
0.0
 11
53.31529779189998
 21
214.0416047468999
 31
0.0
  0
ARC
  5
132
330
2
100
AcDbEntity
  8
0
 62
     3
100
AcDbCircle
 10
55.7652794814
 20
220.2416016952
 30
0.0
 40
0.1999999881
100
AcDbArc
 50
89.99998201389999
 51
179.9999640277999
  0
ARC
  5
133
330
2
100
AcDbEntity
  8
0
 62
     3
100
AcDbCircle
 10
69.0204827285
 20
165.6097352401
 30
0.0
 40
3.5
100
AcDbArc
 50
3.369580765699998
 51
229.5304741528
  0
LINE
  5
134
330
2
100
AcDbEntity
  8
0
  6
CENTER
 62
     3
100
AcDbLine
 10
67.46154502479999
 20
168.7433708206
 30
0.0
 11
76.81529245069999
 21
149.9415956752
 31
0.0
  0
LINE
  5
135
330
2
100
AcDbEntity
  8
0
  6
CENTER
 62
     3
100
AcDbLine
 10
67.4615313633
 20
168.7433640241
 30
0.0
 11
76.81527878909999
 21
149.9415888787
 31
0.0
  0
CIRCLE
  5
136
330
2
100
AcDbEntity
  8
0
 62
     3
100
AcDbCircle
 10
69.0204827285
 20
165.6097352401
 30
0.0
 40
1.9499998093
  0
CIRCLE
  5
137
330
2
100
AcDbEntity
  8
0
 62
     3
100
AcDbCircle
 10
69.0204827285
 20
165.6097352401
 30
0.0
 40
1.549999237099997
  0
LINE
  5
138
330
2
100
AcDbEntity
  8
0
  6
CENTER
 62
     3
100
AcDbLine
 10
56.66075677629999
 20
149.9415681257999
 30
0.0
 11
61.21642083879999
 21
149.9415681257999
 31
0.0
  0
CIRCLE
  5
139
330
2
100
AcDbEntity
  8
0
 62
     3
100
AcDbCircle
 10
58.81526727439998
 20
149.9415681257999
 30
0.0
 40
1.0999994278
  0
CIRCLE
  5
13A
330
2
100
AcDbEntity
  8
0
 62
     3
100
AcDbCircle
 10
58.81526727439998
 20
149.9415681257999
 30
0.0
 40
0.6999999881
  0
LINE
  5
13B
330
2
100
AcDbEntity
  8
0
  6
CENTER
 62
     3
100
AcDbLine
 10
58.81526727439998
 20
151.9415681257999
 30
0.0
 11
58.81526727439998
 21
147.9415681257999
 31
0.0
  0
LINE
  5
13C
330
2
100
AcDbEntity
  8
0
 62
     3
100
AcDbLine
 10
70.61527032609999
 20
148.5415742294
 30
0.0
 11
65.1152703261
 21
148.5415742294
 31
0.0
  0
LINE
  5
13D
330
2
100
AcDbEntity
  8
0
 62
     3
100
AcDbLine
 10
68.92197355969996
 20
161.0930910655
 30
0.0
 11
66.74883533839997
 21
162.9471265372997
 31
0.0
  0
LINE
  5
13E
330
2
100
AcDbEntity
  8
0
 62
     3
100
AcDbLine
 10
69.45915600459997
 20
161.3603209045999
 30
0.0
 11
68.9219701641
 21
161.0930749691999
 31
0.0
  0
LINE
  5
13F
330
2
100
AcDbEntity
  8
0
 62
     3
100
AcDbLine
 10
70.69152807039998
 20
158.8831538604999
 30
0.0
 11
69.45915600459997
 21
161.3603209045999
 31
0.0
  0
LINE
  5
140
330
2
100
AcDbEntity
  8
0
 62
     3
100
AcDbLine
 10
69.999109729
 20
158.9279377461999
 30
0.0
 11
68.9219701641
 21
161.0930749691999
 31
0.0
  0
LINE
  5
141
330
2
100
AcDbEntity
  8
0
  6
CENTER
 62
     3
100
AcDbLine
 10
76.81526727439998
 20
173.2007281383
 30
0.0
 11
76.81526727439998
 21
144.816705455
 31
0.0
  0
LINE
  5
142
330
2
100
AcDbEntity
  8
0
 62
     3
100
AcDbLine
 10
74.69589648459998
 20
158.9163843443
 30
0.0
 11
72.68232569379998
 21
162.9638237033
 31
0.0
  0
LINE
  5
143
330
2
100
AcDbEntity
  8
0
 62
     3
100
AcDbLine
 10
73.9792145008
 20
159.0099058469
 30
0.0
 11
72.14512619179998
 21
162.6965709713998
 31
0.0
  0
LINE
  5
144
330
2
100
AcDbEntity
  8
0
 62
     3
100
AcDbLine
 10
72.68232569379998
 20
162.9638237033
 30
0.0
 11
72.14512619179998
 21
162.6965709713998
 31
0.0
  0
LINE
  5
145
330
2
100
AcDbEntity
  8
0
 62
     3
100
AcDbLine
 10
72.68234636469998
 20
162.9638298104
 30
0.0
 11
72.51444678179999
 21
165.8154738984
 31
0.0
  0
LINE
  5
146
330
2
100
AcDbEntity
  8
0
 62
     3
100
AcDbLine
 10
69.97183770889996
 20
214.1415955916999
 30
0.0
 11
83.6587273574
 21
214.1415955916999
 31
0.0
  0
LINE
  5
147
330
2
100
AcDbEntity
  8
0
 62
     3
100
AcDbLine
 10
85.26527948139998
 20
218.4415986434
 30
0.0
 11
68.36528558489999
 21
218.4415986434
 31
0.0
  0
LINE
  5
148
330
2
100
AcDbEntity
  8
0
 62
     3
100
AcDbLine
 10
85.26527948139998
 20
203.4415986433999
 30
0.0
 11
68.36528558489999
 21
203.4415986433999
 31
0.0
  0
LINE
  5
149
330
2
100
AcDbEntity
  8
0
 62
     3
100
AcDbLine
 10
69.97185296769996
 20
207.7416016952
 30
0.0
 11
83.6587273574
 21
207.7416016952
 31
0.0
  0
LINE
  5
14A
330
2
100
AcDbEntity
  8
0
 62
     3
100
AcDbLine
 10
65.52048272849997
 20
213.9415986433998
 30
0.0
 11
81.8479363417
 21
213.9415986433998
 31
0.0
  0
LINE
  5
14B
330
2
100
AcDbEntity
  8
0
 62
     3
100
AcDbLine
 10
65.52048272849997
 20
207.9415986433999
 30
0.0
 11
81.87195367569998
 21
207.9415986433999
 31
0.0
  0
LINE
  5
14C
330
2
100
AcDbEntity
  8
0
 62
     3
100
AcDbLine
 10
65.52048272849997
 20
213.9415986433998
 30
0.0
 11
65.52048272849997
 21
207.9415986433999
 31
0.0
  0
LINE
  5
14D
330
2
100
AcDbEntity
  8
0
 62
     3
100
AcDbLine
 10
57.36528558489998
 20
218.4415986434
 30
0.0
 11
57.36528558489998
 21
203.4415986433999
 31
0.0
  0
LINE
  5
14E
330
2
100
AcDbEntity
  8
0
 62
     3
100
AcDbLine
 10
67.36528558489999
 20
203.4415986433999
 30
0.0
 11
57.36528558489998
 21
203.4415986433999
 31
0.0
  0
LINE
  5
14F
330
2
100
AcDbEntity
  8
0
 62
     3
100
AcDbLine
 10
67.36528558489999
 20
203.4415986433999
 30
0.0
 11
67.36528558489999
 21
207.92412733
 31
0.0
  0
LINE
  5
150
330
2
100
AcDbEntity
  8
0
 62
     3
100
AcDbLine
 10
68.36528558489999
 20
203.4415986433999
 30
0.0
 11
68.36528558489999
 21
207.92412733
 31
0.0
  0
LINE
  5
151
330
2
100
AcDbEntity
  8
0
 62
     3
100
AcDbLine
 10
69.97185296769996
 20
207.7416016952
 30
0.0
 11
69.97185296769996
 21
207.9479920759998
 31
0.0
  0
LINE
  5
152
330
2
100
AcDbEntity
  8
0
 62
     3
100
AcDbLine
 10
67.36528558489999
 20
218.4415986434
 30
0.0
 11
57.36528558489998
 21
218.4415986434
 31
0.0
  0
LINE
  5
153
330
2
100
AcDbEntity
  8
0
 62
     3
100
AcDbLine
 10
67.36528558489999
 20
218.4415986434
 30
0.0
 11
67.36528558489999
 21
213.9292085066998
 31
0.0
  0
LINE
  5
154
330
2
100
AcDbEntity
  8
0
 62
     3
100
AcDbLine
 10
68.36528558489999
 20
218.4415986434
 30
0.0
 11
68.36528558489999
 21
213.9292085066998
 31
0.0
  0
LINE
  5
155
330
2
100
AcDbEntity
  8
0
 62
     3
100
AcDbLine
 10
69.97183770889996
 20
214.1415955916999
 30
0.0
 11
69.97183770889996
 21
213.9459016218999
 31
0.0
  0
LINE
  5
156
330
2
100
AcDbEntity
  8
0
 62
     3
100
AcDbLine
 10
83.6587273574
 20
214.1415955916999
 30
0.0
 11
83.6587273574
 21
207.7416016952
 31
0.0
  0
LINE
  5
157
330
2
100
AcDbEntity
  8
0
 62
     3
100
AcDbLine
 10
81.85896844619998
 20
214.1010529891
 30
0.0
 11
81.85896844619998
 21
207.747186412
 31
0.0
  0
LINE
  5
158
330
2
100
AcDbEntity
  8
0
 62
     3
100
AcDbLine
 10
80.93985528699997
 20
213.4415986433999
 30
0.0
 11
80.93985528699997
 21
208.4415986434
 31
0.0
  0
LINE
  5
159
330
2
100
AcDbEntity
  8
0
 62
     3
100
AcDbLine
 10
76.19199151749999
 20
213.3415925398999
 30
0.0
 11
76.19199151749999
 21
208.5416047468998
 31
0.0
  0
LINE
  5
15A
330
2
100
AcDbEntity
  8
0
 62
     3
100
AcDbLine
 10
77.19965142959998
 20
213.4415986433999
 30
0.0
 11
77.19965142959998
 21
208.4415986434
 31
0.0
  0
LINE
  5
15B
330
2
100
AcDbEntity
  8
0
 62
     3
100
AcDbLine
 10
85.26527948139998
 20
218.4415986434
 30
0.0
 11
85.26527948139998
 21
203.4415986433999
 31
0.0
  0
LINE
  5
15C
330
2
100
AcDbEntity
  8
0
 62
     3
100
AcDbLine
 10
72.68234796279999
 20
213.9415986433998
 30
0.0
 11
72.68234796279999
 21
207.9415986433999
 31
0.0
  0
LINE
  5
15D
330
2
100
AcDbEntity
  8
0
 62
     3
100
AcDbLine
 10
72.68234796279999
 20
208.5416047468998
 30
0.0
 11
76.19199151749999
 21
208.5416047468998
 31
0.0
  0
LINE
  5
15E
330
2
100
AcDbEntity
  8
0
 62
     3
100
AcDbLine
 10
71.77159662009998
 20
207.7466676131999
 30
0.0
 11
71.77159662009998
 21
207.9397370711999
 31
0.0
  0
LINE
  5
15F
330
2
100
AcDbEntity
  8
0
 62
     3
100
AcDbLine
 10
75.57063429909999
 20
207.9415979845
 30
0.0
 11
76.19200522299998
 21
208.5415946332
 31
0.0
  0
CIRCLE
  5
160
330
2
100
AcDbEntity
  8
0
 62
     3
100
AcDbCircle
 10
80.06976861709999
 20
208.9916016952
 30
0.0
 40
0.6999999881
  0
CIRCLE
  5
161
330
2
100
AcDbEntity
  8
0
 62
     3
100
AcDbCircle
 10
80.06976861709999
 20
208.9916016952
 30
0.0
 40
0.5
  0
LINE
  5
162
330
2
100
AcDbEntity
  8
0
 62
     3
100
AcDbLine
 10
79.56976861709998
 20
208.9916016952
 30
0.0
 11
79.36975641009997
 21
208.9916016952
 31
0.0
  0
LINE
  5
163
330
2
100
AcDbEntity
  8
0
 62
     3
100
AcDbLine
 10
80.76976556539998
 20
208.9916016952
 30
0.0
 11
80.56976861709998
 21
208.9916016952
 31
0.0
  0
LINE
  5
164
330
2
100
AcDbEntity
  8
0
 62
     3
100
AcDbLine
 10
72.68234796279999
 20
213.3415925398999
 30
0.0
 11
76.19199151749999
 21
213.3415925398999
 31
0.0
  0
LINE
  5
165
330
2
100
AcDbEntity
  8
0
 62
     3
100
AcDbLine
 10
71.77159662009998
 20
214.1354157821
 30
0.0
 11
71.77159662009998
 21
213.941049327
 31
0.0
  0
LINE
  5
166
330
2
100
AcDbEntity
  8
0
 62
     3
100
AcDbLine
 10
75.57071580849998
 20
213.941501389
 30
0.0
 11
76.19199891849999
 21
213.3415895334997
 31
0.0
  0
ARC
  5
167
330
2
100
AcDbEntity
  8
0
  6
PHANTOM
 62
     3
100
AcDbCircle
 10
92.41527337790001
 20
151.3248994247
 30
0.0
 40
5.8333330154
100
AcDbArc
 50
74.13285151530002
 51
105.8671125125
  0
CIRCLE
  5
168
330
2
100
AcDbEntity
  8
0
 62
     3
100
AcDbCircle
 10
92.41527337790001
 20
149.0415742294
 30
0.0
 40
2.024999618499998
  0
CIRCLE
  5
169
330
2
100
AcDbEntity
  8
0
 62
     3
100
AcDbCircle
 10
92.41527337790001
 20
149.0415742294
 30
0.0
 40
1.1999998093
  0
LINE
  5
16A
330
2
100
AcDbEntity
  8
0
 62
     3
100
AcDbLine
 10
96.34831781149999
 20
154.4415681257999
 30
0.0
 11
87.15430230849998
 21
154.4415681257999
 31
0.0
  0
LINE
  5
16B
330
2
100
AcDbEntity
  8
0
 62
     3
100
AcDbLine
 10
87.06526727439998
 20
154.4415833845999
 30
0.0
 11
95.31526727440001
 21
154.4415833845999
 31
0.0
  0
LINE
  5
16C
330
2
100
AcDbEntity
  8
0
  6
CENTER
 62
     3
100
AcDbLine
 10
94.91527337790001
 20
149.0415742294
 30
0.0
 11
89.91527337790001
 21
149.0415742294
 31
0.0
  0
LINE
  5
16D
330
2
100
AcDbEntity
  8
0
  6
CENTER
 62
     3
100
AcDbLine
 10
92.41527337790001
 20
158.2414185897
 30
0.0
 11
92.41527337790001
 21
146.5415742293999
 31
0.0
  0
LINE
  5
16E
330
2
100
AcDbEntity
  8
0
  6
PHANTOM
 62
     3
100
AcDbLine
 10
90.15558659889999
 20
156.1022285438999
 30
0.0
 11
90.12358417169998
 21
155.491585859
 31
0.0
  0
LINE
  5
16F
330
2
100
AcDbEntity
  8
0
 62
     3
100
AcDbLine
 10
87.06526727439998
 20
158.4415833845999
 30
0.0
 11
87.06526727439998
 21
154.4415681257999
 31
0.0
  0
ARC
  5
170
330
2
100
AcDbEntity
  8
0
 62
     3
100
AcDbCircle
 10
86.56526727439999
 20
158.4415681257999
 30
0.0
 40
0.5
100
AcDbArc
 50
0.0
 51
89.99998201389999
  0
ARC
  5
171
330
2
100
AcDbEntity
  8
0
 62
     3
100
AcDbCircle
 10
86.56526727439999
 20
158.4415833845999
 30
0.0
 40
0.5
100
AcDbArc
 50
0.0
 51
89.99998201389999
  0
ARC
  5
172
330
2
100
AcDbEntity
  8
0
  6
PHANTOM
 62
     3
100
AcDbCircle
 10
91.07100457899999
 20
156.0542390243
 30
0.0
 40
0.9166666864999999
100
AcDbArc
 50
105.8671125125
 51
176.9999810198
  0
LINE
  5
173
330
2
100
AcDbEntity
  8
0
  6
PHANTOM
 62
     3
100
AcDbLine
 10
94.67489098979999
 20
156.1022191745999
 30
0.0
 11
94.70689341699999
 21
155.4915764895999
 31
0.0
  0
ARC
  5
174
330
2
100
AcDbEntity
  8
0
 62
     3
100
AcDbCircle
 10
96.31526727439998
 20
153.4415681257998
 30
0.0
 40
1.0
100
AcDbArc
 50
0.0
 51
89.99992737239997
  0
LINE
  5
175
330
2
100
AcDbEntity
  8
0
 62
     3
100
AcDbLine
 10
96.32941217179995
 20
150.4415833846
 30
0.0
 11
97.31476373429998
 21
150.4415833846
 31
0.0
  0
ARC
  5
176
330
2
100
AcDbEntity
  8
0
 62
     3
100
AcDbCircle
 10
96.31526727439998
 20
153.4415833845999
 30
0.0
 40
1.0
100
AcDbArc
 50
0.0
 51
89.99998201389999
  0
ARC
  5
177
330
2
100
AcDbEntity
  8
0
 62
     3
100
AcDbCircle
 10
97.1152703261
 20
145.6415803329
 30
0.0
 40
0.1999999881
100
AcDbArc
 50
270.0000179861
 51
0.0
  0
LINE
  5
178
330
2
100
AcDbEntity
  8
0
 62
     3
100
AcDbLine
 10
96.31526727439998
 20
145.4415681258
 30
0.0
 11
97.1152703261
 21
145.4415681258
 31
0.0
  0
LINE
  5
179
330
2
100
AcDbEntity
  8
0
 62
     3
100
AcDbLine
 10
97.1152703261
 20
145.4415833846
 30
0.0
 11
96.31526727439998
 21
145.4415833846
 31
0.0
  0
ARC
  5
17A
330
2
100
AcDbEntity
  8
0
 62
     3
100
AcDbCircle
 10
95.31526727440001
 20
153.4415681257998
 30
0.0
 40
1.0
100
AcDbArc
 50
0.0
 51
89.99998201389999
  0
ARC
  5
17B
330
2
100
AcDbEntity
  8
0
 62
     3
100
AcDbCircle
 10
95.31526727440001
 20
153.4415833845999
 30
0.0
 40
1.0
100
AcDbArc
 50
0.0
 51
89.99998201389999
  0
LINE
  5
17C
330
2
100
AcDbEntity
  8
0
 62
     3
100
AcDbLine
 10
95.49068231339994
 20
154.4415833845999
 30
0.0
 11
96.31526727439998
 21
154.4415833845999
 31
0.0
  0
LINE
  5
17D
330
2
100
AcDbEntity
  8
0
 62
     3
100
AcDbLine
 10
97.31526727439998
 20
153.4841706649
 30
0.0
 11
97.31526727439998
 21
145.6415803329
 31
0.0
  0
ARC
  5
17E
330
2
100
AcDbEntity
  8
0
  6
PHANTOM
 62
     3
100
AcDbCircle
 10
93.7595116591
 20
156.0542390243
 30
0.0
 40
0.9166666864999999
100
AcDbArc
 50
2.9999992297
 51
74.13285151530002
  0
LINE
  5
17F
330
2
100
AcDbEntity
  8
0
 62
     3
100
AcDbLine
 10
95.51529474019998
 20
207.8415925399
 30
0.0
 11
95.51529474019998
 21
214.0416047468999
 31
0.0
  0
LINE
  5
180
330
2
100
AcDbEntity
  8
0
 62
     3
100
AcDbLine
 10
95.4152886367
 20
213.9415986433998
 30
0.0
 11
95.4152886367
 21
207.9415986433999
 31
0.0
  0
LINE
  5
181
330
2
100
AcDbEntity
  8
0
 62
     3
100
AcDbLine
 10
97.31528253309999
 20
201.6415955916999
 30
0.0
 11
97.31528253309999
 21
220.2416016952
 31
0.0
  0
LINE
  5
182
330
2
100
AcDbEntity
  8
0
  6
CENTER
 62
     3
100
AcDbLine
 10
92.4152886367
 20
215.9415986433999
 30
0.0
 11
92.4152886367
 21
205.9415986433999
 31
0.0
  0
LINE
  5
183
330
2
100
AcDbEntity
  8
0
 62
     3
100
AcDbLine
 10
89.31528253309997
 20
214.0416047468999
 30
0.0
 11
89.31528253309997
 21
207.8415925399
 31
0.0
  0
LINE
  5
184
330
2
100
AcDbEntity
  8
0
 62
     3
100
AcDbLine
 10
89.41528863669999
 20
213.9415986433998
 30
0.0
 11
89.41528863669999
 21
207.9415986433999
 31
0.0
  0
LINE
  5
185
330
2
100
AcDbEntity
  8
0
 62
     3
100
AcDbLine
 10
87.06528253309997
 20
201.6415955916999
 30
0.0
 11
87.06528253309997
 21
220.2416016952
 31
0.0
  0
CIRCLE
  5
186
330
2
100
AcDbEntity
  8
0
 62
     3
100
AcDbCircle
 10
92.4152886367
 20
210.9415986434
 30
0.0
 40
1.229499816899999
  0
CIRCLE
  5
187
330
2
100
AcDbEntity
  8
0
 62
     3
100
AcDbCircle
 10
92.4152886367
 20
210.9415986434
 30
0.0
 40
1.5
  0
LINE
  5
188
330
2
100
AcDbEntity
  8
0
  6
CENTER
 62
     3
100
AcDbLine
 10
94.41528863669999
 20
210.9415986434
 30
0.0
 11
90.4152886367
 21
210.9415986434
 31
0.0
  0
LINE
  5
189
330
2
100
AcDbEntity
  8
0
 62
     3
100
AcDbLine
 10
89.81528253309997
 20
206.8415925398999
 30
0.0
 11
95.01529474020001
 21
206.8415925398999
 31
0.0
  0
LINE
  5
18A
330
2
100
AcDbEntity
  8
0
 62
     3
100
AcDbLine
 10
94.9152886367
 20
206.9415986434
 30
0.0
 11
89.9152886367
 21
206.9415986434
 31
0.0
  0
ARC
  5
18B
330
2
100
AcDbEntity
  8
0
 62
     3
100
AcDbCircle
 10
86.8652855849
 20
201.6415955916999
 30
0.0
 40
0.1999999881
100
AcDbArc
 50
270.0000179861
 51
0.0
  0
LINE
  5
18C
330
2
100
AcDbEntity
  8
0
 62
     3
100
AcDbLine
 10
89.31528253309997
 20
207.8415925399
 30
0.0
 11
89.81528253309997
 21
207.8415925399
 31
0.0
  0
LINE
  5
18D
330
2
100
AcDbEntity
  8
0
 62
     3
100
AcDbLine
 10
89.9152886367
 20
207.9415986433999
 30
0.0
 11
89.41528863669999
 21
207.9415986433999
 31
0.0
  0
LINE
  5
18E
330
2
100
AcDbEntity
  8
0
 62
     3
100
AcDbLine
 10
89.81528253309997
 20
206.8415925398999
 30
0.0
 11
89.81528253309997
 21
207.9498689070999
 31
0.0
  0
LINE
  5
18F
330
2
100
AcDbEntity
  8
0
 62
     3
100
AcDbLine
 10
89.9152886367
 20
207.9415986433999
 30
0.0
 11
89.9152886367
 21
206.9415986434
 31
0.0
  0
LINE
  5
190
330
2
100
AcDbEntity
  8
0
 62
     3
100
AcDbLine
 10
91.26529474020001
 20
211.3765351669
 30
0.0
 11
91.26529474020001
 21
210.5066621199999
 31
0.0
  0
ARC
  5
191
330
2
100
AcDbEntity
  8
0
 62
     3
100
AcDbCircle
 10
96.1152855849
 20
201.6415955916999
 30
0.0
 40
0.1999999881
100
AcDbArc
 50
270.0000179861
 51
0.0
  0
ARC
  5
192
330
2
100
AcDbEntity
  8
0
 62
     3
100
AcDbCircle
 10
97.1152855849
 20
201.6415955916999
 30
0.0
 40
0.1999999881
100
AcDbArc
 50
270.0000179861
 51
0.0
  0
LINE
  5
193
330
2
100
AcDbEntity
  8
0
 62
     3
100
AcDbLine
 10
97.1152855849
 20
201.4415986433998
 30
0.0
 11
96.1329705214
 21
201.4415986433998
 31
0.0
  0
LINE
  5
194
330
2
100
AcDbEntity
  8
0
 62
     3
100
AcDbLine
 10
95.4152886367
 20
210.9415986434
 30
0.0
 11
97.31528253309999
 21
210.9415986434
 31
0.0
  0
ARC
  5
195
330
2
100
AcDbEntity
  8
0
 62
     3
100
AcDbCircle
 10
97.1152855849
 20
206.1415955916999
 30
0.0
 40
0.1999999881
100
AcDbArc
 50
270.0000179861
 51
0.0
  0
ARC
  5
196
330
2
100
AcDbEntity
  8
0
 62
     3
100
AcDbCircle
 10
97.1152855849
 20
207.1415955916999
 30
0.0
 40
0.1999999881
100
AcDbArc
 50
270.0000179861
 51
0.0
  0
LINE
  5
197
330
2
100
AcDbEntity
  8
0
 62
     3
100
AcDbLine
 10
95.01529474020001
 20
206.8415925398999
 30
0.0
 11
95.01529474020001
 21
207.9389436141
 31
0.0
  0
LINE
  5
198
330
2
100
AcDbEntity
  8
0
 62
     3
100
AcDbLine
 10
94.9152886367
 20
207.9415986433999
 30
0.0
 11
94.9152886367
 21
206.9415986434
 31
0.0
  0
LINE
  5
199
330
2
100
AcDbEntity
  8
0
 62
     3
100
AcDbLine
 10
97.1152855849
 20
206.9415986434
 30
0.0
 11
96.31528253309999
 21
206.9415986434
 31
0.0
  0
LINE
  5
19A
330
2
100
AcDbEntity
  8
0
 62
     3
100
AcDbLine
 10
96.31528253309999
 20
201.6415955916999
 30
0.0
 11
96.31528253309999
 21
206.9415986434
 31
0.0
  0
LINE
  5
19B
330
2
100
AcDbEntity
  8
0
 62
     3
100
AcDbLine
 10
97.1152855849
 20
205.9415986433999
 30
0.0
 11
96.31528253309999
 21
205.9415986433999
 31
0.0
  0
LINE
  5
19C
330
2
100
AcDbEntity
  8
0
 62
     3
100
AcDbLine
 10
95.01529474020001
 20
207.8415925399
 30
0.0
 11
95.51529474019998
 21
207.8415925399
 31
0.0
  0
LINE
  5
19D
330
2
100
AcDbEntity
  8
0
 62
     3
100
AcDbLine
 10
95.4152886367
 20
207.9415986433999
 30
0.0
 11
94.9152886367
 21
207.9415986433999
 31
0.0
  0
LINE
  5
19E
330
2
100
AcDbEntity
  8
0
 62
     3
100
AcDbLine
 10
93.56528253309999
 20
211.3765351669
 30
0.0
 11
93.56528253309999
 21
210.5066621199999
 31
0.0
  0
LINE
  5
19F
330
2
100
AcDbEntity
  8
0
 62
     3
100
AcDbLine
 10
96.1152855849
 20
220.4415986433999
 30
0.0
 11
86.87872857809997
 21
220.4415986433999
 31
0.0
  0
LINE
  5
1A0
330
2
100
AcDbEntity
  8
0
 62
     3
100
AcDbLine
 10
94.9152886367
 20
214.9415986434
 30
0.0
 11
89.9152886367
 21
214.9415986434
 31
0.0
  0
LINE
  5
1A1
330
2
100
AcDbEntity
  8
0
 62
     3
100
AcDbLine
 10
89.81528253309997
 20
215.0416047469
 30
0.0
 11
95.01529474020001
 21
215.0416047469
 31
0.0
  0
LINE
  5
1A2
330
2
100
AcDbEntity
  8
0
 62
     3
100
AcDbLine
 10
89.31528253309997
 20
214.0416047468999
 30
0.0
 11
89.81528253309997
 21
214.0416047468999
 31
0.0
  0
LINE
  5
1A3
330
2
100
AcDbEntity
  8
0
 62
     3
100
AcDbLine
 10
89.9152886367
 20
213.9415986433998
 30
0.0
 11
89.41528863669999
 21
213.9415986433998
 31
0.0
  0
ARC
  5
1A4
330
2
100
AcDbEntity
  8
0
 62
     3
100
AcDbCircle
 10
86.8652855849
 20
220.2416016952
 30
0.0
 40
0.1999999881
100
AcDbArc
 50
0.0
 51
89.99998201389999
  0
LINE
  5
1A5
330
2
100
AcDbEntity
  8
0
 62
     3
100
AcDbLine
 10
89.81528253309997
 20
215.0416047469
 30
0.0
 11
89.81528253309997
 21
213.9459016218999
 31
0.0
  0
LINE
  5
1A6
330
2
100
AcDbEntity
  8
0
 62
     3
100
AcDbLine
 10
89.9152886367
 20
214.9415986434
 30
0.0
 11
89.9152886367
 21
213.9415986433998
 31
0.0
  0
ARC
  5
1A7
330
2
100
AcDbEntity
  8
0
 62
     3
100
AcDbCircle
 10
97.1152855849
 20
220.2416016952
 30
0.0
 40
0.1999999881
100
AcDbArc
 50
0.0
 51
89.99998201389999
  0
ARC
  5
1A8
330
2
100
AcDbEntity
  8
0
 62
     3
100
AcDbCircle
 10
97.1152855849
 20
215.2416016952
 30
0.0
 40
0.1999999881
100
AcDbArc
 50
0.0
 51
89.99992737239997
  0
ARC
  5
1A9
330
2
100
AcDbEntity
  8
0
 62
     3
100
AcDbCircle
 10
97.1152855849
 20
216.2416016952
 30
0.0
 40
0.1999999881
100
AcDbArc
 50
0.0
 51
89.99992737239997
  0
LINE
  5
1AA
330
2
100
AcDbEntity
  8
0
 62
     3
100
AcDbLine
 10
96.31528253309999
 20
220.2416016952
 30
0.0
 11
96.31528253309999
 21
215.4415986434
 31
0.0
  0
LINE
  5
1AB
330
2
100
AcDbEntity
  8
0
 62
     3
100
AcDbLine
 10
95.4152886367
 20
213.9415986433998
 30
0.0
 11
94.9152886367
 21
213.9415986433998
 31
0.0
  0
LINE
  5
1AC
330
2
100
AcDbEntity
  8
0
 62
     3
100
AcDbLine
 10
95.01529474020001
 20
214.0416047468999
 30
0.0
 11
95.51529474019998
 21
214.0416047468999
 31
0.0
  0
LINE
  5
1AD
330
2
100
AcDbEntity
  8
0
 62
     3
100
AcDbLine
 10
94.9152886367
 20
214.9415986434
 30
0.0
 11
94.9152886367
 21
213.9415986433998
 31
0.0
  0
LINE
  5
1AE
330
2
100
AcDbEntity
  8
0
 62
     3
100
AcDbLine
 10
95.01529474020001
 20
215.0416047469
 30
0.0
 11
95.01529474020001
 21
213.9349915877999
 31
0.0
  0
LINE
  5
1AF
330
2
100
AcDbEntity
  8
0
 62
     3
100
AcDbLine
 10
96.31528253309999
 20
216.4415986434
 30
0.0
 11
97.1152855849
 21
216.4415986434
 31
0.0
  0
LINE
  5
1B0
330
2
100
AcDbEntity
  8
0
 62
     3
100
AcDbLine
 10
96.31528253309999
 20
215.4415986434
 30
0.0
 11
97.1152855849
 21
215.4415986434
 31
0.0
  0
LINE
  5
1B1
330
2
100
AcDbEntity
  8
0
 62
     3
100
AcDbLine
 10
97.1152855849
 20
220.4415986433999
 30
0.0
 11
96.1209160781
 21
220.4415986433999
 31
0.0
  0
ARC
  5
1B2
330
2
100
AcDbEntity
  8
0
 62
     3
100
AcDbCircle
 10
96.1152855849
 20
220.2416016952
 30
0.0
 40
0.1999999881
100
AcDbArc
 50
0.0
 51
89.99998201389999
  0
TEXT
  5
1C8
330
2
100
AcDbEntity
  8
0
 62
     7
100
AcDbText
 10
146.0
 20
110.0000029552498
 30
0.0
 40
2.999994089499998
  1
NRAN1100F
 11
146.0
 21
111.4999999999999
 31
0.0
100
AcDbText
 73
     2
  0
TEXT
  5
1C9
330
2
100
AcDbEntity
  8
0
 62
     7
100
AcDbText
 10
146.0
 20
115.0000029552499
 30
0.0
 40
2.999994089499998
  1
NRAN1100
 11
146.0
 21
116.5
 31
0.0
100
AcDbText
 73
     2
  0
ENDSEC
  0
SECTION
  2
OBJECTS
  0
DICTIONARY
  5
7
330
0
100
AcDbDictionary
281
     1
  3
ACAD_GROUP
350
1F
  3
ACAD_LAYOUT
350
B
  3
ACAD_MLINESTYLE
350
20
  3
ACAD_PLOTSETTINGS
350
21
  3
ACAD_PLOTSTYLENAME
350
6
  3
AcDbVariableDictionary
350
1CA
  0
DICTIONARY
  5
1F
102
{ACAD_REACTORS
330
7
102
}
330
7
100
AcDbDictionary
281
     1
  0
DICTIONARY
  5
B
102
{ACAD_REACTORS
330
7
102
}
330
7
100
AcDbDictionary
281
     1
  3
Model
350
A
  3
ﾚｲｱｳﾄ1
350
F
  0
DICTIONARY
  5
20
102
{ACAD_REACTORS
330
7
102
}
330
7
100
AcDbDictionary
281
     1
  3
Standard
350
22
  0
DICTIONARY
  5
21
102
{ACAD_REACTORS
330
7
102
}
330
7
100
AcDbDictionary
281
     1
  0
ACDBDICTIONARYWDFLT
  5
6
102
{ACAD_REACTORS
330
7
102
}
330
7
100
AcDbDictionary
281
     1
  3
Normal
350
5
100
AcDbDictionaryWithDefault
340
5
  0
DICTIONARY
  5
1CA
102
{ACAD_REACTORS
330
7
102
}
330
7
100
AcDbDictionary
281
     1
  3
DIMASSOC
350
1CB
  0
LAYOUT
  5
A
102
{ACAD_REACTORS
330
B
102
}
330
B
100
AcDbPlotSettings
  1

  2
C:\Program Files\AutoCAD 2000i\plotters\DWF Classic.pc3
  4

  6

 40
0.0
 41
0.0
 42
0.0
 43
0.0
 44
0.0
 45
0.0
 46
0.0
 47
0.0
 48
0.0
 49
0.0
140
0.0
141
0.0
142
1.0
143
1.0
 70
  1712
 72
     0
 73
     0
 74
     0
  7

 75
     0
147
1.0
148
0.0
149
0.0
100
AcDbLayout
  1
Model
 70
     1
 71
     0
 10
0.0
 20
0.0
 11
12.0
 21
9.0
 12
0.0
 22
0.0
 32
0.0
 14
0.0
 24
0.0
 34
0.0
 15
0.0
 25
0.0
 35
0.0
146
0.0
 13
0.0
 23
0.0
 33
0.0
 16
1.0
 26
0.0
 36
0.0
 17
0.0
 27
1.0
 37
0.0
 76
     0
330
2
  0
LAYOUT
  5
F
102
{ACAD_REACTORS
330
B
102
}
330
B
100
AcDbPlotSettings
  1

  2
C:\Program Files\AutoCAD 2000i\plotters\DWF Classic.pc3
  4

  6

 40
0.0
 41
0.0
 42
0.0
 43
0.0
 44
0.0
 45
0.0
 46
0.0
 47
0.0
 48
0.0
 49
0.0
140
0.0
141
0.0
142
1.0
143
1.0
 70
   688
 72
     0
 73
     0
 74
     5
  7

 75
    16
147
1.0
148
0.0
149
0.0
100
AcDbLayout
  1
ﾚｲｱｳﾄ1
 70
     1
 71
     1
 10
0.0
 20
0.0
 11
12.0
 21
9.0
 12
0.0
 22
0.0
 32
0.0
 14
1.000000000000000E+20
 24
1.000000000000000E+20
 34
1.000000000000000E+20
 15
-1.000000000000000E+20
 25
-1.000000000000000E+20
 35
-1.000000000000000E+20
146
0.0
 13
0.0
 23
0.0
 33
0.0
 16
1.0
 26
0.0
 36
0.0
 17
0.0
 27
1.0
 37
0.0
 76
     0
330
C
  0
MLINESTYLE
  5
22
102
{ACAD_REACTORS
330
20
102
}
330
20
100
AcDbMlineStyle
  2
STANDARD
 70
     0
  3

 62
   256
 51
90.0
 52
90.0
 71
     2
 49
0.5
 62
   256
  6
BYLAYER
 49
-0.5
 62
   256
  6
BYLAYER
  0
ACDBPLACEHOLDER
  5
5
102
{ACAD_REACTORS
330
6
102
}
330
6
  0
DICTIONARYVAR
  5
1CB
102
{ACAD_REACTORS
330
1CA
102
}
330
1CA
100
DictionaryVariables
280
     0
  1
1
  0
ENDSEC
  0
EOF
