  0
SECTION
  2
HEADER
  9
$ACADVER
  1
AC1004
  9
$ANGBASE
 50
0.0000000000
  9
$ANGDIR
 70
     0
  9
$ATTDIA
 70
     0
  9
$ATTMODE
 70
     1
  9
$ATTREQ
 70
     1
  9
$AUNITS
 70
     0
  9
$AUPREC
 70
     0
  9
$AXISMODE
 70
     0
  9
$AXISUNIT
 10
0.0000000000
 20
0.0000000000
  9
$BLIPMODE
 70
     1
  9
$CECOLOR
 62
   256
  9
$CELTYPE
  6
BYLAYER
  9
$CHAMFERA
 40
0.0000000000
  9
$CHAMFERB
 40
0.0000000000
  9
$CLAYER
  8
0
  9
$COORDS
 70
     0
  9
$DIMALT
 70
     0
  9
$DIMALTD
 70
     2
  9
$DIMALTF
 40
25.4000000000
  9
$DIMAPOST
  1

  9
$DIMASO
 70
     1
  9
$DIMASZ
 40
1.9727878460
  9
$DIMBLK
  1

  9
$DIMBLK1
  1

  9
$DIMBLK2
  1

  9
$DIMCEN
 40
9.0000000000E-02
  9
$DIMDLE
 40
0.0000000000
  9
$DIMDLI
 40
0.3800000000
  9
$DIMEXE
 40
3.8099999428
  9
$DIMEXO
 40
2.5399999619
  9
$DIMLFAC
 40
1.0000000000
  9
$DIMLIM
 70
     0
  9
$DIMPOST
  1

  9
$DIMRND
 40
0.0000000000
  9
$DIMSCALE
 40
1.0000000000
  9
$DIMSE1
 70
     0
  9
$DIMSE2
 70
     0
  9
$DIMSHO
 70
     0
  9
$DIMTAD
 70
     0
  9
$DIMTIH
 70
     0
  9
$DIMTM
 40
0.0000000000
  9
$DIMTOH
 70
     1
  9
$DIMTOL
 70
     0
  9
$DIMTP
 40
0.0000000000
  9
$DIMTSZ
 40
0.0000000000
  9
$DIMTXT
 40
2.9999940395
  9
$DIMZIN
 70
     0
  9
$DRAGMODE
 70
     1
  9
$ELEVATION
 40
0.0000000000
  9
$EXTMAX
 10
3.1750000000
 20
248.6094787598
 30
0.0000000000
  9
$EXTMIN
 10
-178.3270080566
 20
-3.1750000000
 30
0.0000000000
  9
$FASTZOOM
 70
     1
  9
$FILLETRAD
 40
6.2500000000E-02
  9
$FILLMODE
 70
     1
  9
$GRIDMODE
 70
     0
  9
$GRIDUNIT
 10
0.0000000000
 20
0.0000000000
  9
$INSBASE
 10
0.0000000000
 20
0.0000000000
 30
0.0000000000
  9
$LIMCHECK
 70
     0
  9
$LIMMAX
 10
3.1750000000
 20
248.6094787598
  9
$LIMMIN
 10
-178.3270080566
 20
-3.1750000000
  9
$LTSCALE
 40
1.0000000000
  9
$LUNITS
 70
     2
  9
$LUPREC
 70
     3
  9
$MEASUREMENT
 70
     0
  9
$MENU
  1
ACAD
  9
$MIRRTEXT
 70
     0
  9
$ORTHOMODE
 70
     0
  9
$OSMODE
 70
     0
  9
$PDMODE
 70
     0
  9
$PDSIZE
 40
0.0000000000
  9
$PLINEWID
 40
0.0000000000
  9
$PROXYGRAPHICS
 70
     0
  9
$QTEXTMODE
 70
     0
  9
$REGENMODE
 70
     1
  9
$SKETCHINC
 40
0.1000000000
  9
$SKPOLY
 70
     0
  9
$SNAPANG
 50
0.0000000000
  9
$SNAPBASE
 10
0.0000000000
 20
0.0000000000
  9
$SNAPISOPAIR
 70
     0
  9
$SNAPMODE
 70
     0
  9
$SNAPSTYLE
 70
     0
  9
$SNAPUNIT
 10
1.0000000000
 20
1.0000000000
  9
$SPLFRAME
 70
     0
  9
$SPLINESEGS
 70
     8
  9
$TDCREATE
 40
2454365.4545254676
  9
$TDINDWG
 40
0.0000000000
  9
$TDUPDATE
 40
2454365.4545254676
  9
$TDUSRTIMER
 40
0.0000000000
  9
$TEXTSIZE
 40
2.9999940395
  9
$TEXTSTYLE
  7
STANDARD
  9
$THICKNESS
 40
0.0000000000
  9
$TRACEWID
 40
5.0000000000E-02
  9
$USERI1
 70
     0
  9
$USERI2
 70
     0
  9
$USERI3
 70
     0
  9
$USERI4
 70
     0
  9
$USERI5
 70
     0
  9
$USERR1
 40
0.0000000000
  9
$USERR2
 40
0.0000000000
  9
$USERR3
 40
0.0000000000
  9
$USERR4
 40
0.0000000000
  9
$USERR5
 40
0.0000000000
  9
$USRTIMER
 70
     1
  9
$VIEWCTR
 10
-87.5760040283
 20
122.7172393799
  9
$VIEWDIR
 10
0.0000000000
 20
0.0000000000
 30
1.0000000000
  9
$VIEWSIZE
 40
251.7844787598
  0
ENDSEC
  0
SECTION
  2
TABLES
  0
TABLE
  2
LTYPE
 70
     3
  0
LTYPE
  2
SOLID
  3
Solid
 70
    64
 72
    65
 73
     0
 40
0.0000000000
  0
LTYPE
  2
DASH
  3
Dash
 70
    64
 72
    65
 73
     2
 40
2.0000000000
 49
1.0000000000
 49
-1.0000000000
  0
LTYPE
  2
CENTER
  3
Center
 70
    64
 72
    65
 73
     4
 40
9.1000000238
 49
6.5000000000
 49
-0.8000000119
 49
1.0000000000
 49
-0.8000000119
  0
ENDTAB
  0
TABLE
  2
LAYER
 70
     3
  0
LAYER
  2
Layer1$C$L1
 70
     0
  6
SOLID
 62
     3
  0
LAYER
  2
Layer6$C$L6
 70
     0
  6
SOLID
 62
    31
  0
LAYER
  2
Layer8$C$L8
 70
     0
  6
SOLID
 62
     7
  0
ENDTAB
  0
TABLE
  2
STYLE
 70
     1
  0
STYLE
  2
STANDARD
  3
txt
  4

 40
0.0000000000
 41
1.0000000000
 42
2.9999940395
 50
0.0000000000
 70
     0
 71
     0
  0
ENDTAB
  0
ENDSEC
  0
SECTION
  2
BLOCKS
  0
BLOCK
  8
Layer6$C$L6
  2
*X0
 70
     1
 10
0.0000000000
 20
0.0000000000
  0
ENDBLK
  8
Layer6$C$L6
  0
BLOCK
  8
Layer8$C$L8
  2
Cadra_attr_0
 70
     2
 10
0.0000000000
 20
0.0000000000
  0
TEXT
  8
Layer8$C$L8
 10
-66.1699652948
 20
30.8838976747
 40
4.1671714783
  1
NC1V-3121
 41
0.8232750373
 72
     5
 11
-38.7241392612
 21
30.8838976747
  0
TEXT
  8
Layer8$C$L8
 10
-66.1699652948
 20
24.6331404573
 40
4.1671714783
  1
NC1V-3121F
 41
0.8144566824
 72
     5
 11
-35.6241393810
 21
24.6331404573
  0
ATTDEF
  8
Layer8$C$L8
 10
-50.897053
 20
29.842104
 40
0.156000
  1
ìL>ÄK
  3

  2
10
 70
    11
  0
ENDBLK
  8
Layer8$C$L8
  0
BLOCK
  8
Layer8$C$L8
  2
Cadra_attr_1
 70
     2
 10
0.000000
 20
0.000000
  0
TEXT
  8
Layer8$C$L8
 62
     5
 10
-66.0872999535
 20
16.0000000000
 40
5.0000000000
  1
MA4-C00278
 41
0.8595637381
 72
     5
 11
-27.4069317370
 21
16.0000000000
  0
ATTDEF
  8
Layer8$C$L8
 62
     5
 10
-46.747117
 20
18.500000
 40
0.156000
  1
  
  3

  2
20
 70
    11
  0
ENDBLK
  8
Layer8$C$L8
  0
ENDSEC
  0
SECTION
  2
ENTITIES
  0
INSERT
  8
Layer8$C$L8
 66
     1
  2
Cadra_attr_0
 10
0.000000
 20
0.000000
  0
ATTRIB
  8
Layer8$C$L8
 10
-50.897053
 20
29.842104
 40
0.156000
  1
ìL>ÄK
  2
10
 70
    11
  0
SEQEND
  8
Layer8$C$L8
  0
LINE
  8
Layer1$C$L1
 62
     3
 10
-142.0279005144
 20
199.2598939676
 11
-142.0279005144
 21
202.2598939676
  0
LINE
  8
Layer1$C$L1
 62
     3
 10
-142.0279005144
 20
199.2598939676
 11
-141.5279005144
 21
199.2598939676
  0
LINE
  8
Layer1$C$L1
 62
     3
 10
-141.5279005144
 20
199.2598939676
 11
-141.5279005144
 21
202.2598939676
  0
LINE
  8
Layer1$C$L1
 62
     3
 10
-142.0279005144
 20
202.2598939676
 11
-141.5279005144
 21
202.2598939676
  0
INSERT
  8
Layer6$C$L6
  2
*X0
 10
0.000000
 20
0.000000
  0
POLYLINE
  8
Layer1$C$L1
 66
     1
 70
     1
  0
VERTEX
  8
Layer1$C$L1
 10
-142.0279005144
 20
202.2598939676
  0
VERTEX
  8
Layer1$C$L1
 10
-141.5279005144
 20
202.2598939676
  0
VERTEX
  8
Layer1$C$L1
 10
-141.5279005144
 20
199.2598939676
  0
VERTEX
  8
Layer1$C$L1
 10
-142.0279005144
 20
199.2598939676
  0
SEQEND
  8
Layer1$C$L1
  0
LINE
  8
Layer1$C$L1
 62
     3
 10
-58.1671214396
 20
172.0563751309
 11
-58.1671214396
 21
179.8563751309
  0
LINE
  8
Layer1$C$L1
 62
     3
 10
-73.4671214396
 20
227.9563751309
 11
-73.4671214396
 21
235.7563751309
  0
LINE
  8
Layer1$C$L1
 62
     3
 10
-58.1671214396
 20
172.0563751309
 11
-57.4671214396
 21
172.0563751309
  0
LINE
  8
Layer1$C$L1
 62
     3
 10
-58.1671214396
 20
179.8563751309
 11
-57.4671214396
 21
179.8563751309
  0
LINE
  8
Layer1$C$L1
 62
     3
 10
-73.4671214396
 20
227.9563751309
 11
-72.7671214396
 21
227.9563751309
  0
LINE
  8
Layer1$C$L1
 62
     3
 10
-73.4671214396
 20
235.7563751309
 11
-72.7671214396
 21
235.7563751309
  0
TEXT
  8
Layer8$C$L8
 62
     3
 10
-150.0059837934
 20
199.0806015835
 40
3.7500000000
  1
éném
 41
0.6693333333
 72
     5
 11
-142.4759837934
 21
199.0806015835
  0
ARC
  8
Layer1$C$L1
 62
     3
 10
-167.8671244914
 20
239.5563751309
 40
2.3000000000
 50
270.0000000000
 51
450.0000000000
  0
LINE
  8
Layer1$C$L1
  6
CENTER
 62
     3
 10
-125.9171244914
 20
175.9563754689
 11
-134.3171244914
 21
175.9563754689
  0
LINE
  8
Layer1$C$L1
  6
CENTER
 62
     3
 10
-143.4171244914
 20
175.9563751309
 11
-151.8171244914
 21
175.9563751309
  0
LINE
  8
Layer1$C$L1
  6
CENTER
 62
     3
 10
-160.9171244914
 20
175.9563751309
 11
-169.3171244914
 21
175.9563751309
  0
LINE
  8
Layer1$C$L1
  6
CENTER
 62
     3
 10
-121.1171244914
 20
231.8563751309
 11
-129.5171244914
 21
231.8563751309
  0
LINE
  8
Layer1$C$L1
  6
CENTER
 62
     3
 10
-138.6171244914
 20
231.8563751309
 11
-147.0171244914
 21
231.8563751309
  0
LINE
  8
Layer1$C$L1
  6
CENTER
 62
     3
 10
-156.1171244914
 20
231.8563751309
 11
-164.5171244914
 21
231.8563751309
  0
LINE
  8
Layer1$C$L1
  6
CENTER
 62
     3
 10
-101.1664779351
 20
203.9063751309
 11
-20.4261416624
 21
203.9063751309
  0
ARC
  8
Layer1$C$L1
  6
DASH
 62
     3
 10
-26.6671214396
 20
189.4063827603
 40
2.0000000000
 50
89.9999273724
 51
179.9999640278
  0
LINE
  8
Layer1$C$L1
  6
DASH
 62
     3
 10
-26.9671092326
 20
190.4063827603
 11
-21.1671214396
 21
190.4063827603
  0
ARC
  8
Layer1$C$L1
  6
DASH
 62
     3
 10
-26.6671214396
 20
218.4063827603
 40
2.0000000000
 50
203.4374641641
 51
270.0000179861
  0
LINE
  8
Layer1$C$L1
  6
DASH
 62
     3
 10
-21.1671214396
 20
190.4063827603
 11
-21.1671214396
 21
217.4063827603
  0
LINE
  8
Layer1$C$L1
  6
DASH
 62
     3
 10
-22.8671183879
 20
191.4063827603
 11
-22.8671183879
 21
216.4063827603
  0
LINE
  8
Layer1$C$L1
  6
DASH
 62
     3
 10
-26.6671214396
 20
191.4063827603
 11
-22.8671183879
 21
191.4063827603
  0
LINE
  8
Layer1$C$L1
  6
DASH
 62
     3
 10
-26.6671214396
 20
216.4063827603
 11
-22.8671183879
 21
216.4063827603
  0
LINE
  8
Layer1$C$L1
  6
DASH
 62
     3
 10
-26.9671092326
 20
217.4063827603
 11
-21.1671214396
 21
217.4063827603
  0
LINE
  8
Layer1$C$L1
  6
DASH
 62
     3
 10
-27.6671214396
 20
219.4063827603
 11
-27.6671214396
 21
221.4563751309
  0
LINE
  8
Layer1$C$L1
  6
DASH
 62
     3
 10
-26.9671092326
 20
217.4063827603
 11
-26.9671092326
 21
217.9063827603
  0
LINE
  8
Layer1$C$L1
  6
DASH
 62
     3
 10
-27.6671324505
 20
219.4063550097
 11
-26.9671278550
 21
217.9063467972
  0
LINE
  8
Layer1$C$L1
  6
DASH
 62
     3
 10
-27.6671214396
 20
188.4063827603
 11
-27.6671214396
 21
187.9897084643
  0
LINE
  8
Layer1$C$L1
  6
DASH
 62
     3
 10
-27.6671613181
 20
188.4064194768
 11
-26.9671535654
 21
189.9064263080
  0
LINE
  8
Layer1$C$L1
  6
DASH
 62
     3
 10
-26.9671092326
 20
190.4063827603
 11
-26.9671092326
 21
189.9063827603
  0
ARC
  8
Layer1$C$L1
 62
     3
 10
-70.7671214396
 20
238.1563751309
 40
2.0000000000
 50
90.0000000000
 51
180.0000000000
  0
CIRCLE
  8
Layer1$C$L1
 62
     3
 10
-28.6671214396
 20
228.9563751309
 40
1.1000000000
  0
CIRCLE
  8
Layer1$C$L1
 62
     3
 10
-28.6671214396
 20
228.9563751309
 40
2.2500000000
  0
ARC
  8
Layer1$C$L1
 62
     3
 10
-86.6812511962
 20
225.4563751309
 40
1.0000000000
 50
90.0000000000
 51
171.1201796396
  0
CIRCLE
  8
Layer1$C$L1
 62
     3
 10
-74.9671214396
 20
222.4563751309
 40
1.1000000000
  0
CIRCLE
  8
Layer1$C$L1
 62
     3
 10
-74.9671214396
 20
222.4563751309
 40
2.2500000000
  0
ARC
  8
Layer1$C$L1
 62
     3
 10
-29.5671214396
 20
218.3563751309
 40
1.3000000000
 50
313.8130614604
 51
374.6219744214
  0
ARC
  8
Layer1$C$L1
 62
     3
 10
-86.7671214396
 20
203.4563751309
 40
0.3000000000
 50
289.3037542760
 51
337.7140257111
  0
ARC
  8
Layer1$C$L1
 62
     3
 10
60.5328785610
 20
202.4563751310
 40
149.6000000007
 50
183.4073852670
 51
184.0554087313
  0
ARC
  8
Layer1$C$L1
 62
     3
 10
-81.4671214396
 20
202.4563751309
 40
5.1000000000
 50
168.6922705659
 51
191.3077294341
  0
ARC
  8
Layer1$C$L1
 62
     3
 10
-81.4671214396
 20
202.4563751309
 40
5.2500000000
 50
168.8053514548
 51
191.1946485452
  0
ARC
  8
Layer1$C$L1
 62
     3
 10
-81.4671214396
 20
202.4563751309
 40
9.3000000000
 50
250.4569979860
 51
508.3970533255
  0
ARC
  8
Layer1$C$L1
 62
     3
 10
-81.4671214396
 20
202.4563751309
 40
9.0000000000
 50
248.3615607713
 51
594.7525819799
  0
ARC
  8
Layer1$C$L1
 62
     3
 10
-81.4671214396
 20
202.4563751309
 40
9.3000000000
 50
211.6029466745
 51
232.6571447653
  0
ARC
  8
Layer1$C$L1
 62
     3
 10
60.5328785604
 20
202.4563751309
 40
150.0000000000
 50
171.1201796396
 51
178.3812799915
  0
ARC
  8
Layer1$C$L1
 62
     3
 10
60.5328785602
 20
202.4563751309
 40
149.9999999998
 50
181.6187200085
 51
185.3362185881
  0
CIRCLE
  8
Layer1$C$L1
 62
     3
 10
-86.6671214396
 20
192.8563751309
 40
1.1000000000
  0
ARC
  8
Layer1$C$L1
 62
     3
 10
-86.6671214396
 20
192.8563751309
 40
2.2500000000
 50
205.8173698561
 51
521.6454241422
  0
CIRCLE
  8
Layer1$C$L1
 62
     3
 10
-34.6671214396
 20
189.1563751309
 40
1.1000000000
  0
CIRCLE
  8
Layer1$C$L1
 62
     3
 10
-34.6671214396
 20
189.1563751309
 40
2.2500000000
  0
ARC
  8
Layer1$C$L1
 62
     3
 10
-25.4671214396
 20
185.1563751309
 40
1.0000000000
 50
0.0000000000
 51
90.0000000000
  0
ARC
  8
Layer1$C$L1
 62
     3
 10
-55.4671214396
 20
169.6563751309
 40
2.0000000000
 50
180.0000000000
 51
270.0000000000
  0
LINE
  8
Layer1$C$L1
 62
     3
 10
-24.4671214396
 20
243.2563751309
 11
-29.4671214396
 21
243.2563751309
  0
LINE
  8
Layer1$C$L1
 62
     3
 10
-28.3671214396
 20
242.2563751309
 11
-25.8671214396
 21
242.2563751309
  0
LINE
  8
Layer1$C$L1
 62
     3
 10
-28.3671214396
 20
240.8563751309
 11
-25.8671214396
 21
240.8563751309
  0
LINE
  8
Layer1$C$L1
 62
     3
 10
-25.8671214396
 20
240.1563751309
 11
-25.8671214396
 21
242.2563751309
  0
LINE
  8
Layer1$C$L1
 62
     3
 10
-28.3671214396
 20
240.1563751309
 11
-28.3671214396
 21
242.2563751309
  0
LINE
  8
Layer1$C$L1
 62
     3
 10
-70.7671214396
 20
240.1563751309
 11
-24.4671214396
 21
240.1563751309
  0
LINE
  8
Layer1$C$L1
 62
     3
 10
-37.4671214396
 20
238.0071817925
 11
-72.7671214396
 21
238.0071817925
  0
LINE
  8
Layer1$C$L1
 62
     3
 10
-37.4671214396
 20
236.6998037595
 11
-37.4671214396
 21
240.1563751309
  0
LINE
  8
Layer1$C$L1
 62
     3
 10
-29.4671214396
 20
236.6998037595
 11
-37.4671214396
 21
236.6998037595
  0
LINE
  8
Layer1$C$L1
 62
     3
 10
-29.4671214396
 20
236.6998037595
 11
-29.4671214396
 21
243.2563751309
  0
LINE
  8
Layer1$C$L1
 62
     3
 10
-72.7671214396
 20
226.4563751309
 11
-72.7671214396
 21
238.1563751309
  0
LINE
  8
Layer1$C$L1
 62
     3
 10
-86.6812511962
 20
226.4563751309
 11
-72.7671214396
 21
226.4563751309
  0
LINE
  8
Layer1$C$L1
 62
     3
 10
-24.4671214396
 20
221.4563751309
 11
-24.4671214396
 21
243.2563751309
  0
LINE
  8
Layer1$C$L1
 62
     3
 10
-28.6671214396
 20
221.4563751309
 11
-27.5671214396
 21
221.4563751309
  0
LINE
  8
Layer1$C$L1
 62
     3
 10
-28.6671214396
 20
220.0563751309
 11
-28.6671214396
 21
221.4563751309
  0
LINE
  8
Layer1$C$L1
 62
     3
 10
-26.4671214396
 20
219.4563751309
 11
-24.4671214396
 21
221.4563751309
  0
LINE
  8
Layer1$C$L1
 62
     3
 10
-27.1671214396
 20
219.4563751309
 11
-26.4671214396
 21
219.4563751309
  0
LINE
  8
Layer1$C$L1
 62
     3
 10
-27.1671214396
 20
219.4563751309
 11
-27.5671214396
 21
221.4563751309
  0
LINE
  8
Layer1$C$L1
 62
     3
 10
-28.3092252882
 20
218.6845477567
 11
-28.6671214396
 21
220.0563751309
  0
LINE
  8
Layer1$C$L1
 62
     3
 10
-86.4681213396
 20
203.4563751309
 11
-90.3412411143
 21
203.9563751309
  0
LINE
  8
Layer1$C$L1
 62
     3
 10
-86.6932576797
 20
202.9563751309
 11
-86.5425524558
 21
202.9563751309
  0
LINE
  8
Layer1$C$L1
 62
     3
 10
-90.3412411143
 20
200.9563751309
 11
-86.4681213396
 21
201.4563751309
  0
LINE
  8
Layer1$C$L1
 62
     3
 10
-86.4946965795
 20
189.5945188516
 11
-86.4771214396
 21
189.5945188516
  0
LINE
  8
Layer1$C$L1
 62
     3
 10
-86.5671214396
 20
189.5751126688
 11
-77.7771964204
 21
191.9303659792
  0
LINE
  8
Layer1$C$L1
 62
     3
 10
-86.4771214396
 20
189.4445188516
 11
-77.8873166211
 21
191.7461501159
  0
LINE
  8
Layer1$C$L1
 62
     3
 10
-86.4771214396
 20
189.3563751309
 11
-86.5671214396
 21
189.3563751309
  0
LINE
  8
Layer1$C$L1
 62
     3
 10
-86.5671214396
 20
189.1092383876
 11
-86.5671214396
 21
189.5751126688
  0
LINE
  8
Layer1$C$L1
 62
     3
 10
-86.4771214396
 20
189.0304083794
 11
-86.4771214396
 21
189.5945188516
  0
LINE
  8
Layer1$C$L1
 62
     3
 10
-87.4771214396
 20
188.7624591870
 11
-87.4771214396
 21
188.8654046225
  0
LINE
  8
Layer1$C$L1
 62
     3
 10
-27.4671214396
 20
188.6563751309
 11
-26.3671214396
 21
188.6563751309
  0
LINE
  8
Layer1$C$L1
 62
     3
 10
-88.8170377436
 20
188.5063751309
 11
-86.5671214396
 21
189.1092383876
  0
LINE
  8
Layer1$C$L1
 62
     3
 10
-88.8060452286
 20
188.4063751309
 11
-86.4771214396
 21
189.0304083794
  0
LINE
  8
Layer1$C$L1
 62
     3
 10
-88.8035212191
 20
188.3624153994
 11
-88.8170377436
 21
188.5063751309
  0
LINE
  8
Layer1$C$L1
 62
     3
 10
-88.7874576392
 20
188.2549913636
 11
-88.8035212191
 21
188.3624153994
  0
LINE
  8
Layer1$C$L1
 62
     3
 10
-64.7238421291
 20
187.4563751309
 11
-58.5671214396
 21
187.4563751309
  0
LINE
  8
Layer1$C$L1
 62
     3
 10
-64.5196644489
 20
187.3563751309
 11
-58.6771214396
 21
187.3563751309
  0
LINE
  8
Layer1$C$L1
 62
     3
 10
-28.0671214396
 20
186.6563751309
 11
-27.4671214396
 21
188.6563751309
  0
LINE
  8
Layer1$C$L1
 62
     3
 10
-28.6671214396
 20
186.6563751309
 11
-28.0671214396
 21
186.6563751309
  0
LINE
  8
Layer1$C$L1
 62
     3
 10
-24.4671214396
 20
186.3563751309
 11
-26.3671214396
 21
188.6563751309
  0
LINE
  8
Layer1$C$L1
 62
     3
 10
-28.6671214396
 20
186.1563751309
 11
-28.6671214396
 21
217.4182919790
  0
LINE
  8
Layer1$C$L1
 62
     3
 10
-25.4671214396
 20
186.1563751309
 11
-28.6671214396
 21
186.1563751309
  0
LINE
  8
Layer1$C$L1
 62
     3
 10
-75.7842897731
 20
184.4927371168
 11
-77.7771964204
 21
191.9303659792
  0
LINE
  8
Layer1$C$L1
 62
     3
 10
-75.7842897731
 20
184.4927371168
 11
-64.7238421291
 21
187.4563751309
  0
LINE
  8
Layer1$C$L1
 62
     3
 10
-75.8944099738
 20
184.3085212534
 11
-77.8873166211
 21
191.7461501159
  0
LINE
  8
Layer1$C$L1
 62
     3
 10
-75.8944099738
 20
184.3085212534
 11
-64.5196644489
 21
187.3563751309
  0
LINE
  8
Layer1$C$L1
 62
     3
 10
-57.4671214396
 20
182.8563751309
 11
-58.5671214396
 21
182.8563751309
  0
LINE
  8
Layer1$C$L1
 62
     3
 10
-58.5671214396
 20
182.8563751309
 11
-58.5671214396
 21
187.4563751309
  0
LINE
  8
Layer1$C$L1
 62
     3
 10
-58.6771214396
 20
182.7563751309
 11
-58.6771214396
 21
187.3563751309
  0
LINE
  8
Layer1$C$L1
 62
     3
 10
-57.4771214396
 20
182.7563751309
 11
-57.4771214396
 21
182.8563751309
  0
LINE
  8
Layer1$C$L1
 62
     3
 10
-58.6771214396
 20
182.7563751309
 11
-57.6771214396
 21
182.7563751309
  0
LINE
  8
Layer1$C$L1
 62
     3
 10
-57.6771214396
 20
182.5885552047
 11
-57.6771214396
 21
182.7563751309
  0
LINE
  8
Layer1$C$L1
 62
     3
 10
-29.4671214396
 20
181.3563751309
 11
-57.4671214396
 21
181.3563751309
  0
LINE
  8
Layer1$C$L1
 62
     3
 10
-29.4671214396
 20
179.8563751309
 11
-57.4671214396
 21
179.8563751309
  0
LINE
  8
Layer1$C$L1
 62
     3
 10
-29.4671214396
 20
178.3563751309
 11
-57.4671214396
 21
178.3563751309
  0
LINE
  8
Layer1$C$L1
 62
     3
 10
-29.4671214396
 20
173.5563751309
 11
-57.4671214396
 21
173.5563751309
  0
LINE
  8
Layer1$C$L1
 62
     3
 10
-29.4671214396
 20
172.0563751309
 11
-57.4671214396
 21
172.0563751309
  0
LINE
  8
Layer1$C$L1
 62
     3
 10
-35.4671214396
 20
169.7055684694
 11
-57.4671214396
 21
169.7055684694
  0
LINE
  8
Layer1$C$L1
 62
     3
 10
-35.4671214396
 20
169.7055684694
 11
-35.4671214396
 21
172.0563751309
  0
LINE
  8
Layer1$C$L1
 62
     3
 10
-57.4671214396
 20
169.6563751309
 11
-57.4671214396
 21
182.8563751309
  0
LINE
  8
Layer1$C$L1
 62
     3
 10
-24.4671214396
 20
169.0563751309
 11
-29.4671214396
 21
169.0563751309
  0
LINE
  8
Layer1$C$L1
 62
     3
 10
-34.4671214396
 20
167.6563751309
 11
-34.4671214396
 21
172.0563751309
  0
LINE
  8
Layer1$C$L1
 62
     3
 10
-29.4671214396
 20
167.6563751309
 11
-55.4671214396
 21
167.6563751309
  0
LINE
  8
Layer1$C$L1
 62
     3
 10
-24.4671214396
 20
167.2563751309
 11
-29.4671214396
 21
167.2563751309
  0
LINE
  8
Layer1$C$L1
 62
     3
 10
-29.4671214396
 20
164.4563751309
 11
-29.4671214396
 21
181.3563751309
  0
LINE
  8
Layer1$C$L1
 62
     3
 10
-24.4671214396
 20
164.4563751309
 11
-24.4671214396
 21
186.3563751309
  0
LINE
  8
Layer1$C$L1
 62
     3
 10
-24.4671214396
 20
164.4563751309
 11
-29.4671214396
 21
164.4563751309
  0
POLYLINE
  8
Layer1$C$L1
 62
     3
 66
     1
  0
VERTEX
  8
Layer1$C$L1
 62
     3
 10
-35.4671214396
 20
169.7055684694
  0
VERTEX
  8
Layer1$C$L1
 62
     3
 10
-35.2410643616
 20
169.0548793545
  0
VERTEX
  8
Layer1$C$L1
 62
     3
 10
-35.1392234280
 20
168.3605826955
  0
VERTEX
  8
Layer1$C$L1
 62
     3
 10
-35.1665413347
 20
167.6563751309
  0
SEQEND
  8
Layer1$C$L1
 62
     3
  0
ARC
  8
Layer1$C$L1
  6
DASH
 62
     3
 10
-21.4553290020
 20
331.1520805521
 40
147.0000000000
 50
239.6132805004
 51
241.6907010522
  0
ARC
  8
Layer1$C$L1
  6
DASH
 62
     3
 10
-21.4553290023
 20
331.1520805516
 40
149.9999999994
 50
239.7910745217
 51
243.0735247323
  0
ARC
  8
Layer1$C$L1
  6
DASH
 62
     3
 10
-81.4671221692
 20
202.4563747930
 40
9.3000000000
 50
188.9565134760
 51
206.3883584935
  0
ARC
  8
Layer1$C$L1
  6
DASH
 62
     3
 10
-96.8278845431
 20
201.6954551087
 40
0.2000000000
 50
155.0000000000
 51
239.7910745218
  0
ARC
  8
Layer1$C$L1
  6
DASH
 62
     3
 10
-91.6415320774
 20
200.8528215449
 40
1.0000000000
 50
8.9565134760
 51
61.6907010522
  0
LINE
  8
Layer1$C$L1
  6
DASH
 62
     3
 10
-95.8989633605
 20
204.1607733301
 11
-95.8129019850
 21
204.3453325453
  0
LINE
  8
Layer1$C$L1
  6
DASH
 62
     3
 10
-95.8118076177
 20
203.1645786320
 11
-95.8989633605
 21
204.1607733301
  0
LINE
  8
Layer1$C$L1
  6
DASH
 62
     3
 10
-96.3869608948
 20
203.1142592404
 11
-95.8118076177
 21
203.1645786320
  0
LINE
  8
Layer1$C$L1
  6
DASH
 62
     3
 10
-96.2998051521
 20
202.1180645423
 11
-96.3869608948
 21
203.1142592404
  0
LINE
  8
Layer1$C$L1
  6
DASH
 62
     3
 10
-96.8749584292
 20
202.0677451508
 11
-96.2998051521
 21
202.1180645423
  0
LINE
  8
Layer1$C$L1
  6
DASH
 62
     3
 10
-97.0091461005
 20
201.7799787611
 11
-96.8749584292
 21
202.0677451508
  0
LINE
  8
Layer1$C$L1
  6
DASH
 62
     3
 10
-90.2192357481
 20
200.3586360337
 11
-90.5630816093
 21
200.5189739920
  0
LINE
  8
Layer1$C$L1
  6
DASH
 62
     3
 10
-90.5907103356
 20
198.0344669623
 11
-89.7980815494
 21
198.3229602474
  0
CIRCLE
  8
Layer1$C$L1
 62
     3
 10
-62.3729472967
 20
181.4063747930
 40
0.8500000000
  0
ARC
  8
Layer1$C$L1
 62
     3
 10
-86.6382220321
 20
178.9563747930
 40
1.0000000000
 50
187.0000000000
 51
270.0000000000
  0
ARC
  8
Layer1$C$L1
 62
     3
 10
-64.6020476353
 20
178.4563747930
 40
0.5000000000
 50
270.0000000000
 51
344.3388578781
  0
ARC
  8
Layer1$C$L1
 62
     3
 10
-63.3795245308
 20
178.4563747930
 40
0.5000000000
 50
270.0000000000
 51
310.0000000000
  0
LINE
  8
Layer1$C$L1
 62
     3
 10
-58.0729989655
 20
182.2563747930
 11
-62.3729472967
 21
182.2563747930
  0
LINE
  8
Layer1$C$L1
 62
     3
 10
-63.8913967166
 20
179.1389817586
 11
-60.8014535896
 21
179.9669295242
  0
LINE
  8
Layer1$C$L1
 62
     3
 10
-87.6307681838
 20
178.8345054496
 11
-88.8060459581
 21
188.4063747930
  0
LINE
  8
Layer1$C$L1
 62
     3
 10
-64.1206101125
 20
178.3214010488
 11
-63.1913910855
 21
181.6358301580
  0
LINE
  8
Layer1$C$L1
 62
     3
 10
-63.0581307259
 20
178.0733525714
 11
-57.4771221692
 21
182.7563747930
  0
LINE
  8
Layer1$C$L1
 62
     3
 10
-86.6382220321
 20
177.9563747930
 11
-63.3795245308
 21
177.9563747930
  0
ARC
  8
Layer1$C$L1
  6
DASH
 62
     3
 10
-89.4207178217
 20
189.3097208652
 40
0.5000000000
 50
97.0000000000
 51
187.0000000000
  0
ARC
  8
Layer1$C$L1
  6
DASH
 62
     3
 10
-62.3729472967
 20
181.4063747930
 40
0.7500000000
 50
90.0000000000
 51
164.2828032244
  0
ARC
  8
Layer1$C$L1
  6
DASH
 62
     3
 10
-86.6382220321
 20
178.9563747930
 40
1.0000000000
 50
187.0000000000
 51
270.0000000000
  0
ARC
  8
Layer1$C$L1
  6
DASH
 62
     3
 10
-86.3687724242
 20
168.5563747930
 40
1.0000000000
 50
187.0000000000
 51
270.0000000000
  0
LINE
  8
Layer1$C$L1
  6
DASH
 62
     3
 10
-89.4816524934
 20
189.8059939410
 11
-88.9853794176
 21
189.8669286127
  0
LINE
  8
Layer1$C$L1
  6
DASH
 62
     3
 10
-62.3729472967
 20
182.1563747930
 11
-57.6229472967
 21
182.1563747930
  0
LINE
  8
Layer1$C$L1
  6
DASH
 62
     3
 10
-87.6307681838
 20
178.8345054496
 11
-88.9853794176
 21
189.8669286127
  0
LINE
  8
Layer1$C$L1
  6
DASH
 62
     3
 10
-64.1229472967
 20
177.9563747930
 11
-63.0949051604
 21
181.6095418253
  0
LINE
  8
Layer1$C$L1
  6
DASH
 62
     3
 10
-86.6382220321
 20
177.9563747930
 11
-57.6229472967
 21
177.9563747930
  0
LINE
  8
Layer1$C$L1
  6
DASH
 62
     3
 10
-87.3613185759
 20
168.4345054496
 11
-89.9169908975
 21
189.2487861934
  0
LINE
  8
Layer1$C$L1
  6
DASH
 62
     3
 10
-57.6229472967
 20
167.5563747930
 11
-57.6229472967
 21
182.1563747930
  0
LINE
  8
Layer1$C$L1
  6
DASH
 62
     3
 10
-57.6229472967
 20
167.5563747930
 11
-86.3687724242
 21
167.5563747930
  0
LINE
  8
Layer1$C$L1
 62
     3
 10
-122.7171244914
 20
172.0563751309
 11
-124.5671244914
 21
172.0563751309
  0
LINE
  8
Layer1$C$L1
 62
     3
 10
-124.5671244914
 20
169.7055684694
 11
-124.5671244914
 21
178.2444915672
  0
ARC
  8
Layer1$C$L1
 62
     3
 10
-131.4671305949
 20
177.3063663136
 40
0.7500000000
 50
270.0000179861
 51
360.0000000000
  0
ARC
  8
Layer1$C$L1
 62
     3
 10
-128.7671183879
 20
177.3063663136
 40
0.7500000000
 50
179.9999640278
 51
269.9999460417
  0
ARC
  8
Layer1$C$L1
 62
     3
 10
-128.7671183879
 20
174.6063693654
 40
0.7500000000
 50
89.9999820139
 51
179.9999640278
  0
ARC
  8
Layer1$C$L1
 62
     3
 10
-131.4671305949
 20
174.6063693654
 40
0.7500000000
 50
0.0000000000
 51
89.9999820139
  0
LINE
  8
Layer1$C$L1
 62
     3
 10
-129.5171183879
 20
177.3063663136
 11
-129.5171183879
 21
178.4063724171
  0
LINE
  8
Layer1$C$L1
 62
     3
 10
-128.7671183879
 20
176.5563663136
 11
-126.9738760147
 21
176.5563663136
  0
LINE
  8
Layer1$C$L1
 62
     3
 10
-128.7671183879
 20
175.3563693654
 11
-126.9738789274
 21
175.3563693654
  0
LINE
  8
Layer1$C$L1
 62
     3
 10
-130.7171305949
 20
177.3063663136
 11
-130.7171305949
 21
178.4063724171
  0
LINE
  8
Layer1$C$L1
 62
     3
 10
-127.6671275431
 20
175.3563693654
 11
-127.6671275431
 21
176.5563663136
  0
LINE
  8
Layer1$C$L1
 62
     3
 10
-132.5671214396
 20
175.3563693654
 11
-132.5671214396
 21
176.5563663136
  0
LINE
  8
Layer1$C$L1
 62
     3
 10
-130.7171305949
 20
173.5063785207
 11
-129.5171183879
 21
173.5063785207
  0
LINE
  8
Layer1$C$L1
 62
     3
 10
-130.7171305949
 20
178.4063724171
 11
-129.5171183879
 21
178.4063724171
  0
LINE
  8
Layer1$C$L1
 62
     3
 10
-130.7171305949
 20
173.5063785207
 11
-130.7171305949
 21
174.6063693654
  0
LINE
  8
Layer1$C$L1
 62
     3
 10
-129.5171183879
 20
173.5063785207
 11
-129.5171183879
 21
174.6063693654
  0
LINE
  8
Layer1$C$L1
 62
     3
 10
-133.2603700554
 20
175.3563693654
 11
-131.4671305949
 21
175.3563693654
  0
LINE
  8
Layer1$C$L1
 62
     3
 10
-133.2603729681
 20
176.5563663136
 11
-131.4671305949
 21
176.5563663136
  0
LINE
  8
Layer1$C$L1
  6
CENTER
 62
     3
 10
-130.1171244914
 20
178.9563602101
 11
-130.1171244914
 21
172.9563602101
  0
ARC
  8
Layer1$C$L1
 62
     3
 10
-148.5153622886
 20
207.4659600104
 40
36.8121587510
 50
316.3896442968
 51
317.3488807703
  0
ARC
  8
Layer1$C$L1
 62
     3
 10
-134.7864689534
 20
186.4757195930
 40
0.2000000000
 50
96.5198017517
 51
173.4801982483
  0
ARC
  8
Layer1$C$L1
 62
     3
 10
-128.8477800294
 20
186.4757195930
 40
0.2000000000
 50
6.5198017517
 51
83.4801982483
  0
ARC
  8
Layer1$C$L1
 62
     3
 10
-123.5905057929
 20
185.9850064157
 40
3.0674444567
 50
8.2291603250
 51
40.3900101214
  0
ARC
  8
Layer1$C$L1
 62
     3
 10
-123.5316036376
 20
185.8416232629
 40
2.9974581459
 50
12.4121649831
 51
41.5230803561
  0
ARC
  8
Layer1$C$L1
 62
     3
 10
-124.3310178257
 20
185.6721381143
 40
2.3749525235
 50
194.5269172647
 51
221.9314667299
  0
ARC
  8
Layer1$C$L1
 62
     3
 10
-123.7714202704
 20
185.4995950380
 40
2.7547411226
 50
195.2452803533
 51
215.1626466977
  0
ARC
  8
Layer1$C$L1
 62
     3
 10
-131.8171244914
 20
183.5063751309
 40
3.1000000000
 50
45.9286707505
 51
76.3873745984
  0
ARC
  8
Layer1$C$L1
 62
     3
 10
-131.8171244914
 20
183.5063751309
 40
2.9081369033
 50
214.1440345515
 51
235.8559654485
  0
ARC
  8
Layer1$C$L1
 62
     3
 10
-131.8171244914
 20
183.5063751309
 40
1.9000000000
 50
122.1050717473
 51
147.8949282527
  0
ARC
  8
Layer1$C$L1
 62
     3
 10
-131.8171244914
 20
183.5063751309
 40
3.1000000000
 50
85.7226080881
 51
184.2773919119
  0
CIRCLE
  8
Layer1$C$L1
 62
     3
 10
-131.8171244914
 20
183.5063751309
 40
3.0000000000
  0
ARC
  8
Layer1$C$L1
 62
     3
 10
-131.8171244914
 20
183.5063751309
 40
3.1000000000
 50
265.7226080881
 51
364.2773919119
  0
CIRCLE
  8
Layer1$C$L1
 62
     3
 10
-131.8171244914
 20
183.5063751309
 40
0.2000000000
  0
ARC
  8
Layer1$C$L1
 62
     3
 10
-131.8171244914
 20
183.5063751309
 40
3.1000000000
 50
193.6126254016
 51
256.3873745984
  0
ARC
  8
Layer1$C$L1
 62
     3
 10
-131.8171244914
 20
183.5063751309
 40
1.9000000000
 50
302.1050717473
 51
327.8949282527
  0
ARC
  8
Layer1$C$L1
 62
     3
 10
-131.8171244914
 20
183.5063751309
 40
2.9081369033
 50
34.1440345515
 51
55.8559654485
  0
ARC
  8
Layer1$C$L1
 62
     3
 10
-131.8171244914
 20
183.5063751309
 40
3.1000000000
 50
13.6126254017
 51
44.0803396533
  0
ARC
  8
Layer1$C$L1
 62
     3
 10
-123.8148263587
 20
181.6628502561
 40
2.9023025370
 50
162.0618358953
 51
179.6821121164
  0
ARC
  8
Layer1$C$L1
 62
     3
 10
-124.3310178257
 20
181.3921016021
 40
2.3749525235
 50
194.5269172647
 51
221.9314667299
  0
ARC
  8
Layer1$C$L1
 62
     3
 10
-123.7714202704
 20
181.2195585258
 40
2.7547411226
 50
195.2452803533
 51
215.1626466977
  0
ARC
  8
Layer1$C$L1
 62
     3
 10
-134.7864689534
 20
180.5370306689
 40
0.2000000000
 50
186.5198017517
 51
263.4801982483
  0
ARC
  8
Layer1$C$L1
 62
     3
 10
-128.8477800294
 20
180.5370306689
 40
0.2000000000
 50
276.5198017517
 51
353.4801982483
  0
ARC
  8
Layer1$C$L1
 62
     3
 10
-130.1171244914
 20
175.9563751309
 40
3.2000000000
 50
54.6812270970
 51
398.6821874535
  0
ARC
  8
Layer1$C$L1
 62
     3
 10
-122.2171244914
 20
175.9563751309
 40
2.4000000000
 50
270.0000000000
 51
432.4362628140
  0
LINE
  8
Layer1$C$L1
 62
     3
 10
-126.9671244914
 20
188.5063751309
 11
-118.9671244914
 21
188.5063751309
  0
LINE
  8
Layer1$C$L1
 62
     3
 10
-120.0671244914
 20
188.4063751309
 11
-118.9671244914
 21
188.4063751309
  0
LINE
  8
Layer1$C$L1
 62
     3
 10
-121.6098299147
 20
188.3162984203
 11
-121.9561691083
 21
188.5063751309
  0
LINE
  8
Layer1$C$L1
 62
     3
 10
-121.5719906540
 20
188.1035576583
 11
-122.2780572273
 21
188.5063751309
  0
LINE
  8
Layer1$C$L1
 62
     3
 10
-121.6934215115
 20
187.9862644570
 11
-121.5719906540
 21
188.1035576583
  0
LINE
  8
Layer1$C$L1
 62
     3
 10
-120.1171244914
 20
187.8026939035
 11
-120.0671244914
 21
187.8026939035
  0
LINE
  8
Layer1$C$L1
 62
     3
 10
-121.4025656986
 20
187.7175008768
 11
-121.2874404812
 21
187.8287032975
  0
LINE
  8
Layer1$C$L1
 62
     3
 10
-120.2671244914
 20
187.6455442393
 11
-120.3617327434
 21
188.5063751309
  0
LINE
  8
Layer1$C$L1
 62
     3
 10
-126.9671244914
 20
187.6455442393
 11
-126.8725162393
 21
188.5063751309
  0
LINE
  8
Layer1$C$L1
 62
     3
 10
-136.4671244914
 20
187.4563751309
 11
-126.9671244914
 21
187.4563751309
  0
LINE
  8
Layer1$C$L1
 62
     3
 10
-120.2671244914
 20
187.3867251942
 11
-121.4262714013
 21
188.5063751309
  0
LINE
  8
Layer1$C$L1
 62
     3
 10
-120.2671244914
 20
187.3867251942
 11
-120.3901778396
 21
188.5063751309
  0
LINE
  8
Layer1$C$L1
 62
     3
 10
-126.9671244914
 20
187.3867251942
 11
-126.8440711432
 21
188.5063751309
  0
LINE
  8
Layer1$C$L1
 62
     3
 10
-126.9671244914
 20
187.3867251942
 11
-125.8079775814
 21
188.5063751309
  0
LINE
  8
Layer1$C$L1
 62
     3
 10
-136.4671244914
 20
187.3563751309
 11
-127.1671244914
 21
187.3563751309
  0
LINE
  8
Layer1$C$L1
 62
     3
 10
-135.3671244914
 20
186.9563751309
 11
-127.1671244914
 21
186.9563751309
  0
LINE
  8
Layer1$C$L1
 62
     3
 10
-135.3171244914
 20
186.9063751309
 11
-128.3171244914
 21
186.9063751309
  0
LINE
  8
Layer1$C$L1
 62
     3
 10
-129.2671244914
 20
186.9063751309
 11
-129.2671244914
 21
186.9563751309
  0
LINE
  8
Layer1$C$L1
 62
     3
 10
-134.3671244914
 20
186.9063751309
 11
-134.3671244914
 21
186.9563751309
  0
LINE
  8
Layer1$C$L1
 62
     3
 10
-133.2171244914
 20
186.8563751309
 11
-130.4171244914
 21
186.8563751309
  0
LINE
  8
Layer1$C$L1
 62
     3
 10
-120.0671244914
 20
186.8367680772
 11
-120.1171244914
 21
186.8367680772
  0
LINE
  8
Layer1$C$L1
 62
     3
 10
-127.1171244914
 20
186.8367680772
 11
-127.1671244914
 21
186.8367680772
  0
LINE
  8
Layer1$C$L1
 62
     3
 10
-122.6073247206
 20
186.7812306912
 11
-122.4630627877
 21
186.9357421728
  0
LINE
  8
Layer1$C$L1
 62
     3
 10
-120.0671244914
 20
186.7302708546
 11
-120.1171244914
 21
186.7302708546
  0
LINE
  8
Layer1$C$L1
 62
     3
 10
-127.1171244914
 20
186.7302708546
 11
-127.1671244914
 21
186.7302708546
  0
LINE
  8
Layer1$C$L1
 62
     3
 10
-134.8091782716
 20
186.6744261275
 11
-133.2171244914
 21
186.8563751309
  0
LINE
  8
Layer1$C$L1
 62
     3
 10
-128.8250707111
 20
186.6744261275
 11
-130.4171244914
 21
186.8563751309
  0
LINE
  8
Layer1$C$L1
 62
     3
 10
-132.2171244914
 20
186.5804603607
 11
-132.2171244914
 21
186.8563751309
  0
LINE
  8
Layer1$C$L1
 62
     3
 10
-131.4171244914
 20
186.5711735206
 11
-131.4171244914
 21
186.8563751309
  0
LINE
  8
Layer1$C$L1
 62
     3
 10
-131.0875200119
 20
186.5192935340
 11
-131.5859102284
 21
186.5977405193
  0
LINE
  8
Layer1$C$L1
 62
     3
 10
-126.6775266898
 20
186.4207993679
 11
-126.9671244914
 21
186.4207993679
  0
LINE
  8
Layer1$C$L1
 62
     3
 10
-120.2671244914
 20
186.4207993679
 11
-120.5537299438
 21
186.4207993679
  0
LINE
  8
Layer1$C$L1
 62
     3
 10
-122.0076822206
 20
186.2020205139
 11
-121.8616215611
 21
186.3547945591
  0
LINE
  8
Layer1$C$L1
 62
     3
 10
-122.4089936332
 20
186.1637103067
 11
-121.2102654372
 21
187.0675561720
  0
LINE
  8
Layer1$C$L1
 62
     3
 10
-122.6080678142
 20
186.1447061796
 11
-122.4084137490
 21
186.1642877113
  0
LINE
  8
Layer1$C$L1
 62
     3
 10
-124.6261811686
 20
186.1447061796
 11
-125.2265667622
 21
186.2020205139
  0
LINE
  8
Layer1$C$L1
 62
     3
 10
-124.4991504211
 20
186.0499204677
 11
-124.6261811686
 21
186.1447061796
  0
LINE
  8
Layer1$C$L1
 62
     3
 10
-122.7350985617
 20
186.0499204677
 11
-122.6080678142
 21
186.1447061796
  0
LINE
  8
Layer1$C$L1
 62
     3
 10
-120.5257591030
 20
185.9860048680
 11
-120.6042060883
 21
186.4859049752
  0
LINE
  8
Layer1$C$L1
 62
     3
 10
-128.2671244914
 20
185.9563751309
 11
-128.3171244914
 21
185.9563751309
  0
LINE
  8
Layer1$C$L1
 62
     3
 10
-135.3171244914
 20
185.9563751309
 11
-135.3671244914
 21
185.9563751309
  0
LINE
  8
Layer1$C$L1
 62
     3
 10
-120.5171640658
 20
185.9286816507
 11
-120.5546452393
 21
186.4240578866
  0
LINE
  8
Layer1$C$L1
 62
     3
 10
-129.8428557441
 20
185.7651940510
 11
-129.7719906540
 21
185.8360591411
  0
LINE
  8
Layer1$C$L1
 62
     3
 10
-120.5171244914
 20
185.7626690400
 11
-120.5171244914
 21
185.9443066709
  0
LINE
  8
Layer1$C$L1
 62
     3
 10
-126.7171244914
 20
185.7626690400
 11
-126.7171244914
 21
185.9442267817
  0
LINE
  8
Layer1$C$L1
 62
     3
 10
-122.9015296559
 20
185.6811008936
 11
-122.7350985617
 21
186.0499204677
  0
LINE
  8
Layer1$C$L1
 62
     3
 10
-124.3327193269
 20
185.6811008936
 11
-124.4991504211
 21
186.0499204677
  0
LINE
  8
Layer1$C$L1
 62
     3
 10
-129.7316236992
 20
185.6629201561
 11
-129.6609090760
 21
185.7336459008
  0
LINE
  8
Layer1$C$L1
 62
     3
 10
-126.7148529144
 20
185.6480587068
 11
-126.9671244914
 21
185.6480587068
  0
LINE
  8
Layer1$C$L1
 62
     3
 10
-120.2671244914
 20
185.6480587068
 11
-120.5193960683
 21
185.6480587068
  0
LINE
  8
Layer1$C$L1
 62
     3
 10
-129.6609074612
 20
185.5922150383
 11
-129.5901928381
 21
185.6629407830
  0
LINE
  8
Layer1$C$L1
 62
     3
 10
-129.5583055713
 20
185.4806438782
 11
-129.4874404812
 21
185.5515089683
  0
LINE
  8
Layer1$C$L1
 62
     3
 10
-128.2671244914
 20
185.4563751309
 11
-127.1671244914
 21
185.4563751309
  0
LINE
  8
Layer1$C$L1
 62
     3
 10
-120.1171244914
 20
185.4361756291
 11
-120.0671244914
 21
185.4361756291
  0
LINE
  8
Layer1$C$L1
 62
     3
 10
-127.1671244914
 20
185.4361756291
 11
-127.1171244914
 21
185.4361756291
  0
LINE
  8
Layer1$C$L1
 62
     3
 10
-124.5172434213
 20
185.1805331579
 11
-124.3327193269
 21
185.6811008936
  0
LINE
  8
Layer1$C$L1
 62
     3
 10
-122.7170055615
 20
185.1805331579
 11
-122.9015296559
 21
185.6811008936
  0
LINE
  8
Layer1$C$L1
 62
     3
 10
-130.8073247206
 20
185.1158174017
 11
-130.6630627877
 21
185.2618780612
  0
LINE
  8
Layer1$C$L1
 62
     3
 10
-120.1171244914
 20
185.0842315190
 11
-120.1171244914
 21
188.5063751309
  0
LINE
  8
Layer1$C$L1
 62
     3
 10
-120.1171244914
 20
185.0842315190
 11
-120.2671244914
 21
185.0842315190
  0
LINE
  8
Layer1$C$L1
 62
     3
 10
-126.9671244914
 20
185.0842315190
 11
-127.1171244914
 21
185.0842315190
  0
LINE
  8
Layer1$C$L1
 62
     3
 10
-127.1171244914
 20
185.0842315190
 11
-127.1171244914
 21
187.4563751309
  0
LINE
  8
Layer1$C$L1
 62
     3
 10
-126.6300428944
 20
185.0764173559
 11
-126.7084898798
 21
185.5393332120
  0
LINE
  8
Layer1$C$L1
 62
     3
 10
-128.4671244914
 20
184.9063751309
 11
-130.4171244914
 21
186.8563751309
  0
LINE
  8
Layer1$C$L1
 62
     3
 10
-128.4671244914
 20
184.9063751309
 11
-128.6490734948
 21
186.4984289112
  0
LINE
  8
Layer1$C$L1
 62
     3
 10
-135.1671244914
 20
184.9063751309
 11
-133.2171244914
 21
186.8563751309
  0
LINE
  8
Layer1$C$L1
 62
     3
 10
-135.1671244914
 20
184.9063751309
 11
-134.9851754879
 21
186.4984289112
  0
LINE
  8
Layer1$C$L1
 62
     3
 10
-123.1981244914
 20
184.7932259216
 11
-123.6171244914
 21
184.9898893608
  0
LINE
  8
Layer1$C$L1
 62
     3
 10
-124.0361244914
 20
184.7932259216
 11
-123.6171244914
 21
184.9898893608
  0
LINE
  8
Layer1$C$L1
 62
     3
 10
-131.1205893685
 20
184.7145059891
 11
-130.7303115655
 21
185.2144760224
  0
LINE
  8
Layer1$C$L1
 62
     3
 10
-120.2671244914
 20
184.6821328806
 11
-120.2671244914
 21
187.6455442393
  0
LINE
  8
Layer1$C$L1
 62
     3
 10
-126.9671244914
 20
184.6821328806
 11
-126.9671244914
 21
196.9563751309
  0
LINE
  8
Layer1$C$L1
 62
     3
 10
-123.0759871500
 20
184.6473337413
 11
-123.1981244914
 21
184.7932259216
  0
LINE
  8
Layer1$C$L1
 62
     3
 10
-124.1582618327
 20
184.6473337413
 11
-124.0361244914
 21
184.7932259216
  0
LINE
  8
Layer1$C$L1
 62
     3
 10
-120.8686796400
 20
184.5728667817
 11
-120.7815454645
 21
184.8165095218
  0
LINE
  8
Layer1$C$L1
 62
     3
 10
-126.3655693427
 20
184.5728667817
 11
-126.4527035182
 21
184.8165095218
  0
LINE
  8
Layer1$C$L1
 62
     3
 10
-130.2076822206
 20
184.5161749017
 11
-130.0616215611
 21
184.6604368346
  0
LINE
  8
Layer1$C$L1
 62
     3
 10
-132.3582618327
 20
184.5154318081
 11
-132.8269242621
 21
185.1158174017
  0
LINE
  8
Layer1$C$L1
 62
     3
 10
-131.2759871500
 20
184.5154318081
 11
-131.1199915954
 21
184.7150858733
  0
LINE
  8
Layer1$C$L1
 62
     3
 10
-135.3671244914
 20
184.5063751309
 11
-135.3171244914
 21
184.5063751309
  0
LINE
  8
Layer1$C$L1
 62
     3
 10
-128.3171244914
 20
184.5063751309
 11
-128.2671244914
 21
184.5063751309
  0
LINE
  8
Layer1$C$L1
 62
     3
 10
-120.2942722705
 20
184.4702498028
 11
-120.0671244914
 21
184.4702498028
  0
LINE
  8
Layer1$C$L1
 62
     3
 10
-127.1671244914
 20
184.4702498028
 11
-126.9399767123
 21
184.4702498028
  0
LINE
  8
Layer1$C$L1
 62
     3
 10
-131.3981244914
 20
184.3884010606
 11
-131.2759871500
 21
184.5154318081
  0
LINE
  8
Layer1$C$L1
 62
     3
 10
-124.3142573874
 20
184.3233841201
 11
-124.1582618327
 21
184.6473337413
  0
LINE
  8
Layer1$C$L1
 62
     3
 10
-123.6171244914
 20
184.3110850368
 11
-123.6171244914
 21
184.9898893608
  0
LINE
  8
Layer1$C$L1
 62
     3
 10
-131.8171244914
 20
184.2219699664
 11
-131.8171244914
 21
184.4064940609
  0
LINE
  8
Layer1$C$L1
 62
     3
 10
-131.8171244914
 20
184.2219699664
 11
-131.3981244914
 21
184.3884010606
  0
LINE
  8
Layer1$C$L1
 62
     3
 10
-131.8171244914
 20
184.2219699664
 11
-132.2361244914
 21
184.3884010606
  0
LINE
  8
Layer1$C$L1
 62
     3
 10
-125.3726274216
 20
184.1253185497
 11
-125.2265667622
 21
184.2512371580
  0
LINE
  8
Layer1$C$L1
 62
     3
 10
-130.8080678142
 20
184.0475124723
 11
-130.6084137490
 21
184.2035080269
  0
LINE
  8
Layer1$C$L1
 62
     3
 10
-132.8261811686
 20
184.0475124723
 11
-133.4265667622
 21
184.5161749017
  0
LINE
  8
Layer1$C$L1
 62
     3
 10
-130.9350985617
 20
183.9253751309
 11
-130.8080678142
 21
184.0475124723
  0
LINE
  8
Layer1$C$L1
 62
     3
 10
-132.6991504211
 20
183.9253751309
 11
-132.8261811686
 21
184.0475124723
  0
LINE
  8
Layer1$C$L1
 62
     3
 10
-134.8912097212
 20
183.9063751309
 11
-135.1671244914
 21
183.9063751309
  0
LINE
  8
Layer1$C$L1
 62
     3
 10
-128.4671244914
 20
183.9063751309
 11
-128.7523261017
 21
183.9063751309
  0
LINE
  8
Layer1$C$L1
 62
     3
 10
-127.1671244914
 20
183.8114393129
 11
-126.9171244914
 21
183.8114393129
  0
LINE
  8
Layer1$C$L1
 62
     3
 10
-120.3171244914
 20
183.8114393129
 11
-120.0671244914
 21
183.8114393129
  0
LINE
  8
Layer1$C$L1
 62
     3
 10
-128.7257591030
 20
183.7375893939
 11
-128.8042060883
 21
184.2359796104
  0
LINE
  8
Layer1$C$L1
 62
     3
 10
-122.6073247206
 20
183.6720269807
 11
-123.0759871500
 21
184.6473337413
  0
LINE
  8
Layer1$C$L1
 62
     3
 10
-124.7711861950
 20
183.5443709360
 11
-124.6269242621
 21
183.6720269807
  0
LINE
  8
Layer1$C$L1
 62
     3
 10
-126.9171244914
 20
183.5253609288
 11
-126.8189116669
 21
183.5253609288
  0
LINE
  8
Layer1$C$L1
 62
     3
 10
-126.9171244914
 20
183.5253609288
 11
-126.9171244914
 21
184.2918927122
  0
LINE
  8
Layer1$C$L1
 62
     3
 10
-120.4153373159
 20
183.5253609288
 11
-120.3171244914
 21
183.5253609288
  0
LINE
  8
Layer1$C$L1
 62
     3
 10
-120.3171244914
 20
183.5253609288
 11
-120.3171244914
 21
184.2918927122
  0
LINE
  8
Layer1$C$L1
 62
     3
 10
-131.1015296559
 20
183.5063751309
 11
-130.9170055615
 21
183.5063751309
  0
LINE
  8
Layer1$C$L1
 62
     3
 10
-131.1015296559
 20
183.5063751309
 11
-130.9350985617
 21
183.9253751309
  0
LINE
  8
Layer1$C$L1
 62
     3
 10
-132.5327193269
 20
183.5063751309
 11
-132.6991504211
 21
183.9253751309
  0
LINE
  8
Layer1$C$L1
 62
     3
 10
-128.3171244914
 20
183.5063751309
 11
-128.2671244914
 21
183.5063751309
  0
LINE
  8
Layer1$C$L1
 62
     3
 10
-135.3671244914
 20
183.5063751309
 11
-135.3171244914
 21
183.5063751309
  0
LINE
  8
Layer1$C$L1
 62
     3
 10
-132.7172434213
 20
183.5063751309
 11
-132.5327193269
 21
183.5063751309
  0
LINE
  8
Layer1$C$L1
 62
     3
 10
-127.1671244914
 20
183.2972687404
 11
-126.7896870756
 21
183.2972687404
  0
LINE
  8
Layer1$C$L1
 62
     3
 10
-120.4445619072
 20
183.2972687404
 11
-120.0671244914
 21
183.2972687404
  0
LINE
  8
Layer1$C$L1
 62
     3
 10
-126.7851754879
 20
183.2620566857
 11
-126.9671244914
 21
184.6821328806
  0
LINE
  8
Layer1$C$L1
 62
     3
 10
-120.4490734948
 20
183.2620566857
 11
-120.2671244914
 21
184.6821328806
  0
LINE
  8
Layer1$C$L1
 62
     3
 10
-125.2493897093
 20
183.1660617220
 11
-124.3136596142
 21
184.3239442452
  0
LINE
  8
Layer1$C$L1
 62
     3
 10
-134.8819228811
 20
183.1063751309
 11
-135.1671244914
 21
183.1063751309
  0
LINE
  8
Layer1$C$L1
 62
     3
 10
-128.4671244914
 20
183.1063751309
 11
-128.7430392616
 21
183.1063751309
  0
LINE
  8
Layer1$C$L1
 62
     3
 10
-132.6991504211
 20
183.0873751309
 11
-132.5327193269
 21
183.5063751309
  0
LINE
  8
Layer1$C$L1
 62
     3
 10
-130.9350985617
 20
183.0873751309
 11
-131.1015296559
 21
183.5063751309
  0
LINE
  8
Layer1$C$L1
 62
     3
 10
-130.8080678142
 20
182.9652377896
 11
-130.9350985617
 21
183.0873751309
  0
LINE
  8
Layer1$C$L1
 62
     3
 10
-133.0258352337
 20
182.8092422349
 11
-132.8261811686
 21
182.9652377896
  0
LINE
  8
Layer1$C$L1
 62
     3
 10
-124.3951085524
 20
182.7985775193
 11
-125.0171244914
 21
182.7985775193
  0
LINE
  8
Layer1$C$L1
 62
     3
 10
-125.0171244914
 20
182.7985775193
 11
-126.9671244914
 21
184.6821328806
  0
LINE
  8
Layer1$C$L1
 62
     3
 10
-122.2171244914
 20
182.7985775193
 11
-120.2671244914
 21
184.6821328806
  0
LINE
  8
Layer1$C$L1
 62
     3
 10
-125.0171244914
 20
182.7985775193
 11
-126.6091782716
 21
183.0920564291
  0
LINE
  8
Layer1$C$L1
 62
     3
 10
-122.2171244914
 20
182.7985775193
 11
-122.8407388853
 21
182.7985775193
  0
LINE
  8
Layer1$C$L1
 62
     3
 10
-122.2171244914
 20
182.7985775193
 11
-120.6250707111
 21
183.0920564291
  0
LINE
  8
Layer1$C$L1
 62
     3
 10
-134.8300428944
 20
182.7767706515
 11
-134.9084898798
 21
183.2751608679
  0
LINE
  8
Layer1$C$L1
 62
     3
 10
-135.3171244914
 20
182.7563751309
 11
-135.3671244914
 21
182.7563751309
  0
LINE
  8
Layer1$C$L1
 62
     3
 10
-131.3981244914
 20
182.6243492013
 11
-131.8171244914
 21
182.7907802954
  0
LINE
  8
Layer1$C$L1
 62
     3
 10
-132.2361244914
 20
182.6243492013
 11
-131.8171244914
 21
182.7907802954
  0
LINE
  8
Layer1$C$L1
 62
     3
 10
-131.8171244914
 20
182.6062562010
 11
-131.8171244914
 21
182.7907802954
  0
LINE
  8
Layer1$C$L1
 62
     3
 10
-127.1671244914
 20
182.5245280794
 11
-120.0671244914
 21
182.5245280794
  0
LINE
  8
Layer1$C$L1
 62
     3
 10
-132.3582618327
 20
182.4973184538
 11
-132.2361244914
 21
182.6243492013
  0
LINE
  8
Layer1$C$L1
 62
     3
 10
-131.2759871500
 20
182.4973184538
 11
-131.3981244914
 21
182.6243492013
  0
LINE
  8
Layer1$C$L1
 62
     3
 10
-130.2076822206
 20
182.4965753602
 11
-130.8080678142
 21
182.9652377896
  0
LINE
  8
Layer1$C$L1
 62
     3
 10
-127.1171244914
 20
182.3984705334
 11
-127.1671244914
 21
182.3984705334
  0
LINE
  8
Layer1$C$L1
 62
     3
 10
-133.5726274216
 20
182.3523134273
 11
-133.4265667622
 21
182.4965753602
  0
LINE
  8
Layer1$C$L1
 62
     3
 10
-132.5142573874
 20
182.2976643886
 11
-132.3582618327
 21
182.4973184538
  0
LINE
  8
Layer1$C$L1
 62
     3
 10
-120.6042060883
 20
182.2058684630
 11
-120.7333633204
 21
182.5245280794
  0
LINE
  8
Layer1$C$L1
 62
     3
 10
-120.5546452393
 20
182.1440213744
 11
-120.6615269553
 21
182.5245280794
  0
LINE
  8
Layer1$C$L1
 62
     3
 10
-126.6775266898
 20
182.1407628557
 11
-126.9671244914
 21
182.1407628557
  0
LINE
  8
Layer1$C$L1
 62
     3
 10
-120.2671244914
 20
182.1407628557
 11
-120.5537299438
 21
182.1407628557
  0
LINE
  8
Layer1$C$L1
 62
     3
 10
-120.1171244914
 20
182.1227598334
 11
-120.0671244914
 21
182.1227598334
  0
LINE
  8
Layer1$C$L1
 62
     3
 10
-128.4671244914
 20
182.1063751309
 11
-128.4671244914
 21
184.9063751309
  0
LINE
  8
Layer1$C$L1
 62
     3
 10
-135.1671244914
 20
182.1063751309
 11
-135.1671244914
 21
184.9063751309
  0
LINE
  8
Layer1$C$L1
 62
     3
 10
-128.3171244914
 20
182.0563751309
 11
-128.2671244914
 21
182.0563751309
  0
LINE
  8
Layer1$C$L1
 62
     3
 10
-135.3671244914
 20
182.0563751309
 11
-135.3171244914
 21
182.0563751309
  0
LINE
  8
Layer1$C$L1
 62
     3
 10
-122.0076822206
 20
181.9219840017
 11
-121.8616215611
 21
182.0747580469
  0
LINE
  8
Layer1$C$L1
 62
     3
 10
-128.3171244914
 20
181.9063751309
 11
-128.3171244914
 21
186.9063751309
  0
LINE
  8
Layer1$C$L1
 62
     3
 10
-128.3171244914
 20
181.9063751309
 11
-128.4899816342
 21
181.9063751309
  0
LINE
  8
Layer1$C$L1
 62
     3
 10
-135.3171244914
 20
181.9063751309
 11
-135.3171244914
 21
186.9063751309
  0
LINE
  8
Layer1$C$L1
 62
     3
 10
-135.1442673485
 20
181.9063751309
 11
-135.3171244914
 21
181.9063751309
  0
LINE
  8
Layer1$C$L1
 62
     3
 10
-130.8073247206
 20
181.8969328602
 11
-131.2759871500
 21
182.4973184538
  0
LINE
  8
Layer1$C$L1
 62
     3
 10
-122.4089936332
 20
181.8836737946
 11
-121.5590587822
 21
182.5245280794
  0
LINE
  8
Layer1$C$L1
 62
     3
 10
-122.6080678142
 20
181.8646696674
 11
-122.4084137490
 21
181.8842511991
  0
LINE
  8
Layer1$C$L1
 62
     3
 10
-124.6261811686
 20
181.8646696674
 11
-125.2265667622
 21
181.9219840017
  0
LINE
  8
Layer1$C$L1
 62
     3
 10
-132.9039374173
 20
181.7982742395
 11
-132.5136596142
 21
182.2982442728
  0
LINE
  8
Layer1$C$L1
 62
     3
 10
-122.7350985617
 20
181.7698839555
 11
-122.6080678142
 21
181.8646696674
  0
LINE
  8
Layer1$C$L1
 62
     3
 10
-124.4991504211
 20
181.7698839555
 11
-124.6261811686
 21
181.8646696674
  0
LINE
  8
Layer1$C$L1
 62
     3
 10
-132.9711861950
 20
181.7508722007
 11
-132.8269242621
 21
181.8969328602
  0
LINE
  8
Layer1$C$L1
 62
     3
 10
-120.5257591030
 20
181.7059683559
 11
-120.6042060883
 21
182.2058684630
  0
LINE
  8
Layer1$C$L1
 62
     3
 10
-120.5171640658
 20
181.6486451385
 11
-120.5546452393
 21
182.1440213744
  0
LINE
  8
Layer1$C$L1
 62
     3
 10
-120.5171244914
 20
181.4826325278
 11
-120.5171244914
 21
181.6642701588
  0
LINE
  8
Layer1$C$L1
 62
     3
 10
-126.7171244914
 20
181.4826325278
 11
-126.7171244914
 21
181.6641902695
  0
LINE
  8
Layer1$C$L1
 62
     3
 10
-134.1468085016
 20
181.4612412936
 11
-134.0759434114
 21
181.5321063837
  0
LINE
  8
Layer1$C$L1
 62
     3
 10
-122.9015296559
 20
181.4010643814
 11
-122.7350985617
 21
181.7698839555
  0
LINE
  8
Layer1$C$L1
 62
     3
 10
-124.3327193269
 20
181.4010643814
 11
-124.4991504211
 21
181.7698839555
  0
LINE
  8
Layer1$C$L1
 62
     3
 10
-126.7148529144
 20
181.3680221947
 11
-126.9671244914
 21
181.3680221947
  0
LINE
  8
Layer1$C$L1
 62
     3
 10
-120.2671244914
 20
181.3680221947
 11
-120.5193960683
 21
181.3680221947
  0
LINE
  8
Layer1$C$L1
 62
     3
 10
-133.8622583287
 20
181.1766911208
 11
-133.7913932386
 21
181.2475562109
  0
LINE
  8
Layer1$C$L1
 62
     3
 10
-120.1171244914
 20
181.1561391169
 11
-120.0671244914
 21
181.1561391169
  0
LINE
  8
Layer1$C$L1
 62
     3
 10
-127.1671244914
 20
181.1561391169
 11
-127.1171244914
 21
181.1561391169
  0
LINE
  8
Layer1$C$L1
 62
     3
 10
-128.2671244914
 20
181.0563751309
 11
-128.5171244914
 21
181.0563751309
  0
LINE
  8
Layer1$C$L1
 62
     3
 10
-135.1171244914
 20
181.0563751309
 11
-135.3671244914
 21
181.0563751309
  0
LINE
  8
Layer1$C$L1
 62
     3
 10
-128.2671244914
 20
180.9063751309
 11
-128.5171244914
 21
180.9063751309
  0
LINE
  8
Layer1$C$L1
 62
     3
 10
-135.1171244914
 20
180.9063751309
 11
-135.3671244914
 21
180.9063751309
  0
LINE
  8
Layer1$C$L1
 62
     3
 10
-124.5172434213
 20
180.9004966458
 11
-124.3327193269
 21
181.4010643814
  0
LINE
  8
Layer1$C$L1
 62
     3
 10
-122.7170055615
 20
180.9004966458
 11
-122.9015296559
 21
181.4010643814
  0
LINE
  8
Layer1$C$L1
 62
     3
 10
-120.1171244914
 20
180.8041950069
 11
-120.2671244914
 21
180.8041950069
  0
LINE
  8
Layer1$C$L1
 62
     3
 10
-120.1171244914
 20
180.8041950069
 11
-120.1171244914
 21
182.5245280794
  0
LINE
  8
Layer1$C$L1
 62
     3
 10
-126.9671244914
 20
180.8041950069
 11
-127.1171244914
 21
180.8041950069
  0
LINE
  8
Layer1$C$L1
 62
     3
 10
-127.1171244914
 20
180.8041950069
 11
-127.1171244914
 21
182.5245280794
  0
LINE
  8
Layer1$C$L1
 62
     3
 10
-126.6300428944
 20
180.7963808437
 11
-126.7084898798
 21
181.2592966998
  0
LINE
  8
Layer1$C$L1
 62
     3
 10
-134.9851754879
 20
180.5143213507
 11
-135.1671244914
 21
182.1063751309
  0
LINE
  8
Layer1$C$L1
 62
     3
 10
-128.6490734948
 20
180.5143213507
 11
-128.4671244914
 21
182.1063751309
  0
LINE
  8
Layer1$C$L1
 62
     3
 10
-123.1981244914
 20
180.5131894094
 11
-123.6171244914
 21
180.7098528486
  0
LINE
  8
Layer1$C$L1
 62
     3
 10
-124.0361244914
 20
180.5131894094
 11
-123.6171244914
 21
180.7098528486
  0
LINE
  8
Layer1$C$L1
 62
     3
 10
-132.0483387544
 20
180.4150097425
 11
-132.5467289708
 21
180.4934567279
  0
LINE
  8
Layer1$C$L1
 62
     3
 10
-120.2671244914
 20
180.4020963684
 11
-120.2671244914
 21
182.5245280794
  0
LINE
  8
Layer1$C$L1
 62
     3
 10
-126.9671244914
 20
180.4020963684
 11
-126.9671244914
 21
182.5245280794
  0
LINE
  8
Layer1$C$L1
 62
     3
 10
-124.1582618327
 20
180.3672972291
 11
-124.0361244914
 21
180.5131894094
  0
LINE
  8
Layer1$C$L1
 62
     3
 10
-123.0759871500
 20
180.3672972291
 11
-123.1981244914
 21
180.5131894094
  0
LINE
  8
Layer1$C$L1
 62
     3
 10
-120.8686796400
 20
180.2928302696
 11
-120.7815454645
 21
180.5364730096
  0
LINE
  8
Layer1$C$L1
 62
     3
 10
-126.3655693427
 20
180.2928302696
 11
-126.4527035182
 21
180.5364730096
  0
LINE
  8
Layer1$C$L1
 62
     3
 10
-126.9399767123
 20
180.1902132906
 11
-127.1671244914
 21
180.1902132906
  0
LINE
  8
Layer1$C$L1
 62
     3
 10
-120.0671244914
 20
180.1902132906
 11
-120.2942722705
 21
180.1902132906
  0
LINE
  8
Layer1$C$L1
 62
     3
 10
-132.2171244914
 20
180.1563751309
 11
-132.2171244914
 21
180.4415767412
  0
LINE
  8
Layer1$C$L1
 62
     3
 10
-131.4171244914
 20
180.1563751309
 11
-131.4171244914
 21
180.4322899012
  0
LINE
  8
Layer1$C$L1
 62
     3
 10
-133.2171244914
 20
180.1563751309
 11
-134.8091782716
 21
180.3383241344
  0
LINE
  8
Layer1$C$L1
 62
     3
 10
-133.2171244914
 20
180.1563751309
 11
-135.1671244914
 21
182.1063751309
  0
LINE
  8
Layer1$C$L1
 62
     3
 10
-130.4171244914
 20
180.1563751309
 11
-133.2171244914
 21
180.1563751309
  0
LINE
  8
Layer1$C$L1
 62
     3
 10
-130.4171244914
 20
180.1563751309
 11
-128.4671244914
 21
182.1063751309
  0
LINE
  8
Layer1$C$L1
 62
     3
 10
-130.4171244914
 20
180.1563751309
 11
-128.8250707111
 21
180.3383241344
  0
LINE
  8
Layer1$C$L1
 62
     3
 10
-135.1171244914
 20
180.1063751309
 11
-135.1171244914
 21
181.6688751309
  0
LINE
  8
Layer1$C$L1
 62
     3
 10
-133.8171244914
 20
180.1063751309
 11
-133.8171244914
 21
180.2249465595
  0
LINE
  8
Layer1$C$L1
 62
     3
 10
-129.8171244914
 20
180.1063751309
 11
-129.8171244914
 21
180.2249465595
  0
LINE
  8
Layer1$C$L1
 62
     3
 10
-128.5171244914
 20
180.1063751309
 11
-128.5171244914
 21
181.6688751309
  0
LINE
  8
Layer1$C$L1
 62
     3
 10
-128.2671244914
 20
180.1063751309
 11
-135.3671244914
 21
180.1063751309
  0
LINE
  8
Layer1$C$L1
 62
     3
 10
-134.3671244914
 20
180.0563751309
 11
-134.3671244914
 21
180.1063751309
  0
LINE
  8
Layer1$C$L1
 62
     3
 10
-135.3671244914
 20
180.0563751309
 11
-128.2671244914
 21
180.0563751309
  0
LINE
  8
Layer1$C$L1
 62
     3
 10
-124.3142573874
 20
180.0433476079
 11
-124.1582618327
 21
180.3672972291
  0
LINE
  8
Layer1$C$L1
 62
     3
 10
-123.6171244914
 20
180.0310485246
 11
-123.6171244914
 21
180.7098528486
  0
LINE
  8
Layer1$C$L1
 62
     3
 10
-125.3726274216
 20
179.8452820375
 11
-125.2265667622
 21
179.9712006458
  0
LINE
  8
Layer1$C$L1
 62
     3
 10
-127.1671244914
 20
179.5314028007
 11
-126.9171244914
 21
179.5314028007
  0
LINE
  8
Layer1$C$L1
 62
     3
 10
-120.3171244914
 20
179.5314028007
 11
-120.0671244914
 21
179.5314028007
  0
LINE
  8
Layer1$C$L1
 62
     3
 10
-122.6073247206
 20
179.3919904685
 11
-123.0759871500
 21
180.3672972291
  0
LINE
  8
Layer1$C$L1
 62
     3
 10
-124.7711861950
 20
179.2643344238
 11
-124.6269242621
 21
179.3919904685
  0
LINE
  8
Layer1$C$L1
 62
     3
 10
-128.2671244914
 20
179.2563751309
 11
-135.3671244914
 21
179.2563751309
  0
LINE
  8
Layer1$C$L1
 62
     3
 10
-126.9171244914
 20
179.2453244167
 11
-126.9171244914
 21
180.0118562000
  0
LINE
  8
Layer1$C$L1
 62
     3
 10
-120.3171244914
 20
179.2453244167
 11
-120.3171244914
 21
180.0118562000
  0
LINE
  8
Layer1$C$L1
 62
     3
 10
-120.4153373159
 20
179.2453244167
 11
-120.3171244914
 21
179.2453244167
  0
LINE
  8
Layer1$C$L1
 62
     3
 10
-126.9171244914
 20
179.2453244167
 11
-126.8189116669
 21
179.2453244167
  0
LINE
  8
Layer1$C$L1
 62
     3
 10
-130.1171244914
 20
179.1563751309
 11
-130.1171244914
 21
179.2563751309
  0
LINE
  8
Layer1$C$L1
 62
     3
 10
-127.1671244914
 20
179.0172322282
 11
-126.7896870756
 21
179.0172322282
  0
LINE
  8
Layer1$C$L1
 62
     3
 10
-120.4445619072
 20
179.0172322282
 11
-120.0671244914
 21
179.0172322282
  0
LINE
  8
Layer1$C$L1
 62
     3
 10
-126.7851754879
 20
178.9820201735
 11
-126.9671244914
 21
180.4020963684
  0
LINE
  8
Layer1$C$L1
 62
     3
 10
-120.4490734948
 20
178.9820201735
 11
-120.2671244914
 21
180.4020963684
  0
LINE
  8
Layer1$C$L1
 62
     3
 10
-125.2493897093
 20
178.8860252098
 11
-124.3136596142
 21
180.0439077330
  0
LINE
  8
Layer1$C$L1
 62
     3
 10
-122.8407388853
 20
178.5185410071
 11
-122.2171244914
 21
178.5185410071
  0
LINE
  8
Layer1$C$L1
 62
     3
 10
-122.2171244914
 20
178.5185410071
 11
-120.2671244914
 21
180.4020963684
  0
LINE
  8
Layer1$C$L1
 62
     3
 10
-125.0171244914
 20
178.5185410071
 11
-126.9671244914
 21
180.4020963684
  0
LINE
  8
Layer1$C$L1
 62
     3
 10
-125.0171244914
 20
178.5185410071
 11
-124.3951085524
 21
178.5185410071
  0
LINE
  8
Layer1$C$L1
 62
     3
 10
-125.0171244914
 20
178.5185410071
 11
-126.6091782716
 21
178.8120199170
  0
LINE
  8
Layer1$C$L1
 62
     3
 10
-122.2171244914
 20
178.5185410071
 11
-120.6250707111
 21
178.8120199170
  0
LINE
  8
Layer1$C$L1
 62
     3
 10
-127.1671244914
 20
178.2444915672
 11
-120.0671244914
 21
178.2444915672
  0
LINE
  8
Layer1$C$L1
 62
     3
 10
-127.1671244914
 20
177.9563751309
 11
-127.1671244914
 21
187.4563751309
  0
LINE
  8
Layer1$C$L1
 62
     3
 10
-118.9671244914
 20
177.9563751309
 11
-120.0671244914
 21
177.9563751309
  0
LINE
  8
Layer1$C$L1
 62
     3
 10
-120.0671244914
 20
177.9563751309
 11
-120.0671244914
 21
188.5063751309
  0
LINE
  8
Layer1$C$L1
 62
     3
 10
-127.1671244914
 20
177.9563751309
 11
-128.2671244914
 21
177.9563751309
  0
LINE
  8
Layer1$C$L1
 62
     3
 10
-128.2671244914
 20
177.9563751309
 11
-128.2671244914
 21
186.9563751309
  0
LINE
  8
Layer1$C$L1
 62
     3
 10
-135.3671244914
 20
177.9563751309
 11
-135.3671244914
 21
186.9563751309
  0
LINE
  8
Layer1$C$L1
 62
     3
 10
-135.3671244914
 20
177.9563751309
 11
-136.4671244914
 21
177.9563751309
  0
LINE
  8
Layer1$C$L1
 62
     3
 10
-122.2171244914
 20
173.5563751309
 11
-122.7171244914
 21
173.5563751309
  0
LINE
  8
Layer1$C$L1
 62
     3
 10
-122.7171244914
 20
172.0563751309
 11
-122.7171244914
 21
173.5563751309
  0
LINE
  8
Layer1$C$L1
 62
     3
 10
-130.1171244914
 20
167.6563751309
 11
-130.1171244914
 21
172.7563751309
  0
POLYLINE
  8
Layer1$C$L1
 62
     3
 66
     1
 70
     1
  0
VERTEX
  8
Layer1$C$L1
 62
     3
 10
-123.4171244914
 20
181.4720187522
  0
VERTEX
  8
Layer1$C$L1
 62
     3
 10
-123.4323485849
 20
181.3980899901
  0
VERTEX
  8
Layer1$C$L1
 62
     3
 10
-123.4757031351
 20
181.3354162118
  0
VERTEX
  8
Layer1$C$L1
 62
     3
 10
-123.5405878049
 20
181.2935389320
  0
VERTEX
  8
Layer1$C$L1
 62
     3
 10
-123.6171244914
 20
181.2788335869
  0
VERTEX
  8
Layer1$C$L1
 62
     3
 10
-123.6936611778
 20
181.2935389320
  0
VERTEX
  8
Layer1$C$L1
 62
     3
 10
-123.7585458476
 20
181.3354162118
  0
VERTEX
  8
Layer1$C$L1
 62
     3
 10
-123.8019003979
 20
181.3980899901
  0
VERTEX
  8
Layer1$C$L1
 62
     3
 10
-123.8171244914
 20
181.4720187522
  0
VERTEX
  8
Layer1$C$L1
 62
     3
 10
-123.8019003979
 20
181.5459475143
  0
VERTEX
  8
Layer1$C$L1
 62
     3
 10
-123.7585458476
 20
181.6086212926
  0
VERTEX
  8
Layer1$C$L1
 62
     3
 10
-123.6936611778
 20
181.6504985724
  0
VERTEX
  8
Layer1$C$L1
 62
     3
 10
-123.6171244914
 20
181.6652039174
  0
VERTEX
  8
Layer1$C$L1
 62
     3
 10
-123.5405878049
 20
181.6504985724
  0
VERTEX
  8
Layer1$C$L1
 62
     3
 10
-123.4757031351
 20
181.6086212926
  0
VERTEX
  8
Layer1$C$L1
 62
     3
 10
-123.4323485849
 20
181.5459475143
  0
SEQEND
  8
Layer1$C$L1
 62
     3
  0
POLYLINE
  8
Layer1$C$L1
 62
     3
 66
     1
 70
     1
  0
VERTEX
  8
Layer1$C$L1
 62
     3
 10
-123.4171244914
 20
185.7520552644
  0
VERTEX
  8
Layer1$C$L1
 62
     3
 10
-123.4323485849
 20
185.6781265022
  0
VERTEX
  8
Layer1$C$L1
 62
     3
 10
-123.4757031351
 20
185.6154527240
  0
VERTEX
  8
Layer1$C$L1
 62
     3
 10
-123.5405878049
 20
185.5735754442
  0
VERTEX
  8
Layer1$C$L1
 62
     3
 10
-123.6171244914
 20
185.5588700991
  0
VERTEX
  8
Layer1$C$L1
 62
     3
 10
-123.6936611778
 20
185.5735754442
  0
VERTEX
  8
Layer1$C$L1
 62
     3
 10
-123.7585458476
 20
185.6154527240
  0
VERTEX
  8
Layer1$C$L1
 62
     3
 10
-123.8019003979
 20
185.6781265022
  0
VERTEX
  8
Layer1$C$L1
 62
     3
 10
-123.8171244914
 20
185.7520552644
  0
VERTEX
  8
Layer1$C$L1
 62
     3
 10
-123.8019003979
 20
185.8259840265
  0
VERTEX
  8
Layer1$C$L1
 62
     3
 10
-123.7585458476
 20
185.8886578047
  0
VERTEX
  8
Layer1$C$L1
 62
     3
 10
-123.6936611778
 20
185.9305350845
  0
VERTEX
  8
Layer1$C$L1
 62
     3
 10
-123.6171244914
 20
185.9452404296
  0
VERTEX
  8
Layer1$C$L1
 62
     3
 10
-123.5405878049
 20
185.9305350845
  0
VERTEX
  8
Layer1$C$L1
 62
     3
 10
-123.4757031351
 20
185.8886578047
  0
VERTEX
  8
Layer1$C$L1
 62
     3
 10
-123.4323485849
 20
185.8259840265
  0
SEQEND
  8
Layer1$C$L1
 62
     3
  0
POLYLINE
  8
Layer1$C$L1
 62
     3
 66
     1
  0
VERTEX
  8
Layer1$C$L1
 62
     3
 10
-121.6098299147
 20
188.3162984203
  0
VERTEX
  8
Layer1$C$L1
 62
     3
 10
-121.5622770300
 20
188.2764595936
  0
VERTEX
  8
Layer1$C$L1
 62
     3
 10
-121.5155713924
 20
188.2356963411
  0
VERTEX
  8
Layer1$C$L1
 62
     3
 10
-121.4697322594
 20
188.1940254702
  0
VERTEX
  8
Layer1$C$L1
 62
     3
 10
-121.4247785313
 20
188.1514641624
  0
VERTEX
  8
Layer1$C$L1
 62
     3
 10
-121.3807287433
 20
188.1080299665
  0
VERTEX
  8
Layer1$C$L1
 62
     3
 10
-121.3376010578
 20
188.0637407910
  0
VERTEX
  8
Layer1$C$L1
 62
     3
 10
-121.2954132569
 20
188.0186148972
  0
VERTEX
  8
Layer1$C$L1
 62
     3
 10
-121.2541827356
 20
187.9726708911
  0
SEQEND
  8
Layer1$C$L1
 62
     3
  0
POLYLINE
  8
Layer1$C$L1
 62
     3
 66
     1
  0
VERTEX
  8
Layer1$C$L1
 62
     3
 10
-121.2874404812
 20
187.8287032975
  0
VERTEX
  8
Layer1$C$L1
 62
     3
 10
-121.3209546486
 20
187.8649812530
  0
VERTEX
  8
Layer1$C$L1
 62
     3
 10
-121.3550742260
 20
187.9007287953
  0
VERTEX
  8
Layer1$C$L1
 62
     3
 10
-121.3897902175
 20
187.9359364991
  0
VERTEX
  8
Layer1$C$L1
 62
     3
 10
-121.4250934697
 20
187.9705950817
  0
VERTEX
  8
Layer1$C$L1
 62
     3
 10
-121.4609746746
 20
188.0046954047
  0
VERTEX
  8
Layer1$C$L1
 62
     3
 10
-121.4974243718
 20
188.0382284775
  0
VERTEX
  8
Layer1$C$L1
 62
     3
 10
-121.5344329508
 20
188.0711854585
  0
VERTEX
  8
Layer1$C$L1
 62
     3
 10
-121.5719906540
 20
188.1035576583
  0
SEQEND
  8
Layer1$C$L1
 62
     3
  0
POLYLINE
  8
Layer1$C$L1
 62
     3
 66
     1
  0
VERTEX
  8
Layer1$C$L1
 62
     3
 10
-121.9848592735
 20
187.8157563633
  0
VERTEX
  8
Layer1$C$L1
 62
     3
 10
-121.8727244415
 20
187.7384938492
  0
VERTEX
  8
Layer1$C$L1
 62
     3
 10
-121.7645028501
 20
187.6561892922
  0
VERTEX
  8
Layer1$C$L1
 62
     3
 10
-121.6604372744
 20
187.5690273273
  0
VERTEX
  8
Layer1$C$L1
 62
     3
 10
-121.5607611664
 20
187.4772034864
  0
VERTEX
  8
Layer1$C$L1
 62
     3
 10
-121.4656981312
 20
187.3809237595
  0
VERTEX
  8
Layer1$C$L1
 62
     3
 10
-121.3754614251
 20
187.2804041323
  0
VERTEX
  8
Layer1$C$L1
 62
     3
 10
-121.2902534777
 20
187.1758701022
  0
VERTEX
  8
Layer1$C$L1
 62
     3
 10
-121.2102654372
 20
187.0675561720
  0
SEQEND
  8
Layer1$C$L1
 62
     3
  0
POLYLINE
  8
Layer1$C$L1
 62
     3
 66
     1
  0
VERTEX
  8
Layer1$C$L1
 62
     3
 10
-124.6269242621
 20
186.7812306912
  0
VERTEX
  8
Layer1$C$L1
 62
     3
 10
-124.5535030880
 20
186.7085760074
  0
VERTEX
  8
Layer1$C$L1
 62
     3
 10
-124.4799347703
 20
186.6360002822
  0
VERTEX
  8
Layer1$C$L1
 62
     3
 10
-124.4062315980
 20
186.5635156387
  0
VERTEX
  8
Layer1$C$L1
 62
     3
 10
-124.3324058825
 20
186.4911341849
  0
VERTEX
  8
Layer1$C$L1
 62
     3
 10
-124.2584699558
 20
186.4188680115
  0
VERTEX
  8
Layer1$C$L1
 62
     3
 10
-124.1844361681
 20
186.3467291899
  0
VERTEX
  8
Layer1$C$L1
 62
     3
 10
-124.1103168864
 20
186.2747297703
  0
VERTEX
  8
Layer1$C$L1
 62
     3
 10
-124.0361244914
 20
186.2028817795
  0
SEQEND
  8
Layer1$C$L1
 62
     3
  0
POLYLINE
  8
Layer1$C$L1
 62
     3
 66
     1
  0
VERTEX
  8
Layer1$C$L1
 62
     3
 10
-123.1981244914
 20
186.2028817795
  0
VERTEX
  8
Layer1$C$L1
 62
     3
 10
-123.1239320964
 20
186.2747297703
  0
VERTEX
  8
Layer1$C$L1
 62
     3
 10
-123.0498128146
 20
186.3467291899
  0
VERTEX
  8
Layer1$C$L1
 62
     3
 10
-122.9757790270
 20
186.4188680115
  0
VERTEX
  8
Layer1$C$L1
 62
     3
 10
-122.9018431003
 20
186.4911341849
  0
VERTEX
  8
Layer1$C$L1
 62
     3
 10
-122.8280173847
 20
186.5635156387
  0
VERTEX
  8
Layer1$C$L1
 62
     3
 10
-122.7543142124
 20
186.6360002822
  0
VERTEX
  8
Layer1$C$L1
 62
     3
 10
-122.6807458947
 20
186.7085760074
  0
VERTEX
  8
Layer1$C$L1
 62
     3
 10
-122.6073247206
 20
186.7812306912
  0
SEQEND
  8
Layer1$C$L1
 62
     3
  0
POLYLINE
  8
Layer1$C$L1
 62
     3
 66
     1
  0
VERTEX
  8
Layer1$C$L1
 62
     3
 10
-125.2265667622
 20
186.2020205139
  0
VERTEX
  8
Layer1$C$L1
 62
     3
 10
-125.1672337640
 20
186.2879001362
  0
VERTEX
  8
Layer1$C$L1
 62
     3
 10
-125.1029948471
 20
186.3704209561
  0
VERTEX
  8
Layer1$C$L1
 62
     3
 10
-125.0340533203
 20
186.4493218046
  0
VERTEX
  8
Layer1$C$L1
 62
     3
 10
-124.9606273756
 20
186.5243529695
  0
VERTEX
  8
Layer1$C$L1
 62
     3
 10
-124.8829493978
 20
186.5952769858
  0
VERTEX
  8
Layer1$C$L1
 62
     3
 10
-124.8012652287
 20
186.6618693871
  0
VERTEX
  8
Layer1$C$L1
 62
     3
 10
-124.7158333895
 20
186.7239194160
  0
VERTEX
  8
Layer1$C$L1
 62
     3
 10
-124.6269242621
 20
186.7812306912
  0
SEQEND
  8
Layer1$C$L1
 62
     3
  0
POLYLINE
  8
Layer1$C$L1
 62
     3
 66
     1
  0
VERTEX
  8
Layer1$C$L1
 62
     3
 10
-124.0361244914
 20
184.1734795649
  0
VERTEX
  8
Layer1$C$L1
 62
     3
 10
-123.9838017840
 20
184.1901872551
  0
VERTEX
  8
Layer1$C$L1
 62
     3
 10
-123.9314590441
 20
184.2070374563
  0
VERTEX
  8
Layer1$C$L1
 62
     3
 10
-123.8790988166
 20
184.2240293494
  0
VERTEX
  8
Layer1$C$L1
 62
     3
 10
-123.8267236472
 20
184.2411621081
  0
VERTEX
  8
Layer1$C$L1
 62
     3
 10
-123.7743360827
 20
184.2584348994
  0
VERTEX
  8
Layer1$C$L1
 62
     3
 10
-123.7219386700
 20
184.2758468834
  0
VERTEX
  8
Layer1$C$L1
 62
     3
 10
-123.6695339569
 20
184.2933972137
  0
VERTEX
  8
Layer1$C$L1
 62
     3
 10
-123.6171244914
 20
184.3110850368
  0
SEQEND
  8
Layer1$C$L1
 62
     3
  0
POLYLINE
  8
Layer1$C$L1
 62
     3
 66
     1
  0
VERTEX
  8
Layer1$C$L1
 62
     3
 10
-123.6171244914
 20
186.0499812791
  0
VERTEX
  8
Layer1$C$L1
 62
     3
 10
-123.5647150258
 20
186.0688804749
  0
VERTEX
  8
Layer1$C$L1
 62
     3
 10
-123.5123103127
 20
186.0878424840
  0
VERTEX
  8
Layer1$C$L1
 62
     3
 10
-123.4599129001
 20
186.1068663843
  0
VERTEX
  8
Layer1$C$L1
 62
     3
 10
-123.4075253355
 20
186.1259512511
  0
VERTEX
  8
Layer1$C$L1
 62
     3
 10
-123.3551501662
 20
186.1450961563
  0
VERTEX
  8
Layer1$C$L1
 62
     3
 10
-123.3027899387
 20
186.1643001690
  0
VERTEX
  8
Layer1$C$L1
 62
     3
 10
-123.2504471987
 20
186.1835623556
  0
VERTEX
  8
Layer1$C$L1
 62
     3
 10
-123.1981244914
 20
186.2028817795
  0
SEQEND
  8
Layer1$C$L1
 62
     3
  0
POLYLINE
  8
Layer1$C$L1
 62
     3
 66
     1
  0
VERTEX
  8
Layer1$C$L1
 62
     3
 10
-124.0361244914
 20
186.2028817795
  0
VERTEX
  8
Layer1$C$L1
 62
     3
 10
-123.9838017840
 20
186.1835623556
  0
VERTEX
  8
Layer1$C$L1
 62
     3
 10
-123.9314590441
 20
186.1643001690
  0
VERTEX
  8
Layer1$C$L1
 62
     3
 10
-123.8790988166
 20
186.1450961563
  0
VERTEX
  8
Layer1$C$L1
 62
     3
 10
-123.8267236472
 20
186.1259512511
  0
VERTEX
  8
Layer1$C$L1
 62
     3
 10
-123.7743360827
 20
186.1068663843
  0
VERTEX
  8
Layer1$C$L1
 62
     3
 10
-123.7219386700
 20
186.0878424840
  0
VERTEX
  8
Layer1$C$L1
 62
     3
 10
-123.6695339569
 20
186.0688804749
  0
VERTEX
  8
Layer1$C$L1
 62
     3
 10
-123.6171244914
 20
186.0499812791
  0
SEQEND
  8
Layer1$C$L1
 62
     3
  0
POLYLINE
  8
Layer1$C$L1
 62
     3
 66
     1
  0
VERTEX
  8
Layer1$C$L1
 62
     3
 10
-124.6676203780
 20
185.5929035934
  0
VERTEX
  8
Layer1$C$L1
 62
     3
 10
-124.7382596376
 20
185.6681836494
  0
VERTEX
  8
Layer1$C$L1
 62
     3
 10
-124.8087020651
 20
185.7437346376
  0
VERTEX
  8
Layer1$C$L1
 62
     3
 10
-124.8789358935
 20
185.8195439379
  0
VERTEX
  8
Layer1$C$L1
 62
     3
 10
-124.9489493911
 20
185.8955988869
  0
VERTEX
  8
Layer1$C$L1
 62
     3
 10
-125.0187308626
 20
185.9718867805
  0
VERTEX
  8
Layer1$C$L1
 62
     3
 10
-125.0882686516
 20
186.0483948753
  0
VERTEX
  8
Layer1$C$L1
 62
     3
 10
-125.1575511425
 20
186.1251103913
  0
VERTEX
  8
Layer1$C$L1
 62
     3
 10
-125.2265667622
 20
186.2020205139
  0
SEQEND
  8
Layer1$C$L1
 62
     3
  0
POLYLINE
  8
Layer1$C$L1
 62
     3
 66
     1
  0
VERTEX
  8
Layer1$C$L1
 62
     3
 10
-122.5666286048
 20
185.5929035934
  0
VERTEX
  8
Layer1$C$L1
 62
     3
 10
-122.4959893451
 20
185.6681836494
  0
VERTEX
  8
Layer1$C$L1
 62
     3
 10
-122.4255469177
 20
185.7437346376
  0
VERTEX
  8
Layer1$C$L1
 62
     3
 10
-122.3553130892
 20
185.8195439379
  0
VERTEX
  8
Layer1$C$L1
 62
     3
 10
-122.2852995917
 20
185.8955988869
  0
VERTEX
  8
Layer1$C$L1
 62
     3
 10
-122.2155181202
 20
185.9718867805
  0
VERTEX
  8
Layer1$C$L1
 62
     3
 10
-122.1459803312
 20
186.0483948753
  0
VERTEX
  8
Layer1$C$L1
 62
     3
 10
-122.0766978403
 20
186.1251103913
  0
VERTEX
  8
Layer1$C$L1
 62
     3
 10
-122.0076822206
 20
186.2020205139
  0
SEQEND
  8
Layer1$C$L1
 62
     3
  0
POLYLINE
  8
Layer1$C$L1
 62
     3
 66
     1
  0
VERTEX
  8
Layer1$C$L1
 62
     3
 10
-122.0076822206
 20
179.9712006458
  0
VERTEX
  8
Layer1$C$L1
 62
     3
 10
-122.0670152187
 20
179.8853210235
  0
VERTEX
  8
Layer1$C$L1
 62
     3
 10
-122.1312541356
 20
179.8028002036
  0
VERTEX
  8
Layer1$C$L1
 62
     3
 10
-122.2001956624
 20
179.7238993551
  0
VERTEX
  8
Layer1$C$L1
 62
     3
 10
-122.2736216071
 20
179.6488681902
  0
VERTEX
  8
Layer1$C$L1
 62
     3
 10
-122.3512995850
 20
179.5779441739
  0
VERTEX
  8
Layer1$C$L1
 62
     3
 10
-122.4329837540
 20
179.5113517726
  0
VERTEX
  8
Layer1$C$L1
 62
     3
 10
-122.5184155932
 20
179.4493017437
  0
VERTEX
  8
Layer1$C$L1
 62
     3
 10
-122.6073247206
 20
179.3919904685
  0
SEQEND
  8
Layer1$C$L1
 62
     3
  0
POLYLINE
  8
Layer1$C$L1
 62
     3
 66
     1
  0
VERTEX
  8
Layer1$C$L1
 62
     3
 10
-124.5172434213
 20
185.1805331579
  0
VERTEX
  8
Layer1$C$L1
 62
     3
 10
-124.5361822559
 20
185.2317625006
  0
VERTEX
  8
Layer1$C$L1
 62
     3
 10
-124.5550824335
 20
185.2830874058
  0
VERTEX
  8
Layer1$C$L1
 62
     3
 10
-124.5739430351
 20
185.3345053781
  0
VERTEX
  8
Layer1$C$L1
 62
     3
 10
-124.5927631438
 20
185.3860139174
  0
VERTEX
  8
Layer1$C$L1
 62
     3
 10
-124.6115418444
 20
185.4376105194
  0
VERTEX
  8
Layer1$C$L1
 62
     3
 10
-124.6302782240
 20
185.4892926752
  0
VERTEX
  8
Layer1$C$L1
 62
     3
 10
-124.6489713715
 20
185.5410578722
  0
VERTEX
  8
Layer1$C$L1
 62
     3
 10
-124.6676203780
 20
185.5929035934
  0
SEQEND
  8
Layer1$C$L1
 62
     3
  0
POLYLINE
  8
Layer1$C$L1
 62
     3
 66
     1
  0
VERTEX
  8
Layer1$C$L1
 62
     3
 10
-122.7170055615
 20
185.1805331579
  0
VERTEX
  8
Layer1$C$L1
 62
     3
 10
-122.6980667269
 20
185.2317625006
  0
VERTEX
  8
Layer1$C$L1
 62
     3
 10
-122.6791665493
 20
185.2830874058
  0
VERTEX
  8
Layer1$C$L1
 62
     3
 10
-122.6603059476
 20
185.3345053781
  0
VERTEX
  8
Layer1$C$L1
 62
     3
 10
-122.6414858389
 20
185.3860139174
  0
VERTEX
  8
Layer1$C$L1
 62
     3
 10
-122.6227071383
 20
185.4376105194
  0
VERTEX
  8
Layer1$C$L1
 62
     3
 10
-122.6039707588
 20
185.4892926752
  0
VERTEX
  8
Layer1$C$L1
 62
     3
 10
-122.5852776113
 20
185.5410578722
  0
VERTEX
  8
Layer1$C$L1
 62
     3
 10
-122.5666286048
 20
185.5929035934
  0
SEQEND
  8
Layer1$C$L1
 62
     3
  0
POLYLINE
  8
Layer1$C$L1
 62
     3
 66
     1
  0
VERTEX
  8
Layer1$C$L1
 62
     3
 10
-122.5666286048
 20
184.7834577510
  0
VERTEX
  8
Layer1$C$L1
 62
     3
 10
-122.5852776113
 20
184.8326917385
  0
VERTEX
  8
Layer1$C$L1
 62
     3
 10
-122.6039707588
 20
184.8820449501
  0
VERTEX
  8
Layer1$C$L1
 62
     3
 10
-122.6227071383
 20
184.9315149863
  0
VERTEX
  8
Layer1$C$L1
 62
     3
 10
-122.6414858389
 20
184.9810994418
  0
VERTEX
  8
Layer1$C$L1
 62
     3
 10
-122.6603059476
 20
185.0307959056
  0
VERTEX
  8
Layer1$C$L1
 62
     3
 10
-122.6791665493
 20
185.0806019615
  0
VERTEX
  8
Layer1$C$L1
 62
     3
 10
-122.6980667269
 20
185.1305151879
  0
VERTEX
  8
Layer1$C$L1
 62
     3
 10
-122.7170055615
 20
185.1805331579
  0
SEQEND
  8
Layer1$C$L1
 62
     3
  0
POLYLINE
  8
Layer1$C$L1
 62
     3
 66
     1
  0
VERTEX
  8
Layer1$C$L1
 62
     3
 10
-124.5172434213
 20
185.1805331579
  0
VERTEX
  8
Layer1$C$L1
 62
     3
 10
-124.5361822559
 20
185.1305151879
  0
VERTEX
  8
Layer1$C$L1
 62
     3
 10
-124.5550824335
 20
185.0806019615
  0
VERTEX
  8
Layer1$C$L1
 62
     3
 10
-124.5739430351
 20
185.0307959056
  0
VERTEX
  8
Layer1$C$L1
 62
     3
 10
-124.5927631438
 20
184.9810994418
  0
VERTEX
  8
Layer1$C$L1
 62
     3
 10
-124.6115418444
 20
184.9315149863
  0
VERTEX
  8
Layer1$C$L1
 62
     3
 10
-124.6302782240
 20
184.8820449501
  0
VERTEX
  8
Layer1$C$L1
 62
     3
 10
-124.6489713715
 20
184.8326917385
  0
VERTEX
  8
Layer1$C$L1
 62
     3
 10
-124.6676203780
 20
184.7834577510
  0
SEQEND
  8
Layer1$C$L1
 62
     3
  0
POLYLINE
  8
Layer1$C$L1
 62
     3
 66
     1
  0
VERTEX
  8
Layer1$C$L1
 62
     3
 10
-122.5666286048
 20
181.3128670812
  0
VERTEX
  8
Layer1$C$L1
 62
     3
 10
-122.4959893451
 20
181.3881471372
  0
VERTEX
  8
Layer1$C$L1
 62
     3
 10
-122.4255469177
 20
181.4636981254
  0
VERTEX
  8
Layer1$C$L1
 62
     3
 10
-122.3553130892
 20
181.5395074257
  0
VERTEX
  8
Layer1$C$L1
 62
     3
 10
-122.2852995917
 20
181.6155623748
  0
VERTEX
  8
Layer1$C$L1
 62
     3
 10
-122.2155181202
 20
181.6918502683
  0
VERTEX
  8
Layer1$C$L1
 62
     3
 10
-122.1459803312
 20
181.7683583631
  0
VERTEX
  8
Layer1$C$L1
 62
     3
 10
-122.0766978403
 20
181.8450738791
  0
VERTEX
  8
Layer1$C$L1
 62
     3
 10
-122.0076822206
 20
181.9219840017
  0
SEQEND
  8
Layer1$C$L1
 62
     3
  0
POLYLINE
  8
Layer1$C$L1
 62
     3
 66
     1
  0
VERTEX
  8
Layer1$C$L1
 62
     3
 10
-132.8676203780
 20
183.9253751309
  0
VERTEX
  8
Layer1$C$L1
 62
     3
 10
-132.8489713715
 20
183.8730524236
  0
VERTEX
  8
Layer1$C$L1
 62
     3
 10
-132.8302782240
 20
183.8207096837
  0
VERTEX
  8
Layer1$C$L1
 62
     3
 10
-132.8115418444
 20
183.7683494561
  0
VERTEX
  8
Layer1$C$L1
 62
     3
 10
-132.7927631438
 20
183.7159742868
  0
VERTEX
  8
Layer1$C$L1
 62
     3
 10
-132.7739430351
 20
183.6635867223
  0
VERTEX
  8
Layer1$C$L1
 62
     3
 10
-132.7550824335
 20
183.6111893096
  0
VERTEX
  8
Layer1$C$L1
 62
     3
 10
-132.7361822559
 20
183.5587845965
  0
VERTEX
  8
Layer1$C$L1
 62
     3
 10
-132.7172434213
 20
183.5063751309
  0
SEQEND
  8
Layer1$C$L1
 62
     3
  0
POLYLINE
  8
Layer1$C$L1
 62
     3
 66
     1
  0
VERTEX
  8
Layer1$C$L1
 62
     3
 10
-124.5172434213
 20
180.9004966458
  0
VERTEX
  8
Layer1$C$L1
 62
     3
 10
-124.5361822559
 20
180.9517259884
  0
VERTEX
  8
Layer1$C$L1
 62
     3
 10
-124.5550824335
 20
181.0030508936
  0
VERTEX
  8
Layer1$C$L1
 62
     3
 10
-124.5739430351
 20
181.0544688659
  0
VERTEX
  8
Layer1$C$L1
 62
     3
 10
-124.5927631438
 20
181.1059774052
  0
VERTEX
  8
Layer1$C$L1
 62
     3
 10
-124.6115418444
 20
181.1575740072
  0
VERTEX
  8
Layer1$C$L1
 62
     3
 10
-124.6302782240
 20
181.2092561631
  0
VERTEX
  8
Layer1$C$L1
 62
     3
 10
-124.6489713715
 20
181.2610213600
  0
VERTEX
  8
Layer1$C$L1
 62
     3
 10
-124.6676203780
 20
181.3128670812
  0
SEQEND
  8
Layer1$C$L1
 62
     3
  0
POLYLINE
  8
Layer1$C$L1
 62
     3
 66
     1
  0
VERTEX
  8
Layer1$C$L1
 62
     3
 10
-132.2361244914
 20
184.5568710176
  0
VERTEX
  8
Layer1$C$L1
 62
     3
 10
-132.3103168864
 20
184.6275102772
  0
VERTEX
  8
Layer1$C$L1
 62
     3
 10
-132.3844361681
 20
184.6979527046
  0
VERTEX
  8
Layer1$C$L1
 62
     3
 10
-132.4584699558
 20
184.7681865331
  0
VERTEX
  8
Layer1$C$L1
 62
     3
 10
-132.5324058825
 20
184.8382000307
  0
VERTEX
  8
Layer1$C$L1
 62
     3
 10
-132.6062315980
 20
184.9079815021
  0
VERTEX
  8
Layer1$C$L1
 62
     3
 10
-132.6799347703
 20
184.9775192912
  0
VERTEX
  8
Layer1$C$L1
 62
     3
 10
-132.7535030880
 20
185.0468017820
  0
VERTEX
  8
Layer1$C$L1
 62
     3
 10
-132.8269242621
 20
185.1158174017
  0
SEQEND
  8
Layer1$C$L1
 62
     3
  0
POLYLINE
  8
Layer1$C$L1
 62
     3
 66
     1
  0
VERTEX
  8
Layer1$C$L1
 62
     3
 10
-130.8073247206
 20
185.1158174017
  0
VERTEX
  8
Layer1$C$L1
 62
     3
 10
-130.8807458947
 20
185.0468017820
  0
VERTEX
  8
Layer1$C$L1
 62
     3
 10
-130.9543142124
 20
184.9775192912
  0
VERTEX
  8
Layer1$C$L1
 62
     3
 10
-131.0280173847
 20
184.9079815021
  0
VERTEX
  8
Layer1$C$L1
 62
     3
 10
-131.1018431003
 20
184.8382000307
  0
VERTEX
  8
Layer1$C$L1
 62
     3
 10
-131.1757790270
 20
184.7681865331
  0
VERTEX
  8
Layer1$C$L1
 62
     3
 10
-131.2498128146
 20
184.6979527046
  0
VERTEX
  8
Layer1$C$L1
 62
     3
 10
-131.3239320964
 20
184.6275102772
  0
VERTEX
  8
Layer1$C$L1
 62
     3
 10
-131.3981244914
 20
184.5568710176
  0
SEQEND
  8
Layer1$C$L1
 62
     3
  0
POLYLINE
  8
Layer1$C$L1
 62
     3
 66
     1
  0
VERTEX
  8
Layer1$C$L1
 62
     3
 10
-131.8171244914
 20
184.4064940609
  0
VERTEX
  8
Layer1$C$L1
 62
     3
 10
-131.8695339569
 20
184.4254328955
  0
VERTEX
  8
Layer1$C$L1
 62
     3
 10
-131.9219386700
 20
184.4443330731
  0
VERTEX
  8
Layer1$C$L1
 62
     3
 10
-131.9743360827
 20
184.4631936747
  0
VERTEX
  8
Layer1$C$L1
 62
     3
 10
-132.0267236472
 20
184.4820137834
  0
VERTEX
  8
Layer1$C$L1
 62
     3
 10
-132.0790988166
 20
184.5007924840
  0
VERTEX
  8
Layer1$C$L1
 62
     3
 10
-132.1314590441
 20
184.5195288636
  0
VERTEX
  8
Layer1$C$L1
 62
     3
 10
-132.1838017840
 20
184.5382220110
  0
VERTEX
  8
Layer1$C$L1
 62
     3
 10
-132.2361244914
 20
184.5568710176
  0
SEQEND
  8
Layer1$C$L1
 62
     3
  0
POLYLINE
  8
Layer1$C$L1
 62
     3
 66
     1
  0
VERTEX
  8
Layer1$C$L1
 62
     3
 10
-131.3981244914
 20
184.5568710176
  0
VERTEX
  8
Layer1$C$L1
 62
     3
 10
-131.4504471987
 20
184.5382220110
  0
VERTEX
  8
Layer1$C$L1
 62
     3
 10
-131.5027899387
 20
184.5195288636
  0
VERTEX
  8
Layer1$C$L1
 62
     3
 10
-131.5551501662
 20
184.5007924840
  0
VERTEX
  8
Layer1$C$L1
 62
     3
 10
-131.6075253355
 20
184.4820137834
  0
VERTEX
  8
Layer1$C$L1
 62
     3
 10
-131.6599129001
 20
184.4631936747
  0
VERTEX
  8
Layer1$C$L1
 62
     3
 10
-131.7123103127
 20
184.4443330731
  0
VERTEX
  8
Layer1$C$L1
 62
     3
 10
-131.7647150258
 20
184.4254328955
  0
VERTEX
  8
Layer1$C$L1
 62
     3
 10
-131.8171244914
 20
184.4064940609
  0
SEQEND
  8
Layer1$C$L1
 62
     3
  0
POLYLINE
  8
Layer1$C$L1
 62
     3
 66
     1
  0
VERTEX
  8
Layer1$C$L1
 62
     3
 10
-124.0361244914
 20
181.9228452673
  0
VERTEX
  8
Layer1$C$L1
 62
     3
 10
-123.9838017840
 20
181.9035258434
  0
VERTEX
  8
Layer1$C$L1
 62
     3
 10
-123.9314590441
 20
181.8842636568
  0
VERTEX
  8
Layer1$C$L1
 62
     3
 10
-123.8790988166
 20
181.8650596441
  0
VERTEX
  8
Layer1$C$L1
 62
     3
 10
-123.8267236472
 20
181.8459147389
  0
VERTEX
  8
Layer1$C$L1
 62
     3
 10
-123.7743360827
 20
181.8268298722
  0
VERTEX
  8
Layer1$C$L1
 62
     3
 10
-123.7219386700
 20
181.8078059718
  0
VERTEX
  8
Layer1$C$L1
 62
     3
 10
-123.6695339569
 20
181.7888439627
  0
VERTEX
  8
Layer1$C$L1
 62
     3
 10
-123.6171244914
 20
181.7699447669
  0
SEQEND
  8
Layer1$C$L1
 62
     3
  0
POLYLINE
  8
Layer1$C$L1
 62
     3
 66
     1
  0
VERTEX
  8
Layer1$C$L1
 62
     3
 10
-124.6676203780
 20
184.7834577510
  0
VERTEX
  8
Layer1$C$L1
 62
     3
 10
-124.7382596376
 20
184.7154091061
  0
VERTEX
  8
Layer1$C$L1
 62
     3
 10
-124.8087020651
 20
184.6477726373
  0
VERTEX
  8
Layer1$C$L1
 62
     3
 10
-124.8789358935
 20
184.5805596426
  0
VERTEX
  8
Layer1$C$L1
 62
     3
 10
-124.9489493911
 20
184.5137813494
  0
VERTEX
  8
Layer1$C$L1
 62
     3
 10
-125.0187308626
 20
184.4474489125
  0
VERTEX
  8
Layer1$C$L1
 62
     3
 10
-125.0882686516
 20
184.3815734120
  0
VERTEX
  8
Layer1$C$L1
 62
     3
 10
-125.1575511425
 20
184.3161658519
  0
VERTEX
  8
Layer1$C$L1
 62
     3
 10
-125.2265667622
 20
184.2512371580
  0
SEQEND
  8
Layer1$C$L1
 62
     3
  0
POLYLINE
  8
Layer1$C$L1
 62
     3
 66
     1
  0
VERTEX
  8
Layer1$C$L1
 62
     3
 10
-122.0076822206
 20
184.2512371580
  0
VERTEX
  8
Layer1$C$L1
 62
     3
 10
-122.0766978403
 20
184.3161658519
  0
VERTEX
  8
Layer1$C$L1
 62
     3
 10
-122.1459803312
 20
184.3815734120
  0
VERTEX
  8
Layer1$C$L1
 62
     3
 10
-122.2155181202
 20
184.4474489125
  0
VERTEX
  8
Layer1$C$L1
 62
     3
 10
-122.2852995917
 20
184.5137813494
  0
VERTEX
  8
Layer1$C$L1
 62
     3
 10
-122.3553130892
 20
184.5805596426
  0
VERTEX
  8
Layer1$C$L1
 62
     3
 10
-122.4255469177
 20
184.6477726373
  0
VERTEX
  8
Layer1$C$L1
 62
     3
 10
-122.4959893451
 20
184.7154091061
  0
VERTEX
  8
Layer1$C$L1
 62
     3
 10
-122.5666286048
 20
184.7834577510
  0
SEQEND
  8
Layer1$C$L1
 62
     3
  0
POLYLINE
  8
Layer1$C$L1
 62
     3
 66
     1
  0
VERTEX
  8
Layer1$C$L1
 62
     3
 10
-130.9170055615
 20
183.5063751309
  0
VERTEX
  8
Layer1$C$L1
 62
     3
 10
-130.8980667269
 20
183.4539656654
  0
VERTEX
  8
Layer1$C$L1
 62
     3
 10
-130.8791665493
 20
183.4015609523
  0
VERTEX
  8
Layer1$C$L1
 62
     3
 10
-130.8603059476
 20
183.3491635396
  0
VERTEX
  8
Layer1$C$L1
 62
     3
 10
-130.8414858389
 20
183.2967759751
  0
VERTEX
  8
Layer1$C$L1
 62
     3
 10
-130.8227071383
 20
183.2444008058
  0
VERTEX
  8
Layer1$C$L1
 62
     3
 10
-130.8039707588
 20
183.1920405782
  0
VERTEX
  8
Layer1$C$L1
 62
     3
 10
-130.7852776113
 20
183.1396978383
  0
VERTEX
  8
Layer1$C$L1
 62
     3
 10
-130.7666286048
 20
183.0873751309
  0
SEQEND
  8
Layer1$C$L1
 62
     3
  0
POLYLINE
  8
Layer1$C$L1
 62
     3
 66
     1
  0
VERTEX
  8
Layer1$C$L1
 62
     3
 10
-123.6171244914
 20
184.3110850368
  0
VERTEX
  8
Layer1$C$L1
 62
     3
 10
-123.5647150258
 20
184.2933972137
  0
VERTEX
  8
Layer1$C$L1
 62
     3
 10
-123.5123103127
 20
184.2758468834
  0
VERTEX
  8
Layer1$C$L1
 62
     3
 10
-123.4599129001
 20
184.2584348994
  0
VERTEX
  8
Layer1$C$L1
 62
     3
 10
-123.4075253355
 20
184.2411621081
  0
VERTEX
  8
Layer1$C$L1
 62
     3
 10
-123.3551501662
 20
184.2240293494
  0
VERTEX
  8
Layer1$C$L1
 62
     3
 10
-123.3027899387
 20
184.2070374563
  0
VERTEX
  8
Layer1$C$L1
 62
     3
 10
-123.2504471987
 20
184.1901872551
  0
VERTEX
  8
Layer1$C$L1
 62
     3
 10
-123.1981244914
 20
184.1734795649
  0
SEQEND
  8
Layer1$C$L1
 62
     3
  0
POLYLINE
  8
Layer1$C$L1
 62
     3
 66
     1
  0
VERTEX
  8
Layer1$C$L1
 62
     3
 10
-125.2493897093
 20
178.8860252098
  0
VERTEX
  8
Layer1$C$L1
 62
     3
 10
-125.3615245412
 20
178.9632877239
  0
VERTEX
  8
Layer1$C$L1
 62
     3
 10
-125.4697461327
 20
179.0455922810
  0
VERTEX
  8
Layer1$C$L1
 62
     3
 10
-125.5738117084
 20
179.1327542458
  0
VERTEX
  8
Layer1$C$L1
 62
     3
 10
-125.6734878163
 20
179.2245780867
  0
VERTEX
  8
Layer1$C$L1
 62
     3
 10
-125.7685508515
 20
179.3208578136
  0
VERTEX
  8
Layer1$C$L1
 62
     3
 10
-125.8587875576
 20
179.4213774408
  0
VERTEX
  8
Layer1$C$L1
 62
     3
 10
-125.9439955051
 20
179.5259114709
  0
VERTEX
  8
Layer1$C$L1
 62
     3
 10
-126.0239835456
 20
179.6342254012
  0
SEQEND
  8
Layer1$C$L1
 62
     3
  0
POLYLINE
  8
Layer1$C$L1
 62
     3
 66
     1
  0
VERTEX
  8
Layer1$C$L1
 62
     3
 10
-133.4265667622
 20
184.5161749017
  0
VERTEX
  8
Layer1$C$L1
 62
     3
 10
-133.3575511425
 20
184.4427537276
  0
VERTEX
  8
Layer1$C$L1
 62
     3
 10
-133.2882686516
 20
184.3691854099
  0
VERTEX
  8
Layer1$C$L1
 62
     3
 10
-133.2187308626
 20
184.2954822376
  0
VERTEX
  8
Layer1$C$L1
 62
     3
 10
-133.1489493911
 20
184.2216565221
  0
VERTEX
  8
Layer1$C$L1
 62
     3
 10
-133.0789358935
 20
184.1477205953
  0
VERTEX
  8
Layer1$C$L1
 62
     3
 10
-133.0087020651
 20
184.0736868077
  0
VERTEX
  8
Layer1$C$L1
 62
     3
 10
-132.9382596376
 20
183.9995675259
  0
VERTEX
  8
Layer1$C$L1
 62
     3
 10
-132.8676203780
 20
183.9253751309
  0
SEQEND
  8
Layer1$C$L1
 62
     3
  0
POLYLINE
  8
Layer1$C$L1
 62
     3
 66
     1
  0
VERTEX
  8
Layer1$C$L1
 62
     3
 10
-130.7666286048
 20
183.9253751309
  0
VERTEX
  8
Layer1$C$L1
 62
     3
 10
-130.6959893451
 20
183.9995675259
  0
VERTEX
  8
Layer1$C$L1
 62
     3
 10
-130.6255469177
 20
184.0736868077
  0
VERTEX
  8
Layer1$C$L1
 62
     3
 10
-130.5553130892
 20
184.1477205953
  0
VERTEX
  8
Layer1$C$L1
 62
     3
 10
-130.4852995917
 20
184.2216565221
  0
VERTEX
  8
Layer1$C$L1
 62
     3
 10
-130.4155181202
 20
184.2954822376
  0
VERTEX
  8
Layer1$C$L1
 62
     3
 10
-130.3459803312
 20
184.3691854099
  0
VERTEX
  8
Layer1$C$L1
 62
     3
 10
-130.2766978403
 20
184.4427537276
  0
VERTEX
  8
Layer1$C$L1
 62
     3
 10
-130.2076822206
 20
184.5161749017
  0
SEQEND
  8
Layer1$C$L1
 62
     3
  0
POLYLINE
  8
Layer1$C$L1
 62
     3
 66
     1
  0
VERTEX
  8
Layer1$C$L1
 62
     3
 10
-124.0361244914
 20
179.8934430527
  0
VERTEX
  8
Layer1$C$L1
 62
     3
 10
-123.9838017840
 20
179.9101507429
  0
VERTEX
  8
Layer1$C$L1
 62
     3
 10
-123.9314590441
 20
179.9270009442
  0
VERTEX
  8
Layer1$C$L1
 62
     3
 10
-123.8790988166
 20
179.9439928372
  0
VERTEX
  8
Layer1$C$L1
 62
     3
 10
-123.8267236472
 20
179.9611255959
  0
VERTEX
  8
Layer1$C$L1
 62
     3
 10
-123.7743360827
 20
179.9783983872
  0
VERTEX
  8
Layer1$C$L1
 62
     3
 10
-123.7219386700
 20
179.9958103712
  0
VERTEX
  8
Layer1$C$L1
 62
     3
 10
-123.6695339569
 20
180.0133607015
  0
VERTEX
  8
Layer1$C$L1
 62
     3
 10
-123.6171244914
 20
180.0310485246
  0
SEQEND
  8
Layer1$C$L1
 62
     3
  0
POLYLINE
  8
Layer1$C$L1
 62
     3
 66
     1
  0
VERTEX
  8
Layer1$C$L1
 62
     3
 10
-123.1981244914
 20
184.1734795649
  0
VERTEX
  8
Layer1$C$L1
 62
     3
 10
-123.1239320964
 20
184.1088629852
  0
VERTEX
  8
Layer1$C$L1
 62
     3
 10
-123.0498128146
 20
184.0447780850
  0
VERTEX
  8
Layer1$C$L1
 62
     3
 10
-122.9757790270
 20
183.9812355690
  0
VERTEX
  8
Layer1$C$L1
 62
     3
 10
-122.9018431003
 20
183.9182460515
  0
VERTEX
  8
Layer1$C$L1
 62
     3
 10
-122.8280173847
 20
183.8558200542
  0
VERTEX
  8
Layer1$C$L1
 62
     3
 10
-122.7543142124
 20
183.7939680051
  0
VERTEX
  8
Layer1$C$L1
 62
     3
 10
-122.6807458947
 20
183.7327002358
  0
VERTEX
  8
Layer1$C$L1
 62
     3
 10
-122.6073247206
 20
183.6720269807
  0
SEQEND
  8
Layer1$C$L1
 62
     3
  0
POLYLINE
  8
Layer1$C$L1
 62
     3
 66
     1
  0
VERTEX
  8
Layer1$C$L1
 62
     3
 10
-122.0076822206
 20
184.2512371580
  0
VERTEX
  8
Layer1$C$L1
 62
     3
 10
-122.0670152187
 20
184.1653575356
  0
VERTEX
  8
Layer1$C$L1
 62
     3
 10
-122.1312541356
 20
184.0828367158
  0
VERTEX
  8
Layer1$C$L1
 62
     3
 10
-122.2001956624
 20
184.0039358673
  0
VERTEX
  8
Layer1$C$L1
 62
     3
 10
-122.2736216071
 20
183.9289047023
  0
VERTEX
  8
Layer1$C$L1
 62
     3
 10
-122.3512995850
 20
183.8579806860
  0
VERTEX
  8
Layer1$C$L1
 62
     3
 10
-122.4329837540
 20
183.7913882848
  0
VERTEX
  8
Layer1$C$L1
 62
     3
 10
-122.5184155932
 20
183.7293382559
  0
VERTEX
  8
Layer1$C$L1
 62
     3
 10
-122.6073247206
 20
183.6720269807
  0
SEQEND
  8
Layer1$C$L1
 62
     3
  0
POLYLINE
  8
Layer1$C$L1
 62
     3
 66
     1
  0
VERTEX
  8
Layer1$C$L1
 62
     3
 10
-124.6269242621
 20
183.6720269807
  0
VERTEX
  8
Layer1$C$L1
 62
     3
 10
-124.5535030880
 20
183.7327002358
  0
VERTEX
  8
Layer1$C$L1
 62
     3
 10
-124.4799347703
 20
183.7939680051
  0
VERTEX
  8
Layer1$C$L1
 62
     3
 10
-124.4062315980
 20
183.8558200542
  0
VERTEX
  8
Layer1$C$L1
 62
     3
 10
-124.3324058825
 20
183.9182460515
  0
VERTEX
  8
Layer1$C$L1
 62
     3
 10
-124.2584699558
 20
183.9812355690
  0
VERTEX
  8
Layer1$C$L1
 62
     3
 10
-124.1844361681
 20
184.0447780850
  0
VERTEX
  8
Layer1$C$L1
 62
     3
 10
-124.1103168864
 20
184.1088629852
  0
VERTEX
  8
Layer1$C$L1
 62
     3
 10
-124.0361244914
 20
184.1734795649
  0
SEQEND
  8
Layer1$C$L1
 62
     3
  0
POLYLINE
  8
Layer1$C$L1
 62
     3
 66
     1
  0
VERTEX
  8
Layer1$C$L1
 62
     3
 10
-124.6269242621
 20
179.3919904685
  0
VERTEX
  8
Layer1$C$L1
 62
     3
 10
-124.5535030880
 20
179.4526637236
  0
VERTEX
  8
Layer1$C$L1
 62
     3
 10
-124.4799347703
 20
179.5139314929
  0
VERTEX
  8
Layer1$C$L1
 62
     3
 10
-124.4062315980
 20
179.5757835421
  0
VERTEX
  8
Layer1$C$L1
 62
     3
 10
-124.3324058825
 20
179.6382095393
  0
VERTEX
  8
Layer1$C$L1
 62
     3
 10
-124.2584699558
 20
179.7011990568
  0
VERTEX
  8
Layer1$C$L1
 62
     3
 10
-124.1844361681
 20
179.7647415728
  0
VERTEX
  8
Layer1$C$L1
 62
     3
 10
-124.1103168864
 20
179.8288264730
  0
VERTEX
  8
Layer1$C$L1
 62
     3
 10
-124.0361244914
 20
179.8934430527
  0
SEQEND
  8
Layer1$C$L1
 62
     3
  0
POLYLINE
  8
Layer1$C$L1
 62
     3
 66
     1
  0
VERTEX
  8
Layer1$C$L1
 62
     3
 10
-122.0076822206
 20
179.9712006458
  0
VERTEX
  8
Layer1$C$L1
 62
     3
 10
-122.0766978403
 20
180.0361293397
  0
VERTEX
  8
Layer1$C$L1
 62
     3
 10
-122.1459803312
 20
180.1015368998
  0
VERTEX
  8
Layer1$C$L1
 62
     3
 10
-122.2155181202
 20
180.1674124003
  0
VERTEX
  8
Layer1$C$L1
 62
     3
 10
-122.2852995917
 20
180.2337448373
  0
VERTEX
  8
Layer1$C$L1
 62
     3
 10
-122.3553130892
 20
180.3005231304
  0
VERTEX
  8
Layer1$C$L1
 62
     3
 10
-122.4255469177
 20
180.3677361251
  0
VERTEX
  8
Layer1$C$L1
 62
     3
 10
-122.4959893451
 20
180.4353725939
  0
VERTEX
  8
Layer1$C$L1
 62
     3
 10
-122.5666286048
 20
180.5034212388
  0
SEQEND
  8
Layer1$C$L1
 62
     3
  0
POLYLINE
  8
Layer1$C$L1
 62
     3
 66
     1
  0
VERTEX
  8
Layer1$C$L1
 62
     3
 10
-130.9170055615
 20
183.5063751309
  0
VERTEX
  8
Layer1$C$L1
 62
     3
 10
-130.8980667269
 20
183.5587845965
  0
VERTEX
  8
Layer1$C$L1
 62
     3
 10
-130.8791665493
 20
183.6111893096
  0
VERTEX
  8
Layer1$C$L1
 62
     3
 10
-130.8603059476
 20
183.6635867223
  0
VERTEX
  8
Layer1$C$L1
 62
     3
 10
-130.8414858389
 20
183.7159742868
  0
VERTEX
  8
Layer1$C$L1
 62
     3
 10
-130.8227071383
 20
183.7683494561
  0
VERTEX
  8
Layer1$C$L1
 62
     3
 10
-130.8039707588
 20
183.8207096837
  0
VERTEX
  8
Layer1$C$L1
 62
     3
 10
-130.7852776113
 20
183.8730524236
  0
VERTEX
  8
Layer1$C$L1
 62
     3
 10
-130.7666286048
 20
183.9253751309
  0
SEQEND
  8
Layer1$C$L1
 62
     3
  0
POLYLINE
  8
Layer1$C$L1
 62
     3
 66
     1
  0
VERTEX
  8
Layer1$C$L1
 62
     3
 10
-125.2493897093
 20
183.1660617220
  0
VERTEX
  8
Layer1$C$L1
 62
     3
 10
-125.3615245412
 20
183.2433242361
  0
VERTEX
  8
Layer1$C$L1
 62
     3
 10
-125.4697461327
 20
183.3256287931
  0
VERTEX
  8
Layer1$C$L1
 62
     3
 10
-125.5738117084
 20
183.4127907580
  0
VERTEX
  8
Layer1$C$L1
 62
     3
 10
-125.6734878163
 20
183.5046145989
  0
VERTEX
  8
Layer1$C$L1
 62
     3
 10
-125.7685508515
 20
183.6008943258
  0
VERTEX
  8
Layer1$C$L1
 62
     3
 10
-125.8587875576
 20
183.7014139530
  0
VERTEX
  8
Layer1$C$L1
 62
     3
 10
-125.9439955051
 20
183.8059479831
  0
VERTEX
  8
Layer1$C$L1
 62
     3
 10
-126.0239835456
 20
183.9142619133
  0
SEQEND
  8
Layer1$C$L1
 62
     3
  0
POLYLINE
  8
Layer1$C$L1
 62
     3
 66
     1
  0
VERTEX
  8
Layer1$C$L1
 62
     3
 10
-123.1981244914
 20
179.8934430527
  0
VERTEX
  8
Layer1$C$L1
 62
     3
 10
-123.1239320964
 20
179.8288264730
  0
VERTEX
  8
Layer1$C$L1
 62
     3
 10
-123.0498128146
 20
179.7647415728
  0
VERTEX
  8
Layer1$C$L1
 62
     3
 10
-122.9757790270
 20
179.7011990568
  0
VERTEX
  8
Layer1$C$L1
 62
     3
 10
-122.9018431003
 20
179.6382095393
  0
VERTEX
  8
Layer1$C$L1
 62
     3
 10
-122.8280173847
 20
179.5757835421
  0
VERTEX
  8
Layer1$C$L1
 62
     3
 10
-122.7543142124
 20
179.5139314929
  0
VERTEX
  8
Layer1$C$L1
 62
     3
 10
-122.6807458947
 20
179.4526637236
  0
VERTEX
  8
Layer1$C$L1
 62
     3
 10
-122.6073247206
 20
179.3919904685
  0
SEQEND
  8
Layer1$C$L1
 62
     3
  0
POLYLINE
  8
Layer1$C$L1
 62
     3
 66
     1
  0
VERTEX
  8
Layer1$C$L1
 62
     3
 10
-131.8171244914
 20
182.6062562010
  0
VERTEX
  8
Layer1$C$L1
 62
     3
 10
-131.8695339569
 20
182.5873173664
  0
VERTEX
  8
Layer1$C$L1
 62
     3
 10
-131.9219386700
 20
182.5684171888
  0
VERTEX
  8
Layer1$C$L1
 62
     3
 10
-131.9743360827
 20
182.5495565872
  0
VERTEX
  8
Layer1$C$L1
 62
     3
 10
-132.0267236472
 20
182.5307364785
  0
VERTEX
  8
Layer1$C$L1
 62
     3
 10
-132.0790988166
 20
182.5119577779
  0
VERTEX
  8
Layer1$C$L1
 62
     3
 10
-132.1314590441
 20
182.4932213983
  0
VERTEX
  8
Layer1$C$L1
 62
     3
 10
-132.1838017840
 20
182.4745282509
  0
VERTEX
  8
Layer1$C$L1
 62
     3
 10
-132.2361244914
 20
182.4558792443
  0
SEQEND
  8
Layer1$C$L1
 62
     3
  0
POLYLINE
  8
Layer1$C$L1
 62
     3
 66
     1
  0
VERTEX
  8
Layer1$C$L1
 62
     3
 10
-124.6676203780
 20
181.3128670812
  0
VERTEX
  8
Layer1$C$L1
 62
     3
 10
-124.7382596376
 20
181.3881471372
  0
VERTEX
  8
Layer1$C$L1
 62
     3
 10
-124.8087020651
 20
181.4636981254
  0
VERTEX
  8
Layer1$C$L1
 62
     3
 10
-124.8789358935
 20
181.5395074257
  0
VERTEX
  8
Layer1$C$L1
 62
     3
 10
-124.9489493911
 20
181.6155623748
  0
VERTEX
  8
Layer1$C$L1
 62
     3
 10
-125.0187308626
 20
181.6918502683
  0
VERTEX
  8
Layer1$C$L1
 62
     3
 10
-125.0882686516
 20
181.7683583631
  0
VERTEX
  8
Layer1$C$L1
 62
     3
 10
-125.1575511425
 20
181.8450738791
  0
VERTEX
  8
Layer1$C$L1
 62
     3
 10
-125.2265667622
 20
181.9219840017
  0
SEQEND
  8
Layer1$C$L1
 62
     3
  0
POLYLINE
  8
Layer1$C$L1
 62
     3
 66
     1
  0
VERTEX
  8
Layer1$C$L1
 62
     3
 10
-132.7172434213
 20
183.5063751309
  0
VERTEX
  8
Layer1$C$L1
 62
     3
 10
-132.7361822559
 20
183.4539656654
  0
VERTEX
  8
Layer1$C$L1
 62
     3
 10
-132.7550824335
 20
183.4015609523
  0
VERTEX
  8
Layer1$C$L1
 62
     3
 10
-132.7739430351
 20
183.3491635396
  0
VERTEX
  8
Layer1$C$L1
 62
     3
 10
-132.7927631438
 20
183.2967759751
  0
VERTEX
  8
Layer1$C$L1
 62
     3
 10
-132.8115418444
 20
183.2444008058
  0
VERTEX
  8
Layer1$C$L1
 62
     3
 10
-132.8302782240
 20
183.1920405782
  0
VERTEX
  8
Layer1$C$L1
 62
     3
 10
-132.8489713715
 20
183.1396978383
  0
VERTEX
  8
Layer1$C$L1
 62
     3
 10
-132.8676203780
 20
183.0873751309
  0
SEQEND
  8
Layer1$C$L1
 62
     3
  0
POLYLINE
  8
Layer1$C$L1
 62
     3
 66
     1
  0
VERTEX
  8
Layer1$C$L1
 62
     3
 10
-124.6269242621
 20
182.5011941790
  0
VERTEX
  8
Layer1$C$L1
 62
     3
 10
-124.5535030880
 20
182.4285394952
  0
VERTEX
  8
Layer1$C$L1
 62
     3
 10
-124.4799347703
 20
182.3559637700
  0
VERTEX
  8
Layer1$C$L1
 62
     3
 10
-124.4062315980
 20
182.2834791265
  0
VERTEX
  8
Layer1$C$L1
 62
     3
 10
-124.3324058825
 20
182.2110976727
  0
VERTEX
  8
Layer1$C$L1
 62
     3
 10
-124.2584699558
 20
182.1388314993
  0
VERTEX
  8
Layer1$C$L1
 62
     3
 10
-124.1844361681
 20
182.0666926777
  0
VERTEX
  8
Layer1$C$L1
 62
     3
 10
-124.1103168864
 20
181.9946932581
  0
VERTEX
  8
Layer1$C$L1
 62
     3
 10
-124.0361244914
 20
181.9228452673
  0
SEQEND
  8
Layer1$C$L1
 62
     3
  0
POLYLINE
  8
Layer1$C$L1
 62
     3
 66
     1
  0
VERTEX
  8
Layer1$C$L1
 62
     3
 10
-123.1981244914
 20
181.9228452673
  0
VERTEX
  8
Layer1$C$L1
 62
     3
 10
-123.1239320964
 20
181.9946932581
  0
VERTEX
  8
Layer1$C$L1
 62
     3
 10
-123.0498128146
 20
182.0666926777
  0
VERTEX
  8
Layer1$C$L1
 62
     3
 10
-122.9757790270
 20
182.1388314993
  0
VERTEX
  8
Layer1$C$L1
 62
     3
 10
-122.9018431003
 20
182.2110976727
  0
VERTEX
  8
Layer1$C$L1
 62
     3
 10
-122.8280173847
 20
182.2834791265
  0
VERTEX
  8
Layer1$C$L1
 62
     3
 10
-122.7543142124
 20
182.3559637700
  0
VERTEX
  8
Layer1$C$L1
 62
     3
 10
-122.6807458947
 20
182.4285394952
  0
VERTEX
  8
Layer1$C$L1
 62
     3
 10
-122.6073247206
 20
182.5011941790
  0
SEQEND
  8
Layer1$C$L1
 62
     3
  0
POLYLINE
  8
Layer1$C$L1
 62
     3
 66
     1
  0
VERTEX
  8
Layer1$C$L1
 62
     3
 10
-125.2265667622
 20
181.9219840017
  0
VERTEX
  8
Layer1$C$L1
 62
     3
 10
-125.1672337640
 20
182.0078636240
  0
VERTEX
  8
Layer1$C$L1
 62
     3
 10
-125.1029948471
 20
182.0903844439
  0
VERTEX
  8
Layer1$C$L1
 62
     3
 10
-125.0340533203
 20
182.1692852924
  0
VERTEX
  8
Layer1$C$L1
 62
     3
 10
-124.9606273756
 20
182.2443164573
  0
VERTEX
  8
Layer1$C$L1
 62
     3
 10
-124.8829493978
 20
182.3152404736
  0
VERTEX
  8
Layer1$C$L1
 62
     3
 10
-124.8012652287
 20
182.3818328749
  0
VERTEX
  8
Layer1$C$L1
 62
     3
 10
-124.7158333895
 20
182.4438829038
  0
VERTEX
  8
Layer1$C$L1
 62
     3
 10
-124.6269242621
 20
182.5011941790
  0
SEQEND
  8
Layer1$C$L1
 62
     3
  0
POLYLINE
  8
Layer1$C$L1
 62
     3
 66
     1
  0
VERTEX
  8
Layer1$C$L1
 62
     3
 10
-123.6171244914
 20
180.0310485246
  0
VERTEX
  8
Layer1$C$L1
 62
     3
 10
-123.5647150258
 20
180.0133607015
  0
VERTEX
  8
Layer1$C$L1
 62
     3
 10
-123.5123103127
 20
179.9958103712
  0
VERTEX
  8
Layer1$C$L1
 62
     3
 10
-123.4599129001
 20
179.9783983872
  0
VERTEX
  8
Layer1$C$L1
 62
     3
 10
-123.4075253355
 20
179.9611255959
  0
VERTEX
  8
Layer1$C$L1
 62
     3
 10
-123.3551501662
 20
179.9439928372
  0
VERTEX
  8
Layer1$C$L1
 62
     3
 10
-123.3027899387
 20
179.9270009442
  0
VERTEX
  8
Layer1$C$L1
 62
     3
 10
-123.2504471987
 20
179.9101507429
  0
VERTEX
  8
Layer1$C$L1
 62
     3
 10
-123.1981244914
 20
179.8934430527
  0
SEQEND
  8
Layer1$C$L1
 62
     3
  0
POLYLINE
  8
Layer1$C$L1
 62
     3
 66
     1
  0
VERTEX
  8
Layer1$C$L1
 62
     3
 10
-122.7170055615
 20
180.9004966458
  0
VERTEX
  8
Layer1$C$L1
 62
     3
 10
-122.6980667269
 20
180.9517259884
  0
VERTEX
  8
Layer1$C$L1
 62
     3
 10
-122.6791665493
 20
181.0030508936
  0
VERTEX
  8
Layer1$C$L1
 62
     3
 10
-122.6603059476
 20
181.0544688659
  0
VERTEX
  8
Layer1$C$L1
 62
     3
 10
-122.6414858389
 20
181.1059774052
  0
VERTEX
  8
Layer1$C$L1
 62
     3
 10
-122.6227071383
 20
181.1575740072
  0
VERTEX
  8
Layer1$C$L1
 62
     3
 10
-122.6039707588
 20
181.2092561631
  0
VERTEX
  8
Layer1$C$L1
 62
     3
 10
-122.5852776113
 20
181.2610213600
  0
VERTEX
  8
Layer1$C$L1
 62
     3
 10
-122.5666286048
 20
181.3128670812
  0
SEQEND
  8
Layer1$C$L1
 62
     3
  0
POLYLINE
  8
Layer1$C$L1
 62
     3
 66
     1
  0
VERTEX
  8
Layer1$C$L1
 62
     3
 10
-132.8676203780
 20
183.0873751309
  0
VERTEX
  8
Layer1$C$L1
 62
     3
 10
-132.9382596376
 20
183.0131827360
  0
VERTEX
  8
Layer1$C$L1
 62
     3
 10
-133.0087020651
 20
182.9390634542
  0
VERTEX
  8
Layer1$C$L1
 62
     3
 10
-133.0789358935
 20
182.8650296666
  0
VERTEX
  8
Layer1$C$L1
 62
     3
 10
-133.1489493911
 20
182.7910937398
  0
VERTEX
  8
Layer1$C$L1
 62
     3
 10
-133.2187308626
 20
182.7172680243
  0
VERTEX
  8
Layer1$C$L1
 62
     3
 10
-133.2882686516
 20
182.6435648520
  0
VERTEX
  8
Layer1$C$L1
 62
     3
 10
-133.3575511425
 20
182.5699965343
  0
VERTEX
  8
Layer1$C$L1
 62
     3
 10
-133.4265667622
 20
182.4965753602
  0
SEQEND
  8
Layer1$C$L1
 62
     3
  0
POLYLINE
  8
Layer1$C$L1
 62
     3
 66
     1
  0
VERTEX
  8
Layer1$C$L1
 62
     3
 10
-130.7666286048
 20
183.0873751309
  0
VERTEX
  8
Layer1$C$L1
 62
     3
 10
-130.6959893451
 20
183.0131827360
  0
VERTEX
  8
Layer1$C$L1
 62
     3
 10
-130.6255469177
 20
182.9390634542
  0
VERTEX
  8
Layer1$C$L1
 62
     3
 10
-130.5553130892
 20
182.8650296666
  0
VERTEX
  8
Layer1$C$L1
 62
     3
 10
-130.4852995917
 20
182.7910937398
  0
VERTEX
  8
Layer1$C$L1
 62
     3
 10
-130.4155181202
 20
182.7172680243
  0
VERTEX
  8
Layer1$C$L1
 62
     3
 10
-130.3459803312
 20
182.6435648520
  0
VERTEX
  8
Layer1$C$L1
 62
     3
 10
-130.2766978403
 20
182.5699965343
  0
VERTEX
  8
Layer1$C$L1
 62
     3
 10
-130.2076822206
 20
182.4965753602
  0
SEQEND
  8
Layer1$C$L1
 62
     3
  0
POLYLINE
  8
Layer1$C$L1
 62
     3
 66
     1
  0
VERTEX
  8
Layer1$C$L1
 62
     3
 10
-123.6171244914
 20
181.7699447669
  0
VERTEX
  8
Layer1$C$L1
 62
     3
 10
-123.5647150258
 20
181.7888439627
  0
VERTEX
  8
Layer1$C$L1
 62
     3
 10
-123.5123103127
 20
181.8078059718
  0
VERTEX
  8
Layer1$C$L1
 62
     3
 10
-123.4599129001
 20
181.8268298722
  0
VERTEX
  8
Layer1$C$L1
 62
     3
 10
-123.4075253355
 20
181.8459147389
  0
VERTEX
  8
Layer1$C$L1
 62
     3
 10
-123.3551501662
 20
181.8650596441
  0
VERTEX
  8
Layer1$C$L1
 62
     3
 10
-123.3027899387
 20
181.8842636568
  0
VERTEX
  8
Layer1$C$L1
 62
     3
 10
-123.2504471987
 20
181.9035258434
  0
VERTEX
  8
Layer1$C$L1
 62
     3
 10
-123.1981244914
 20
181.9228452673
  0
SEQEND
  8
Layer1$C$L1
 62
     3
  0
POLYLINE
  8
Layer1$C$L1
 62
     3
 66
     1
  0
VERTEX
  8
Layer1$C$L1
 62
     3
 10
-131.3981244914
 20
182.4558792443
  0
VERTEX
  8
Layer1$C$L1
 62
     3
 10
-131.4504471987
 20
182.4745282509
  0
VERTEX
  8
Layer1$C$L1
 62
     3
 10
-131.5027899387
 20
182.4932213983
  0
VERTEX
  8
Layer1$C$L1
 62
     3
 10
-131.5551501662
 20
182.5119577779
  0
VERTEX
  8
Layer1$C$L1
 62
     3
 10
-131.6075253355
 20
182.5307364785
  0
VERTEX
  8
Layer1$C$L1
 62
     3
 10
-131.6599129001
 20
182.5495565872
  0
VERTEX
  8
Layer1$C$L1
 62
     3
 10
-131.7123103127
 20
182.5684171888
  0
VERTEX
  8
Layer1$C$L1
 62
     3
 10
-131.7647150258
 20
182.5873173664
  0
VERTEX
  8
Layer1$C$L1
 62
     3
 10
-131.8171244914
 20
182.6062562010
  0
SEQEND
  8
Layer1$C$L1
 62
     3
  0
POLYLINE
  8
Layer1$C$L1
 62
     3
 66
     1
  0
VERTEX
  8
Layer1$C$L1
 62
     3
 10
-132.2361244914
 20
182.4558792443
  0
VERTEX
  8
Layer1$C$L1
 62
     3
 10
-132.3103168864
 20
182.3852399847
  0
VERTEX
  8
Layer1$C$L1
 62
     3
 10
-132.3844361681
 20
182.3147975572
  0
VERTEX
  8
Layer1$C$L1
 62
     3
 10
-132.4584699558
 20
182.2445637288
  0
VERTEX
  8
Layer1$C$L1
 62
     3
 10
-132.5324058825
 20
182.1745502312
  0
VERTEX
  8
Layer1$C$L1
 62
     3
 10
-132.6062315980
 20
182.1047687597
  0
VERTEX
  8
Layer1$C$L1
 62
     3
 10
-132.6799347703
 20
182.0352309707
  0
VERTEX
  8
Layer1$C$L1
 62
     3
 10
-132.7535030880
 20
181.9659484799
  0
VERTEX
  8
Layer1$C$L1
 62
     3
 10
-132.8269242621
 20
181.8969328602
  0
SEQEND
  8
Layer1$C$L1
 62
     3
  0
POLYLINE
  8
Layer1$C$L1
 62
     3
 66
     1
  0
VERTEX
  8
Layer1$C$L1
 62
     3
 10
-124.5172434213
 20
180.9004966458
  0
VERTEX
  8
Layer1$C$L1
 62
     3
 10
-124.5361822559
 20
180.8504786758
  0
VERTEX
  8
Layer1$C$L1
 62
     3
 10
-124.5550824335
 20
180.8005654494
  0
VERTEX
  8
Layer1$C$L1
 62
     3
 10
-124.5739430351
 20
180.7507593934
  0
VERTEX
  8
Layer1$C$L1
 62
     3
 10
-124.5927631438
 20
180.7010629296
  0
VERTEX
  8
Layer1$C$L1
 62
     3
 10
-124.6115418444
 20
180.6514784741
  0
VERTEX
  8
Layer1$C$L1
 62
     3
 10
-124.6302782240
 20
180.6020084379
  0
VERTEX
  8
Layer1$C$L1
 62
     3
 10
-124.6489713715
 20
180.5526552263
  0
VERTEX
  8
Layer1$C$L1
 62
     3
 10
-124.6676203780
 20
180.5034212388
  0
SEQEND
  8
Layer1$C$L1
 62
     3
  0
POLYLINE
  8
Layer1$C$L1
 62
     3
 66
     1
  0
VERTEX
  8
Layer1$C$L1
 62
     3
 10
-122.5666286048
 20
180.5034212388
  0
VERTEX
  8
Layer1$C$L1
 62
     3
 10
-122.5852776113
 20
180.5526552263
  0
VERTEX
  8
Layer1$C$L1
 62
     3
 10
-122.6039707588
 20
180.6020084379
  0
VERTEX
  8
Layer1$C$L1
 62
     3
 10
-122.6227071383
 20
180.6514784741
  0
VERTEX
  8
Layer1$C$L1
 62
     3
 10
-122.6414858389
 20
180.7010629296
  0
VERTEX
  8
Layer1$C$L1
 62
     3
 10
-122.6603059476
 20
180.7507593934
  0
VERTEX
  8
Layer1$C$L1
 62
     3
 10
-122.6791665493
 20
180.8005654494
  0
VERTEX
  8
Layer1$C$L1
 62
     3
 10
-122.6980667269
 20
180.8504786758
  0
VERTEX
  8
Layer1$C$L1
 62
     3
 10
-122.7170055615
 20
180.9004966458
  0
SEQEND
  8
Layer1$C$L1
 62
     3
  0
POLYLINE
  8
Layer1$C$L1
 62
     3
 66
     1
  0
VERTEX
  8
Layer1$C$L1
 62
     3
 10
-124.6676203780
 20
180.5034212388
  0
VERTEX
  8
Layer1$C$L1
 62
     3
 10
-124.7382596376
 20
180.4353725939
  0
VERTEX
  8
Layer1$C$L1
 62
     3
 10
-124.8087020651
 20
180.3677361251
  0
VERTEX
  8
Layer1$C$L1
 62
     3
 10
-124.8789358935
 20
180.3005231304
  0
VERTEX
  8
Layer1$C$L1
 62
     3
 10
-124.9489493911
 20
180.2337448373
  0
VERTEX
  8
Layer1$C$L1
 62
     3
 10
-125.0187308626
 20
180.1674124003
  0
VERTEX
  8
Layer1$C$L1
 62
     3
 10
-125.0882686516
 20
180.1015368998
  0
VERTEX
  8
Layer1$C$L1
 62
     3
 10
-125.1575511425
 20
180.0361293397
  0
VERTEX
  8
Layer1$C$L1
 62
     3
 10
-125.2265667622
 20
179.9712006458
  0
SEQEND
  8
Layer1$C$L1
 62
     3
  0
POLYLINE
  8
Layer1$C$L1
 62
     3
 66
     1
  0
VERTEX
  8
Layer1$C$L1
 62
     3
 10
-130.8073247206
 20
181.8969328602
  0
VERTEX
  8
Layer1$C$L1
 62
     3
 10
-130.8807458947
 20
181.9659484799
  0
VERTEX
  8
Layer1$C$L1
 62
     3
 10
-130.9543142124
 20
182.0352309707
  0
VERTEX
  8
Layer1$C$L1
 62
     3
 10
-131.0280173847
 20
182.1047687597
  0
VERTEX
  8
Layer1$C$L1
 62
     3
 10
-131.1018431003
 20
182.1745502312
  0
VERTEX
  8
Layer1$C$L1
 62
     3
 10
-131.1757790270
 20
182.2445637288
  0
VERTEX
  8
Layer1$C$L1
 62
     3
 10
-131.2498128146
 20
182.3147975572
  0
VERTEX
  8
Layer1$C$L1
 62
     3
 10
-131.3239320964
 20
182.3852399847
  0
VERTEX
  8
Layer1$C$L1
 62
     3
 10
-131.3981244914
 20
182.4558792443
  0
SEQEND
  8
Layer1$C$L1
 62
     3
  0
POLYLINE
  8
Layer1$C$L1
 62
     3
 66
     1
  0
VERTEX
  8
Layer1$C$L1
 62
     3
 10
-122.1494403717
 20
183.0841433679
  0
VERTEX
  8
Layer1$C$L1
 62
     3
 10
-121.6741778692
 20
183.3915891245
  0
VERTEX
  8
Layer1$C$L1
 62
     3
 10
-121.1304046089
 20
184.0314951304
  0
VERTEX
  8
Layer1$C$L1
 62
     3
 10
-120.7990575315
 20
184.7965778410
  0
VERTEX
  8
Layer1$C$L1
 62
     3
 10
-120.7070905713
 20
185.6194785983
  0
VERTEX
  8
Layer1$C$L1
 62
     3
 10
-120.8592451868
 20
186.4298563934
  0
VERTEX
  8
Layer1$C$L1
 62
     3
 10
-121.2171944594
 20
187.1292170150
  0
VERTEX
  8
Layer1$C$L1
 62
     3
 10
-121.2711561261
 20
187.2035011848
  0
SEQEND
  8
Layer1$C$L1
 62
     3
  0
POLYLINE
  8
Layer1$C$L1
 62
     3
 66
     1
  0
VERTEX
  8
Layer1$C$L1
 62
     3
 10
-120.6250707111
 20
183.0920564291
  0
VERTEX
  8
Layer1$C$L1
 62
     3
 10
-120.5875917841
 20
183.1022256153
  0
VERTEX
  8
Layer1$C$L1
 62
     3
 10
-120.5523222448
 20
183.1183884983
  0
VERTEX
  8
Layer1$C$L1
 62
     3
 10
-120.5205567661
 20
183.1399517716
  0
VERTEX
  8
Layer1$C$L1
 62
     3
 10
-120.4934613938
 20
183.1661238915
  0
VERTEX
  8
Layer1$C$L1
 62
     3
 10
-120.4720307438
 20
183.1959441328
  0
VERTEX
  8
Layer1$C$L1
 62
     3
 10
-120.4570514915
 20
183.2283178553
  0
VERTEX
  8
Layer1$C$L1
 62
     3
 10
-120.4490734948
 20
183.2620566857
  0
SEQEND
  8
Layer1$C$L1
 62
     3
  0
POLYLINE
  8
Layer1$C$L1
 62
     3
 66
     1
  0
VERTEX
  8
Layer1$C$L1
 62
     3
 10
-126.7851754879
 20
183.2620566857
  0
VERTEX
  8
Layer1$C$L1
 62
     3
 10
-126.7771974912
 20
183.2283178553
  0
VERTEX
  8
Layer1$C$L1
 62
     3
 10
-126.7622182389
 20
183.1959441328
  0
VERTEX
  8
Layer1$C$L1
 62
     3
 10
-126.7407875890
 20
183.1661238915
  0
VERTEX
  8
Layer1$C$L1
 62
     3
 10
-126.7136922167
 20
183.1399517716
  0
VERTEX
  8
Layer1$C$L1
 62
     3
 10
-126.6819267379
 20
183.1183884983
  0
VERTEX
  8
Layer1$C$L1
 62
     3
 10
-126.6466571986
 20
183.1022256153
  0
VERTEX
  8
Layer1$C$L1
 62
     3
 10
-126.6091782716
 20
183.0920564291
  0
SEQEND
  8
Layer1$C$L1
 62
     3
  0
POLYLINE
  8
Layer1$C$L1
 62
     3
 66
     1
  0
VERTEX
  8
Layer1$C$L1
 62
     3
 10
-120.6250707111
 20
178.8120199170
  0
VERTEX
  8
Layer1$C$L1
 62
     3
 10
-120.5875917841
 20
178.8221891031
  0
VERTEX
  8
Layer1$C$L1
 62
     3
 10
-120.5523222448
 20
178.8383519861
  0
VERTEX
  8
Layer1$C$L1
 62
     3
 10
-120.5205567661
 20
178.8599152594
  0
VERTEX
  8
Layer1$C$L1
 62
     3
 10
-120.4934613938
 20
178.8860873793
  0
VERTEX
  8
Layer1$C$L1
 62
     3
 10
-120.4720307438
 20
178.9159076206
  0
VERTEX
  8
Layer1$C$L1
 62
     3
 10
-120.4570514915
 20
178.9482813431
  0
VERTEX
  8
Layer1$C$L1
 62
     3
 10
-120.4490734948
 20
178.9820201735
  0
SEQEND
  8
Layer1$C$L1
 62
     3
  0
POLYLINE
  8
Layer1$C$L1
 62
     3
 66
     1
  0
VERTEX
  8
Layer1$C$L1
 62
     3
 10
-126.7851754879
 20
178.9820201735
  0
VERTEX
  8
Layer1$C$L1
 62
     3
 10
-126.7771974912
 20
178.9482813431
  0
VERTEX
  8
Layer1$C$L1
 62
     3
 10
-126.7622182389
 20
178.9159076206
  0
VERTEX
  8
Layer1$C$L1
 62
     3
 10
-126.7407875890
 20
178.8860873793
  0
VERTEX
  8
Layer1$C$L1
 62
     3
 10
-126.7136922167
 20
178.8599152594
  0
VERTEX
  8
Layer1$C$L1
 62
     3
 10
-126.6819267379
 20
178.8383519861
  0
VERTEX
  8
Layer1$C$L1
 62
     3
 10
-126.6466571986
 20
178.8221891031
  0
VERTEX
  8
Layer1$C$L1
 62
     3
 10
-126.6091782716
 20
178.8120199170
  0
SEQEND
  8
Layer1$C$L1
 62
     3
  0
POLYLINE
  8
Layer1$C$L1
 62
     3
 66
     1
  0
VERTEX
  8
Layer1$C$L1
 62
     3
 10
-125.2206630122
 20
188.5063751309
  0
VERTEX
  8
Layer1$C$L1
 62
     3
 10
-125.3426751618
 20
188.4313333941
  0
VERTEX
  8
Layer1$C$L1
 62
     3
 10
-125.8091555131
 20
188.0610668302
  0
VERTEX
  8
Layer1$C$L1
 62
     3
 10
-126.1924836670
 20
187.6104814115
  0
VERTEX
  8
Layer1$C$L1
 62
     3
 10
-126.4781185074
 20
187.0966695821
  0
VERTEX
  8
Layer1$C$L1
 62
     3
 10
-126.6552248021
 20
186.5391222077
  0
VERTEX
  8
Layer1$C$L1
 62
     3
 10
-126.7170842259
 20
185.9589892123
  0
SEQEND
  8
Layer1$C$L1
 62
     3
  0
POLYLINE
  8
Layer1$C$L1
 62
     3
 66
     1
  0
VERTEX
  8
Layer1$C$L1
 62
     3
 10
-126.7084898798
 20
185.5393332120
  0
VERTEX
  8
Layer1$C$L1
 62
     3
 10
-126.6866387527
 20
186.1815760477
  0
VERTEX
  8
Layer1$C$L1
 62
     3
 10
-126.5234277849
 20
186.8045270271
  0
VERTEX
  8
Layer1$C$L1
 62
     3
 10
-126.2263733045
 20
187.3794974903
  0
VERTEX
  8
Layer1$C$L1
 62
     3
 10
-125.8091555131
 20
187.8800084159
  0
VERTEX
  8
Layer1$C$L1
 62
     3
 10
-125.2909884737
 20
188.2830098558
  0
VERTEX
  8
Layer1$C$L1
 62
     3
 10
-124.8587348668
 20
188.5063751309
  0
SEQEND
  8
Layer1$C$L1
 62
     3
  0
POLYLINE
  8
Layer1$C$L1
 62
     3
 66
     1
  0
VERTEX
  8
Layer1$C$L1
 62
     3
 10
-133.0252553495
 20
182.8098400081
  0
VERTEX
  8
Layer1$C$L1
 62
     3
 10
-133.0573057127
 20
182.8081430295
  0
VERTEX
  8
Layer1$C$L1
 62
     3
 10
-133.0984223428
 20
182.7918837043
  0
VERTEX
  8
Layer1$C$L1
 62
     3
 10
-133.1606331211
 20
182.7483039241
  0
VERTEX
  8
Layer1$C$L1
 62
     3
 10
-133.2264003266
 20
182.6909929648
  0
VERTEX
  8
Layer1$C$L1
 62
     3
 10
-133.3117635523
 20
182.6100215800
  0
VERTEX
  8
Layer1$C$L1
 62
     3
 10
-133.4265667622
 20
182.4965753602
  0
SEQEND
  8
Layer1$C$L1
 62
     3
  0
POLYLINE
  8
Layer1$C$L1
 62
     3
 66
     1
  0
VERTEX
  8
Layer1$C$L1
 62
     3
 10
-126.4527035182
 20
184.8165095218
  0
VERTEX
  8
Layer1$C$L1
 62
     3
 10
-126.4702940403
 20
184.8672065531
  0
VERTEX
  8
Layer1$C$L1
 62
     3
 10
-126.6171244914
 20
185.7626690400
  0
VERTEX
  8
Layer1$C$L1
 62
     3
 10
-126.4702940403
 20
186.6581315269
  0
VERTEX
  8
Layer1$C$L1
 62
     3
 10
-126.0441754745
 20
187.4659399065
  0
VERTEX
  8
Layer1$C$L1
 62
     3
 10
-125.3804802483
 20
188.1070202663
  0
VERTEX
  8
Layer1$C$L1
 62
     3
 10
-124.5823168682
 20
188.5063751309
  0
SEQEND
  8
Layer1$C$L1
 62
     3
  0
POLYLINE
  8
Layer1$C$L1
 62
     3
 66
     1
  0
VERTEX
  8
Layer1$C$L1
 62
     3
 10
-130.6089936332
 20
184.2029102538
  0
VERTEX
  8
Layer1$C$L1
 62
     3
 10
-130.5769432700
 20
184.2046072324
  0
VERTEX
  8
Layer1$C$L1
 62
     3
 10
-130.5358266399
 20
184.2208665575
  0
VERTEX
  8
Layer1$C$L1
 62
     3
 10
-130.4736158617
 20
184.2644463378
  0
VERTEX
  8
Layer1$C$L1
 62
     3
 10
-130.4078486562
 20
184.3217572971
  0
VERTEX
  8
Layer1$C$L1
 62
     3
 10
-130.3224854305
 20
184.4027286819
  0
VERTEX
  8
Layer1$C$L1
 62
     3
 10
-130.2076822206
 20
184.5161749017
  0
SEQEND
  8
Layer1$C$L1
 62
     3
  0
POLYLINE
  8
Layer1$C$L1
 62
     3
 66
     1
  0
VERTEX
  8
Layer1$C$L1
 62
     3
 10
-122.6620429181
 20
188.5096743246
  0
VERTEX
  8
Layer1$C$L1
 62
     3
 10
-121.8537687345
 20
188.1070202663
  0
VERTEX
  8
Layer1$C$L1
 62
     3
 10
-121.1900735082
 20
187.4659399065
  0
VERTEX
  8
Layer1$C$L1
 62
     3
 10
-120.7639549425
 20
186.6581315269
  0
VERTEX
  8
Layer1$C$L1
 62
     3
 10
-120.6171244914
 20
185.7626690400
  0
VERTEX
  8
Layer1$C$L1
 62
     3
 10
-120.7639549425
 20
184.8672065531
  0
VERTEX
  8
Layer1$C$L1
 62
     3
 10
-120.7815454645
 20
184.8165095218
  0
SEQEND
  8
Layer1$C$L1
 62
     3
  0
POLYLINE
  8
Layer1$C$L1
 62
     3
 66
     1
  0
VERTEX
  8
Layer1$C$L1
 62
     3
 10
-122.1494403717
 20
178.8041068557
  0
VERTEX
  8
Layer1$C$L1
 62
     3
 10
-121.6741778692
 20
179.1115526123
  0
VERTEX
  8
Layer1$C$L1
 62
     3
 10
-121.1304046089
 20
179.7514586183
  0
VERTEX
  8
Layer1$C$L1
 62
     3
 10
-120.7990575315
 20
180.5165413289
  0
VERTEX
  8
Layer1$C$L1
 62
     3
 10
-120.7070905713
 20
181.3394420861
  0
VERTEX
  8
Layer1$C$L1
 62
     3
 10
-120.8592451868
 20
182.1498198812
  0
VERTEX
  8
Layer1$C$L1
 62
     3
 10
-121.0510296866
 20
182.5245280794
  0
SEQEND
  8
Layer1$C$L1
 62
     3
  0
POLYLINE
  8
Layer1$C$L1
 62
     3
 66
     1
  0
VERTEX
  8
Layer1$C$L1
 62
     3
 10
-125.3139870482
 20
178.9182781792
  0
VERTEX
  8
Layer1$C$L1
 62
     3
 10
-124.8415226311
 20
178.6486030481
  0
VERTEX
  8
Layer1$C$L1
 62
     3
 10
-124.0372774980
 20
178.4142874912
  0
VERTEX
  8
Layer1$C$L1
 62
     3
 10
-123.1941336841
 20
178.4146937808
  0
VERTEX
  8
Layer1$C$L1
 62
     3
 10
-122.3829079836
 20
178.6530774220
  0
VERTEX
  8
Layer1$C$L1
 62
     3
 10
-122.1494403717
 20
178.8041068557
  0
SEQEND
  8
Layer1$C$L1
 62
     3
  0
POLYLINE
  8
Layer1$C$L1
 62
     3
 66
     1
  0
VERTEX
  8
Layer1$C$L1
 62
     3
 10
-125.3139870482
 20
183.1983146914
  0
VERTEX
  8
Layer1$C$L1
 62
     3
 10
-124.8415226311
 20
182.9286395603
  0
VERTEX
  8
Layer1$C$L1
 62
     3
 10
-124.0372774980
 20
182.6943240034
  0
VERTEX
  8
Layer1$C$L1
 62
     3
 10
-123.1941336841
 20
182.6947302929
  0
VERTEX
  8
Layer1$C$L1
 62
     3
 10
-122.3829079836
 20
182.9331139342
  0
VERTEX
  8
Layer1$C$L1
 62
     3
 10
-122.1494403717
 20
183.0841433679
  0
SEQEND
  8
Layer1$C$L1
 62
     3
  0
POLYLINE
  8
Layer1$C$L1
 62
     3
 66
     1
  0
VERTEX
  8
Layer1$C$L1
 62
     3
 10
-125.2495591308
 20
183.1655931894
  0
VERTEX
  8
Layer1$C$L1
 62
     3
 10
-125.2257031593
 20
183.1650513969
  0
VERTEX
  8
Layer1$C$L1
 62
     3
 10
-125.1169227004
 20
183.2494113371
  0
VERTEX
  8
Layer1$C$L1
 62
     3
 10
-124.9344939911
 20
183.4020309399
  0
VERTEX
  8
Layer1$C$L1
 62
     3
 10
-124.7711861950
 20
183.5443709360
  0
SEQEND
  8
Layer1$C$L1
 62
     3
  0
POLYLINE
  8
Layer1$C$L1
 62
     3
 66
     1
  0
VERTEX
  8
Layer1$C$L1
 62
     3
 10
-130.0616215611
 20
184.6604368346
  0
VERTEX
  8
Layer1$C$L1
 62
     3
 10
-129.8192330917
 20
184.8861810978
  0
VERTEX
  8
Layer1$C$L1
 62
     3
 10
-129.6122224210
 20
185.0499948293
  0
VERTEX
  8
Layer1$C$L1
 62
     3
 10
-129.4676303068
 20
185.1307431215
  0
VERTEX
  8
Layer1$C$L1
 62
     3
 10
-129.4107713094
 20
185.1388097704
  0
SEQEND
  8
Layer1$C$L1
 62
     3
  0
POLYLINE
  8
Layer1$C$L1
 62
     3
 66
     1
  0
VERTEX
  8
Layer1$C$L1
 62
     3
 10
-125.3726274216
 20
179.8452820375
  0
VERTEX
  8
Layer1$C$L1
 62
     3
 10
-125.6150158910
 20
179.6660750046
  0
VERTEX
  8
Layer1$C$L1
 62
     3
 10
-125.8220265617
 20
179.5727255467
  0
VERTEX
  8
Layer1$C$L1
 62
     3
 10
-125.9666186759
 20
179.5762966552
  0
VERTEX
  8
Layer1$C$L1
 62
     3
 10
-126.0234776733
 20
179.6331045849
  0
SEQEND
  8
Layer1$C$L1
 62
     3
  0
POLYLINE
  8
Layer1$C$L1
 62
     3
 66
     1
  0
VERTEX
  8
Layer1$C$L1
 62
     3
 10
-125.3726274216
 20
184.1253185497
  0
VERTEX
  8
Layer1$C$L1
 62
     3
 10
-125.6150158910
 20
183.9461115167
  0
VERTEX
  8
Layer1$C$L1
 62
     3
 10
-125.8220265617
 20
183.8527620589
  0
VERTEX
  8
Layer1$C$L1
 62
     3
 10
-125.9666186759
 20
183.8563331674
  0
VERTEX
  8
Layer1$C$L1
 62
     3
 10
-126.0234776733
 20
183.9131410971
  0
SEQEND
  8
Layer1$C$L1
 62
     3
  0
POLYLINE
  8
Layer1$C$L1
 62
     3
 66
     1
  0
VERTEX
  8
Layer1$C$L1
 62
     3
 10
-130.1846898519
 20
185.9127283129
  0
VERTEX
  8
Layer1$C$L1
 62
     3
 10
-130.2085458234
 20
185.8193647143
  0
VERTEX
  8
Layer1$C$L1
 62
     3
 10
-130.3173262824
 20
185.6507132519
  0
VERTEX
  8
Layer1$C$L1
 62
     3
 10
-130.4997549916
 20
185.4343505624
  0
VERTEX
  8
Layer1$C$L1
 62
     3
 10
-130.6630627877
 20
185.2618780612
  0
SEQEND
  8
Layer1$C$L1
 62
     3
  0
POLYLINE
  8
Layer1$C$L1
 62
     3
 66
     1
  0
VERTEX
  8
Layer1$C$L1
 62
     3
 10
-133.5726274216
 20
182.3523134273
  0
VERTEX
  8
Layer1$C$L1
 62
     3
 10
-133.8150158910
 20
182.1265691640
  0
VERTEX
  8
Layer1$C$L1
 62
     3
 10
-134.0220265617
 20
181.9627554326
  0
VERTEX
  8
Layer1$C$L1
 62
     3
 10
-134.1666186759
 20
181.8820071403
  0
VERTEX
  8
Layer1$C$L1
 62
     3
 10
-134.2234776733
 20
181.8739404915
  0
SEQEND
  8
Layer1$C$L1
 62
     3
  0
POLYLINE
  8
Layer1$C$L1
 62
     3
 66
     1
  0
VERTEX
  8
Layer1$C$L1
 62
     3
 10
-126.4527035182
 20
180.5364730096
  0
VERTEX
  8
Layer1$C$L1
 62
     3
 10
-126.4702940403
 20
180.5871700409
  0
VERTEX
  8
Layer1$C$L1
 62
     3
 10
-126.6171244914
 20
181.4826325278
  0
VERTEX
  8
Layer1$C$L1
 62
     3
 10
-126.4702940403
 20
182.3780950147
  0
VERTEX
  8
Layer1$C$L1
 62
     3
 10
-126.4165020899
 20
182.5245280794
  0
SEQEND
  8
Layer1$C$L1
 62
     3
  0
POLYLINE
  8
Layer1$C$L1
 62
     3
 66
     1
  0
VERTEX
  8
Layer1$C$L1
 62
     3
 10
-120.8177468929
 20
182.5245280794
  0
VERTEX
  8
Layer1$C$L1
 62
     3
 10
-120.7639549425
 20
182.3780950147
  0
VERTEX
  8
Layer1$C$L1
 62
     3
 10
-120.6171244914
 20
181.4826325278
  0
VERTEX
  8
Layer1$C$L1
 62
     3
 10
-120.7639549425
 20
180.5871700409
  0
VERTEX
  8
Layer1$C$L1
 62
     3
 10
-120.7815454645
 20
180.5364730096
  0
SEQEND
  8
Layer1$C$L1
 62
     3
  0
POLYLINE
  8
Layer1$C$L1
 62
     3
 66
     1
  0
VERTEX
  8
Layer1$C$L1
 62
     3
 10
-120.5257591030
 20
181.7059683559
  0
VERTEX
  8
Layer1$C$L1
 62
     3
 10
-120.5476102300
 20
181.0637255202
  0
VERTEX
  8
Layer1$C$L1
 62
     3
 10
-120.7108211979
 20
180.4407745407
  0
VERTEX
  8
Layer1$C$L1
 62
     3
 10
-121.0078756783
 20
179.8658040776
  0
VERTEX
  8
Layer1$C$L1
 62
     3
 10
-121.0460941256
 20
179.8096548920
  0
SEQEND
  8
Layer1$C$L1
 62
     3
  0
POLYLINE
  8
Layer1$C$L1
 62
     3
 66
     1
  0
VERTEX
  8
Layer1$C$L1
 62
     3
 10
-120.5257591030
 20
185.9860048680
  0
VERTEX
  8
Layer1$C$L1
 62
     3
 10
-120.5476102300
 20
185.3437620323
  0
VERTEX
  8
Layer1$C$L1
 62
     3
 10
-120.7108211979
 20
184.7208110529
  0
VERTEX
  8
Layer1$C$L1
 62
     3
 10
-121.0078756783
 20
184.1458405898
  0
VERTEX
  8
Layer1$C$L1
 62
     3
 10
-121.0460941256
 20
184.0896914042
  0
SEQEND
  8
Layer1$C$L1
 62
     3
  0
POLYLINE
  8
Layer1$C$L1
 62
     3
 66
     1
  0
VERTEX
  8
Layer1$C$L1
 62
     3
 10
-121.8616215611
 20
186.3547945591
  0
VERTEX
  8
Layer1$C$L1
 62
     3
 10
-121.6192330917
 20
186.6116919541
  0
VERTEX
  8
Layer1$C$L1
 62
     3
 10
-121.4122224210
 20
186.8348063241
  0
VERTEX
  8
Layer1$C$L1
 62
     3
 10
-121.2676303068
 20
186.9943711544
  0
VERTEX
  8
Layer1$C$L1
 62
     3
 10
-121.2107713094
 20
187.0667626530
  0
SEQEND
  8
Layer1$C$L1
 62
     3
  0
POLYLINE
  8
Layer1$C$L1
 62
     3
 66
     1
  0
VERTEX
  8
Layer1$C$L1
 62
     3
 10
-121.9846898519
 20
187.8143105607
  0
VERTEX
  8
Layer1$C$L1
 62
     3
 10
-122.0085458234
 20
187.6334041459
  0
VERTEX
  8
Layer1$C$L1
 62
     3
 10
-122.1173262824
 20
187.3919544797
  0
VERTEX
  8
Layer1$C$L1
 62
     3
 10
-122.2997549916
 20
187.1265934632
  0
VERTEX
  8
Layer1$C$L1
 62
     3
 10
-122.4630627877
 20
186.9357421728
  0
SEQEND
  8
Layer1$C$L1
 62
     3
  0
POLYLINE
  8
Layer1$C$L1
 62
     3
 66
     1
  0
VERTEX
  8
Layer1$C$L1
 62
     3
 10
-125.2495591308
 20
178.8855566773
  0
VERTEX
  8
Layer1$C$L1
 62
     3
 10
-125.2257031593
 20
178.8850148847
  0
VERTEX
  8
Layer1$C$L1
 62
     3
 10
-125.1169227004
 20
178.9693748249
  0
VERTEX
  8
Layer1$C$L1
 62
     3
 10
-124.9344939911
 20
179.1219944277
  0
VERTEX
  8
Layer1$C$L1
 62
     3
 10
-124.7711861950
 20
179.2643344238
  0
SEQEND
  8
Layer1$C$L1
 62
     3
  0
POLYLINE
  8
Layer1$C$L1
 62
     3
 66
     1
  0
VERTEX
  8
Layer1$C$L1
 62
     3
 10
-133.4495591308
 20
181.1000219490
  0
VERTEX
  8
Layer1$C$L1
 62
     3
 10
-133.4257031593
 20
181.1933855476
  0
VERTEX
  8
Layer1$C$L1
 62
     3
 10
-133.3169227004
 20
181.3620370100
  0
VERTEX
  8
Layer1$C$L1
 62
     3
 10
-133.1344939911
 20
181.5783996995
  0
VERTEX
  8
Layer1$C$L1
 62
     3
 10
-132.9711861950
 20
181.7508722007
  0
SEQEND
  8
Layer1$C$L1
 62
     3
  0
POLYLINE
  8
Layer1$C$L1
 62
     3
 66
     1
  0
VERTEX
  8
Layer1$C$L1
 62
     3
 10
-120.8686796400
 20
180.2928302696
  0
VERTEX
  8
Layer1$C$L1
 62
     3
 10
-121.2707930858
 20
179.5508530680
  0
VERTEX
  8
Layer1$C$L1
 62
     3
 10
-121.8995368157
 20
178.9435332612
  0
VERTEX
  8
Layer1$C$L1
 62
     3
 10
-122.1302597251
 20
178.7961419699
  0
SEQEND
  8
Layer1$C$L1
 62
     3
  0
POLYLINE
  8
Layer1$C$L1
 62
     3
 66
     1
  0
VERTEX
  8
Layer1$C$L1
 62
     3
 10
-120.8686796400
 20
184.5728667817
  0
VERTEX
  8
Layer1$C$L1
 62
     3
 10
-121.2707930858
 20
183.8308895802
  0
VERTEX
  8
Layer1$C$L1
 62
     3
 10
-121.8995368157
 20
183.2235697734
  0
VERTEX
  8
Layer1$C$L1
 62
     3
 10
-122.1302597251
 20
183.0761784821
  0
SEQEND
  8
Layer1$C$L1
 62
     3
  0
POLYLINE
  8
Layer1$C$L1
 62
     3
 66
     1
  0
VERTEX
  8
Layer1$C$L1
 62
     3
 10
-126.7084898798
 20
181.2592966998
  0
VERTEX
  8
Layer1$C$L1
 62
     3
 10
-126.6866387527
 20
181.9015395355
  0
VERTEX
  8
Layer1$C$L1
 62
     3
 10
-126.5234277849
 20
182.5244905149
  0
VERTEX
  8
Layer1$C$L1
 62
     3
 10
-126.5234133516
 20
182.5245280794
  0
SEQEND
  8
Layer1$C$L1
 62
     3
  0
LINE
  8
Layer1$C$L1
 62
     3
 10
-132.2361244914
 20
184.3884010606
 11
-132.3582618327
 21
184.5154318081
  0
LINE
  8
Layer1$C$L1
 62
     3
 10
-132.8261811686
 20
182.9652377896
 11
-132.6991504211
 21
183.0873751309
  0
POLYLINE
  8
Layer1$C$L1
 62
     3
 66
     1
  0
VERTEX
  8
Layer1$C$L1
 62
     3
 10
-154.1671244914
 20
188.4063751309
  0
VERTEX
  8
Layer1$C$L1
 62
     3
 10
-154.1281064270
 20
188.4073795328
  0
VERTEX
  8
Layer1$C$L1
 62
     3
 10
-154.0905878049
 20
188.4103541397
  0
VERTEX
  8
Layer1$C$L1
 62
     3
 10
-154.0560104448
 20
188.4151846393
  0
VERTEX
  8
Layer1$C$L1
 62
     3
 10
-154.0257031351
 20
188.4216853981
  0
VERTEX
  8
Layer1$C$L1
 62
     3
 10
-154.0008305689
 20
188.4296065955
  0
VERTEX
  8
Layer1$C$L1
 62
     3
 10
-153.9823485849
 20
188.4386438246
  0
VERTEX
  8
Layer1$C$L1
 62
     3
 10
-153.9709674353
 20
188.4484497895
  0
VERTEX
  8
Layer1$C$L1
 62
     3
 10
-153.9671244914
 20
188.4586476525
  0
SEQEND
  8
Layer1$C$L1
 62
     3
  0
LINE
  8
Layer1$C$L1
 62
     3
 10
-153.9671244914
 20
187.4563751309
 11
-144.4671244914
 21
187.4563751309
  0
LINE
  8
Layer1$C$L1
 62
     3
 10
-151.7171244914
 20
187.3563751309
 11
-151.7171244914
 21
187.4563751309
  0
LINE
  8
Layer1$C$L1
 62
     3
 10
-153.4671244914
 20
187.3563751309
 11
-153.4671244914
 21
187.4563751309
  0
LINE
  8
Layer1$C$L1
 62
     3
 10
-150.8671244914
 20
187.3563751309
 11
-150.8671244914
 21
187.4563751309
  0
LINE
  8
Layer1$C$L1
 62
     3
 10
-150.2171244914
 20
187.3563751309
 11
-150.2171244914
 21
187.4563751309
  0
LINE
  8
Layer1$C$L1
 62
     3
 10
-150.3671244914
 20
187.3563751309
 11
-150.3671244914
 21
187.4563751309
  0
LINE
  8
Layer1$C$L1
 62
     3
 10
-147.6337336861
 20
187.3563751309
 11
-147.9097068949
 21
187.4563751309
  0
LINE
  8
Layer1$C$L1
 62
     3
 10
-153.9671244914
 20
167.6563751309
 11
-153.9671244914
 21
188.5063751309
  0
LINE
  8
Layer1$C$L1
 62
     3
 10
-153.9671244914
 20
226.4563751309
 11
-153.9671244914
 21
240.1563751309
  0
LINE
  8
Layer1$C$L1
 62
     3
 10
-148.3671244914
 20
226.4563751309
 11
-148.3671244914
 21
235.7563751309
  0
LINE
  8
Layer1$C$L1
 62
     3
 10
-148.3671244914
 20
227.9563751309
 11
-150.2171244914
 21
227.9563751309
  0
LINE
  8
Layer1$C$L1
 62
     3
 10
-150.2171244914
 20
227.9563751309
 11
-150.2171244914
 21
229.4563751309
  0
LINE
  8
Layer1$C$L1
 62
     3
 10
-150.2171244914
 20
229.4563751309
 11
-150.7171244914
 21
229.4563751309
  0
LINE
  8
Layer1$C$L1
 62
     3
 10
-153.9671244914
 20
232.8755587194
 11
-152.8899716588
 21
232.8755587194
  0
LINE
  8
Layer1$C$L1
 62
     3
 10
-150.2171244914
 20
234.2563751309
 11
-150.2171244914
 21
235.7563751309
  0
LINE
  8
Layer1$C$L1
 62
     3
 10
-150.7171244914
 20
234.2563751309
 11
-150.2171244914
 21
234.2563751309
  0
LINE
  8
Layer1$C$L1
 62
     3
 10
-148.3671244914
 20
235.7563751309
 11
-148.3671244914
 21
240.1563751309
  0
LINE
  8
Layer1$C$L1
 62
     3
 10
-150.2171244914
 20
235.7563751309
 11
-148.3671244914
 21
235.7563751309
  0
ARC
  8
Layer1$C$L1
 62
     3
 10
-150.7171244914
 20
231.8563751309
 40
2.4000000000
 50
90.0000000000
 51
270.0000000000
  0
LINE
  8
Layer1$C$L1
  6
CENTER
 62
     3
 10
-147.6171244914
 20
178.9563598722
 11
-147.6171244914
 21
172.9563598722
  0
LINE
  8
Layer1$C$L1
  6
CENTER
 62
     3
 10
-142.8171244914
 20
234.8563598722
 11
-142.8171244914
 21
228.8563598722
  0
CIRCLE
  8
Layer1$C$L1
 62
     3
 10
-142.8171244914
 20
231.8563751309
 40
3.2000000000
  0
CIRCLE
  8
Layer1$C$L1
 62
     3
 10
-147.6171244914
 20
175.9563751309
 40
3.2000000000
  0
ARC
  8
Layer1$C$L1
 62
     3
 10
-139.7171244914
 20
175.9563751309
 40
2.4000000000
 50
270.0000000000
 51
450.0000000000
  0
LINE
  8
Layer1$C$L1
 62
     3
 10
-142.8171244914
 20
235.0563751309
 11
-142.8171244914
 21
240.1563751309
  0
LINE
  8
Layer1$C$L1
 62
     3
 10
-144.4671244914
 20
226.5563751309
 11
-142.8171244914
 21
226.5563751309
  0
LINE
  8
Layer1$C$L1
 62
     3
 10
-142.8171244914
 20
226.4563751309
 11
-142.8171244914
 21
228.6563751309
  0
LINE
  8
Layer1$C$L1
 62
     3
 10
-144.4671244914
 20
216.2563751309
 11
-144.4671244914
 21
226.5563751309
  0
LINE
  8
Layer1$C$L1
 62
     3
 10
-144.4671244914
 20
188.5063751309
 11
-136.4671244914
 21
188.5063751309
  0
LINE
  8
Layer1$C$L1
 62
     3
 10
-136.6671244914
 20
188.4063751309
 11
-144.0171244914
 21
188.4063751309
  0
LINE
  8
Layer1$C$L1
 62
     3
 10
-144.4671244914
 20
187.4563751309
 11
-144.4671244914
 21
196.9563751309
  0
LINE
  8
Layer1$C$L1
 62
     3
 10
-144.0171244914
 20
187.3563751309
 11
-144.0171244914
 21
188.5063751309
  0
LINE
  8
Layer1$C$L1
 62
     3
 10
-153.9671244914
 20
187.3563751309
 11
-144.0171244914
 21
187.3563751309
  0
LINE
  8
Layer1$C$L1
 62
     3
 10
-136.4671244914
 20
181.3563751309
 11
-142.0671244914
 21
181.3563751309
  0
LINE
  8
Layer1$C$L1
 62
     3
 10
-142.0671244914
 20
179.8563751309
 11
-142.0671244914
 21
181.3563751309
  0
LINE
  8
Layer1$C$L1
 62
     3
 10
-140.2171244914
 20
179.8563751309
 11
-142.0671244914
 21
179.8563751309
  0
LINE
  8
Layer1$C$L1
 62
     3
 10
-147.6171244914
 20
179.1563751309
 11
-147.6171244914
 21
182.3563751309
  0
LINE
  8
Layer1$C$L1
 62
     3
 10
-140.2171244914
 20
178.3563751309
 11
-139.7171244914
 21
178.3563751309
  0
LINE
  8
Layer1$C$L1
 62
     3
 10
-140.2171244914
 20
178.3563751309
 11
-140.2171244914
 21
179.8563751309
  0
LINE
  8
Layer1$C$L1
 62
     3
 10
-139.7171244914
 20
173.5563751309
 11
-140.2171244914
 21
173.5563751309
  0
LINE
  8
Layer1$C$L1
 62
     3
 10
-140.2171244914
 20
172.0563751309
 11
-142.0671244914
 21
172.0563751309
  0
LINE
  8
Layer1$C$L1
 62
     3
 10
-140.2171244914
 20
172.0563751309
 11
-140.2171244914
 21
173.5563751309
  0
LINE
  8
Layer1$C$L1
 62
     3
 10
-142.0671244914
 20
167.6563751309
 11
-142.0671244914
 21
179.8563751309
  0
LINE
  8
Layer1$C$L1
 62
     3
 10
-147.6171244914
 20
167.6563751309
 11
-147.6171244914
 21
172.7563751309
  0
LINE
  8
Layer1$C$L1
 62
     3
 10
-145.9603729681
 20
232.4563659757
 11
-144.1671305949
 21
232.4563659757
  0
LINE
  8
Layer1$C$L1
 62
     3
 10
-145.9603700554
 20
231.2563690274
 11
-144.1671305949
 21
231.2563690274
  0
LINE
  8
Layer1$C$L1
 62
     3
 10
-142.2171183879
 20
229.4063781827
 11
-142.2171183879
 21
230.5063690274
  0
LINE
  8
Layer1$C$L1
 62
     3
 10
-143.4171305949
 20
229.4063781827
 11
-143.4171305949
 21
230.5063690274
  0
LINE
  8
Layer1$C$L1
 62
     3
 10
-143.4171305949
 20
234.3063720792
 11
-142.2171183879
 21
234.3063720792
  0
LINE
  8
Layer1$C$L1
 62
     3
 10
-143.4171305949
 20
229.4063781827
 11
-142.2171183879
 21
229.4063781827
  0
LINE
  8
Layer1$C$L1
 62
     3
 10
-140.3671275431
 20
231.2563690274
 11
-140.3671275431
 21
232.4563659757
  0
LINE
  8
Layer1$C$L1
 62
     3
 10
-143.4171305949
 20
233.2063659757
 11
-143.4171305949
 21
234.3063720792
  0
LINE
  8
Layer1$C$L1
 62
     3
 10
-141.4671183879
 20
231.2563690274
 11
-139.6738789274
 21
231.2563690274
  0
LINE
  8
Layer1$C$L1
 62
     3
 10
-141.4671183879
 20
232.4563659757
 11
-139.6738760147
 21
232.4563659757
  0
LINE
  8
Layer1$C$L1
 62
     3
 10
-142.2171183879
 20
233.2063659757
 11
-142.2171183879
 21
234.3063720792
  0
ARC
  8
Layer1$C$L1
 62
     3
 10
-144.1671305949
 20
230.5063690274
 40
0.7500000000
 50
0.0000000000
 51
89.9999820139
  0
ARC
  8
Layer1$C$L1
 62
     3
 10
-141.4671183879
 20
230.5063690274
 40
0.7500000000
 50
89.9999820139
 51
179.9999640278
  0
ARC
  8
Layer1$C$L1
 62
     3
 10
-141.4671183879
 20
233.2063659757
 40
0.7500000000
 50
179.9999640278
 51
269.9999460417
  0
ARC
  8
Layer1$C$L1
 62
     3
 10
-144.1671305949
 20
233.2063659757
 40
0.7500000000
 50
270.0000179861
 51
360.0000000000
  0
LINE
  8
Layer1$C$L1
 62
     3
 10
-150.7603729681
 20
176.5563659757
 11
-148.9671305949
 21
176.5563659757
  0
LINE
  8
Layer1$C$L1
 62
     3
 10
-150.7603700554
 20
175.3563690274
 11
-148.9671305949
 21
175.3563690274
  0
LINE
  8
Layer1$C$L1
 62
     3
 10
-147.0171183879
 20
173.5063781827
 11
-147.0171183879
 21
174.6063690274
  0
LINE
  8
Layer1$C$L1
 62
     3
 10
-148.2171305949
 20
173.5063781827
 11
-148.2171305949
 21
174.6063690274
  0
LINE
  8
Layer1$C$L1
 62
     3
 10
-148.2171305949
 20
178.4063720792
 11
-147.0171183879
 21
178.4063720792
  0
LINE
  8
Layer1$C$L1
 62
     3
 10
-148.2171305949
 20
173.5063781827
 11
-147.0171183879
 21
173.5063781827
  0
LINE
  8
Layer1$C$L1
 62
     3
 10
-150.0671214396
 20
175.3563690274
 11
-150.0671214396
 21
176.5563659757
  0
LINE
  8
Layer1$C$L1
 62
     3
 10
-145.1671275431
 20
175.3563690274
 11
-145.1671275431
 21
176.5563659757
  0
LINE
  8
Layer1$C$L1
 62
     3
 10
-148.2171305949
 20
177.3063659757
 11
-148.2171305949
 21
178.4063720792
  0
LINE
  8
Layer1$C$L1
 62
     3
 10
-146.2671183879
 20
175.3563690274
 11
-144.4738789274
 21
175.3563690274
  0
LINE
  8
Layer1$C$L1
 62
     3
 10
-146.2671183879
 20
176.5563659757
 11
-144.4738760147
 21
176.5563659757
  0
LINE
  8
Layer1$C$L1
 62
     3
 10
-147.0171183879
 20
177.3063659757
 11
-147.0171183879
 21
178.4063720792
  0
ARC
  8
Layer1$C$L1
 62
     3
 10
-148.9671305949
 20
174.6063690274
 40
0.7500000000
 50
0.0000000000
 51
89.9999820139
  0
ARC
  8
Layer1$C$L1
 62
     3
 10
-146.2671183879
 20
174.6063690274
 40
0.7500000000
 50
89.9999820139
 51
179.9999640278
  0
ARC
  8
Layer1$C$L1
 62
     3
 10
-146.2671183879
 20
177.3063659757
 40
0.7500000000
 50
179.9999640278
 51
269.9999460417
  0
ARC
  8
Layer1$C$L1
 62
     3
 10
-148.9671305949
 20
177.3063659757
 40
0.7500000000
 50
270.0000179861
 51
360.0000000000
  0
LINE
  8
Layer1$C$L1
  6
CENTER
 62
     3
 10
-121.6671244914
 20
171.1563598722
 11
-121.6671244914
 21
165.1563598722
  0
LINE
  8
Layer1$C$L1
  6
CENTER
 62
     3
 10
-119.1671244914
 20
168.1563751309
 11
-125.1671244914
 21
168.1563751309
  0
LINE
  8
Layer1$C$L1
  6
CENTER
 62
     3
 10
-125.3171244914
 20
234.8563598722
 11
-125.3171244914
 21
228.8563598722
  0
ARC
  8
Layer1$C$L1
 62
     3
 10
-116.1671244914
 20
239.5563751309
 40
3.2000000000
 50
169.1930771251
 51
208.9550243719
  0
ARC
  8
Layer1$C$L1
 62
     3
 10
-133.2171244914
 20
231.8563751309
 40
2.4000000000
 50
90.0000000000
 51
270.0000000000
  0
CIRCLE
  8
Layer1$C$L1
 62
     3
 10
-125.3171244914
 20
231.8563751309
 40
3.2000000000
  0
ARC
  8
Layer1$C$L1
 62
     3
 10
-121.3671244914
 20
215.7563751309
 40
0.5000000000
 50
1.2213329977E-12
 51
90.0000000000
  0
ARC
  8
Layer1$C$L1
 62
     3
 10
-136.2671244914
 20
182.5563751309
 40
0.2000000000
 50
180.0000000000
 51
270.0000000000
  0
ARC
  8
Layer1$C$L1
 62
     3
 10
-119.1671244914
 20
182.5563751309
 40
0.2000000000
 50
270.0000000000
 51
360.0000000000
  0
ARC
  8
Layer1$C$L1
 62
     3
 10
-121.7671244914
 20
168.1563751309
 40
3.2000000000
 50
151.0449756281
 51
188.9892993452
  0
ARC
  8
Layer1$C$L1
 62
     3
 10
-121.6671244914
 20
168.1563751309
 40
2.3000000000
 50
23.0356841059
 51
336.9643158941
  0
ARC
  8
Layer1$C$L1
 62
     3
 10
-130.5671244914
 20
167.6563751309
 40
2.0000000000
 50
180.0000000000
 51
360.0000000000
  0
ARC
  8
Layer1$C$L1
 62
     3
 10
-127.2671244914
 20
165.6563751309
 40
1.0000000000
 50
270.0000000000
 51
360.0000000000
  0
ARC
  8
Layer1$C$L1
 62
     3
 10
-133.8671244914
 20
165.6563751309
 40
1.0000000000
 50
180.0000000000
 51
270.0000000000
  0
LINE
  8
Layer1$C$L1
 62
     3
 10
-118.9671244914
 20
238.2329127032
 11
-118.9671244914
 21
240.1563751309
  0
LINE
  8
Layer1$C$L1
 62
     3
 10
-132.7171244914
 20
235.7563751309
 11
-130.8671244914
 21
235.7563751309
  0
LINE
  8
Layer1$C$L1
 62
     3
 10
-130.8671244914
 20
235.7563751309
 11
-130.8671244914
 21
240.1563751309
  0
LINE
  8
Layer1$C$L1
 62
     3
 10
-125.3171244914
 20
235.0563751309
 11
-125.3171244914
 21
240.1563751309
  0
LINE
  8
Layer1$C$L1
 62
     3
 10
-133.2171244914
 20
234.2563751309
 11
-132.7171244914
 21
234.2563751309
  0
LINE
  8
Layer1$C$L1
 62
     3
 10
-132.7171244914
 20
234.2563751309
 11
-132.7171244914
 21
235.7563751309
  0
LINE
  8
Layer1$C$L1
 62
     3
 10
-136.4671244914
 20
232.8755587194
 11
-135.3899716588
 21
232.8755587194
  0
LINE
  8
Layer1$C$L1
 62
     3
 10
-132.7171244914
 20
229.4563751309
 11
-133.2171244914
 21
229.4563751309
  0
LINE
  8
Layer1$C$L1
 62
     3
 10
-132.7171244914
 20
227.9563751309
 11
-132.7171244914
 21
229.4563751309
  0
LINE
  8
Layer1$C$L1
 62
     3
 10
-130.8671244914
 20
227.9563751309
 11
-132.7171244914
 21
227.9563751309
  0
LINE
  8
Layer1$C$L1
 62
     3
 10
-126.9671244914
 20
226.5563751309
 11
-125.3171244914
 21
226.5563751309
  0
LINE
  8
Layer1$C$L1
 62
     3
 10
-130.8671244914
 20
226.4563751309
 11
-130.8671244914
 21
235.7563751309
  0
LINE
  8
Layer1$C$L1
 62
     3
 10
-125.3171244914
 20
226.4563751309
 11
-125.3171244914
 21
228.6563751309
  0
LINE
  8
Layer1$C$L1
 62
     3
 10
-142.8171244914
 20
226.4563751309
 11
-118.9671244914
 21
226.4563751309
  0
LINE
  8
Layer1$C$L1
 62
     3
 10
-126.9671244914
 20
216.2563751309
 11
-126.9671244914
 21
226.5563751309
  0
LINE
  8
Layer1$C$L1
 62
     3
 10
-120.8671244914
 20
211.8430678392
 11
-120.5671244914
 21
211.8430678392
  0
LINE
  8
Layer1$C$L1
 62
     3
 10
-120.5671244914
 20
210.1316601419
 11
-120.8671244914
 21
210.1316601419
  0
LINE
  8
Layer1$C$L1
 62
     3
 10
-120.8671244914
 20
208.2599320204
 11
-120.8671244914
 21
216.2563751309
  0
LINE
  8
Layer1$C$L1
 62
     3
 10
-120.8671244914
 20
208.2599320204
 11
-122.6671244914
 21
208.2599320204
  0
LINE
  8
Layer1$C$L1
 62
     3
 10
-118.9671244914
 20
207.3298514236
 11
-119.2671244914
 21
207.3298514236
  0
LINE
  8
Layer1$C$L1
 62
     3
 10
-120.5671244914
 20
206.6936104749
 11
-120.5671244914
 21
226.4563751309
  0
LINE
  8
Layer1$C$L1
 62
     3
 10
-119.2671244914
 20
206.6936104749
 11
-120.5671244914
 21
206.6936104749
  0
LINE
  8
Layer1$C$L1
 62
     3
 10
-119.2671244914
 20
206.6936104749
 11
-119.2671244914
 21
207.3298514236
  0
LINE
  8
Layer1$C$L1
 62
     3
 10
-122.6671244914
 20
205.4563751309
 11
-122.4671244914
 21
205.4563751309
  0
LINE
  8
Layer1$C$L1
 62
     3
 10
-122.5671244914
 20
205.2563751309
 11
-122.6671244914
 21
205.2563751309
  0
LINE
  8
Layer1$C$L1
 62
     3
 10
-122.5671244914
 20
204.4563751309
 11
-122.6671244914
 21
204.4563751309
  0
LINE
  8
Layer1$C$L1
 62
     3
 10
-121.6671244914
 20
203.9563751309
 11
-118.9671244914
 21
203.9563751309
  0
LINE
  8
Layer1$C$L1
 62
     3
 10
-121.6671244914
 20
203.4756244564
 11
-120.5671244914
 21
203.4756244564
  0
LINE
  8
Layer1$C$L1
 62
     3
 10
-118.9671244914
 20
203.4563751309
 11
-120.5671244914
 21
203.4563751309
  0
LINE
  8
Layer1$C$L1
 62
     3
 10
-118.9671244914
 20
201.4563751309
 11
-120.5671244914
 21
201.4563751309
  0
LINE
  8
Layer1$C$L1
 62
     3
 10
-120.5671244914
 20
201.4371258054
 11
-121.6671244914
 21
201.4371258054
  0
LINE
  8
Layer1$C$L1
 62
     3
 10
-120.5671244914
 20
201.4371258054
 11
-120.5671244914
 21
203.4756244564
  0
LINE
  8
Layer1$C$L1
 62
     3
 10
-120.6671244914
 20
201.4371258054
 11
-120.6671244914
 21
203.4756244564
  0
LINE
  8
Layer1$C$L1
 62
     3
 10
-121.6671244914
 20
200.9563751309
 11
-121.6671244914
 21
203.9563751309
  0
LINE
  8
Layer1$C$L1
 62
     3
 10
-121.6671244914
 20
200.9563751309
 11
-118.9671244914
 21
200.9563751309
  0
LINE
  8
Layer1$C$L1
 62
     3
 10
-122.5671244914
 20
200.4563751309
 11
-122.5671244914
 21
205.2563751309
  0
LINE
  8
Layer1$C$L1
 62
     3
 10
-122.5671244914
 20
200.4563751309
 11
-122.6671244914
 21
200.4563751309
  0
LINE
  8
Layer1$C$L1
 62
     3
 10
-122.4671244914
 20
198.4563751309
 11
-122.6671244914
 21
198.4563751309
  0
LINE
  8
Layer1$C$L1
 62
     3
 10
-119.2671244914
 20
198.2191397869
 11
-122.4671244914
 21
198.2191397869
  0
LINE
  8
Layer1$C$L1
 62
     3
 10
-122.4671244914
 20
198.1262481120
 11
-122.5671244914
 21
198.1262481120
  0
LINE
  8
Layer1$C$L1
 62
     3
 10
-118.9671244914
 20
197.5828988383
 11
-119.2671244914
 21
197.5828988383
  0
LINE
  8
Layer1$C$L1
 62
     3
 10
-119.2671244914
 20
197.5828988383
 11
-119.2671244914
 21
198.2191397869
  0
LINE
  8
Layer1$C$L1
 62
     3
 10
-122.4671244914
 20
196.9563751309
 11
-122.4671244914
 21
208.2599320204
  0
LINE
  8
Layer1$C$L1
 62
     3
 10
-122.6671244914
 20
196.9563751309
 11
-122.6671244914
 21
208.8563751309
  0
LINE
  8
Layer1$C$L1
 62
     3
 10
-122.5671244914
 20
196.9563751309
 11
-122.5671244914
 21
198.4563751309
  0
LINE
  8
Layer1$C$L1
 62
     3
 10
-134.2171244914
 20
187.3563751309
 11
-134.2171244914
 21
187.4563751309
  0
LINE
  8
Layer1$C$L1
 62
     3
 10
-135.9671244914
 20
187.3563751309
 11
-135.9671244914
 21
187.4563751309
  0
LINE
  8
Layer1$C$L1
 62
     3
 10
-133.3671244914
 20
187.3563751309
 11
-133.3671244914
 21
187.4563751309
  0
LINE
  8
Layer1$C$L1
 62
     3
 10
-132.7171244914
 20
187.3563751309
 11
-132.7171244914
 21
187.4563751309
  0
LINE
  8
Layer1$C$L1
 62
     3
 10
-132.8671244914
 20
187.3563751309
 11
-132.8671244914
 21
187.4563751309
  0
LINE
  8
Layer1$C$L1
 62
     3
 10
-130.1337336861
 20
187.3563751309
 11
-130.4097068949
 21
187.4563751309
  0
LINE
  8
Layer1$C$L1
 62
     3
 10
-118.9671244914
 20
169.0563751309
 11
-118.9671244914
 21
238.0071817925
  0
LINE
  8
Layer1$C$L1
 62
     3
 10
-118.9671244914
 20
169.0563751309
 11
-119.5505234425
 21
169.0563751309
  0
LINE
  8
Layer1$C$L1
 62
     3
 10
-119.5505234425
 20
167.2563751309
 11
-118.9671244914
 21
167.2563751309
  0
LINE
  8
Layer1$C$L1
 62
     3
 10
-134.8671244914
 20
165.6563751309
 11
-134.8671244914
 21
167.6563751309
  0
LINE
  8
Layer1$C$L1
 62
     3
 10
-126.2671244914
 20
165.6563751309
 11
-126.2671244914
 21
167.6563751309
  0
LINE
  8
Layer1$C$L1
 62
     3
 10
-133.8671244914
 20
164.6563751309
 11
-127.2671244914
 21
164.6563751309
  0
LINE
  8
Layer1$C$L1
 62
     3
 10
-126.1671244914
 20
164.4563751309
 11
-118.9671244914
 21
164.4563751309
  0
LINE
  8
Layer1$C$L1
 62
     3
 10
-118.9671244914
 20
164.4563751309
 11
-118.9671244914
 21
167.2563751309
  0
LINE
  8
Layer1$C$L1
 62
     3
 10
-126.1671244914
 20
164.4563751309
 11
-126.1671244914
 21
167.6563751309
  0
POLYLINE
  8
Layer1$C$L1
 62
     3
 66
     1
  0
VERTEX
  8
Layer1$C$L1
 62
     3
 10
-119.1671244914
 20
188.4063751309
  0
VERTEX
  8
Layer1$C$L1
 62
     3
 10
-119.1281064270
 20
188.4073795328
  0
VERTEX
  8
Layer1$C$L1
 62
     3
 10
-119.0905878049
 20
188.4103541397
  0
VERTEX
  8
Layer1$C$L1
 62
     3
 10
-119.0560104448
 20
188.4151846393
  0
VERTEX
  8
Layer1$C$L1
 62
     3
 10
-119.0257031351
 20
188.4216853981
  0
VERTEX
  8
Layer1$C$L1
 62
     3
 10
-119.0008305689
 20
188.4296065955
  0
VERTEX
  8
Layer1$C$L1
 62
     3
 10
-118.9823485849
 20
188.4386438246
  0
VERTEX
  8
Layer1$C$L1
 62
     3
 10
-118.9709674353
 20
188.4484497895
  0
VERTEX
  8
Layer1$C$L1
 62
     3
 10
-118.9671244914
 20
188.4586476525
  0
SEQEND
  8
Layer1$C$L1
 62
     3
  0
POLYLINE
  8
Layer1$C$L1
 62
     3
 66
     1
  0
VERTEX
  8
Layer1$C$L1
 62
     3
 10
-120.8671244914
 20
208.3757378863
  0
VERTEX
  8
Layer1$C$L1
 62
     3
 10
-120.8784580306
 20
208.4776065021
  0
VERTEX
  8
Layer1$C$L1
 62
     3
 10
-120.9824238925
 20
208.6829094289
  0
VERTEX
  8
Layer1$C$L1
 62
     3
 10
-121.0998165991
 20
208.7820110295
  0
VERTEX
  8
Layer1$C$L1
 62
     3
 10
-121.2254473376
 20
208.8367030273
  0
VERTEX
  8
Layer1$C$L1
 62
     3
 10
-121.3671244914
 20
208.8563751309
  0
SEQEND
  8
Layer1$C$L1
 62
     3
  0
LINE
  8
Layer1$C$L1
 62
     3
 10
-128.4603729681
 20
232.4563659757
 11
-126.6671305949
 21
232.4563659757
  0
LINE
  8
Layer1$C$L1
 62
     3
 10
-128.4603700554
 20
231.2563690274
 11
-126.6671305949
 21
231.2563690274
  0
LINE
  8
Layer1$C$L1
 62
     3
 10
-124.7171183879
 20
229.4063781827
 11
-124.7171183879
 21
230.5063690274
  0
LINE
  8
Layer1$C$L1
 62
     3
 10
-125.9171305949
 20
229.4063781827
 11
-125.9171305949
 21
230.5063690274
  0
LINE
  8
Layer1$C$L1
 62
     3
 10
-125.9171305949
 20
234.3063720792
 11
-124.7171183879
 21
234.3063720792
  0
LINE
  8
Layer1$C$L1
 62
     3
 10
-125.9171305949
 20
229.4063781827
 11
-124.7171183879
 21
229.4063781827
  0
LINE
  8
Layer1$C$L1
 62
     3
 10
-127.7671214396
 20
231.2563690274
 11
-127.7671214396
 21
232.4563659757
  0
LINE
  8
Layer1$C$L1
 62
     3
 10
-122.8671275431
 20
231.2563690274
 11
-122.8671275431
 21
232.4563659757
  0
LINE
  8
Layer1$C$L1
 62
     3
 10
-125.9171305949
 20
233.2063659757
 11
-125.9171305949
 21
234.3063720792
  0
LINE
  8
Layer1$C$L1
 62
     3
 10
-123.9671183879
 20
231.2563690274
 11
-122.1738789274
 21
231.2563690274
  0
LINE
  8
Layer1$C$L1
 62
     3
 10
-123.9671183879
 20
232.4563659757
 11
-122.1738760147
 21
232.4563659757
  0
LINE
  8
Layer1$C$L1
 62
     3
 10
-124.7171183879
 20
233.2063659757
 11
-124.7171183879
 21
234.3063720792
  0
ARC
  8
Layer1$C$L1
 62
     3
 10
-126.6671305949
 20
230.5063690274
 40
0.7500000000
 50
0.0000000000
 51
89.9999820139
  0
ARC
  8
Layer1$C$L1
 62
     3
 10
-123.9671183879
 20
230.5063690274
 40
0.7500000000
 50
89.9999820139
 51
179.9999640278
  0
ARC
  8
Layer1$C$L1
 62
     3
 10
-123.9671183879
 20
233.2063659757
 40
0.7500000000
 50
179.9999640278
 51
269.9999460417
  0
ARC
  8
Layer1$C$L1
 62
     3
 10
-126.6671305949
 20
233.2063659757
 40
0.7500000000
 50
270.0000179861
 51
360.0000000000
  0
ARC
  8
Layer1$C$L1
 62
     3
 10
-166.4671305949
 20
177.3063659757
 40
0.7500000000
 50
270.0000179861
 51
360.0000000000
  0
ARC
  8
Layer1$C$L1
 62
     3
 10
-163.7671183879
 20
177.3063659757
 40
0.7500000000
 50
179.9999640278
 51
269.9999460417
  0
ARC
  8
Layer1$C$L1
 62
     3
 10
-163.7671183879
 20
174.6063690274
 40
0.7500000000
 50
89.9999820139
 51
179.9999640278
  0
ARC
  8
Layer1$C$L1
 62
     3
 10
-166.4671305949
 20
174.6063690274
 40
0.7500000000
 50
0.0000000000
 51
89.9999820139
  0
LINE
  8
Layer1$C$L1
 62
     3
 10
-164.5171183879
 20
177.3063659757
 11
-164.5171183879
 21
178.4063720792
  0
LINE
  8
Layer1$C$L1
 62
     3
 10
-163.7671183879
 20
176.5563659757
 11
-161.9738760147
 21
176.5563659757
  0
LINE
  8
Layer1$C$L1
 62
     3
 10
-163.7671183879
 20
175.3563690274
 11
-161.9738789274
 21
175.3563690274
  0
LINE
  8
Layer1$C$L1
 62
     3
 10
-165.7171305949
 20
177.3063659757
 11
-165.7171305949
 21
178.4063720792
  0
LINE
  8
Layer1$C$L1
 62
     3
 10
-162.6671275431
 20
175.3563690274
 11
-162.6671275431
 21
176.5563659757
  0
LINE
  8
Layer1$C$L1
 62
     3
 10
-167.5671214396
 20
175.3563690274
 11
-167.5671214396
 21
176.5563659757
  0
LINE
  8
Layer1$C$L1
 62
     3
 10
-165.7171305949
 20
173.5063781827
 11
-164.5171183879
 21
173.5063781827
  0
LINE
  8
Layer1$C$L1
 62
     3
 10
-165.7171305949
 20
178.4063720792
 11
-164.5171183879
 21
178.4063720792
  0
LINE
  8
Layer1$C$L1
 62
     3
 10
-165.7171305949
 20
173.5063781827
 11
-165.7171305949
 21
174.6063690274
  0
LINE
  8
Layer1$C$L1
 62
     3
 10
-164.5171183879
 20
173.5063781827
 11
-164.5171183879
 21
174.6063690274
  0
LINE
  8
Layer1$C$L1
 62
     3
 10
-168.2603700554
 20
175.3563690274
 11
-166.4671305949
 21
175.3563690274
  0
LINE
  8
Layer1$C$L1
 62
     3
 10
-168.2603729681
 20
176.5563659757
 11
-166.4671305949
 21
176.5563659757
  0
ARC
  8
Layer1$C$L1
 62
     3
 10
-161.6671305949
 20
233.2063659757
 40
0.7500000000
 50
270.0000179861
 51
360.0000000000
  0
ARC
  8
Layer1$C$L1
 62
     3
 10
-158.9671183879
 20
233.2063659757
 40
0.7500000000
 50
179.9999640278
 51
269.9999460417
  0
ARC
  8
Layer1$C$L1
 62
     3
 10
-158.9671183879
 20
230.5063690274
 40
0.7500000000
 50
89.9999820139
 51
179.9999640278
  0
ARC
  8
Layer1$C$L1
 62
     3
 10
-161.6671305949
 20
230.5063690274
 40
0.7500000000
 50
0.0000000000
 51
89.9999820139
  0
LINE
  8
Layer1$C$L1
 62
     3
 10
-159.7171183879
 20
233.2063659757
 11
-159.7171183879
 21
234.3063720792
  0
LINE
  8
Layer1$C$L1
 62
     3
 10
-158.9671183879
 20
232.4563659757
 11
-157.1738760147
 21
232.4563659757
  0
LINE
  8
Layer1$C$L1
 62
     3
 10
-158.9671183879
 20
231.2563690274
 11
-157.1738789274
 21
231.2563690274
  0
LINE
  8
Layer1$C$L1
 62
     3
 10
-160.9171305949
 20
233.2063659757
 11
-160.9171305949
 21
234.3063720792
  0
LINE
  8
Layer1$C$L1
 62
     3
 10
-157.8671275431
 20
231.2563690274
 11
-157.8671275431
 21
232.4563659757
  0
LINE
  8
Layer1$C$L1
 62
     3
 10
-162.7671214396
 20
231.2563690274
 11
-162.7671214396
 21
232.4563659757
  0
LINE
  8
Layer1$C$L1
 62
     3
 10
-160.9171305949
 20
229.4063781827
 11
-159.7171183879
 21
229.4063781827
  0
LINE
  8
Layer1$C$L1
 62
     3
 10
-160.9171305949
 20
234.3063720792
 11
-159.7171183879
 21
234.3063720792
  0
LINE
  8
Layer1$C$L1
 62
     3
 10
-160.9171305949
 20
229.4063781827
 11
-160.9171305949
 21
230.5063690274
  0
LINE
  8
Layer1$C$L1
 62
     3
 10
-159.7171183879
 20
229.4063781827
 11
-159.7171183879
 21
230.5063690274
  0
LINE
  8
Layer1$C$L1
 62
     3
 10
-163.4603700554
 20
231.2563690274
 11
-161.6671305949
 21
231.2563690274
  0
LINE
  8
Layer1$C$L1
 62
     3
 10
-163.4603729681
 20
232.4563659757
 11
-161.6671305949
 21
232.4563659757
  0
POLYLINE
  8
Layer1$C$L1
 62
     3
 66
     1
  0
VERTEX
  8
Layer1$C$L1
 62
     3
 10
-169.0671244914
 20
208.8563751309
  0
VERTEX
  8
Layer1$C$L1
 62
     3
 10
-169.1306929002
 20
208.8524803117
  0
VERTEX
  8
Layer1$C$L1
 62
     3
 10
-169.2527192822
 20
208.8220820394
  0
VERTEX
  8
Layer1$C$L1
 62
     3
 10
-169.3598017682
 20
208.7655319205
  0
VERTEX
  8
Layer1$C$L1
 62
     3
 10
-169.4792479106
 20
208.6480565005
  0
VERTEX
  8
Layer1$C$L1
 62
     3
 10
-169.5584263632
 20
208.4651023118
  0
VERTEX
  8
Layer1$C$L1
 62
     3
 10
-169.5671244914
 20
208.3757378863
  0
SEQEND
  8
Layer1$C$L1
 62
     3
  0
POLYLINE
  8
Layer1$C$L1
 62
     3
 66
     1
  0
VERTEX
  8
Layer1$C$L1
 62
     3
 10
-136.6671244914
 20
188.4063751309
  0
VERTEX
  8
Layer1$C$L1
 62
     3
 10
-136.6281064270
 20
188.4073795328
  0
VERTEX
  8
Layer1$C$L1
 62
     3
 10
-136.5905878049
 20
188.4103541397
  0
VERTEX
  8
Layer1$C$L1
 62
     3
 10
-136.5560104448
 20
188.4151846393
  0
VERTEX
  8
Layer1$C$L1
 62
     3
 10
-136.5257031351
 20
188.4216853981
  0
VERTEX
  8
Layer1$C$L1
 62
     3
 10
-136.5008305689
 20
188.4296065955
  0
VERTEX
  8
Layer1$C$L1
 62
     3
 10
-136.4823485849
 20
188.4386438246
  0
VERTEX
  8
Layer1$C$L1
 62
     3
 10
-136.4709674353
 20
188.4484497895
  0
VERTEX
  8
Layer1$C$L1
 62
     3
 10
-136.4671244914
 20
188.4586476525
  0
SEQEND
  8
Layer1$C$L1
 62
     3
  0
LINE
  8
Layer1$C$L1
 62
     3
 10
-165.1171244914
 20
167.6563751309
 11
-165.1171244914
 21
172.7563751309
  0
LINE
  8
Layer1$C$L1
 62
     3
 10
-124.9278206172
 20
167.6563751309
 11
-171.4671244914
 21
167.6563751309
  0
LINE
  8
Layer1$C$L1
 62
     3
 10
-171.4671244914
 20
167.6563751309
 11
-171.4671244914
 21
169.5257957872
  0
LINE
  8
Layer1$C$L1
 62
     3
 10
-136.4671244914
 20
167.6563751309
 11
-136.4671244914
 21
188.5063751309
  0
LINE
  8
Layer1$C$L1
 62
     3
 10
-159.5671244914
 20
167.6563751309
 11
-159.5671244914
 21
179.8563751309
  0
LINE
  8
Layer1$C$L1
 62
     3
 10
-171.4671244914
 20
169.7055684694
 11
-171.4671244914
 21
238.6563751309
  0
LINE
  8
Layer1$C$L1
 62
     3
 10
-157.7171244914
 20
172.0563751309
 11
-157.7171244914
 21
173.5563751309
  0
LINE
  8
Layer1$C$L1
 62
     3
 10
-157.7171244914
 20
172.0563751309
 11
-159.5671244914
 21
172.0563751309
  0
LINE
  8
Layer1$C$L1
 62
     3
 10
-157.2171244914
 20
173.5563751309
 11
-157.7171244914
 21
173.5563751309
  0
LINE
  8
Layer1$C$L1
 62
     3
 10
-157.7171244914
 20
178.3563751309
 11
-157.7171244914
 21
179.8563751309
  0
LINE
  8
Layer1$C$L1
 62
     3
 10
-157.7171244914
 20
178.3563751309
 11
-157.2171244914
 21
178.3563751309
  0
LINE
  8
Layer1$C$L1
 62
     3
 10
-165.1171244914
 20
179.1563751309
 11
-165.1171244914
 21
182.3563751309
  0
LINE
  8
Layer1$C$L1
 62
     3
 10
-157.7171244914
 20
179.8563751309
 11
-159.5671244914
 21
179.8563751309
  0
LINE
  8
Layer1$C$L1
 62
     3
 10
-159.5671244914
 20
179.8563751309
 11
-159.5671244914
 21
181.3563751309
  0
LINE
  8
Layer1$C$L1
 62
     3
 10
-153.9671244914
 20
181.3563751309
 11
-159.5671244914
 21
181.3563751309
  0
LINE
  8
Layer1$C$L1
 62
     3
 10
-171.2671244914
 20
182.3563751309
 11
-136.4671244914
 21
182.3563751309
  0
LINE
  8
Layer1$C$L1
 62
     3
 10
-171.4671244914
 20
187.3563751309
 11
-161.5171244914
 21
187.3563751309
  0
LINE
  8
Layer1$C$L1
 62
     3
 10
-165.1337336861
 20
187.3563751309
 11
-165.4097068949
 21
187.4563751309
  0
LINE
  8
Layer1$C$L1
 62
     3
 10
-167.8671244914
 20
187.3563751309
 11
-167.8671244914
 21
187.4563751309
  0
LINE
  8
Layer1$C$L1
 62
     3
 10
-161.5171244914
 20
187.3563751309
 11
-161.5171244914
 21
188.5063751309
  0
LINE
  8
Layer1$C$L1
 62
     3
 10
-167.7171244914
 20
187.3563751309
 11
-167.7171244914
 21
187.4563751309
  0
LINE
  8
Layer1$C$L1
 62
     3
 10
-168.3671244914
 20
187.3563751309
 11
-168.3671244914
 21
187.4563751309
  0
LINE
  8
Layer1$C$L1
 62
     3
 10
-170.9671244914
 20
187.3563751309
 11
-170.9671244914
 21
187.4563751309
  0
LINE
  8
Layer1$C$L1
 62
     3
 10
-169.2171244914
 20
187.3563751309
 11
-169.2171244914
 21
187.4563751309
  0
LINE
  8
Layer1$C$L1
 62
     3
 10
-171.4671244914
 20
187.4563751309
 11
-161.9671244914
 21
187.4563751309
  0
LINE
  8
Layer1$C$L1
 62
     3
 10
-161.9671244914
 20
187.4563751309
 11
-161.9671244914
 21
196.9563751309
  0
LINE
  8
Layer1$C$L1
 62
     3
 10
-154.1671244914
 20
188.4063751309
 11
-161.5171244914
 21
188.4063751309
  0
LINE
  8
Layer1$C$L1
 62
     3
 10
-161.9671244914
 20
188.5063751309
 11
-153.9671244914
 21
188.5063751309
  0
LINE
  8
Layer1$C$L1
 62
     3
 10
-167.7671244914
 20
196.9563751309
 11
-167.7671244914
 21
208.8563751309
  0
LINE
  8
Layer1$C$L1
 62
     3
 10
-167.9671244914
 20
196.9563751309
 11
-122.4671244914
 21
196.9563751309
  0
LINE
  8
Layer1$C$L1
 62
     3
 10
-167.8671244914
 20
196.9563751309
 11
-167.8671244914
 21
198.4563751309
  0
LINE
  8
Layer1$C$L1
 62
     3
 10
-167.9671244914
 20
196.9563751309
 11
-167.9671244914
 21
208.2599320204
  0
LINE
  8
Layer1$C$L1
 62
     3
 10
-167.8671244914
 20
197.2645630438
 11
-167.9671244914
 21
197.2645630438
  0
LINE
  8
Layer1$C$L1
 62
     3
 10
-167.8671244914
 20
197.4563751309
 11
-167.9671244914
 21
197.4563751309
  0
LINE
  8
Layer1$C$L1
 62
     3
 10
-171.1671244914
 20
197.5828988383
 11
-171.1671244914
 21
198.2191397869
  0
LINE
  8
Layer1$C$L1
 62
     3
 10
-171.1671244914
 20
197.5828988383
 11
-171.4671244914
 21
197.5828988383
  0
LINE
  8
Layer1$C$L1
 62
     3
 10
-167.8671244914
 20
198.1262481120
 11
-167.9671244914
 21
198.1262481120
  0
LINE
  8
Layer1$C$L1
 62
     3
 10
-167.9671244914
 20
198.2191397869
 11
-171.1671244914
 21
198.2191397869
  0
LINE
  8
Layer1$C$L1
 62
     3
 10
-167.7671244914
 20
198.4563751309
 11
-167.9671244914
 21
198.4563751309
  0
LINE
  8
Layer1$C$L1
 62
     3
 10
-167.7671244914
 20
200.4563751309
 11
-167.8671244914
 21
200.4563751309
  0
LINE
  8
Layer1$C$L1
 62
     3
 10
-167.8671244914
 20
200.4563751309
 11
-167.8671244914
 21
205.2563751309
  0
LINE
  8
Layer1$C$L1
 62
     3
 10
-171.4671244914
 20
200.9563751309
 11
-168.7671244914
 21
200.9563751309
  0
LINE
  8
Layer1$C$L1
 62
     3
 10
-168.7671244914
 20
200.9563751309
 11
-168.7671244914
 21
203.9563751309
  0
LINE
  8
Layer1$C$L1
 62
     3
 10
-169.8671244914
 20
201.4371258054
 11
-169.8671244914
 21
203.4756244564
  0
LINE
  8
Layer1$C$L1
 62
     3
 10
-168.7671244914
 20
201.4371258054
 11
-169.8671244914
 21
201.4371258054
  0
LINE
  8
Layer1$C$L1
 62
     3
 10
-169.7671244914
 20
201.4371258054
 11
-169.7671244914
 21
203.4756244564
  0
LINE
  8
Layer1$C$L1
 62
     3
 10
-169.8671244914
 20
201.4563751309
 11
-171.4671244914
 21
201.4563751309
  0
LINE
  8
Layer1$C$L1
 62
     3
 10
-169.8671244914
 20
203.4563751309
 11
-171.4671244914
 21
203.4563751309
  0
LINE
  8
Layer1$C$L1
 62
     3
 10
-169.8671244914
 20
203.4756244564
 11
-168.7671244914
 21
203.4756244564
  0
LINE
  8
Layer1$C$L1
 62
     3
 10
-171.4671244914
 20
203.9563751309
 11
-168.7671244914
 21
203.9563751309
  0
LINE
  8
Layer1$C$L1
 62
     3
 10
-167.7671244914
 20
204.4563751309
 11
-167.8671244914
 21
204.4563751309
  0
LINE
  8
Layer1$C$L1
 62
     3
 10
-167.7671244914
 20
205.2563751309
 11
-167.8671244914
 21
205.2563751309
  0
LINE
  8
Layer1$C$L1
 62
     3
 10
-167.9671244914
 20
205.4563751309
 11
-167.7671244914
 21
205.4563751309
  0
LINE
  8
Layer1$C$L1
 62
     3
 10
-169.8671244914
 20
206.6936104749
 11
-169.8671244914
 21
226.4563751309
  0
LINE
  8
Layer1$C$L1
 62
     3
 10
-169.8671244914
 20
206.6936104749
 11
-171.1671244914
 21
206.6936104749
  0
LINE
  8
Layer1$C$L1
 62
     3
 10
-171.1671244914
 20
206.6936104749
 11
-171.1671244914
 21
207.3298514236
  0
LINE
  8
Layer1$C$L1
 62
     3
 10
-171.1671244914
 20
207.3298514236
 11
-171.4671244914
 21
207.3298514236
  0
LINE
  8
Layer1$C$L1
 62
     3
 10
-167.7671244914
 20
208.2599320204
 11
-169.5671244914
 21
208.2599320204
  0
LINE
  8
Layer1$C$L1
 62
     3
 10
-169.5671244914
 20
208.2599320204
 11
-169.5671244914
 21
216.2563751309
  0
LINE
  8
Layer1$C$L1
 62
     3
 10
-169.5671244914
 20
210.1316601419
 11
-169.8671244914
 21
210.1316601419
  0
LINE
  8
Layer1$C$L1
 62
     3
 10
-169.8671244914
 20
211.8430678392
 11
-169.5671244914
 21
211.8430678392
  0
LINE
  8
Layer1$C$L1
 62
     3
 10
-169.5671244914
 20
216.2563751309
 11
-120.8671244914
 21
216.2563751309
  0
LINE
  8
Layer1$C$L1
 62
     3
 10
-161.9671244914
 20
216.2563751309
 11
-161.9671244914
 21
226.5563751309
  0
LINE
  8
Layer1$C$L1
 62
     3
 10
-171.4671244914
 20
226.4563751309
 11
-144.4671244914
 21
226.4563751309
  0
LINE
  8
Layer1$C$L1
 62
     3
 10
-160.3171244914
 20
226.4563751309
 11
-160.3171244914
 21
228.6563751309
  0
LINE
  8
Layer1$C$L1
 62
     3
 10
-165.8671244914
 20
226.4563751309
 11
-165.8671244914
 21
235.7563751309
  0
LINE
  8
Layer1$C$L1
 62
     3
 10
-161.9671244914
 20
226.5563751309
 11
-160.3171244914
 21
226.5563751309
  0
LINE
  8
Layer1$C$L1
 62
     3
 10
-165.8671244914
 20
227.9563751309
 11
-167.7171244914
 21
227.9563751309
  0
LINE
  8
Layer1$C$L1
 62
     3
 10
-167.7171244914
 20
227.9563751309
 11
-167.7171244914
 21
229.4563751309
  0
LINE
  8
Layer1$C$L1
 62
     3
 10
-167.7171244914
 20
229.4563751309
 11
-168.2171244914
 21
229.4563751309
  0
LINE
  8
Layer1$C$L1
 62
     3
 10
-171.4671244914
 20
232.8755587194
 11
-170.3899716588
 21
232.8755587194
  0
LINE
  8
Layer1$C$L1
 62
     3
 10
-167.7171244914
 20
234.2563751309
 11
-167.7171244914
 21
235.7563751309
  0
LINE
  8
Layer1$C$L1
 62
     3
 10
-168.2171244914
 20
234.2563751309
 11
-167.7171244914
 21
234.2563751309
  0
LINE
  8
Layer1$C$L1
 62
     3
 10
-160.3171244914
 20
235.0563751309
 11
-160.3171244914
 21
240.1563751309
  0
LINE
  8
Layer1$C$L1
 62
     3
 10
-165.8671244914
 20
235.7563751309
 11
-165.8671244914
 21
238.0071817925
  0
LINE
  8
Layer1$C$L1
 62
     3
 10
-167.7171244914
 20
235.7563751309
 11
-165.8671244914
 21
235.7563751309
  0
LINE
  8
Layer1$C$L1
 62
     3
 10
-167.8671244914
 20
237.2563751309
 11
-168.7671244914
 21
237.2563751309
  0
LINE
  8
Layer1$C$L1
 62
     3
 10
-136.4671244914
 20
226.4563751309
 11
-136.4671244914
 21
240.1563751309
  0
LINE
  8
Layer1$C$L1
 62
     3
 10
-171.4671244914
 20
238.6563751309
 11
-170.7837255402
 21
238.6563751309
  0
LINE
  8
Layer1$C$L1
 62
     3
 10
-118.9671244914
 20
240.1563751309
 11
-165.5238777623
 21
240.1563751309
  0
LINE
  8
Layer1$C$L1
 62
     3
 10
-161.9671244914
 20
240.1563751309
 11
-161.9671244914
 21
243.2563751309
  0
LINE
  8
Layer1$C$L1
 62
     3
 10
-171.4671244914
 20
240.4563751309
 11
-171.4671244914
 21
243.2563751309
  0
LINE
  8
Layer1$C$L1
 62
     3
 10
-170.7837255402
 20
240.4563751309
 11
-171.4671244914
 21
240.4563751309
  0
LINE
  8
Layer1$C$L1
 62
     3
 10
-168.7671244914
 20
241.8563751309
 11
-167.8671244914
 21
241.8563751309
  0
LINE
  8
Layer1$C$L1
 62
     3
 10
-161.9671244914
 20
243.2563751309
 11
-171.4671244914
 21
243.2563751309
  0
ARC
  8
Layer1$C$L1
 62
     3
 10
-174.2671244914
 20
168.1563751309
 40
3.2000000001
 50
351.0107006557
 51
388.9550243718
  0
ARC
  8
Layer1$C$L1
 62
     3
 10
-157.2171244914
 20
175.9563751309
 40
2.4000000000
 50
270.0000000000
 51
450.0000000000
  0
CIRCLE
  8
Layer1$C$L1
 62
     3
 10
-165.1171244914
 20
175.9563751309
 40
3.2000000000
  0
ARC
  8
Layer1$C$L1
 62
     3
 10
-136.6671244914
 20
182.5563751309
 40
0.2000000000
 50
270.0000000000
 51
360.0000000000
  0
ARC
  8
Layer1$C$L1
 62
     3
 10
-171.2671244914
 20
182.5563751309
 40
0.2000000000
 50
180.0000000000
 51
270.0000000000
  0
ARC
  8
Layer1$C$L1
 62
     3
 10
-169.0671244914
 20
215.7563751309
 40
0.5000000000
 50
90.0000000000
 51
180.0000000000
  0
CIRCLE
  8
Layer1$C$L1
 62
     3
 10
-160.3171244914
 20
231.8563751309
 40
3.2000000000
  0
ARC
  8
Layer1$C$L1
 62
     3
 10
-168.2171244914
 20
231.8563751309
 40
2.4000000000
 50
90.0000000000
 51
270.0000000000
  0
ARC
  8
Layer1$C$L1
 62
     3
 10
-168.7671244914
 20
239.5563751309
 40
2.3000000000
 50
203.0356841059
 51
270.0000000000
  0
ARC
  8
Layer1$C$L1
 62
     3
 10
-168.6671244914
 20
239.5563751309
 40
3.2000000000
 50
331.0449756281
 51
370.8069228749
  0
ARC
  8
Layer1$C$L1
 62
     3
 10
-168.7671244914
 20
239.5563751309
 40
2.3000000000
 50
90.0000000000
 51
156.9643158941
  0
LINE
  8
Layer1$C$L1
  6
CENTER
 62
     3
 10
-160.3171244914
 20
234.8563598722
 11
-160.3171244914
 21
228.8563598722
  0
LINE
  8
Layer1$C$L1
  6
CENTER
 62
     3
 10
-166.3671244914
 20
239.5563751309
 11
-172.3671244914
 21
239.5563751309
  0
LINE
  8
Layer1$C$L1
  6
CENTER
 62
     3
 10
-168.7671244914
 20
242.5563598722
 11
-168.7671244914
 21
236.5563598722
  0
LINE
  8
Layer1$C$L1
  6
CENTER
 62
     3
 10
-165.1171244914
 20
178.9563598722
 11
-165.1171244914
 21
172.9563598722
  0
LINE
  8
Layer1$C$L1
 62
     3
 10
-147.4671244914
 20
210.2563751309
 11
-147.4671244914
 21
211.7563751309
  0
LINE
  8
Layer1$C$L1
 62
     3
 10
-139.9671244914
 20
210.2563751309
 11
-139.9671244914
 21
211.7563751309
  0
LINE
  8
Layer1$C$L1
 62
     3
 10
-148.9671244914
 20
210.2563751309
 11
-148.9671244914
 21
211.7563751309
  0
LINE
  8
Layer1$C$L1
 62
     3
 10
-147.4671244914
 20
210.2563751309
 11
-145.9671244914
 21
210.2563751309
  0
LINE
  8
Layer1$C$L1
 62
     3
 10
-141.4671244914
 20
210.2563751309
 11
-139.9671244914
 21
210.2563751309
  0
LINE
  8
Layer1$C$L1
 62
     3
 10
-144.4671244914
 20
210.2563751309
 11
-144.4671244914
 21
211.7563751309
  0
LINE
  8
Layer1$C$L1
 62
     3
 10
-144.4671244914
 20
210.2563751309
 11
-142.9671244914
 21
210.2563751309
  0
LINE
  8
Layer1$C$L1
 62
     3
 10
-141.4671244914
 20
210.2563751309
 11
-141.4671244914
 21
211.7563751309
  0
LINE
  8
Layer1$C$L1
 62
     3
 10
-150.4671244914
 20
210.2563751309
 11
-150.4671244914
 21
211.7563751309
  0
LINE
  8
Layer1$C$L1
 62
     3
 10
-150.4671244914
 20
210.2563751309
 11
-148.9671244914
 21
210.2563751309
  0
LINE
  8
Layer1$C$L1
 62
     3
 10
-145.9671244914
 20
210.2563751309
 11
-145.9671244914
 21
211.7563751309
  0
LINE
  8
Layer1$C$L1
 62
     3
 10
-142.9671244914
 20
210.2563751309
 11
-142.9671244914
 21
211.7563751309
  0
LINE
  8
Layer1$C$L1
 62
     3
 10
-147.4671244914
 20
211.7563751309
 11
-145.9671244914
 21
211.7563751309
  0
LINE
  8
Layer1$C$L1
 62
     3
 10
-141.4671244914
 20
211.7563751309
 11
-139.9671244914
 21
211.7563751309
  0
LINE
  8
Layer1$C$L1
 62
     3
 10
-150.4671244914
 20
211.7563751309
 11
-148.9671244914
 21
211.7563751309
  0
LINE
  8
Layer1$C$L1
 62
     3
 10
-144.4671244914
 20
211.7563751309
 11
-142.9671244914
 21
211.7563751309
  0
LINE
  8
Layer1$C$L1
 62
     3
 10
-139.9671244914
 20
213.2563751309
 11
-141.4671244914
 21
213.2563751309
  0
LINE
  8
Layer1$C$L1
 62
     3
 10
-139.9671244914
 20
213.2563751309
 11
-139.9671244914
 21
214.7563751309
  0
LINE
  8
Layer1$C$L1
 62
     3
 10
-147.4671244914
 20
213.2563751309
 11
-147.4671244914
 21
214.7563751309
  0
LINE
  8
Layer1$C$L1
 62
     3
 10
-145.9671244914
 20
213.2563751309
 11
-145.9671244914
 21
214.7563751309
  0
LINE
  8
Layer1$C$L1
 62
     3
 10
-148.9671244914
 20
213.2563751309
 11
-150.4671244914
 21
213.2563751309
  0
LINE
  8
Layer1$C$L1
 62
     3
 10
-142.9671244914
 20
213.2563751309
 11
-142.9671244914
 21
214.7563751309
  0
LINE
  8
Layer1$C$L1
 62
     3
 10
-145.9671244914
 20
213.2563751309
 11
-147.4671244914
 21
213.2563751309
  0
LINE
  8
Layer1$C$L1
 62
     3
 10
-142.9671244914
 20
213.2563751309
 11
-144.4671244914
 21
213.2563751309
  0
LINE
  8
Layer1$C$L1
 62
     3
 10
-150.4671244914
 20
213.2563751309
 11
-150.4671244914
 21
214.7563751309
  0
LINE
  8
Layer1$C$L1
 62
     3
 10
-144.4671244914
 20
213.2563751309
 11
-144.4671244914
 21
214.7563751309
  0
LINE
  8
Layer1$C$L1
 62
     3
 10
-148.9671244914
 20
213.2563751309
 11
-148.9671244914
 21
214.7563751309
  0
LINE
  8
Layer1$C$L1
 62
     3
 10
-141.4671244914
 20
213.2563751309
 11
-141.4671244914
 21
214.7563751309
  0
LINE
  8
Layer1$C$L1
 62
     3
 10
-150.4671244914
 20
214.7563751309
 11
-148.9671244914
 21
214.7563751309
  0
LINE
  8
Layer1$C$L1
 62
     3
 10
-144.4671244914
 20
214.7563751309
 11
-142.9671244914
 21
214.7563751309
  0
LINE
  8
Layer1$C$L1
 62
     3
 10
-147.4671244914
 20
214.7563751309
 11
-145.9671244914
 21
214.7563751309
  0
LINE
  8
Layer1$C$L1
 62
     3
 10
-141.4671244914
 20
214.7563751309
 11
-139.9671244914
 21
214.7563751309
  0
LINE
  8
Layer1$C$L1
 62
     3
 10
-169.0671244914
 20
208.8563751309
 11
-121.3671244914
 21
208.8563751309
  0
LINE
  8
Layer1$C$L1
  6
CENTER
 62
     3
 10
-175.1520099134
 20
203.9063751309
 11
-113.9970828483
 21
203.9063751309
  0
LINE
  8
Layer1$C$L1
  6
CENTER
 62
     3
 10
-145.2171244914
 20
162.9450742427
 11
-145.2171244914
 21
245.4344764521
  0
INSERT
  8
Layer8$C$L8
 62
     5
 66
     1
  2
Cadra_attr_1
 10
0.000000
 20
0.000000
  0
ATTRIB
  8
Layer8$C$L8
 62
     5
 10
-46.747117
 20
18.500000
 40
0.156000
  1
  
  2
20
 70
    11
  0
SEQEND
  8
Layer8$C$L8
 62
     5
  0
ENDSEC
  0
EOF
