  0
SECTION
  2
HEADER
  9
$ACADVER
  1
AC1004
  9
$ANGBASE
 50
0.0000000000
  9
$ANGDIR
 70
     0
  9
$ATTDIA
 70
     0
  9
$ATTMODE
 70
     1
  9
$ATTREQ
 70
     1
  9
$AUNITS
 70
     0
  9
$AUPREC
 70
     0
  9
$AXISMODE
 70
     0
  9
$AXISUNIT
 10
0.0000000000
 20
0.0000000000
  9
$BLIPMODE
 70
     1
  9
$CECOLOR
 62
   256
  9
$CELTYPE
  6
BYLAYER
  9
$CHAMFERA
 40
0.0000000000
  9
$CHAMFERB
 40
0.0000000000
  9
$CLAYER
  8
0
  9
$COORDS
 70
     0
  9
$DIMALT
 70
     0
  9
$DIMALTD
 70
     2
  9
$DIMALTF
 40
25.4000000000
  9
$DIMAPOST
  1

  9
$DIMASO
 70
     1
  9
$DIMASZ
 40
1.9727878460
  9
$DIMBLK
  1

  9
$DIMBLK1
  1

  9
$DIMBLK2
  1

  9
$DIMCEN
 40
9.0000000000E-02
  9
$DIMDLE
 40
0.0000000000
  9
$DIMDLI
 40
0.3800000000
  9
$DIMEXE
 40
3.8099999428
  9
$DIMEXO
 40
2.5399999619
  9
$DIMLFAC
 40
1.0000000000
  9
$DIMLIM
 70
     0
  9
$DIMPOST
  1

  9
$DIMRND
 40
0.0000000000
  9
$DIMSCALE
 40
1.0000000000
  9
$DIMSE1
 70
     0
  9
$DIMSE2
 70
     0
  9
$DIMSHO
 70
     0
  9
$DIMTAD
 70
     0
  9
$DIMTIH
 70
     0
  9
$DIMTM
 40
0.0000000000
  9
$DIMTOH
 70
     1
  9
$DIMTOL
 70
     0
  9
$DIMTP
 40
0.0000000000
  9
$DIMTSZ
 40
0.0000000000
  9
$DIMTXT
 40
2.9999940395
  9
$DIMZIN
 70
     0
  9
$DRAGMODE
 70
     1
  9
$ELEVATION
 40
0.0000000000
  9
$EXTMAX
 10
3.1750000000
 20
281.1430480957
 30
0.0000000000
  9
$EXTMIN
 10
-176.3351867676
 20
-3.1750000000
 30
0.0000000000
  9
$FASTZOOM
 70
     1
  9
$FILLETRAD
 40
6.2500000000E-02
  9
$FILLMODE
 70
     1
  9
$GRIDMODE
 70
     0
  9
$GRIDUNIT
 10
0.0000000000
 20
0.0000000000
  9
$INSBASE
 10
0.0000000000
 20
0.0000000000
 30
0.0000000000
  9
$LIMCHECK
 70
     0
  9
$LIMMAX
 10
3.1750000000
 20
281.1430480957
  9
$LIMMIN
 10
-176.3351867676
 20
-3.1750000000
  9
$LTSCALE
 40
1.0000000000
  9
$LUNITS
 70
     2
  9
$LUPREC
 70
     3
  9
$MEASUREMENT
 70
     0
  9
$MENU
  1
ACAD
  9
$MIRRTEXT
 70
     0
  9
$ORTHOMODE
 70
     0
  9
$OSMODE
 70
     0
  9
$PDMODE
 70
     0
  9
$PDSIZE
 40
0.0000000000
  9
$PLINEWID
 40
0.0000000000
  9
$PROXYGRAPHICS
 70
     0
  9
$QTEXTMODE
 70
     0
  9
$REGENMODE
 70
     1
  9
$SKETCHINC
 40
0.1000000000
  9
$SKPOLY
 70
     0
  9
$SNAPANG
 50
0.0000000000
  9
$SNAPBASE
 10
0.0000000000
 20
0.0000000000
  9
$SNAPISOPAIR
 70
     0
  9
$SNAPMODE
 70
     0
  9
$SNAPSTYLE
 70
     0
  9
$SNAPUNIT
 10
1.0000000000
 20
1.0000000000
  9
$SPLFRAME
 70
     0
  9
$SPLINESEGS
 70
     8
  9
$TDCREATE
 40
2455516.7129166712
  9
$TDINDWG
 40
0.0000000000
  9
$TDUPDATE
 40
2455516.7129166712
  9
$TDUSRTIMER
 40
0.0000000000
  9
$TEXTSIZE
 40
2.9999940395
  9
$TEXTSTYLE
  7
STANDARD
  9
$THICKNESS
 40
0.0000000000
  9
$TRACEWID
 40
5.0000000000E-02
  9
$USERI1
 70
     0
  9
$USERI2
 70
     0
  9
$USERI3
 70
     0
  9
$USERI4
 70
     0
  9
$USERI5
 70
     0
  9
$USERR1
 40
0.0000000000
  9
$USERR2
 40
0.0000000000
  9
$USERR3
 40
0.0000000000
  9
$USERR4
 40
0.0000000000
  9
$USERR5
 40
0.0000000000
  9
$USRTIMER
 70
     1
  9
$VIEWCTR
 10
-86.5800933838
 20
138.9840240479
  9
$VIEWDIR
 10
0.0000000000
 20
0.0000000000
 30
1.0000000000
  9
$VIEWSIZE
 40
284.3180480957
  0
ENDSEC
  0
SECTION
  2
TABLES
  0
TABLE
  2
LTYPE
 70
     3
  0
LTYPE
  2
SOLID
  3
Solid
 70
    64
 72
    65
 73
     0
 40
0.0000000000
  0
LTYPE
  2
DASH
  3
Dash
 70
    64
 72
    65
 73
     2
 40
2.0000000000
 49
1.0000000000
 49
-1.0000000000
  0
LTYPE
  2
CENTER
  3
Center
 70
    64
 72
    65
 73
     4
 40
9.1000000238
 49
6.5000000000
 49
-0.8000000119
 49
1.0000000000
 49
-0.8000000119
  0
ENDTAB
  0
TABLE
  2
LAYER
 70
     3
  0
LAYER
  2
Layer1$C$L1
 70
     0
  6
SOLID
 62
     3
  0
LAYER
  2
Layer6$C$L6
 70
     0
  6
SOLID
 62
    31
  0
LAYER
  2
Layer8$C$L8
 70
     0
  6
SOLID
 62
     7
  0
ENDTAB
  0
TABLE
  2
STYLE
 70
     1
  0
STYLE
  2
STANDARD
  3
txt
  4

 40
0.0000000000
 41
1.0000000000
 42
2.9999940395
 50
0.0000000000
 70
     0
 71
     0
  0
ENDTAB
  0
ENDSEC
  0
SECTION
  2
BLOCKS
  0
BLOCK
  8
Layer6$C$L6
  2
*X0
 70
     1
 10
0.0000000000
 20
0.0000000000
  0
LINE
  8
0
  6
SOLID
 62
     3
 10
-142.8355390093
 20
152.8673570802
 11
-142.8355390093
 21
153.7673570802
  0
LINE
  8
0
  6
SOLID
 62
     3
 10
-146.0105390093
 20
153.7673570802
 11
-146.0105390093
 21
152.8673570802
  0
LINE
  8
0
  6
SOLID
 62
     3
 10
-149.1855390093
 20
152.8673570802
 11
-149.1855390093
 21
153.7673570802
  0
LINE
  8
0
  6
SOLID
 62
     3
 10
-152.3605390093
 20
153.7673570802
 11
-152.3605390093
 21
152.8673570802
  0
LINE
  8
0
  6
SOLID
 62
     3
 10
-155.5355390093
 20
152.8673570802
 11
-155.5355390093
 21
153.7673570802
  0
LINE
  8
0
  6
SOLID
 62
     3
 10
-158.7105390093
 20
153.7673570802
 11
-158.7105390093
 21
152.8673570802
  0
ENDBLK
  8
0
  0
BLOCK
  8
Layer6$C$L6
  2
*X1
 70
     1
 10
0.0000000000
 20
0.0000000000
  0
LINE
  8
0
  6
SOLID
 62
     3
 10
-142.8355390093
 20
148.5673730802
 11
-142.8355390093
 21
149.4673730802
  0
LINE
  8
0
  6
SOLID
 62
     3
 10
-146.0105390093
 20
149.4673730802
 11
-146.0105390093
 21
148.5673730802
  0
LINE
  8
0
  6
SOLID
 62
     3
 10
-149.1855390093
 20
148.5673730802
 11
-149.1855390093
 21
149.4673730802
  0
LINE
  8
0
  6
SOLID
 62
     3
 10
-152.3605390093
 20
149.4673730802
 11
-152.3605390093
 21
148.5673730802
  0
LINE
  8
0
  6
SOLID
 62
     3
 10
-155.5355390093
 20
148.5673730802
 11
-155.5355390093
 21
149.4673730802
  0
LINE
  8
0
  6
SOLID
 62
     3
 10
-158.7105390093
 20
149.4673730802
 11
-158.7105390093
 21
148.5673730802
  0
ENDBLK
  8
0
  0
BLOCK
  8
Layer6$C$L6
  2
*X2
 70
     1
 10
0.0000000000
 20
0.0000000000
  0
LINE
  8
0
  6
SOLID
 62
     3
 10
-148.6905519756
 20
151.0116096424
 11
-148.2905519756
 21
151.0116096424
  0
ENDBLK
  8
0
  0
BLOCK
  8
Layer6$C$L6
  2
*X3
 70
     1
 10
0.0000000000
 20
0.0000000000
  0
LINE
  8
0
  6
SOLID
 62
     3
 10
-149.1155519755
 20
151.6129687651
 11
-148.5155519755
 21
151.6129687651
  0
ENDBLK
  8
0
  0
BLOCK
  8
Layer6$C$L6
  2
*X4
 70
     1
 10
0.0000000000
 20
0.0000000000
  0
LINE
  8
0
  6
SOLID
 62
     3
 10
-149.1855390093
 20
153.6673435802
 11
-149.1855390093
 21
155.1673435802
  0
LINE
  8
0
  6
SOLID
 62
     3
 10
-155.5355390093
 20
155.1673435802
 11
-155.5355390093
 21
153.6673435802
  0
ENDBLK
  8
0
  0
BLOCK
  8
Layer8$C$L8
  2
Cadra_attr_0
 70
     2
 10
0.0000000000
 20
0.0000000000
  0
TEXT
  8
Layer8$C$L8
 10
-66.7303176262
 20
26.1756735201
 40
4.1671714783
  1
NC1V-2131#-#A
 41
0.7968199725
 72
     5
 11
-26.8844920718
 21
26.1756735201
  0
ATTDEF
  8
Layer8$C$L8
 10
-46.807405
 20
28.259260
 40
0.156000
  1
ìL>ÄK
  3

  2
10
 70
    11
  0
ENDBLK
  8
Layer8$C$L8
  0
BLOCK
  8
Layer8$C$L8
  2
Cadra_attr_1
 70
     2
 10
0.000000
 20
0.000000
  0
TEXT
  8
Layer8$C$L8
 62
     5
 10
-66.0872999535
 20
16.0000000000
 40
5.0000000000
  1
MA4-C00314
 41
0.8595637381
 72
     5
 11
-27.4069317370
 21
16.0000000000
  0
ATTDEF
  8
Layer8$C$L8
 62
     5
 10
-46.747117
 20
18.500000
 40
0.156000
  1
  
  3

  2
20
 70
    11
  0
ENDBLK
  8
Layer8$C$L8
  0
ENDSEC
  0
SECTION
  2
ENTITIES
  0
ARC
  8
Layer1$C$L1
 62
     3
 10
-154.9655519755
 20
126.6673436253
 40
2.4000000000
 50
270.0000000000
 51
432.4362628140
  0
LINE
  8
Layer1$C$L1
 62
     3
 10
-157.3155519755
 20
128.9554600615
 11
-157.3155519755
 21
120.2201185511
  0
POLYLINE
  8
Layer1$C$L1
  6
DASH
 62
     3
 66
     1
  0
VERTEX
  8
Layer1$C$L1
  6
DASH
 62
     3
 10
-169.2155519755
 20
140.0816243691
  0
VERTEX
  8
Layer1$C$L1
  6
DASH
 62
     3
 10
-169.2059446157
 20
140.1784424433
  0
VERTEX
  8
Layer1$C$L1
  6
DASH
 62
     3
 10
-169.1774917418
 20
140.2715398532
  0
VERTEX
  8
Layer1$C$L1
  6
DASH
 62
     3
 10
-169.1312867817
 20
140.3573389175
  0
VERTEX
  8
Layer1$C$L1
  6
DASH
 62
     3
 10
-169.0691053661
 20
140.4325424264
  0
VERTEX
  8
Layer1$C$L1
  6
DASH
 62
     3
 10
-168.9933370920
 20
140.4942603511
  0
VERTEX
  8
Layer1$C$L1
  6
DASH
 62
     3
 10
-168.9068936917
 20
140.5401209064
  0
VERTEX
  8
Layer1$C$L1
  6
DASH
 62
     3
 10
-168.8130971365
 20
140.5683616970
  0
VERTEX
  8
Layer1$C$L1
  6
DASH
 62
     3
 10
-168.7155519755
 20
140.5778974449
  0
SEQEND
  8
Layer1$C$L1
  6
DASH
 62
     3
  0
LINE
  8
Layer1$C$L1
  6
DASH
 62
     3
 10
-152.2155519755
 20
140.5778974449
 11
-168.7155519755
 21
140.5778974449
  0
LINE
  8
Layer1$C$L1
 62
     3
 10
-165.5746086527
 20
133.6762062839
 11
-165.4475779052
 21
133.7983436253
  0
LINE
  8
Layer1$C$L1
 62
     3
 10
-164.9845519755
 20
135.0993695549
 11
-165.1066893169
 21
135.2264003024
  0
POLYLINE
  8
Layer1$C$L1
 62
     3
 66
     1
  0
VERTEX
  8
Layer1$C$L1
 62
     3
 10
-159.4569173639
 20
131.9702651941
  0
VERTEX
  8
Layer1$C$L1
 62
     3
 10
-159.4350662369
 20
132.6125080298
  0
VERTEX
  8
Layer1$C$L1
 62
     3
 10
-159.2718552690
 20
133.2354590093
  0
VERTEX
  8
Layer1$C$L1
 62
     3
 10
-159.2718408357
 20
133.2354965737
  0
SEQEND
  8
Layer1$C$L1
 62
     3
  0
POLYLINE
  8
Layer1$C$L1
 62
     3
 66
     1
  0
VERTEX
  8
Layer1$C$L1
 62
     3
 10
-153.6171071242
 20
135.2838352760
  0
VERTEX
  8
Layer1$C$L1
 62
     3
 10
-154.0192205700
 20
134.5418580745
  0
VERTEX
  8
Layer1$C$L1
 62
     3
 10
-154.6479642998
 20
133.9345382677
  0
VERTEX
  8
Layer1$C$L1
 62
     3
 10
-154.8786872092
 20
133.7871469764
  0
SEQEND
  8
Layer1$C$L1
 62
     3
  0
POLYLINE
  8
Layer1$C$L1
 62
     3
 66
     1
  0
VERTEX
  8
Layer1$C$L1
 62
     3
 10
-153.6171071242
 20
131.0037987639
  0
VERTEX
  8
Layer1$C$L1
 62
     3
 10
-154.0192205700
 20
130.2618215623
  0
VERTEX
  8
Layer1$C$L1
 62
     3
 10
-154.6479642998
 20
129.6545017555
  0
VERTEX
  8
Layer1$C$L1
 62
     3
 10
-154.8786872092
 20
129.5071104642
  0
SEQEND
  8
Layer1$C$L1
 62
     3
  0
POLYLINE
  8
Layer1$C$L1
 62
     3
 66
     1
  0
VERTEX
  8
Layer1$C$L1
 62
     3
 10
-166.1979866150
 20
131.8109904433
  0
VERTEX
  8
Layer1$C$L1
 62
     3
 10
-166.1741306435
 20
131.9043540419
  0
VERTEX
  8
Layer1$C$L1
 62
     3
 10
-166.0653501845
 20
132.0730055043
  0
VERTEX
  8
Layer1$C$L1
 62
     3
 10
-165.8829214753
 20
132.2893681938
  0
VERTEX
  8
Layer1$C$L1
 62
     3
 10
-165.7196136792
 20
132.4618406950
  0
SEQEND
  8
Layer1$C$L1
 62
     3
  0
POLYLINE
  8
Layer1$C$L1
 62
     3
 66
     1
  0
VERTEX
  8
Layer1$C$L1
 62
     3
 10
-157.9979866150
 20
129.5965251716
  0
VERTEX
  8
Layer1$C$L1
 62
     3
 10
-157.9741306435
 20
129.5959833790
  0
VERTEX
  8
Layer1$C$L1
 62
     3
 10
-157.8653501845
 20
129.6803433192
  0
VERTEX
  8
Layer1$C$L1
 62
     3
 10
-157.6829214753
 20
129.8329629220
  0
VERTEX
  8
Layer1$C$L1
 62
     3
 10
-157.5196136792
 20
129.9753029181
  0
SEQEND
  8
Layer1$C$L1
 62
     3
  0
POLYLINE
  8
Layer1$C$L1
 62
     3
 66
     1
  0
VERTEX
  8
Layer1$C$L1
 62
     3
 10
-154.7331173361
 20
138.5252790550
  0
VERTEX
  8
Layer1$C$L1
 62
     3
 10
-154.7569733076
 20
138.3443726402
  0
VERTEX
  8
Layer1$C$L1
 62
     3
 10
-154.8657537665
 20
138.1029229740
  0
VERTEX
  8
Layer1$C$L1
 62
     3
 10
-155.0481824758
 20
137.8375619575
  0
VERTEX
  8
Layer1$C$L1
 62
     3
 10
-155.2114902719
 20
137.6467106672
  0
SEQEND
  8
Layer1$C$L1
 62
     3
  0
POLYLINE
  8
Layer1$C$L1
 62
     3
 66
     1
  0
VERTEX
  8
Layer1$C$L1
 62
     3
 10
-154.6100490453
 20
137.0657630534
  0
VERTEX
  8
Layer1$C$L1
 62
     3
 10
-154.3676605759
 20
137.3226604484
  0
VERTEX
  8
Layer1$C$L1
 62
     3
 10
-154.1606499052
 20
137.5457748184
  0
VERTEX
  8
Layer1$C$L1
 62
     3
 10
-154.0160577910
 20
137.7053396487
  0
VERTEX
  8
Layer1$C$L1
 62
     3
 10
-153.9591987936
 20
137.7777311473
  0
SEQEND
  8
Layer1$C$L1
 62
     3
  0
POLYLINE
  8
Layer1$C$L1
 62
     3
 66
     1
  0
VERTEX
  8
Layer1$C$L1
 62
     3
 10
-153.2741865871
 20
136.6969733624
  0
VERTEX
  8
Layer1$C$L1
 62
     3
 10
-153.2960377142
 20
136.0547305266
  0
VERTEX
  8
Layer1$C$L1
 62
     3
 10
-153.4592486820
 20
135.4317795472
  0
VERTEX
  8
Layer1$C$L1
 62
     3
 10
-153.7563031624
 20
134.8568090841
  0
VERTEX
  8
Layer1$C$L1
 62
     3
 10
-153.7945216098
 20
134.8006598985
  0
SEQEND
  8
Layer1$C$L1
 62
     3
  0
POLYLINE
  8
Layer1$C$L1
 62
     3
 66
     1
  0
VERTEX
  8
Layer1$C$L1
 62
     3
 10
-153.2741865871
 20
132.4169368502
  0
VERTEX
  8
Layer1$C$L1
 62
     3
 10
-153.2960377142
 20
131.7746940145
  0
VERTEX
  8
Layer1$C$L1
 62
     3
 10
-153.4592486820
 20
131.1517430350
  0
VERTEX
  8
Layer1$C$L1
 62
     3
 10
-153.7563031624
 20
130.5767725719
  0
VERTEX
  8
Layer1$C$L1
 62
     3
 10
-153.7945216098
 20
130.5206233863
  0
SEQEND
  8
Layer1$C$L1
 62
     3
  0
POLYLINE
  8
Layer1$C$L1
 62
     3
 66
     1
  0
VERTEX
  8
Layer1$C$L1
 62
     3
 10
-153.5661743770
 20
133.2354965737
  0
VERTEX
  8
Layer1$C$L1
 62
     3
 10
-153.5123824266
 20
133.0890635090
  0
VERTEX
  8
Layer1$C$L1
 62
     3
 10
-153.3655519755
 20
132.1936010221
  0
VERTEX
  8
Layer1$C$L1
 62
     3
 10
-153.5123824266
 20
131.2981385352
  0
VERTEX
  8
Layer1$C$L1
 62
     3
 10
-153.5299729487
 20
131.2474415039
  0
SEQEND
  8
Layer1$C$L1
 62
     3
  0
POLYLINE
  8
Layer1$C$L1
 62
     3
 66
     1
  0
VERTEX
  8
Layer1$C$L1
 62
     3
 10
-159.2011310023
 20
131.2474415039
  0
VERTEX
  8
Layer1$C$L1
 62
     3
 10
-159.2187215244
 20
131.2981385352
  0
VERTEX
  8
Layer1$C$L1
 62
     3
 10
-159.3655519755
 20
132.1936010221
  0
VERTEX
  8
Layer1$C$L1
 62
     3
 10
-159.2187215244
 20
133.0890635090
  0
VERTEX
  8
Layer1$C$L1
 62
     3
 10
-159.1649295740
 20
133.2354965737
  0
SEQEND
  8
Layer1$C$L1
 62
     3
  0
POLYLINE
  8
Layer1$C$L1
 62
     3
 66
     1
  0
VERTEX
  8
Layer1$C$L1
 62
     3
 10
-166.3210549057
 20
133.0632819216
  0
VERTEX
  8
Layer1$C$L1
 62
     3
 10
-166.5634433752
 20
132.8375376583
  0
VERTEX
  8
Layer1$C$L1
 62
     3
 10
-166.7704540459
 20
132.6737239269
  0
VERTEX
  8
Layer1$C$L1
 62
     3
 10
-166.9150461601
 20
132.5929756347
  0
VERTEX
  8
Layer1$C$L1
 62
     3
 10
-166.9719051575
 20
132.5849089858
  0
SEQEND
  8
Layer1$C$L1
 62
     3
  0
POLYLINE
  8
Layer1$C$L1
 62
     3
 66
     1
  0
VERTEX
  8
Layer1$C$L1
 62
     3
 10
-162.9331173361
 20
136.6236968072
  0
VERTEX
  8
Layer1$C$L1
 62
     3
 10
-162.9569733076
 20
136.5303332086
  0
VERTEX
  8
Layer1$C$L1
 62
     3
 10
-163.0657537665
 20
136.3616817462
  0
VERTEX
  8
Layer1$C$L1
 62
     3
 10
-163.2481824758
 20
136.1453190567
  0
VERTEX
  8
Layer1$C$L1
 62
     3
 10
-163.4114902719
 20
135.9728465555
  0
SEQEND
  8
Layer1$C$L1
 62
     3
  0
POLYLINE
  8
Layer1$C$L1
 62
     3
 66
     1
  0
VERTEX
  8
Layer1$C$L1
 62
     3
 10
-158.1210549057
 20
134.8362870440
  0
VERTEX
  8
Layer1$C$L1
 62
     3
 10
-158.3634433752
 20
134.6570800110
  0
VERTEX
  8
Layer1$C$L1
 62
     3
 10
-158.5704540459
 20
134.5637305532
  0
VERTEX
  8
Layer1$C$L1
 62
     3
 10
-158.7150461601
 20
134.5673016617
  0
VERTEX
  8
Layer1$C$L1
 62
     3
 10
-158.7719051575
 20
134.6241095914
  0
SEQEND
  8
Layer1$C$L1
 62
     3
  0
POLYLINE
  8
Layer1$C$L1
 62
     3
 66
     1
  0
VERTEX
  8
Layer1$C$L1
 62
     3
 10
-158.1210549057
 20
130.5562505318
  0
VERTEX
  8
Layer1$C$L1
 62
     3
 10
-158.3634433752
 20
130.3770434989
  0
VERTEX
  8
Layer1$C$L1
 62
     3
 10
-158.5704540459
 20
130.2836940410
  0
VERTEX
  8
Layer1$C$L1
 62
     3
 10
-158.7150461601
 20
130.2872651495
  0
VERTEX
  8
Layer1$C$L1
 62
     3
 10
-158.7719051575
 20
130.3440730792
  0
SEQEND
  8
Layer1$C$L1
 62
     3
  0
POLYLINE
  8
Layer1$C$L1
 62
     3
 66
     1
  0
VERTEX
  8
Layer1$C$L1
 62
     3
 10
-162.8100490453
 20
135.3714053289
  0
VERTEX
  8
Layer1$C$L1
 62
     3
 10
-162.5676605759
 20
135.5971495922
  0
VERTEX
  8
Layer1$C$L1
 62
     3
 10
-162.3606499052
 20
135.7609633236
  0
VERTEX
  8
Layer1$C$L1
 62
     3
 10
-162.2160577910
 20
135.8417116158
  0
VERTEX
  8
Layer1$C$L1
 62
     3
 10
-162.1591987936
 20
135.8497782647
  0
SEQEND
  8
Layer1$C$L1
 62
     3
  0
POLYLINE
  8
Layer1$C$L1
 62
     3
 66
     1
  0
VERTEX
  8
Layer1$C$L1
 62
     3
 10
-157.9979866150
 20
133.8765616837
  0
VERTEX
  8
Layer1$C$L1
 62
     3
 10
-157.9741306435
 20
133.8760198912
  0
VERTEX
  8
Layer1$C$L1
 62
     3
 10
-157.8653501845
 20
133.9603798314
  0
VERTEX
  8
Layer1$C$L1
 62
     3
 10
-157.6829214753
 20
134.1129994342
  0
VERTEX
  8
Layer1$C$L1
 62
     3
 10
-157.5196136792
 20
134.2553394303
  0
SEQEND
  8
Layer1$C$L1
 62
     3
  0
POLYLINE
  8
Layer1$C$L1
 62
     3
 66
     1
  0
VERTEX
  8
Layer1$C$L1
 62
     3
 10
-158.0624145324
 20
133.9092831857
  0
VERTEX
  8
Layer1$C$L1
 62
     3
 10
-157.5899501152
 20
133.6396080546
  0
VERTEX
  8
Layer1$C$L1
 62
     3
 10
-156.7857049822
 20
133.4052924977
  0
VERTEX
  8
Layer1$C$L1
 62
     3
 10
-155.9425611683
 20
133.4056987872
  0
VERTEX
  8
Layer1$C$L1
 62
     3
 10
-155.1313354677
 20
133.6440824285
  0
VERTEX
  8
Layer1$C$L1
 62
     3
 10
-154.8978678558
 20
133.7951118622
  0
SEQEND
  8
Layer1$C$L1
 62
     3
  0
POLYLINE
  8
Layer1$C$L1
 62
     3
 66
     1
  0
VERTEX
  8
Layer1$C$L1
 62
     3
 10
-158.0624145324
 20
129.6292466735
  0
VERTEX
  8
Layer1$C$L1
 62
     3
 10
-157.5899501152
 20
129.3595715424
  0
VERTEX
  8
Layer1$C$L1
 62
     3
 10
-156.7857049822
 20
129.1252559855
  0
VERTEX
  8
Layer1$C$L1
 62
     3
 10
-155.9425611683
 20
129.1256622751
  0
VERTEX
  8
Layer1$C$L1
 62
     3
 10
-155.1313354677
 20
129.3640459163
  0
VERTEX
  8
Layer1$C$L1
 62
     3
 10
-154.8978678558
 20
129.5150753500
  0
SEQEND
  8
Layer1$C$L1
 62
     3
  0
POLYLINE
  8
Layer1$C$L1
 62
     3
 66
     1
  0
VERTEX
  8
Layer1$C$L1
 62
     3
 10
-154.8978678558
 20
129.5150753500
  0
VERTEX
  8
Layer1$C$L1
 62
     3
 10
-154.4226053534
 20
129.8225211067
  0
VERTEX
  8
Layer1$C$L1
 62
     3
 10
-153.8788320931
 20
130.4624271126
  0
VERTEX
  8
Layer1$C$L1
 62
     3
 10
-153.5474850156
 20
131.2275098232
  0
VERTEX
  8
Layer1$C$L1
 62
     3
 10
-153.4555180555
 20
132.0504105804
  0
VERTEX
  8
Layer1$C$L1
 62
     3
 10
-153.6076726710
 20
132.8607883755
  0
VERTEX
  8
Layer1$C$L1
 62
     3
 10
-153.7994571707
 20
133.2354965737
  0
SEQEND
  8
Layer1$C$L1
 62
     3
  0
POLYLINE
  8
Layer1$C$L1
 62
     3
 66
     1
  0
VERTEX
  8
Layer1$C$L1
 62
     3
 10
-155.4104704022
 20
139.2206428189
  0
VERTEX
  8
Layer1$C$L1
 62
     3
 10
-154.6021962186
 20
138.8179887606
  0
VERTEX
  8
Layer1$C$L1
 62
     3
 10
-153.9385009924
 20
138.1769084008
  0
VERTEX
  8
Layer1$C$L1
 62
     3
 10
-153.5123824266
 20
137.3691000212
  0
VERTEX
  8
Layer1$C$L1
 62
     3
 10
-153.3655519755
 20
136.4736375343
  0
VERTEX
  8
Layer1$C$L1
 62
     3
 10
-153.5123824266
 20
135.5781750474
  0
VERTEX
  8
Layer1$C$L1
 62
     3
 10
-153.5299729487
 20
135.5274780161
  0
SEQEND
  8
Layer1$C$L1
 62
     3
  0
POLYLINE
  8
Layer1$C$L1
 62
     3
 66
     1
  0
VERTEX
  8
Layer1$C$L1
 62
     3
 10
-163.3574211174
 20
134.9138787481
  0
VERTEX
  8
Layer1$C$L1
 62
     3
 10
-163.3253707542
 20
134.9155757267
  0
VERTEX
  8
Layer1$C$L1
 62
     3
 10
-163.2842541241
 20
134.9318350518
  0
VERTEX
  8
Layer1$C$L1
 62
     3
 10
-163.2220433458
 20
134.9754148321
  0
VERTEX
  8
Layer1$C$L1
 62
     3
 10
-163.1562761403
 20
135.0327257914
  0
VERTEX
  8
Layer1$C$L1
 62
     3
 10
-163.0709129146
 20
135.1136971762
  0
VERTEX
  8
Layer1$C$L1
 62
     3
 10
-162.9561097047
 20
135.2271433960
  0
SEQEND
  8
Layer1$C$L1
 62
     3
  0
POLYLINE
  8
Layer1$C$L1
 62
     3
 66
     1
  0
VERTEX
  8
Layer1$C$L1
 62
     3
 10
-159.2011310023
 20
135.5274780161
  0
VERTEX
  8
Layer1$C$L1
 62
     3
 10
-159.2187215244
 20
135.5781750474
  0
VERTEX
  8
Layer1$C$L1
 62
     3
 10
-159.3655519755
 20
136.4736375343
  0
VERTEX
  8
Layer1$C$L1
 62
     3
 10
-159.2187215244
 20
137.3691000212
  0
VERTEX
  8
Layer1$C$L1
 62
     3
 10
-158.7926029586
 20
138.1769084008
  0
VERTEX
  8
Layer1$C$L1
 62
     3
 10
-158.1289077324
 20
138.8179887606
  0
VERTEX
  8
Layer1$C$L1
 62
     3
 10
-157.3307443523
 20
139.2173436253
  0
SEQEND
  8
Layer1$C$L1
 62
     3
  0
POLYLINE
  8
Layer1$C$L1
 62
     3
 66
     1
  0
VERTEX
  8
Layer1$C$L1
 62
     3
 10
-165.7736828337
 20
133.5208085024
  0
VERTEX
  8
Layer1$C$L1
 62
     3
 10
-165.8057331969
 20
133.5191115238
  0
VERTEX
  8
Layer1$C$L1
 62
     3
 10
-165.8468498270
 20
133.5028521987
  0
VERTEX
  8
Layer1$C$L1
 62
     3
 10
-165.9090606052
 20
133.4592724184
  0
VERTEX
  8
Layer1$C$L1
 62
     3
 10
-165.9748278107
 20
133.4019614591
  0
VERTEX
  8
Layer1$C$L1
 62
     3
 10
-166.0601910364
 20
133.3209900743
  0
VERTEX
  8
Layer1$C$L1
 62
     3
 10
-166.1749942463
 20
133.2075438545
  0
SEQEND
  8
Layer1$C$L1
 62
     3
  0
POLYLINE
  8
Layer1$C$L1
 62
     3
 66
     1
  0
VERTEX
  8
Layer1$C$L1
 62
     3
 10
-159.4569173639
 20
136.2503017063
  0
VERTEX
  8
Layer1$C$L1
 62
     3
 10
-159.4350662369
 20
136.8925445420
  0
VERTEX
  8
Layer1$C$L1
 62
     3
 10
-159.2718552690
 20
137.5154955214
  0
VERTEX
  8
Layer1$C$L1
 62
     3
 10
-158.9748007886
 20
138.0904659846
  0
VERTEX
  8
Layer1$C$L1
 62
     3
 10
-158.5575829972
 20
138.5909769102
  0
VERTEX
  8
Layer1$C$L1
 62
     3
 10
-158.0394159579
 20
138.9939783501
  0
VERTEX
  8
Layer1$C$L1
 62
     3
 10
-157.6071623509
 20
139.2173436253
  0
SEQEND
  8
Layer1$C$L1
 62
     3
  0
POLYLINE
  8
Layer1$C$L1
 62
     3
 66
     1
  0
VERTEX
  8
Layer1$C$L1
 62
     3
 10
-157.9690904963
 20
139.2173436253
  0
VERTEX
  8
Layer1$C$L1
 62
     3
 10
-158.0911026460
 20
139.1423018884
  0
VERTEX
  8
Layer1$C$L1
 62
     3
 10
-158.5575829972
 20
138.7720353245
  0
VERTEX
  8
Layer1$C$L1
 62
     3
 10
-158.9409111512
 20
138.3214499058
  0
VERTEX
  8
Layer1$C$L1
 62
     3
 10
-159.2265459915
 20
137.8076380764
  0
VERTEX
  8
Layer1$C$L1
 62
     3
 10
-159.4036522863
 20
137.2500907020
  0
VERTEX
  8
Layer1$C$L1
 62
     3
 10
-159.4655117101
 20
136.6699577066
  0
SEQEND
  8
Layer1$C$L1
 62
     3
  0
POLYLINE
  8
Layer1$C$L1
 62
     3
 66
     1
  0
VERTEX
  8
Layer1$C$L1
 62
     3
 10
-159.5336029721
 20
129.6929886678
  0
VERTEX
  8
Layer1$C$L1
 62
     3
 10
-159.5256249753
 20
129.6592498374
  0
VERTEX
  8
Layer1$C$L1
 62
     3
 10
-159.5106457231
 20
129.6268761149
  0
VERTEX
  8
Layer1$C$L1
 62
     3
 10
-159.4892150731
 20
129.5970558736
  0
VERTEX
  8
Layer1$C$L1
 62
     3
 10
-159.4621197008
 20
129.5708837537
  0
VERTEX
  8
Layer1$C$L1
 62
     3
 10
-159.4303542220
 20
129.5493204804
  0
VERTEX
  8
Layer1$C$L1
 62
     3
 10
-159.3950846828
 20
129.5331575974
  0
VERTEX
  8
Layer1$C$L1
 62
     3
 10
-159.3576057558
 20
129.5229884113
  0
SEQEND
  8
Layer1$C$L1
 62
     3
  0
POLYLINE
  8
Layer1$C$L1
 62
     3
 66
     1
  0
VERTEX
  8
Layer1$C$L1
 62
     3
 10
-153.3734981953
 20
129.5229884113
  0
VERTEX
  8
Layer1$C$L1
 62
     3
 10
-153.3360192683
 20
129.5331575974
  0
VERTEX
  8
Layer1$C$L1
 62
     3
 10
-153.3007497290
 20
129.5493204804
  0
VERTEX
  8
Layer1$C$L1
 62
     3
 10
-153.2689842502
 20
129.5708837537
  0
VERTEX
  8
Layer1$C$L1
 62
     3
 10
-153.2418888779
 20
129.5970558736
  0
VERTEX
  8
Layer1$C$L1
 62
     3
 10
-153.2204582279
 20
129.6268761149
  0
VERTEX
  8
Layer1$C$L1
 62
     3
 10
-153.2054789757
 20
129.6592498374
  0
VERTEX
  8
Layer1$C$L1
 62
     3
 10
-153.1975009790
 20
129.6929886678
  0
SEQEND
  8
Layer1$C$L1
 62
     3
  0
POLYLINE
  8
Layer1$C$L1
 62
     3
 66
     1
  0
VERTEX
  8
Layer1$C$L1
 62
     3
 10
-159.5336029721
 20
133.9730251800
  0
VERTEX
  8
Layer1$C$L1
 62
     3
 10
-159.5256249753
 20
133.9392863496
  0
VERTEX
  8
Layer1$C$L1
 62
     3
 10
-159.5106457231
 20
133.9069126271
  0
VERTEX
  8
Layer1$C$L1
 62
     3
 10
-159.4892150731
 20
133.8770923858
  0
VERTEX
  8
Layer1$C$L1
 62
     3
 10
-159.4621197008
 20
133.8509202659
  0
VERTEX
  8
Layer1$C$L1
 62
     3
 10
-159.4303542220
 20
133.8293569926
  0
VERTEX
  8
Layer1$C$L1
 62
     3
 10
-159.3950846828
 20
133.8131941096
  0
VERTEX
  8
Layer1$C$L1
 62
     3
 10
-159.3576057558
 20
133.8030249234
  0
SEQEND
  8
Layer1$C$L1
 62
     3
  0
POLYLINE
  8
Layer1$C$L1
 62
     3
 66
     1
  0
VERTEX
  8
Layer1$C$L1
 62
     3
 10
-153.3734981953
 20
133.8030249234
  0
VERTEX
  8
Layer1$C$L1
 62
     3
 10
-153.3360192683
 20
133.8131941096
  0
VERTEX
  8
Layer1$C$L1
 62
     3
 10
-153.3007497290
 20
133.8293569926
  0
VERTEX
  8
Layer1$C$L1
 62
     3
 10
-153.2689842502
 20
133.8509202659
  0
VERTEX
  8
Layer1$C$L1
 62
     3
 10
-153.2418888779
 20
133.8770923858
  0
VERTEX
  8
Layer1$C$L1
 62
     3
 10
-153.2204582279
 20
133.9069126271
  0
VERTEX
  8
Layer1$C$L1
 62
     3
 10
-153.2054789757
 20
133.9392863496
  0
VERTEX
  8
Layer1$C$L1
 62
     3
 10
-153.1975009790
 20
133.9730251800
  0
SEQEND
  8
Layer1$C$L1
 62
     3
  0
POLYLINE
  8
Layer1$C$L1
 62
     3
 66
     1
  0
VERTEX
  8
Layer1$C$L1
 62
     3
 10
-154.8978678558
 20
133.7951118622
  0
VERTEX
  8
Layer1$C$L1
 62
     3
 10
-154.4226053534
 20
134.1025576188
  0
VERTEX
  8
Layer1$C$L1
 62
     3
 10
-153.8788320931
 20
134.7424636247
  0
VERTEX
  8
Layer1$C$L1
 62
     3
 10
-153.5474850156
 20
135.5075463354
  0
VERTEX
  8
Layer1$C$L1
 62
     3
 10
-153.4555180555
 20
136.3304470926
  0
VERTEX
  8
Layer1$C$L1
 62
     3
 10
-153.6076726710
 20
137.1408248877
  0
VERTEX
  8
Layer1$C$L1
 62
     3
 10
-153.9656219435
 20
137.8401855093
  0
VERTEX
  8
Layer1$C$L1
 62
     3
 10
-154.0195836103
 20
137.9144696791
  0
SEQEND
  8
Layer1$C$L1
 62
     3
  0
POLYLINE
  8
Layer1$C$L1
 62
     3
 66
     1
  0
VERTEX
  8
Layer1$C$L1
 62
     3
 10
-163.5557522048
 20
132.6079013545
  0
VERTEX
  8
Layer1$C$L1
 62
     3
 10
-163.6291733789
 20
132.6769169742
  0
VERTEX
  8
Layer1$C$L1
 62
     3
 10
-163.7027416965
 20
132.7461994650
  0
VERTEX
  8
Layer1$C$L1
 62
     3
 10
-163.7764448689
 20
132.8157372541
  0
VERTEX
  8
Layer1$C$L1
 62
     3
 10
-163.8502705844
 20
132.8855187255
  0
VERTEX
  8
Layer1$C$L1
 62
     3
 10
-163.9242065111
 20
132.9555322231
  0
VERTEX
  8
Layer1$C$L1
 62
     3
 10
-163.9982402988
 20
133.0257660516
  0
VERTEX
  8
Layer1$C$L1
 62
     3
 10
-164.0723595805
 20
133.0962084790
  0
VERTEX
  8
Layer1$C$L1
 62
     3
 10
-164.1465519755
 20
133.1668477386
  0
SEQEND
  8
Layer1$C$L1
 62
     3
  0
POLYLINE
  8
Layer1$C$L1
 62
     3
 66
     1
  0
VERTEX
  8
Layer1$C$L1
 62
     3
 10
-157.4160478621
 20
131.2143897331
  0
VERTEX
  8
Layer1$C$L1
 62
     3
 10
-157.4866871218
 20
131.1463410882
  0
VERTEX
  8
Layer1$C$L1
 62
     3
 10
-157.5571295492
 20
131.0787046194
  0
VERTEX
  8
Layer1$C$L1
 62
     3
 10
-157.6273633777
 20
131.0114916248
  0
VERTEX
  8
Layer1$C$L1
 62
     3
 10
-157.6973768752
 20
130.9447133316
  0
VERTEX
  8
Layer1$C$L1
 62
     3
 10
-157.7671583467
 20
130.8783808946
  0
VERTEX
  8
Layer1$C$L1
 62
     3
 10
-157.8366961357
 20
130.8125053941
  0
VERTEX
  8
Layer1$C$L1
 62
     3
 10
-157.9059786266
 20
130.7470978340
  0
VERTEX
  8
Layer1$C$L1
 62
     3
 10
-157.9749942463
 20
130.6821691401
  0
SEQEND
  8
Layer1$C$L1
 62
     3
  0
POLYLINE
  8
Layer1$C$L1
 62
     3
 66
     1
  0
VERTEX
  8
Layer1$C$L1
 62
     3
 10
-155.3150560889
 20
131.2143897331
  0
VERTEX
  8
Layer1$C$L1
 62
     3
 10
-155.3337050954
 20
131.2636237206
  0
VERTEX
  8
Layer1$C$L1
 62
     3
 10
-155.3523982429
 20
131.3129769322
  0
VERTEX
  8
Layer1$C$L1
 62
     3
 10
-155.3711346225
 20
131.3624469684
  0
VERTEX
  8
Layer1$C$L1
 62
     3
 10
-155.3899133231
 20
131.4120314239
  0
VERTEX
  8
Layer1$C$L1
 62
     3
 10
-155.4087334318
 20
131.4617278877
  0
VERTEX
  8
Layer1$C$L1
 62
     3
 10
-155.4275940334
 20
131.5115339437
  0
VERTEX
  8
Layer1$C$L1
 62
     3
 10
-155.4464942110
 20
131.5614471701
  0
VERTEX
  8
Layer1$C$L1
 62
     3
 10
-155.4654330456
 20
131.6114651401
  0
SEQEND
  8
Layer1$C$L1
 62
     3
  0
POLYLINE
  8
Layer1$C$L1
 62
     3
 66
     1
  0
VERTEX
  8
Layer1$C$L1
 62
     3
 10
-157.2656709054
 20
131.6114651401
  0
VERTEX
  8
Layer1$C$L1
 62
     3
 10
-157.2846097400
 20
131.5614471701
  0
VERTEX
  8
Layer1$C$L1
 62
     3
 10
-157.3035099176
 20
131.5115339437
  0
VERTEX
  8
Layer1$C$L1
 62
     3
 10
-157.3223705193
 20
131.4617278877
  0
VERTEX
  8
Layer1$C$L1
 62
     3
 10
-157.3411906280
 20
131.4120314239
  0
VERTEX
  8
Layer1$C$L1
 62
     3
 10
-157.3599693286
 20
131.3624469684
  0
VERTEX
  8
Layer1$C$L1
 62
     3
 10
-157.3787057081
 20
131.3129769322
  0
VERTEX
  8
Layer1$C$L1
 62
     3
 10
-157.3973988556
 20
131.2636237206
  0
VERTEX
  8
Layer1$C$L1
 62
     3
 10
-157.4160478621
 20
131.2143897331
  0
SEQEND
  8
Layer1$C$L1
 62
     3
  0
POLYLINE
  8
Layer1$C$L1
 62
     3
 66
     1
  0
VERTEX
  8
Layer1$C$L1
 62
     3
 10
-164.9845519755
 20
133.1668477386
  0
VERTEX
  8
Layer1$C$L1
 62
     3
 10
-165.0587443705
 20
133.0962084790
  0
VERTEX
  8
Layer1$C$L1
 62
     3
 10
-165.1328636523
 20
133.0257660516
  0
VERTEX
  8
Layer1$C$L1
 62
     3
 10
-165.2068974399
 20
132.9555322231
  0
VERTEX
  8
Layer1$C$L1
 62
     3
 10
-165.2808333666
 20
132.8855187255
  0
VERTEX
  8
Layer1$C$L1
 62
     3
 10
-165.3546590822
 20
132.8157372541
  0
VERTEX
  8
Layer1$C$L1
 62
     3
 10
-165.4283622545
 20
132.7461994650
  0
VERTEX
  8
Layer1$C$L1
 62
     3
 10
-165.5019305722
 20
132.6769169742
  0
VERTEX
  8
Layer1$C$L1
 62
     3
 10
-165.5753517463
 20
132.6079013545
  0
SEQEND
  8
Layer1$C$L1
 62
     3
  0
POLYLINE
  8
Layer1$C$L1
 62
     3
 66
     1
  0
VERTEX
  8
Layer1$C$L1
 62
     3
 10
-164.1465519755
 20
133.1668477386
  0
VERTEX
  8
Layer1$C$L1
 62
     3
 10
-164.1988746829
 20
133.1854967452
  0
VERTEX
  8
Layer1$C$L1
 62
     3
 10
-164.2512174228
 20
133.2041898926
  0
VERTEX
  8
Layer1$C$L1
 62
     3
 10
-164.3035776503
 20
133.2229262722
  0
VERTEX
  8
Layer1$C$L1
 62
     3
 10
-164.3559528197
 20
133.2417049728
  0
VERTEX
  8
Layer1$C$L1
 62
     3
 10
-164.4083403842
 20
133.2605250815
  0
VERTEX
  8
Layer1$C$L1
 62
     3
 10
-164.4607377969
 20
133.2793856831
  0
VERTEX
  8
Layer1$C$L1
 62
     3
 10
-164.5131425099
 20
133.2982858607
  0
VERTEX
  8
Layer1$C$L1
 62
     3
 10
-164.5655519755
 20
133.3172246953
  0
SEQEND
  8
Layer1$C$L1
 62
     3
  0
POLYLINE
  8
Layer1$C$L1
 62
     3
 66
     1
  0
VERTEX
  8
Layer1$C$L1
 62
     3
 10
-156.3655519755
 20
132.4809132612
  0
VERTEX
  8
Layer1$C$L1
 62
     3
 10
-156.3131425099
 20
132.4998124570
  0
VERTEX
  8
Layer1$C$L1
 62
     3
 10
-156.2607377968
 20
132.5187744661
  0
VERTEX
  8
Layer1$C$L1
 62
     3
 10
-156.2083403842
 20
132.5377983665
  0
VERTEX
  8
Layer1$C$L1
 62
     3
 10
-156.1559528197
 20
132.5568832332
  0
VERTEX
  8
Layer1$C$L1
 62
     3
 10
-156.1035776503
 20
132.5760281384
  0
VERTEX
  8
Layer1$C$L1
 62
     3
 10
-156.0512174228
 20
132.5952321511
  0
VERTEX
  8
Layer1$C$L1
 62
     3
 10
-155.9988746829
 20
132.6144943377
  0
VERTEX
  8
Layer1$C$L1
 62
     3
 10
-155.9465519755
 20
132.6338137616
  0
SEQEND
  8
Layer1$C$L1
 62
     3
  0
POLYLINE
  8
Layer1$C$L1
 62
     3
 66
     1
  0
VERTEX
  8
Layer1$C$L1
 62
     3
 10
-163.5150560889
 20
133.7983436253
  0
VERTEX
  8
Layer1$C$L1
 62
     3
 10
-163.4444168293
 20
133.7241512303
  0
VERTEX
  8
Layer1$C$L1
 62
     3
 10
-163.3739744018
 20
133.6500319485
  0
VERTEX
  8
Layer1$C$L1
 62
     3
 10
-163.3037405734
 20
133.5759981609
  0
VERTEX
  8
Layer1$C$L1
 62
     3
 10
-163.2337270758
 20
133.5020622341
  0
VERTEX
  8
Layer1$C$L1
 62
     3
 10
-163.1639456043
 20
133.4282365186
  0
VERTEX
  8
Layer1$C$L1
 62
     3
 10
-163.0944078153
 20
133.3545333463
  0
VERTEX
  8
Layer1$C$L1
 62
     3
 10
-163.0251253244
 20
133.2809650286
  0
VERTEX
  8
Layer1$C$L1
 62
     3
 10
-162.9561097047
 20
133.2075438545
  0
SEQEND
  8
Layer1$C$L1
 62
     3
  0
POLYLINE
  8
Layer1$C$L1
 62
     3
 66
     1
  0
VERTEX
  8
Layer1$C$L1
 62
     3
 10
-165.6160478621
 20
133.7983436253
  0
VERTEX
  8
Layer1$C$L1
 62
     3
 10
-165.6866871218
 20
133.7241512303
  0
VERTEX
  8
Layer1$C$L1
 62
     3
 10
-165.7571295492
 20
133.6500319485
  0
VERTEX
  8
Layer1$C$L1
 62
     3
 10
-165.8273633777
 20
133.5759981609
  0
VERTEX
  8
Layer1$C$L1
 62
     3
 10
-165.8973768752
 20
133.5020622341
  0
VERTEX
  8
Layer1$C$L1
 62
     3
 10
-165.9671583467
 20
133.4282365186
  0
VERTEX
  8
Layer1$C$L1
 62
     3
 10
-166.0366961357
 20
133.3545333463
  0
VERTEX
  8
Layer1$C$L1
 62
     3
 10
-166.1059786266
 20
133.2809650286
  0
VERTEX
  8
Layer1$C$L1
 62
     3
 10
-166.1749942463
 20
133.2075438545
  0
SEQEND
  8
Layer1$C$L1
 62
     3
  0
POLYLINE
  8
Layer1$C$L1
 62
     3
 66
     1
  0
VERTEX
  8
Layer1$C$L1
 62
     3
 10
-155.4654330456
 20
131.6114651401
  0
VERTEX
  8
Layer1$C$L1
 62
     3
 10
-155.4464942110
 20
131.6626944827
  0
VERTEX
  8
Layer1$C$L1
 62
     3
 10
-155.4275940334
 20
131.7140193880
  0
VERTEX
  8
Layer1$C$L1
 62
     3
 10
-155.4087334318
 20
131.7654373602
  0
VERTEX
  8
Layer1$C$L1
 62
     3
 10
-155.3899133231
 20
131.8169458995
  0
VERTEX
  8
Layer1$C$L1
 62
     3
 10
-155.3711346225
 20
131.8685425015
  0
VERTEX
  8
Layer1$C$L1
 62
     3
 10
-155.3523982429
 20
131.9202246574
  0
VERTEX
  8
Layer1$C$L1
 62
     3
 10
-155.3337050954
 20
131.9719898544
  0
VERTEX
  8
Layer1$C$L1
 62
     3
 10
-155.3150560889
 20
132.0238355755
  0
SEQEND
  8
Layer1$C$L1
 62
     3
  0
POLYLINE
  8
Layer1$C$L1
 62
     3
 66
     1
  0
VERTEX
  8
Layer1$C$L1
 62
     3
 10
-156.3655519755
 20
130.7420170189
  0
VERTEX
  8
Layer1$C$L1
 62
     3
 10
-156.3131425099
 20
130.7243291958
  0
VERTEX
  8
Layer1$C$L1
 62
     3
 10
-156.2607377968
 20
130.7067788656
  0
VERTEX
  8
Layer1$C$L1
 62
     3
 10
-156.2083403842
 20
130.6893668815
  0
VERTEX
  8
Layer1$C$L1
 62
     3
 10
-156.1559528197
 20
130.6720940902
  0
VERTEX
  8
Layer1$C$L1
 62
     3
 10
-156.1035776503
 20
130.6549613315
  0
VERTEX
  8
Layer1$C$L1
 62
     3
 10
-156.0512174228
 20
130.6379694385
  0
VERTEX
  8
Layer1$C$L1
 62
     3
 10
-155.9988746829
 20
130.6211192372
  0
VERTEX
  8
Layer1$C$L1
 62
     3
 10
-155.9465519755
 20
130.6044115470
  0
SEQEND
  8
Layer1$C$L1
 62
     3
  0
POLYLINE
  8
Layer1$C$L1
 62
     3
 66
     1
  0
VERTEX
  8
Layer1$C$L1
 62
     3
 10
-157.9749942463
 20
132.6329524960
  0
VERTEX
  8
Layer1$C$L1
 62
     3
 10
-157.9156612482
 20
132.7188321183
  0
VERTEX
  8
Layer1$C$L1
 62
     3
 10
-157.8514223313
 20
132.8013529382
  0
VERTEX
  8
Layer1$C$L1
 62
     3
 10
-157.7824808045
 20
132.8802537867
  0
VERTEX
  8
Layer1$C$L1
 62
     3
 10
-157.7090548598
 20
132.9552849517
  0
VERTEX
  8
Layer1$C$L1
 62
     3
 10
-157.6313768819
 20
133.0262089680
  0
VERTEX
  8
Layer1$C$L1
 62
     3
 10
-157.5496927129
 20
133.0928013692
  0
VERTEX
  8
Layer1$C$L1
 62
     3
 10
-157.4642608737
 20
133.1548513981
  0
VERTEX
  8
Layer1$C$L1
 62
     3
 10
-157.3753517463
 20
133.2121626733
  0
SEQEND
  8
Layer1$C$L1
 62
     3
  0
POLYLINE
  8
Layer1$C$L1
 62
     3
 66
     1
  0
VERTEX
  8
Layer1$C$L1
 62
     3
 10
-155.9465519755
 20
132.6338137616
  0
VERTEX
  8
Layer1$C$L1
 62
     3
 10
-155.8723595805
 20
132.7056617524
  0
VERTEX
  8
Layer1$C$L1
 62
     3
 10
-155.7982402988
 20
132.7776611720
  0
VERTEX
  8
Layer1$C$L1
 62
     3
 10
-155.7242065111
 20
132.8497999936
  0
VERTEX
  8
Layer1$C$L1
 62
     3
 10
-155.6502705844
 20
132.9220661670
  0
VERTEX
  8
Layer1$C$L1
 62
     3
 10
-155.5764448689
 20
132.9944476208
  0
VERTEX
  8
Layer1$C$L1
 62
     3
 10
-155.5027416965
 20
133.0669322643
  0
VERTEX
  8
Layer1$C$L1
 62
     3
 10
-155.4291733789
 20
133.1395079895
  0
VERTEX
  8
Layer1$C$L1
 62
     3
 10
-155.3557522048
 20
133.2121626733
  0
SEQEND
  8
Layer1$C$L1
 62
     3
  0
POLYLINE
  8
Layer1$C$L1
 62
     3
 66
     1
  0
VERTEX
  8
Layer1$C$L1
 62
     3
 10
-157.3753517463
 20
133.2121626733
  0
VERTEX
  8
Layer1$C$L1
 62
     3
 10
-157.3019305722
 20
133.1395079895
  0
VERTEX
  8
Layer1$C$L1
 62
     3
 10
-157.2283622545
 20
133.0669322643
  0
VERTEX
  8
Layer1$C$L1
 62
     3
 10
-157.1546590822
 20
132.9944476208
  0
VERTEX
  8
Layer1$C$L1
 62
     3
 10
-157.0808333666
 20
132.9220661670
  0
VERTEX
  8
Layer1$C$L1
 62
     3
 10
-157.0068974399
 20
132.8497999936
  0
VERTEX
  8
Layer1$C$L1
 62
     3
 10
-156.9328636523
 20
132.7776611720
  0
VERTEX
  8
Layer1$C$L1
 62
     3
 10
-156.8587443705
 20
132.7056617524
  0
VERTEX
  8
Layer1$C$L1
 62
     3
 10
-156.7845519755
 20
132.6338137616
  0
SEQEND
  8
Layer1$C$L1
 62
     3
  0
POLYLINE
  8
Layer1$C$L1
 62
     3
 66
     1
  0
VERTEX
  8
Layer1$C$L1
 62
     3
 10
-165.4656709054
 20
134.2173436253
  0
VERTEX
  8
Layer1$C$L1
 62
     3
 10
-165.4846097400
 20
134.1649341597
  0
VERTEX
  8
Layer1$C$L1
 62
     3
 10
-165.5035099176
 20
134.1125294466
  0
VERTEX
  8
Layer1$C$L1
 62
     3
 10
-165.5223705193
 20
134.0601320339
  0
VERTEX
  8
Layer1$C$L1
 62
     3
 10
-165.5411906280
 20
134.0077444694
  0
VERTEX
  8
Layer1$C$L1
 62
     3
 10
-165.5599693286
 20
133.9553693001
  0
VERTEX
  8
Layer1$C$L1
 62
     3
 10
-165.5787057081
 20
133.9030090725
  0
VERTEX
  8
Layer1$C$L1
 62
     3
 10
-165.5973988556
 20
133.8506663326
  0
VERTEX
  8
Layer1$C$L1
 62
     3
 10
-165.6160478621
 20
133.7983436253
  0
SEQEND
  8
Layer1$C$L1
 62
     3
  0
POLYLINE
  8
Layer1$C$L1
 62
     3
 66
     1
  0
VERTEX
  8
Layer1$C$L1
 62
     3
 10
-157.4160478621
 20
132.0238355755
  0
VERTEX
  8
Layer1$C$L1
 62
     3
 10
-157.4866871218
 20
132.0991156315
  0
VERTEX
  8
Layer1$C$L1
 62
     3
 10
-157.5571295492
 20
132.1746666197
  0
VERTEX
  8
Layer1$C$L1
 62
     3
 10
-157.6273633777
 20
132.2504759200
  0
VERTEX
  8
Layer1$C$L1
 62
     3
 10
-157.6973768752
 20
132.3265308691
  0
VERTEX
  8
Layer1$C$L1
 62
     3
 10
-157.7671583467
 20
132.4028187626
  0
VERTEX
  8
Layer1$C$L1
 62
     3
 10
-157.8366961357
 20
132.4793268574
  0
VERTEX
  8
Layer1$C$L1
 62
     3
 10
-157.9059786266
 20
132.5560423734
  0
VERTEX
  8
Layer1$C$L1
 62
     3
 10
-157.9749942463
 20
132.6329524960
  0
SEQEND
  8
Layer1$C$L1
 62
     3
  0
POLYLINE
  8
Layer1$C$L1
 62
     3
 66
     1
  0
VERTEX
  8
Layer1$C$L1
 62
     3
 10
-164.5655519755
 20
133.3172246953
  0
VERTEX
  8
Layer1$C$L1
 62
     3
 10
-164.6179614411
 20
133.2982858607
  0
VERTEX
  8
Layer1$C$L1
 62
     3
 10
-164.6703661542
 20
133.2793856831
  0
VERTEX
  8
Layer1$C$L1
 62
     3
 10
-164.7227635668
 20
133.2605250815
  0
VERTEX
  8
Layer1$C$L1
 62
     3
 10
-164.7751511314
 20
133.2417049728
  0
VERTEX
  8
Layer1$C$L1
 62
     3
 10
-164.8275263007
 20
133.2229262722
  0
VERTEX
  8
Layer1$C$L1
 62
     3
 10
-164.8798865282
 20
133.2041898926
  0
VERTEX
  8
Layer1$C$L1
 62
     3
 10
-164.9322292682
 20
133.1854967452
  0
VERTEX
  8
Layer1$C$L1
 62
     3
 10
-164.9845519755
 20
133.1668477386
  0
SEQEND
  8
Layer1$C$L1
 62
     3
  0
POLYLINE
  8
Layer1$C$L1
 62
     3
 66
     1
  0
VERTEX
  8
Layer1$C$L1
 62
     3
 10
-155.9465519755
 20
130.6044115470
  0
VERTEX
  8
Layer1$C$L1
 62
     3
 10
-155.8723595805
 20
130.5397949674
  0
VERTEX
  8
Layer1$C$L1
 62
     3
 10
-155.7982402988
 20
130.4757100671
  0
VERTEX
  8
Layer1$C$L1
 62
     3
 10
-155.7242065111
 20
130.4121675511
  0
VERTEX
  8
Layer1$C$L1
 62
     3
 10
-155.6502705844
 20
130.3491780336
  0
VERTEX
  8
Layer1$C$L1
 62
     3
 10
-155.5764448689
 20
130.2867520364
  0
VERTEX
  8
Layer1$C$L1
 62
     3
 10
-155.5027416965
 20
130.2248999872
  0
VERTEX
  8
Layer1$C$L1
 62
     3
 10
-155.4291733789
 20
130.1636322179
  0
VERTEX
  8
Layer1$C$L1
 62
     3
 10
-155.3557522048
 20
130.1029589628
  0
SEQEND
  8
Layer1$C$L1
 62
     3
  0
POLYLINE
  8
Layer1$C$L1
 62
     3
 66
     1
  0
VERTEX
  8
Layer1$C$L1
 62
     3
 10
-157.9978171934
 20
133.8770302163
  0
VERTEX
  8
Layer1$C$L1
 62
     3
 10
-158.1099520254
 20
133.9542927304
  0
VERTEX
  8
Layer1$C$L1
 62
     3
 10
-158.2181736168
 20
134.0365972874
  0
VERTEX
  8
Layer1$C$L1
 62
     3
 10
-158.3222391925
 20
134.1237592523
  0
VERTEX
  8
Layer1$C$L1
 62
     3
 10
-158.4219153005
 20
134.2155830932
  0
VERTEX
  8
Layer1$C$L1
 62
     3
 10
-158.5169783357
 20
134.3118628201
  0
VERTEX
  8
Layer1$C$L1
 62
     3
 10
-158.6072150418
 20
134.4123824473
  0
VERTEX
  8
Layer1$C$L1
 62
     3
 10
-158.6924229892
 20
134.5169164774
  0
VERTEX
  8
Layer1$C$L1
 62
     3
 10
-158.7724110297
 20
134.6252304076
  0
SEQEND
  8
Layer1$C$L1
 62
     3
  0
POLYLINE
  8
Layer1$C$L1
 62
     3
 66
     1
  0
VERTEX
  8
Layer1$C$L1
 62
     3
 10
-163.6654330456
 20
134.2173436253
  0
VERTEX
  8
Layer1$C$L1
 62
     3
 10
-163.6464942110
 20
134.2697530908
  0
VERTEX
  8
Layer1$C$L1
 62
     3
 10
-163.6275940334
 20
134.3221578039
  0
VERTEX
  8
Layer1$C$L1
 62
     3
 10
-163.6087334318
 20
134.3745552166
  0
VERTEX
  8
Layer1$C$L1
 62
     3
 10
-163.5899133231
 20
134.4269427811
  0
VERTEX
  8
Layer1$C$L1
 62
     3
 10
-163.5711346225
 20
134.4793179504
  0
VERTEX
  8
Layer1$C$L1
 62
     3
 10
-163.5523982429
 20
134.5316781780
  0
VERTEX
  8
Layer1$C$L1
 62
     3
 10
-163.5337050954
 20
134.5840209179
  0
VERTEX
  8
Layer1$C$L1
 62
     3
 10
-163.5150560889
 20
134.6363436253
  0
SEQEND
  8
Layer1$C$L1
 62
     3
  0
POLYLINE
  8
Layer1$C$L1
 62
     3
 66
     1
  0
VERTEX
  8
Layer1$C$L1
 62
     3
 10
-154.7561097047
 20
130.6821691401
  0
VERTEX
  8
Layer1$C$L1
 62
     3
 10
-154.8251253244
 20
130.7470978340
  0
VERTEX
  8
Layer1$C$L1
 62
     3
 10
-154.8944078153
 20
130.8125053941
  0
VERTEX
  8
Layer1$C$L1
 62
     3
 10
-154.9639456043
 20
130.8783808946
  0
VERTEX
  8
Layer1$C$L1
 62
     3
 10
-155.0337270758
 20
130.9447133316
  0
VERTEX
  8
Layer1$C$L1
 62
     3
 10
-155.1037405734
 20
131.0114916248
  0
VERTEX
  8
Layer1$C$L1
 62
     3
 10
-155.1739744018
 20
131.0787046194
  0
VERTEX
  8
Layer1$C$L1
 62
     3
 10
-155.2444168293
 20
131.1463410882
  0
VERTEX
  8
Layer1$C$L1
 62
     3
 10
-155.3150560889
 20
131.2143897331
  0
SEQEND
  8
Layer1$C$L1
 62
     3
  0
POLYLINE
  8
Layer1$C$L1
 62
     3
 66
     1
  0
VERTEX
  8
Layer1$C$L1
 62
     3
 10
-157.3753517463
 20
130.1029589628
  0
VERTEX
  8
Layer1$C$L1
 62
     3
 10
-157.3019305722
 20
130.1636322179
  0
VERTEX
  8
Layer1$C$L1
 62
     3
 10
-157.2283622545
 20
130.2248999872
  0
VERTEX
  8
Layer1$C$L1
 62
     3
 10
-157.1546590822
 20
130.2867520364
  0
VERTEX
  8
Layer1$C$L1
 62
     3
 10
-157.0808333666
 20
130.3491780336
  0
VERTEX
  8
Layer1$C$L1
 62
     3
 10
-157.0068974399
 20
130.4121675511
  0
VERTEX
  8
Layer1$C$L1
 62
     3
 10
-156.9328636523
 20
130.4757100671
  0
VERTEX
  8
Layer1$C$L1
 62
     3
 10
-156.8587443705
 20
130.5397949674
  0
VERTEX
  8
Layer1$C$L1
 62
     3
 10
-156.7845519755
 20
130.6044115470
  0
SEQEND
  8
Layer1$C$L1
 62
     3
  0
POLYLINE
  8
Layer1$C$L1
 62
     3
 66
     1
  0
VERTEX
  8
Layer1$C$L1
 62
     3
 10
-157.3753517463
 20
134.3829954750
  0
VERTEX
  8
Layer1$C$L1
 62
     3
 10
-157.3019305722
 20
134.4436687301
  0
VERTEX
  8
Layer1$C$L1
 62
     3
 10
-157.2283622545
 20
134.5049364994
  0
VERTEX
  8
Layer1$C$L1
 62
     3
 10
-157.1546590822
 20
134.5667885486
  0
VERTEX
  8
Layer1$C$L1
 62
     3
 10
-157.0808333666
 20
134.6292145458
  0
VERTEX
  8
Layer1$C$L1
 62
     3
 10
-157.0068974399
 20
134.6922040633
  0
VERTEX
  8
Layer1$C$L1
 62
     3
 10
-156.9328636523
 20
134.7557465793
  0
VERTEX
  8
Layer1$C$L1
 62
     3
 10
-156.8587443705
 20
134.8198314795
  0
VERTEX
  8
Layer1$C$L1
 62
     3
 10
-156.7845519755
 20
134.8844480592
  0
SEQEND
  8
Layer1$C$L1
 62
     3
  0
POLYLINE
  8
Layer1$C$L1
 62
     3
 66
     1
  0
VERTEX
  8
Layer1$C$L1
 62
     3
 10
-154.7561097047
 20
134.9622056523
  0
VERTEX
  8
Layer1$C$L1
 62
     3
 10
-154.8154427029
 20
134.8763260300
  0
VERTEX
  8
Layer1$C$L1
 62
     3
 10
-154.8796816198
 20
134.7938052101
  0
VERTEX
  8
Layer1$C$L1
 62
     3
 10
-154.9486231466
 20
134.7149043616
  0
VERTEX
  8
Layer1$C$L1
 62
     3
 10
-155.0220490913
 20
134.6398731966
  0
VERTEX
  8
Layer1$C$L1
 62
     3
 10
-155.0997270691
 20
134.5689491803
  0
VERTEX
  8
Layer1$C$L1
 62
     3
 10
-155.1814112382
 20
134.5023567791
  0
VERTEX
  8
Layer1$C$L1
 62
     3
 10
-155.2668430774
 20
134.4403067502
  0
VERTEX
  8
Layer1$C$L1
 62
     3
 10
-155.3557522048
 20
134.3829954750
  0
SEQEND
  8
Layer1$C$L1
 62
     3
  0
POLYLINE
  8
Layer1$C$L1
 62
     3
 66
     1
  0
VERTEX
  8
Layer1$C$L1
 62
     3
 10
-155.9465519755
 20
134.8844480592
  0
VERTEX
  8
Layer1$C$L1
 62
     3
 10
-155.8723595805
 20
134.8198314795
  0
VERTEX
  8
Layer1$C$L1
 62
     3
 10
-155.7982402988
 20
134.7557465793
  0
VERTEX
  8
Layer1$C$L1
 62
     3
 10
-155.7242065111
 20
134.6922040633
  0
VERTEX
  8
Layer1$C$L1
 62
     3
 10
-155.6502705844
 20
134.6292145458
  0
VERTEX
  8
Layer1$C$L1
 62
     3
 10
-155.5764448689
 20
134.5667885486
  0
VERTEX
  8
Layer1$C$L1
 62
     3
 10
-155.5027416965
 20
134.5049364994
  0
VERTEX
  8
Layer1$C$L1
 62
     3
 10
-155.4291733789
 20
134.4436687301
  0
VERTEX
  8
Layer1$C$L1
 62
     3
 10
-155.3557522048
 20
134.3829954750
  0
SEQEND
  8
Layer1$C$L1
 62
     3
  0
POLYLINE
  8
Layer1$C$L1
 62
     3
 66
     1
  0
VERTEX
  8
Layer1$C$L1
 62
     3
 10
-156.7845519755
 20
130.6044115470
  0
VERTEX
  8
Layer1$C$L1
 62
     3
 10
-156.7322292682
 20
130.6211192372
  0
VERTEX
  8
Layer1$C$L1
 62
     3
 10
-156.6798865282
 20
130.6379694385
  0
VERTEX
  8
Layer1$C$L1
 62
     3
 10
-156.6275263007
 20
130.6549613315
  0
VERTEX
  8
Layer1$C$L1
 62
     3
 10
-156.5751511314
 20
130.6720940902
  0
VERTEX
  8
Layer1$C$L1
 62
     3
 10
-156.5227635668
 20
130.6893668815
  0
VERTEX
  8
Layer1$C$L1
 62
     3
 10
-156.4703661542
 20
130.7067788656
  0
VERTEX
  8
Layer1$C$L1
 62
     3
 10
-156.4179614411
 20
130.7243291958
  0
VERTEX
  8
Layer1$C$L1
 62
     3
 10
-156.3655519755
 20
130.7420170189
  0
SEQEND
  8
Layer1$C$L1
 62
     3
  0
POLYLINE
  8
Layer1$C$L1
 62
     3
 66
     1
  0
VERTEX
  8
Layer1$C$L1
 62
     3
 10
-163.5150560889
 20
134.6363436253
  0
VERTEX
  8
Layer1$C$L1
 62
     3
 10
-163.4444168293
 20
134.7105360202
  0
VERTEX
  8
Layer1$C$L1
 62
     3
 10
-163.3739744018
 20
134.7846553020
  0
VERTEX
  8
Layer1$C$L1
 62
     3
 10
-163.3037405734
 20
134.8586890896
  0
VERTEX
  8
Layer1$C$L1
 62
     3
 10
-163.2337270758
 20
134.9326250164
  0
VERTEX
  8
Layer1$C$L1
 62
     3
 10
-163.1639456043
 20
135.0064507319
  0
VERTEX
  8
Layer1$C$L1
 62
     3
 10
-163.0944078153
 20
135.0801539042
  0
VERTEX
  8
Layer1$C$L1
 62
     3
 10
-163.0251253244
 20
135.1537222219
  0
VERTEX
  8
Layer1$C$L1
 62
     3
 10
-162.9561097047
 20
135.2271433960
  0
SEQEND
  8
Layer1$C$L1
 62
     3
  0
POLYLINE
  8
Layer1$C$L1
 62
     3
 66
     1
  0
VERTEX
  8
Layer1$C$L1
 62
     3
 10
-166.1749942463
 20
135.2271433960
  0
VERTEX
  8
Layer1$C$L1
 62
     3
 10
-166.1059786266
 20
135.1537222219
  0
VERTEX
  8
Layer1$C$L1
 62
     3
 10
-166.0366961357
 20
135.0801539042
  0
VERTEX
  8
Layer1$C$L1
 62
     3
 10
-165.9671583467
 20
135.0064507319
  0
VERTEX
  8
Layer1$C$L1
 62
     3
 10
-165.8973768752
 20
134.9326250164
  0
VERTEX
  8
Layer1$C$L1
 62
     3
 10
-165.8273633777
 20
134.8586890896
  0
VERTEX
  8
Layer1$C$L1
 62
     3
 10
-165.7571295492
 20
134.7846553020
  0
VERTEX
  8
Layer1$C$L1
 62
     3
 10
-165.6866871218
 20
134.7105360202
  0
VERTEX
  8
Layer1$C$L1
 62
     3
 10
-165.6160478621
 20
134.6363436253
  0
SEQEND
  8
Layer1$C$L1
 62
     3
  0
POLYLINE
  8
Layer1$C$L1
 62
     3
 66
     1
  0
VERTEX
  8
Layer1$C$L1
 62
     3
 10
-157.9978171934
 20
129.5969937041
  0
VERTEX
  8
Layer1$C$L1
 62
     3
 10
-158.1099520254
 20
129.6742562182
  0
VERTEX
  8
Layer1$C$L1
 62
     3
 10
-158.2181736168
 20
129.7565607753
  0
VERTEX
  8
Layer1$C$L1
 62
     3
 10
-158.3222391925
 20
129.8437227401
  0
VERTEX
  8
Layer1$C$L1
 62
     3
 10
-158.4219153005
 20
129.9355465810
  0
VERTEX
  8
Layer1$C$L1
 62
     3
 10
-158.5169783357
 20
130.0318263079
  0
VERTEX
  8
Layer1$C$L1
 62
     3
 10
-158.6072150418
 20
130.1323459351
  0
VERTEX
  8
Layer1$C$L1
 62
     3
 10
-158.6924229892
 20
130.2368799652
  0
VERTEX
  8
Layer1$C$L1
 62
     3
 10
-158.7724110297
 20
130.3451938955
  0
SEQEND
  8
Layer1$C$L1
 62
     3
  0
POLYLINE
  8
Layer1$C$L1
 62
     3
 66
     1
  0
VERTEX
  8
Layer1$C$L1
 62
     3
 10
-156.3655519755
 20
135.0220535311
  0
VERTEX
  8
Layer1$C$L1
 62
     3
 10
-156.3131425099
 20
135.0043657080
  0
VERTEX
  8
Layer1$C$L1
 62
     3
 10
-156.2607377969
 20
134.9868153777
  0
VERTEX
  8
Layer1$C$L1
 62
     3
 10
-156.2083403842
 20
134.9694033937
  0
VERTEX
  8
Layer1$C$L1
 62
     3
 10
-156.1559528197
 20
134.9521306024
  0
VERTEX
  8
Layer1$C$L1
 62
     3
 10
-156.1035776503
 20
134.9349978437
  0
VERTEX
  8
Layer1$C$L1
 62
     3
 10
-156.0512174228
 20
134.9180059507
  0
VERTEX
  8
Layer1$C$L1
 62
     3
 10
-155.9988746829
 20
134.9011557494
  0
VERTEX
  8
Layer1$C$L1
 62
     3
 10
-155.9465519755
 20
134.8844480592
  0
SEQEND
  8
Layer1$C$L1
 62
     3
  0
POLYLINE
  8
Layer1$C$L1
 62
     3
 66
     1
  0
VERTEX
  8
Layer1$C$L1
 62
     3
 10
-163.6654330456
 20
134.2173436253
  0
VERTEX
  8
Layer1$C$L1
 62
     3
 10
-163.6464942110
 20
134.1649341597
  0
VERTEX
  8
Layer1$C$L1
 62
     3
 10
-163.6275940334
 20
134.1125294466
  0
VERTEX
  8
Layer1$C$L1
 62
     3
 10
-163.6087334318
 20
134.0601320339
  0
VERTEX
  8
Layer1$C$L1
 62
     3
 10
-163.5899133231
 20
134.0077444694
  0
VERTEX
  8
Layer1$C$L1
 62
     3
 10
-163.5711346225
 20
133.9553693001
  0
VERTEX
  8
Layer1$C$L1
 62
     3
 10
-163.5523982429
 20
133.9030090725
  0
VERTEX
  8
Layer1$C$L1
 62
     3
 10
-163.5337050954
 20
133.8506663326
  0
VERTEX
  8
Layer1$C$L1
 62
     3
 10
-163.5150560889
 20
133.7983436253
  0
SEQEND
  8
Layer1$C$L1
 62
     3
  0
POLYLINE
  8
Layer1$C$L1
 62
     3
 66
     1
  0
VERTEX
  8
Layer1$C$L1
 62
     3
 10
-154.7561097047
 20
134.9622056523
  0
VERTEX
  8
Layer1$C$L1
 62
     3
 10
-154.8251253244
 20
135.0271343462
  0
VERTEX
  8
Layer1$C$L1
 62
     3
 10
-154.8944078153
 20
135.0925419063
  0
VERTEX
  8
Layer1$C$L1
 62
     3
 10
-154.9639456043
 20
135.1584174068
  0
VERTEX
  8
Layer1$C$L1
 62
     3
 10
-155.0337270758
 20
135.2247498437
  0
VERTEX
  8
Layer1$C$L1
 62
     3
 10
-155.1037405734
 20
135.2915281369
  0
VERTEX
  8
Layer1$C$L1
 62
     3
 10
-155.1739744018
 20
135.3587411316
  0
VERTEX
  8
Layer1$C$L1
 62
     3
 10
-155.2444168293
 20
135.4263776004
  0
VERTEX
  8
Layer1$C$L1
 62
     3
 10
-155.3150560889
 20
135.4944262453
  0
SEQEND
  8
Layer1$C$L1
 62
     3
  0
POLYLINE
  8
Layer1$C$L1
 62
     3
 66
     1
  0
VERTEX
  8
Layer1$C$L1
 62
     3
 10
-157.4160478621
 20
135.4944262453
  0
VERTEX
  8
Layer1$C$L1
 62
     3
 10
-157.4866871218
 20
135.4263776004
  0
VERTEX
  8
Layer1$C$L1
 62
     3
 10
-157.5571295492
 20
135.3587411316
  0
VERTEX
  8
Layer1$C$L1
 62
     3
 10
-157.6273633777
 20
135.2915281369
  0
VERTEX
  8
Layer1$C$L1
 62
     3
 10
-157.6973768752
 20
135.2247498437
  0
VERTEX
  8
Layer1$C$L1
 62
     3
 10
-157.7671583467
 20
135.1584174068
  0
VERTEX
  8
Layer1$C$L1
 62
     3
 10
-157.8366961357
 20
135.0925419063
  0
VERTEX
  8
Layer1$C$L1
 62
     3
 10
-157.9059786266
 20
135.0271343462
  0
VERTEX
  8
Layer1$C$L1
 62
     3
 10
-157.9749942463
 20
134.9622056523
  0
SEQEND
  8
Layer1$C$L1
 62
     3
  0
POLYLINE
  8
Layer1$C$L1
 62
     3
 66
     1
  0
VERTEX
  8
Layer1$C$L1
 62
     3
 10
-156.7845519755
 20
132.6338137616
  0
VERTEX
  8
Layer1$C$L1
 62
     3
 10
-156.7322292682
 20
132.6144943377
  0
VERTEX
  8
Layer1$C$L1
 62
     3
 10
-156.6798865282
 20
132.5952321511
  0
VERTEX
  8
Layer1$C$L1
 62
     3
 10
-156.6275263007
 20
132.5760281384
  0
VERTEX
  8
Layer1$C$L1
 62
     3
 10
-156.5751511314
 20
132.5568832332
  0
VERTEX
  8
Layer1$C$L1
 62
     3
 10
-156.5227635668
 20
132.5377983665
  0
VERTEX
  8
Layer1$C$L1
 62
     3
 10
-156.4703661542
 20
132.5187744661
  0
VERTEX
  8
Layer1$C$L1
 62
     3
 10
-156.4179614411
 20
132.4998124570
  0
VERTEX
  8
Layer1$C$L1
 62
     3
 10
-156.3655519755
 20
132.4809132612
  0
SEQEND
  8
Layer1$C$L1
 62
     3
  0
POLYLINE
  8
Layer1$C$L1
 62
     3
 66
     1
  0
VERTEX
  8
Layer1$C$L1
 62
     3
 10
-164.1465519755
 20
135.2678395119
  0
VERTEX
  8
Layer1$C$L1
 62
     3
 10
-164.1988746829
 20
135.2491905053
  0
VERTEX
  8
Layer1$C$L1
 62
     3
 10
-164.2512174228
 20
135.2304973579
  0
VERTEX
  8
Layer1$C$L1
 62
     3
 10
-164.3035776503
 20
135.2117609783
  0
VERTEX
  8
Layer1$C$L1
 62
     3
 10
-164.3559528197
 20
135.1929822777
  0
VERTEX
  8
Layer1$C$L1
 62
     3
 10
-164.4083403842
 20
135.1741621690
  0
VERTEX
  8
Layer1$C$L1
 62
     3
 10
-164.4607377969
 20
135.1553015674
  0
VERTEX
  8
Layer1$C$L1
 62
     3
 10
-164.5131425099
 20
135.1364013898
  0
VERTEX
  8
Layer1$C$L1
 62
     3
 10
-164.5655519755
 20
135.1174625552
  0
SEQEND
  8
Layer1$C$L1
 62
     3
  0
POLYLINE
  8
Layer1$C$L1
 62
     3
 66
     1
  0
VERTEX
  8
Layer1$C$L1
 62
     3
 10
-164.5655519755
 20
135.1174625552
  0
VERTEX
  8
Layer1$C$L1
 62
     3
 10
-164.6179614411
 20
135.1364013898
  0
VERTEX
  8
Layer1$C$L1
 62
     3
 10
-164.6703661542
 20
135.1553015674
  0
VERTEX
  8
Layer1$C$L1
 62
     3
 10
-164.7227635668
 20
135.1741621690
  0
VERTEX
  8
Layer1$C$L1
 62
     3
 10
-164.7751511314
 20
135.1929822777
  0
VERTEX
  8
Layer1$C$L1
 62
     3
 10
-164.8275263007
 20
135.2117609783
  0
VERTEX
  8
Layer1$C$L1
 62
     3
 10
-164.8798865282
 20
135.2304973579
  0
VERTEX
  8
Layer1$C$L1
 62
     3
 10
-164.9322292682
 20
135.2491905053
  0
VERTEX
  8
Layer1$C$L1
 62
     3
 10
-164.9845519755
 20
135.2678395119
  0
SEQEND
  8
Layer1$C$L1
 62
     3
  0
POLYLINE
  8
Layer1$C$L1
 62
     3
 66
     1
  0
VERTEX
  8
Layer1$C$L1
 62
     3
 10
-163.5557522048
 20
135.8267858960
  0
VERTEX
  8
Layer1$C$L1
 62
     3
 10
-163.6291733789
 20
135.7577702763
  0
VERTEX
  8
Layer1$C$L1
 62
     3
 10
-163.7027416965
 20
135.6884877855
  0
VERTEX
  8
Layer1$C$L1
 62
     3
 10
-163.7764448689
 20
135.6189499964
  0
VERTEX
  8
Layer1$C$L1
 62
     3
 10
-163.8502705844
 20
135.5491685250
  0
VERTEX
  8
Layer1$C$L1
 62
     3
 10
-163.9242065111
 20
135.4791550274
  0
VERTEX
  8
Layer1$C$L1
 62
     3
 10
-163.9982402988
 20
135.4089211989
  0
VERTEX
  8
Layer1$C$L1
 62
     3
 10
-164.0723595805
 20
135.3384787715
  0
VERTEX
  8
Layer1$C$L1
 62
     3
 10
-164.1465519755
 20
135.2678395119
  0
SEQEND
  8
Layer1$C$L1
 62
     3
  0
POLYLINE
  8
Layer1$C$L1
 62
     3
 66
     1
  0
VERTEX
  8
Layer1$C$L1
 62
     3
 10
-164.9845519755
 20
135.2678395119
  0
VERTEX
  8
Layer1$C$L1
 62
     3
 10
-165.0587443705
 20
135.3384787715
  0
VERTEX
  8
Layer1$C$L1
 62
     3
 10
-165.1328636523
 20
135.4089211989
  0
VERTEX
  8
Layer1$C$L1
 62
     3
 10
-165.2068974399
 20
135.4791550274
  0
VERTEX
  8
Layer1$C$L1
 62
     3
 10
-165.2808333666
 20
135.5491685250
  0
VERTEX
  8
Layer1$C$L1
 62
     3
 10
-165.3546590822
 20
135.6189499964
  0
VERTEX
  8
Layer1$C$L1
 62
     3
 10
-165.4283622545
 20
135.6884877855
  0
VERTEX
  8
Layer1$C$L1
 62
     3
 10
-165.5019305722
 20
135.7577702763
  0
VERTEX
  8
Layer1$C$L1
 62
     3
 10
-165.5753517463
 20
135.8267858960
  0
SEQEND
  8
Layer1$C$L1
 62
     3
  0
POLYLINE
  8
Layer1$C$L1
 62
     3
 66
     1
  0
VERTEX
  8
Layer1$C$L1
 62
     3
 10
-157.2656709054
 20
131.6114651401
  0
VERTEX
  8
Layer1$C$L1
 62
     3
 10
-157.2846097400
 20
131.6626944827
  0
VERTEX
  8
Layer1$C$L1
 62
     3
 10
-157.3035099176
 20
131.7140193880
  0
VERTEX
  8
Layer1$C$L1
 62
     3
 10
-157.3223705193
 20
131.7654373602
  0
VERTEX
  8
Layer1$C$L1
 62
     3
 10
-157.3411906280
 20
131.8169458995
  0
VERTEX
  8
Layer1$C$L1
 62
     3
 10
-157.3599693286
 20
131.8685425015
  0
VERTEX
  8
Layer1$C$L1
 62
     3
 10
-157.3787057081
 20
131.9202246574
  0
VERTEX
  8
Layer1$C$L1
 62
     3
 10
-157.3973988556
 20
131.9719898544
  0
VERTEX
  8
Layer1$C$L1
 62
     3
 10
-157.4160478621
 20
132.0238355755
  0
SEQEND
  8
Layer1$C$L1
 62
     3
  0
POLYLINE
  8
Layer1$C$L1
 62
     3
 66
     1
  0
VERTEX
  8
Layer1$C$L1
 62
     3
 10
-165.6160478621
 20
134.6363436253
  0
VERTEX
  8
Layer1$C$L1
 62
     3
 10
-165.5973988556
 20
134.5840209179
  0
VERTEX
  8
Layer1$C$L1
 62
     3
 10
-165.5787057081
 20
134.5316781780
  0
VERTEX
  8
Layer1$C$L1
 62
     3
 10
-165.5599693286
 20
134.4793179504
  0
VERTEX
  8
Layer1$C$L1
 62
     3
 10
-165.5411906280
 20
134.4269427811
  0
VERTEX
  8
Layer1$C$L1
 62
     3
 10
-165.5223705193
 20
134.3745552166
  0
VERTEX
  8
Layer1$C$L1
 62
     3
 10
-165.5035099176
 20
134.3221578039
  0
VERTEX
  8
Layer1$C$L1
 62
     3
 10
-165.4846097400
 20
134.2697530908
  0
VERTEX
  8
Layer1$C$L1
 62
     3
 10
-165.4656709054
 20
134.2173436253
  0
SEQEND
  8
Layer1$C$L1
 62
     3
  0
POLYLINE
  8
Layer1$C$L1
 62
     3
 66
     1
  0
VERTEX
  8
Layer1$C$L1
 62
     3
 10
-155.3150560889
 20
132.0238355755
  0
VERTEX
  8
Layer1$C$L1
 62
     3
 10
-155.2444168293
 20
132.0991156315
  0
VERTEX
  8
Layer1$C$L1
 62
     3
 10
-155.1739744018
 20
132.1746666197
  0
VERTEX
  8
Layer1$C$L1
 62
     3
 10
-155.1037405734
 20
132.2504759200
  0
VERTEX
  8
Layer1$C$L1
 62
     3
 10
-155.0337270758
 20
132.3265308691
  0
VERTEX
  8
Layer1$C$L1
 62
     3
 10
-154.9639456043
 20
132.4028187626
  0
VERTEX
  8
Layer1$C$L1
 62
     3
 10
-154.8944078153
 20
132.4793268574
  0
VERTEX
  8
Layer1$C$L1
 62
     3
 10
-154.8251253244
 20
132.5560423734
  0
VERTEX
  8
Layer1$C$L1
 62
     3
 10
-154.7561097047
 20
132.6329524960
  0
SEQEND
  8
Layer1$C$L1
 62
     3
  0
POLYLINE
  8
Layer1$C$L1
 62
     3
 66
     1
  0
VERTEX
  8
Layer1$C$L1
 62
     3
 10
-157.2656709054
 20
135.8915016522
  0
VERTEX
  8
Layer1$C$L1
 62
     3
 10
-157.2846097400
 20
135.8414836822
  0
VERTEX
  8
Layer1$C$L1
 62
     3
 10
-157.3035099176
 20
135.7915704559
  0
VERTEX
  8
Layer1$C$L1
 62
     3
 10
-157.3223705193
 20
135.7417643999
  0
VERTEX
  8
Layer1$C$L1
 62
     3
 10
-157.3411906280
 20
135.6920679361
  0
VERTEX
  8
Layer1$C$L1
 62
     3
 10
-157.3599693286
 20
135.6424834806
  0
VERTEX
  8
Layer1$C$L1
 62
     3
 10
-157.3787057081
 20
135.5930134444
  0
VERTEX
  8
Layer1$C$L1
 62
     3
 10
-157.3973988556
 20
135.5436602328
  0
VERTEX
  8
Layer1$C$L1
 62
     3
 10
-157.4160478621
 20
135.4944262453
  0
SEQEND
  8
Layer1$C$L1
 62
     3
  0
POLYLINE
  8
Layer1$C$L1
 62
     3
 66
     1
  0
VERTEX
  8
Layer1$C$L1
 62
     3
 10
-155.3150560889
 20
135.4944262453
  0
VERTEX
  8
Layer1$C$L1
 62
     3
 10
-155.3337050954
 20
135.5436602328
  0
VERTEX
  8
Layer1$C$L1
 62
     3
 10
-155.3523982429
 20
135.5930134444
  0
VERTEX
  8
Layer1$C$L1
 62
     3
 10
-155.3711346225
 20
135.6424834806
  0
VERTEX
  8
Layer1$C$L1
 62
     3
 10
-155.3899133231
 20
135.6920679361
  0
VERTEX
  8
Layer1$C$L1
 62
     3
 10
-155.4087334318
 20
135.7417643999
  0
VERTEX
  8
Layer1$C$L1
 62
     3
 10
-155.4275940334
 20
135.7915704559
  0
VERTEX
  8
Layer1$C$L1
 62
     3
 10
-155.4464942110
 20
135.8414836822
  0
VERTEX
  8
Layer1$C$L1
 62
     3
 10
-155.4654330456
 20
135.8915016522
  0
SEQEND
  8
Layer1$C$L1
 62
     3
  0
POLYLINE
  8
Layer1$C$L1
 62
     3
 66
     1
  0
VERTEX
  8
Layer1$C$L1
 62
     3
 10
-155.4654330456
 20
135.8915016522
  0
VERTEX
  8
Layer1$C$L1
 62
     3
 10
-155.4464942110
 20
135.9427309949
  0
VERTEX
  8
Layer1$C$L1
 62
     3
 10
-155.4275940334
 20
135.9940559001
  0
VERTEX
  8
Layer1$C$L1
 62
     3
 10
-155.4087334318
 20
136.0454738724
  0
VERTEX
  8
Layer1$C$L1
 62
     3
 10
-155.3899133231
 20
136.0969824117
  0
VERTEX
  8
Layer1$C$L1
 62
     3
 10
-155.3711346225
 20
136.1485790137
  0
VERTEX
  8
Layer1$C$L1
 62
     3
 10
-155.3523982429
 20
136.2002611696
  0
VERTEX
  8
Layer1$C$L1
 62
     3
 10
-155.3337050954
 20
136.2520263665
  0
VERTEX
  8
Layer1$C$L1
 62
     3
 10
-155.3150560889
 20
136.3038720877
  0
SEQEND
  8
Layer1$C$L1
 62
     3
  0
POLYLINE
  8
Layer1$C$L1
 62
     3
 66
     1
  0
VERTEX
  8
Layer1$C$L1
 62
     3
 10
-157.2656709054
 20
135.8915016522
  0
VERTEX
  8
Layer1$C$L1
 62
     3
 10
-157.2846097400
 20
135.9427309949
  0
VERTEX
  8
Layer1$C$L1
 62
     3
 10
-157.3035099176
 20
135.9940559001
  0
VERTEX
  8
Layer1$C$L1
 62
     3
 10
-157.3223705193
 20
136.0454738724
  0
VERTEX
  8
Layer1$C$L1
 62
     3
 10
-157.3411906280
 20
136.0969824117
  0
VERTEX
  8
Layer1$C$L1
 62
     3
 10
-157.3599693286
 20
136.1485790137
  0
VERTEX
  8
Layer1$C$L1
 62
     3
 10
-157.3787057081
 20
136.2002611696
  0
VERTEX
  8
Layer1$C$L1
 62
     3
 10
-157.3973988556
 20
136.2520263665
  0
VERTEX
  8
Layer1$C$L1
 62
     3
 10
-157.4160478621
 20
136.3038720877
  0
SEQEND
  8
Layer1$C$L1
 62
     3
  0
POLYLINE
  8
Layer1$C$L1
 62
     3
 66
     1
  0
VERTEX
  8
Layer1$C$L1
 62
     3
 10
-154.7561097047
 20
130.6821691401
  0
VERTEX
  8
Layer1$C$L1
 62
     3
 10
-154.8154427029
 20
130.5962895178
  0
VERTEX
  8
Layer1$C$L1
 62
     3
 10
-154.8796816198
 20
130.5137686979
  0
VERTEX
  8
Layer1$C$L1
 62
     3
 10
-154.9486231466
 20
130.4348678494
  0
VERTEX
  8
Layer1$C$L1
 62
     3
 10
-155.0220490913
 20
130.3598366845
  0
VERTEX
  8
Layer1$C$L1
 62
     3
 10
-155.0997270691
 20
130.2889126682
  0
VERTEX
  8
Layer1$C$L1
 62
     3
 10
-155.1814112382
 20
130.2223202669
  0
VERTEX
  8
Layer1$C$L1
 62
     3
 10
-155.2668430774
 20
130.1602702380
  0
VERTEX
  8
Layer1$C$L1
 62
     3
 10
-155.3557522048
 20
130.1029589628
  0
SEQEND
  8
Layer1$C$L1
 62
     3
  0
POLYLINE
  8
Layer1$C$L1
 62
     3
 66
     1
  0
VERTEX
  8
Layer1$C$L1
 62
     3
 10
-155.3150560889
 20
136.3038720877
  0
VERTEX
  8
Layer1$C$L1
 62
     3
 10
-155.2444168293
 20
136.3791521437
  0
VERTEX
  8
Layer1$C$L1
 62
     3
 10
-155.1739744018
 20
136.4547031319
  0
VERTEX
  8
Layer1$C$L1
 62
     3
 10
-155.1037405734
 20
136.5305124322
  0
VERTEX
  8
Layer1$C$L1
 62
     3
 10
-155.0337270758
 20
136.6065673812
  0
VERTEX
  8
Layer1$C$L1
 62
     3
 10
-154.9639456043
 20
136.6828552748
  0
VERTEX
  8
Layer1$C$L1
 62
     3
 10
-154.8944078153
 20
136.7593633696
  0
VERTEX
  8
Layer1$C$L1
 62
     3
 10
-154.8251253244
 20
136.8360788856
  0
VERTEX
  8
Layer1$C$L1
 62
     3
 10
-154.7561097047
 20
136.9129890082
  0
SEQEND
  8
Layer1$C$L1
 62
     3
  0
POLYLINE
  8
Layer1$C$L1
 62
     3
 66
     1
  0
VERTEX
  8
Layer1$C$L1
 62
     3
 10
-157.4160478621
 20
136.3038720877
  0
VERTEX
  8
Layer1$C$L1
 62
     3
 10
-157.4866871218
 20
136.3791521437
  0
VERTEX
  8
Layer1$C$L1
 62
     3
 10
-157.5571295492
 20
136.4547031319
  0
VERTEX
  8
Layer1$C$L1
 62
     3
 10
-157.6273633777
 20
136.5305124322
  0
VERTEX
  8
Layer1$C$L1
 62
     3
 10
-157.6973768752
 20
136.6065673812
  0
VERTEX
  8
Layer1$C$L1
 62
     3
 10
-157.7671583467
 20
136.6828552748
  0
VERTEX
  8
Layer1$C$L1
 62
     3
 10
-157.8366961357
 20
136.7593633696
  0
VERTEX
  8
Layer1$C$L1
 62
     3
 10
-157.9059786266
 20
136.8360788856
  0
VERTEX
  8
Layer1$C$L1
 62
     3
 10
-157.9749942463
 20
136.9129890082
  0
SEQEND
  8
Layer1$C$L1
 62
     3
  0
POLYLINE
  8
Layer1$C$L1
 62
     3
 66
     1
  0
VERTEX
  8
Layer1$C$L1
 62
     3
 10
-156.7845519755
 20
136.9138502738
  0
VERTEX
  8
Layer1$C$L1
 62
     3
 10
-156.7322292682
 20
136.8945308499
  0
VERTEX
  8
Layer1$C$L1
 62
     3
 10
-156.6798865282
 20
136.8752686633
  0
VERTEX
  8
Layer1$C$L1
 62
     3
 10
-156.6275263007
 20
136.8560646506
  0
VERTEX
  8
Layer1$C$L1
 62
     3
 10
-156.5751511314
 20
136.8369197454
  0
VERTEX
  8
Layer1$C$L1
 62
     3
 10
-156.5227635668
 20
136.8178348787
  0
VERTEX
  8
Layer1$C$L1
 62
     3
 10
-156.4703661542
 20
136.7988109783
  0
VERTEX
  8
Layer1$C$L1
 62
     3
 10
-156.4179614411
 20
136.7798489692
  0
VERTEX
  8
Layer1$C$L1
 62
     3
 10
-156.3655519755
 20
136.7609497734
  0
SEQEND
  8
Layer1$C$L1
 62
     3
  0
POLYLINE
  8
Layer1$C$L1
 62
     3
 66
     1
  0
VERTEX
  8
Layer1$C$L1
 62
     3
 10
-156.3655519755
 20
136.7609497734
  0
VERTEX
  8
Layer1$C$L1
 62
     3
 10
-156.3131425099
 20
136.7798489692
  0
VERTEX
  8
Layer1$C$L1
 62
     3
 10
-156.2607377969
 20
136.7988109783
  0
VERTEX
  8
Layer1$C$L1
 62
     3
 10
-156.2083403842
 20
136.8178348787
  0
VERTEX
  8
Layer1$C$L1
 62
     3
 10
-156.1559528197
 20
136.8369197454
  0
VERTEX
  8
Layer1$C$L1
 62
     3
 10
-156.1035776503
 20
136.8560646506
  0
VERTEX
  8
Layer1$C$L1
 62
     3
 10
-156.0512174228
 20
136.8752686633
  0
VERTEX
  8
Layer1$C$L1
 62
     3
 10
-155.9988746829
 20
136.8945308499
  0
VERTEX
  8
Layer1$C$L1
 62
     3
 10
-155.9465519755
 20
136.9138502738
  0
SEQEND
  8
Layer1$C$L1
 62
     3
  0
POLYLINE
  8
Layer1$C$L1
 62
     3
 66
     1
  0
VERTEX
  8
Layer1$C$L1
 62
     3
 10
-156.7845519755
 20
134.8844480592
  0
VERTEX
  8
Layer1$C$L1
 62
     3
 10
-156.7322292682
 20
134.9011557494
  0
VERTEX
  8
Layer1$C$L1
 62
     3
 10
-156.6798865282
 20
134.9180059507
  0
VERTEX
  8
Layer1$C$L1
 62
     3
 10
-156.6275263007
 20
134.9349978437
  0
VERTEX
  8
Layer1$C$L1
 62
     3
 10
-156.5751511314
 20
134.9521306024
  0
VERTEX
  8
Layer1$C$L1
 62
     3
 10
-156.5227635668
 20
134.9694033937
  0
VERTEX
  8
Layer1$C$L1
 62
     3
 10
-156.4703661542
 20
134.9868153777
  0
VERTEX
  8
Layer1$C$L1
 62
     3
 10
-156.4179614411
 20
135.0043657080
  0
VERTEX
  8
Layer1$C$L1
 62
     3
 10
-156.3655519755
 20
135.0220535311
  0
SEQEND
  8
Layer1$C$L1
 62
     3
  0
POLYLINE
  8
Layer1$C$L1
 62
     3
 66
     1
  0
VERTEX
  8
Layer1$C$L1
 62
     3
 10
-157.9749942463
 20
136.9129890082
  0
VERTEX
  8
Layer1$C$L1
 62
     3
 10
-157.9156612482
 20
136.9988686305
  0
VERTEX
  8
Layer1$C$L1
 62
     3
 10
-157.8514223313
 20
137.0813894504
  0
VERTEX
  8
Layer1$C$L1
 62
     3
 10
-157.7824808045
 20
137.1602902989
  0
VERTEX
  8
Layer1$C$L1
 62
     3
 10
-157.7090548598
 20
137.2353214638
  0
VERTEX
  8
Layer1$C$L1
 62
     3
 10
-157.6313768819
 20
137.3062454801
  0
VERTEX
  8
Layer1$C$L1
 62
     3
 10
-157.5496927129
 20
137.3728378814
  0
VERTEX
  8
Layer1$C$L1
 62
     3
 10
-157.4642608737
 20
137.4348879103
  0
VERTEX
  8
Layer1$C$L1
 62
     3
 10
-157.3753517463
 20
137.4921991855
  0
SEQEND
  8
Layer1$C$L1
 62
     3
  0
POLYLINE
  8
Layer1$C$L1
 62
     3
 66
     1
  0
VERTEX
  8
Layer1$C$L1
 62
     3
 10
-155.9465519755
 20
136.9138502738
  0
VERTEX
  8
Layer1$C$L1
 62
     3
 10
-155.8723595805
 20
136.9856982646
  0
VERTEX
  8
Layer1$C$L1
 62
     3
 10
-155.7982402988
 20
137.0576976842
  0
VERTEX
  8
Layer1$C$L1
 62
     3
 10
-155.7242065111
 20
137.1298365058
  0
VERTEX
  8
Layer1$C$L1
 62
     3
 10
-155.6502705844
 20
137.2021026792
  0
VERTEX
  8
Layer1$C$L1
 62
     3
 10
-155.5764448689
 20
137.2744841330
  0
VERTEX
  8
Layer1$C$L1
 62
     3
 10
-155.5027416965
 20
137.3469687765
  0
VERTEX
  8
Layer1$C$L1
 62
     3
 10
-155.4291733789
 20
137.4195445017
  0
VERTEX
  8
Layer1$C$L1
 62
     3
 10
-155.3557522048
 20
137.4921991855
  0
SEQEND
  8
Layer1$C$L1
 62
     3
  0
POLYLINE
  8
Layer1$C$L1
 62
     3
 66
     1
  0
VERTEX
  8
Layer1$C$L1
 62
     3
 10
-157.3753517463
 20
137.4921991855
  0
VERTEX
  8
Layer1$C$L1
 62
     3
 10
-157.3019305722
 20
137.4195445017
  0
VERTEX
  8
Layer1$C$L1
 62
     3
 10
-157.2283622545
 20
137.3469687765
  0
VERTEX
  8
Layer1$C$L1
 62
     3
 10
-157.1546590822
 20
137.2744841330
  0
VERTEX
  8
Layer1$C$L1
 62
     3
 10
-157.0808333666
 20
137.2021026792
  0
VERTEX
  8
Layer1$C$L1
 62
     3
 10
-157.0068974399
 20
137.1298365058
  0
VERTEX
  8
Layer1$C$L1
 62
     3
 10
-156.9328636523
 20
137.0576976842
  0
VERTEX
  8
Layer1$C$L1
 62
     3
 10
-156.8587443705
 20
136.9856982646
  0
VERTEX
  8
Layer1$C$L1
 62
     3
 10
-156.7845519755
 20
136.9138502738
  0
SEQEND
  8
Layer1$C$L1
 62
     3
  0
POLYLINE
  8
Layer1$C$L1
 62
     3
 66
     1
  0
VERTEX
  8
Layer1$C$L1
 62
     3
 10
-154.7332867576
 20
138.5267248576
  0
VERTEX
  8
Layer1$C$L1
 62
     3
 10
-154.6211519257
 20
138.4494623435
  0
VERTEX
  8
Layer1$C$L1
 62
     3
 10
-154.5129303342
 20
138.3671577865
  0
VERTEX
  8
Layer1$C$L1
 62
     3
 10
-154.4088647585
 20
138.2799958216
  0
VERTEX
  8
Layer1$C$L1
 62
     3
 10
-154.3091886506
 20
138.1881719807
  0
VERTEX
  8
Layer1$C$L1
 62
     3
 10
-154.2141256154
 20
138.0918922538
  0
VERTEX
  8
Layer1$C$L1
 62
     3
 10
-154.1238889093
 20
137.9913726266
  0
VERTEX
  8
Layer1$C$L1
 62
     3
 10
-154.0386809618
 20
137.8868385965
  0
VERTEX
  8
Layer1$C$L1
 62
     3
 10
-153.9586929213
 20
137.7785246663
  0
SEQEND
  8
Layer1$C$L1
 62
     3
  0
POLYLINE
  8
Layer1$C$L1
 62
     3
 66
     1
  0
VERTEX
  8
Layer1$C$L1
 62
     3
 10
-154.0358679653
 20
138.5396717918
  0
VERTEX
  8
Layer1$C$L1
 62
     3
 10
-154.0693821327
 20
138.5759497473
  0
VERTEX
  8
Layer1$C$L1
 62
     3
 10
-154.1035017102
 20
138.6116972896
  0
VERTEX
  8
Layer1$C$L1
 62
     3
 10
-154.1382177016
 20
138.6469049934
  0
VERTEX
  8
Layer1$C$L1
 62
     3
 10
-154.1735209538
 20
138.6815635760
  0
VERTEX
  8
Layer1$C$L1
 62
     3
 10
-154.2094021588
 20
138.7156638990
  0
VERTEX
  8
Layer1$C$L1
 62
     3
 10
-154.2458518559
 20
138.7491969718
  0
VERTEX
  8
Layer1$C$L1
 62
     3
 10
-154.2828604350
 20
138.7821539528
  0
VERTEX
  8
Layer1$C$L1
 62
     3
 10
-154.3204181382
 20
138.8145261526
  0
SEQEND
  8
Layer1$C$L1
 62
     3
  0
POLYLINE
  8
Layer1$C$L1
 62
     3
 66
     1
  0
VERTEX
  8
Layer1$C$L1
 62
     3
 10
-154.3582573989
 20
139.0272669146
  0
VERTEX
  8
Layer1$C$L1
 62
     3
 10
-154.3107045141
 20
138.9874280879
  0
VERTEX
  8
Layer1$C$L1
 62
     3
 10
-154.2639988765
 20
138.9466648354
  0
VERTEX
  8
Layer1$C$L1
 62
     3
 10
-154.2181597436
 20
138.9049939645
  0
VERTEX
  8
Layer1$C$L1
 62
     3
 10
-154.1732060155
 20
138.8624326567
  0
VERTEX
  8
Layer1$C$L1
 62
     3
 10
-154.1291562275
 20
138.8189984608
  0
VERTEX
  8
Layer1$C$L1
 62
     3
 10
-154.0860285419
 20
138.7747092853
  0
VERTEX
  8
Layer1$C$L1
 62
     3
 10
-154.0438407411
 20
138.7295833915
  0
VERTEX
  8
Layer1$C$L1
 62
     3
 10
-154.0026102197
 20
138.6836393854
  0
SEQEND
  8
Layer1$C$L1
 62
     3
  0
POLYLINE
  8
Layer1$C$L1
 62
     3
 66
     1
 70
     1
  0
VERTEX
  8
Layer1$C$L1
 62
     3
 10
-156.1655519755
 20
136.4630237587
  0
VERTEX
  8
Layer1$C$L1
 62
     3
 10
-156.1807760690
 20
136.3890949965
  0
VERTEX
  8
Layer1$C$L1
 62
     3
 10
-156.2241306193
 20
136.3264212183
  0
VERTEX
  8
Layer1$C$L1
 62
     3
 10
-156.2890152890
 20
136.2845439385
  0
VERTEX
  8
Layer1$C$L1
 62
     3
 10
-156.3655519755
 20
136.2698385934
  0
VERTEX
  8
Layer1$C$L1
 62
     3
 10
-156.4420886620
 20
136.2845439385
  0
VERTEX
  8
Layer1$C$L1
 62
     3
 10
-156.5069733318
 20
136.3264212183
  0
VERTEX
  8
Layer1$C$L1
 62
     3
 10
-156.5503278820
 20
136.3890949965
  0
VERTEX
  8
Layer1$C$L1
 62
     3
 10
-156.5655519755
 20
136.4630237587
  0
VERTEX
  8
Layer1$C$L1
 62
     3
 10
-156.5503278820
 20
136.5369525208
  0
VERTEX
  8
Layer1$C$L1
 62
     3
 10
-156.5069733318
 20
136.5996262991
  0
VERTEX
  8
Layer1$C$L1
 62
     3
 10
-156.4420886620
 20
136.6415035788
  0
VERTEX
  8
Layer1$C$L1
 62
     3
 10
-156.3655519755
 20
136.6562089239
  0
VERTEX
  8
Layer1$C$L1
 62
     3
 10
-156.2890152890
 20
136.6415035788
  0
VERTEX
  8
Layer1$C$L1
 62
     3
 10
-156.2241306193
 20
136.5996262991
  0
VERTEX
  8
Layer1$C$L1
 62
     3
 10
-156.1807760690
 20
136.5369525208
  0
SEQEND
  8
Layer1$C$L1
 62
     3
  0
POLYLINE
  8
Layer1$C$L1
 62
     3
 66
     1
 70
     1
  0
VERTEX
  8
Layer1$C$L1
 62
     3
 10
-156.1655519755
 20
132.1829872465
  0
VERTEX
  8
Layer1$C$L1
 62
     3
 10
-156.1807760690
 20
132.1090584844
  0
VERTEX
  8
Layer1$C$L1
 62
     3
 10
-156.2241306193
 20
132.0463847061
  0
VERTEX
  8
Layer1$C$L1
 62
     3
 10
-156.2890152890
 20
132.0045074263
  0
VERTEX
  8
Layer1$C$L1
 62
     3
 10
-156.3655519755
 20
131.9898020812
  0
VERTEX
  8
Layer1$C$L1
 62
     3
 10
-156.4420886620
 20
132.0045074263
  0
VERTEX
  8
Layer1$C$L1
 62
     3
 10
-156.5069733318
 20
132.0463847061
  0
VERTEX
  8
Layer1$C$L1
 62
     3
 10
-156.5503278820
 20
132.1090584844
  0
VERTEX
  8
Layer1$C$L1
 62
     3
 10
-156.5655519755
 20
132.1829872465
  0
VERTEX
  8
Layer1$C$L1
 62
     3
 10
-156.5503278820
 20
132.2569160086
  0
VERTEX
  8
Layer1$C$L1
 62
     3
 10
-156.5069733318
 20
132.3195897869
  0
VERTEX
  8
Layer1$C$L1
 62
     3
 10
-156.4420886620
 20
132.3614670667
  0
VERTEX
  8
Layer1$C$L1
 62
     3
 10
-156.3655519755
 20
132.3761724118
  0
VERTEX
  8
Layer1$C$L1
 62
     3
 10
-156.2890152890
 20
132.3614670667
  0
VERTEX
  8
Layer1$C$L1
 62
     3
 10
-156.2241306193
 20
132.3195897869
  0
VERTEX
  8
Layer1$C$L1
 62
     3
 10
-156.1807760690
 20
132.2569160086
  0
SEQEND
  8
Layer1$C$L1
 62
     3
  0
LINE
  8
Layer1$C$L1
 62
     3
 10
-162.8655519755
 20
118.3673436253
 11
-162.8655519755
 21
123.4673436253
  0
LINE
  8
Layer1$C$L1
 62
     3
 10
-155.4655519755
 20
122.7673436253
 11
-157.3155519755
 21
122.7673436253
  0
LINE
  8
Layer1$C$L1
 62
     3
 10
-155.4655519755
 20
122.7673436253
 11
-155.4655519755
 21
124.2673436253
  0
LINE
  8
Layer1$C$L1
 62
     3
 10
-154.9655519755
 20
124.2673436253
 11
-155.4655519755
 21
124.2673436253
  0
LINE
  8
Layer1$C$L1
 62
     3
 10
-168.1155519755
 20
128.6673436253
 11
-169.2155519755
 21
128.6673436253
  0
LINE
  8
Layer1$C$L1
 62
     3
 10
-168.1155519755
 20
128.6673436253
 11
-168.1155519755
 21
137.6673436253
  0
LINE
  8
Layer1$C$L1
 62
     3
 10
-161.0155519755
 20
128.6673436253
 11
-161.0155519755
 21
137.6673436253
  0
LINE
  8
Layer1$C$L1
 62
     3
 10
-159.9155519755
 20
128.6673436253
 11
-161.0155519755
 21
128.6673436253
  0
LINE
  8
Layer1$C$L1
 62
     3
 10
-152.8155519755
 20
128.6673436253
 11
-152.8155519755
 21
139.2173436253
  0
LINE
  8
Layer1$C$L1
 62
     3
 10
-151.7155519755
 20
128.6673436253
 11
-152.8155519755
 21
128.6673436253
  0
LINE
  8
Layer1$C$L1
 62
     3
 10
-159.9155519755
 20
128.6673436253
 11
-159.9155519755
 21
138.1673436253
  0
LINE
  8
Layer1$C$L1
 62
     3
 10
-159.9155519755
 20
128.9554600615
 11
-152.8155519755
 21
128.9554600615
  0
LINE
  8
Layer1$C$L1
 62
     3
 10
-154.9655519755
 20
129.2295095014
 11
-153.3734981953
 21
129.5229884113
  0
LINE
  8
Layer1$C$L1
 62
     3
 10
-157.7655519755
 20
129.2295095014
 11
-159.3576057558
 21
129.5229884113
  0
LINE
  8
Layer1$C$L1
 62
     3
 10
-157.7655519755
 20
129.2295095014
 11
-157.1435360365
 21
129.2295095014
  0
LINE
  8
Layer1$C$L1
 62
     3
 10
-157.7655519755
 20
129.2295095014
 11
-159.7155519755
 21
131.1130648627
  0
LINE
  8
Layer1$C$L1
 62
     3
 10
-154.9655519755
 20
129.2295095014
 11
-153.0155519755
 21
131.1130648627
  0
LINE
  8
Layer1$C$L1
 62
     3
 10
-155.5891663694
 20
129.2295095014
 11
-154.9655519755
 21
129.2295095014
  0
LINE
  8
Layer1$C$L1
 62
     3
 10
-157.9978171934
 20
129.5969937041
 11
-157.0620870984
 21
130.7548762273
  0
LINE
  8
Layer1$C$L1
 62
     3
 10
-153.1975009790
 20
129.6929886678
 11
-153.0155519755
 21
131.1130648627
  0
LINE
  8
Layer1$C$L1
 62
     3
 10
-159.5336029721
 20
129.6929886678
 11
-159.7155519755
 21
131.1130648627
  0
LINE
  8
Layer1$C$L1
 62
     3
 10
-153.1929893913
 20
129.7282007225
 11
-152.8155519755
 21
129.7282007225
  0
LINE
  8
Layer1$C$L1
 62
     3
 10
-159.9155519755
 20
129.7282007225
 11
-159.5381145597
 21
129.7282007225
  0
LINE
  8
Layer1$C$L1
 62
     3
 10
-162.8655519755
 20
129.8673436253
 11
-162.8655519755
 21
129.9673436253
  0
LINE
  8
Layer1$C$L1
 62
     3
 10
-159.6655519755
 20
129.9562929110
 11
-159.5673391510
 21
129.9562929110
  0
LINE
  8
Layer1$C$L1
 62
     3
 10
-153.1637648000
 20
129.9562929110
 11
-153.0655519755
 21
129.9562929110
  0
LINE
  8
Layer1$C$L1
 62
     3
 10
-153.0655519755
 20
129.9562929110
 11
-153.0655519755
 21
130.7228246943
  0
LINE
  8
Layer1$C$L1
 62
     3
 10
-159.6655519755
 20
129.9562929110
 11
-159.6655519755
 21
130.7228246943
  0
LINE
  8
Layer1$C$L1
 62
     3
 10
-161.0155519755
 20
129.9673436253
 11
-168.1155519755
 21
129.9673436253
  0
LINE
  8
Layer1$C$L1
 62
     3
 10
-157.5196136792
 20
129.9753029181
 11
-157.3753517463
 21
130.1029589628
  0
LINE
  8
Layer1$C$L1
 62
     3
 10
-155.3557522048
 20
130.1029589628
 11
-155.8244146342
 21
131.0782657234
  0
LINE
  8
Layer1$C$L1
 62
     3
 10
-153.0655519755
 20
130.2423712950
 11
-152.8155519755
 21
130.2423712950
  0
LINE
  8
Layer1$C$L1
 62
     3
 10
-159.9155519755
 20
130.2423712950
 11
-159.6655519755
 21
130.2423712950
  0
LINE
  8
Layer1$C$L1
 62
     3
 10
-158.1210549057
 20
130.5562505318
 11
-157.9749942463
 21
130.6821691401
  0
LINE
  8
Layer1$C$L1
 62
     3
 10
-156.3655519755
 20
130.7420170189
 11
-156.3655519755
 21
131.4208213429
  0
LINE
  8
Layer1$C$L1
 62
     3
 10
-157.0626848715
 20
130.7543161022
 11
-156.9066893169
 21
131.0782657234
  0
LINE
  8
Layer1$C$L1
 62
     3
 10
-168.1155519755
 20
130.7673436253
 11
-161.0155519755
 21
130.7673436253
  0
LINE
  8
Layer1$C$L1
 62
     3
 10
-167.1155519755
 20
130.7673436253
 11
-167.1155519755
 21
130.8173436253
  0
LINE
  8
Layer1$C$L1
 62
     3
 10
-161.0155519755
 20
130.8173436253
 11
-168.1155519755
 21
130.8173436253
  0
LINE
  8
Layer1$C$L1
 62
     3
 10
-161.2655519755
 20
130.8173436253
 11
-161.2655519755
 21
132.3798436252
  0
LINE
  8
Layer1$C$L1
 62
     3
 10
-162.5655519755
 20
130.8173436253
 11
-162.5655519755
 21
130.9359150538
  0
LINE
  8
Layer1$C$L1
 62
     3
 10
-166.5655519755
 20
130.8173436253
 11
-166.5655519755
 21
130.9359150538
  0
LINE
  8
Layer1$C$L1
 62
     3
 10
-167.8655519755
 20
130.8173436253
 11
-167.8655519755
 21
132.3798436253
  0
LINE
  8
Layer1$C$L1
 62
     3
 10
-163.1655519755
 20
130.8673436253
 11
-161.5734981953
 21
131.0492926287
  0
LINE
  8
Layer1$C$L1
 62
     3
 10
-163.1655519755
 20
130.8673436253
 11
-161.2155519755
 21
132.8173436253
  0
LINE
  8
Layer1$C$L1
 62
     3
 10
-163.1655519755
 20
130.8673436253
 11
-165.9655519755
 21
130.8673436253
  0
LINE
  8
Layer1$C$L1
 62
     3
 10
-165.9655519755
 20
130.8673436253
 11
-167.9155519755
 21
132.8173436253
  0
LINE
  8
Layer1$C$L1
 62
     3
 10
-165.9655519755
 20
130.8673436253
 11
-167.5576057558
 21
131.0492926287
  0
LINE
  8
Layer1$C$L1
 62
     3
 10
-164.1655519755
 20
130.8673436253
 11
-164.1655519755
 21
131.1432583955
  0
LINE
  8
Layer1$C$L1
 62
     3
 10
-164.9655519755
 20
130.8673436253
 11
-164.9655519755
 21
131.1525452356
  0
LINE
  8
Layer1$C$L1
 62
     3
 10
-152.8155519755
 20
130.9011817849
 11
-153.0426997546
 21
130.9011817849
  0
LINE
  8
Layer1$C$L1
 62
     3
 10
-159.6884041964
 20
130.9011817849
 11
-159.9155519755
 21
130.9011817849
  0
LINE
  8
Layer1$C$L1
 62
     3
 10
-159.1139968269
 20
131.0037987639
 11
-159.2011310023
 21
131.2474415039
  0
LINE
  8
Layer1$C$L1
 62
     3
 10
-153.6171071242
 20
131.0037987639
 11
-153.5299729487
 21
131.2474415039
  0
LINE
  8
Layer1$C$L1
 62
     3
 10
-155.8244146342
 20
131.0782657234
 11
-155.9465519755
 21
131.2241579037
  0
LINE
  8
Layer1$C$L1
 62
     3
 10
-156.9066893169
 20
131.0782657234
 11
-156.7845519755
 21
131.2241579037
  0
LINE
  8
Layer1$C$L1
 62
     3
 10
-159.7155519755
 20
131.1130648627
 11
-159.7155519755
 21
133.2354965737
  0
LINE
  8
Layer1$C$L1
 62
     3
 10
-153.0155519755
 20
131.1130648627
 11
-153.0155519755
 21
133.2354965737
  0
LINE
  8
Layer1$C$L1
 62
     3
 10
-164.7967662385
 20
131.1259782369
 11
-165.2951564550
 21
131.2044252222
  0
LINE
  8
Layer1$C$L1
 62
     3
 10
-156.7845519755
 20
131.2241579037
 11
-156.3655519755
 21
131.4208213429
  0
LINE
  8
Layer1$C$L1
 62
     3
 10
-155.9465519755
 20
131.2241579037
 11
-156.3655519755
 21
131.4208213429
  0
LINE
  8
Layer1$C$L1
 62
     3
 10
-161.3975009790
 20
131.2252898450
 11
-161.2155519755
 21
132.8173436253
  0
LINE
  8
Layer1$C$L1
 62
     3
 10
-167.7336029721
 20
131.2252898450
 11
-167.9155519755
 21
132.8173436253
  0
LINE
  8
Layer1$C$L1
 62
     3
 10
-159.3784703786
 20
131.5073493380
 11
-159.4569173639
 21
131.9702651941
  0
LINE
  8
Layer1$C$L1
 62
     3
 10
-159.8655519755
 20
131.5151635012
 11
-159.8655519755
 21
133.2354965737
  0
LINE
  8
Layer1$C$L1
 62
     3
 10
-159.7155519755
 20
131.5151635012
 11
-159.8655519755
 21
131.5151635012
  0
LINE
  8
Layer1$C$L1
 62
     3
 10
-152.8655519755
 20
131.5151635012
 11
-152.8655519755
 21
133.2354965737
  0
LINE
  8
Layer1$C$L1
 62
     3
 10
-152.8655519755
 20
131.5151635012
 11
-153.0155519755
 21
131.5151635012
  0
LINE
  8
Layer1$C$L1
 62
     3
 10
-155.4654330456
 20
131.6114651401
 11
-155.6499571400
 21
132.1120328757
  0
LINE
  8
Layer1$C$L1
 62
     3
 10
-157.2656709054
 20
131.6114651401
 11
-157.0811468110
 21
132.1120328757
  0
LINE
  8
Layer1$C$L1
 62
     3
 10
-167.8655519755
 20
131.6173436253
 11
-168.1155519755
 21
131.6173436253
  0
LINE
  8
Layer1$C$L1
 62
     3
 10
-161.0155519755
 20
131.6173436253
 11
-161.2655519755
 21
131.6173436253
  0
LINE
  8
Layer1$C$L1
 62
     3
 10
-167.8655519755
 20
131.7673436253
 11
-168.1155519755
 21
131.7673436253
  0
LINE
  8
Layer1$C$L1
 62
     3
 10
-161.0155519755
 20
131.7673436253
 11
-161.2655519755
 21
131.7673436253
  0
LINE
  8
Layer1$C$L1
 62
     3
 10
-159.9155519755
 20
131.8671076112
 11
-159.8655519755
 21
131.8671076112
  0
LINE
  8
Layer1$C$L1
 62
     3
 10
-152.8655519755
 20
131.8671076112
 11
-152.8155519755
 21
131.8671076112
  0
LINE
  8
Layer1$C$L1
 62
     3
 10
-166.6106858129
 20
131.8876596151
 11
-166.5398207228
 21
131.9585247052
  0
LINE
  8
Layer1$C$L1
 62
     3
 10
-153.0155519755
 20
132.0789906890
 11
-153.2678235525
 21
132.0789906890
  0
LINE
  8
Layer1$C$L1
 62
     3
 10
-159.4632803986
 20
132.0789906890
 11
-159.7155519755
 21
132.0789906890
  0
LINE
  8
Layer1$C$L1
 62
     3
 10
-157.0811468110
 20
132.1120328757
 11
-157.2475779052
 21
132.4808524499
  0
LINE
  8
Layer1$C$L1
 62
     3
 10
-155.6499571400
 20
132.1120328757
 11
-155.4835260458
 21
132.4808524499
  0
LINE
  8
Layer1$C$L1
 62
     3
 10
-166.8952359857
 20
132.1722097879
 11
-166.8243708956
 21
132.2430748780
  0
LINE
  8
Layer1$C$L1
 62
     3
 10
-159.4655519755
 20
132.1936010221
 11
-159.4655519755
 21
132.3751587638
  0
LINE
  8
Layer1$C$L1
 62
     3
 10
-153.2655519755
 20
132.1936010221
 11
-153.2655519755
 21
132.3752386531
  0
LINE
  8
Layer1$C$L1
 62
     3
 10
-153.2655915499
 20
132.3596136328
 11
-153.3030727234
 21
132.8549898687
  0
LINE
  8
Layer1$C$L1
 62
     3
 10
-153.2741865871
 20
132.4169368502
 11
-153.3526335724
 21
132.9168369573
  0
LINE
  8
Layer1$C$L1
 62
     3
 10
-165.7196136792
 20
132.4618406950
 11
-165.5753517463
 21
132.6079013545
  0
LINE
  8
Layer1$C$L1
 62
     3
 10
-157.2475779052
 20
132.4808524499
 11
-157.3746086527
 21
132.5756381617
  0
LINE
  8
Layer1$C$L1
 62
     3
 10
-155.4835260458
 20
132.4808524499
 11
-155.3564952983
 21
132.5756381617
  0
LINE
  8
Layer1$C$L1
 62
     3
 10
-165.6523649014
 20
132.5092427338
 11
-165.2620870984
 21
133.0092127671
  0
LINE
  8
Layer1$C$L1
 62
     3
 10
-157.3746086527
 20
132.5756381617
 11
-157.9749942463
 21
132.6329524960
  0
LINE
  8
Layer1$C$L1
 62
     3
 10
-155.3564952983
 20
132.5756381617
 11
-155.1568412332
 21
132.5952196934
  0
LINE
  8
Layer1$C$L1
 62
     3
 10
-155.1574211174
 20
132.5946422889
 11
-154.3074862664
 21
133.2354965737
  0
LINE
  8
Layer1$C$L1
 62
     3
 10
-163.5557522048
 20
132.6079013545
 11
-164.0244146342
 21
133.2082869481
  0
LINE
  8
Layer1$C$L1
 62
     3
 10
-167.8926948327
 20
132.6173436253
 11
-168.0655519755
 21
132.6173436253
  0
LINE
  8
Layer1$C$L1
 62
     3
 10
-168.0655519755
 20
132.6173436253
 11
-168.0655519755
 21
137.6173436253
  0
LINE
  8
Layer1$C$L1
 62
     3
 10
-161.0655519755
 20
132.6173436253
 11
-161.2384091184
 21
132.6173436253
  0
LINE
  8
Layer1$C$L1
 62
     3
 10
-161.0655519755
 20
132.6173436253
 11
-161.0655519755
 21
137.6173436253
  0
LINE
  8
Layer1$C$L1
 62
     3
 10
-154.7561097047
 20
132.6329524960
 11
-154.6100490453
 21
132.7857265413
  0
LINE
  8
Layer1$C$L1
 62
     3
 10
-168.1155519755
 20
132.7673436253
 11
-168.0655519755
 21
132.7673436253
  0
LINE
  8
Layer1$C$L1
 62
     3
 10
-161.0655519755
 20
132.7673436253
 11
-161.0155519755
 21
132.7673436253
  0
LINE
  8
Layer1$C$L1
 62
     3
 10
-167.9155519755
 20
132.8173436253
 11
-167.9155519755
 21
135.6173436253
  0
LINE
  8
Layer1$C$L1
 62
     3
 10
-161.2155519755
 20
132.8173436253
 11
-161.2155519755
 21
135.6173436253
  0
LINE
  8
Layer1$C$L1
 62
     3
 10
-152.8655519755
 20
132.8337283278
 11
-152.8155519755
 21
132.8337283278
  0
LINE
  8
Layer1$C$L1
 62
     3
 10
-153.0155519755
 20
132.8517313500
 11
-153.3021574280
 21
132.8517313500
  0
LINE
  8
Layer1$C$L1
 62
     3
 10
-159.4259541739
 20
132.8517313500
 11
-159.7155519755
 21
132.8517313500
  0
LINE
  8
Layer1$C$L1
 62
     3
 10
-153.3030727234
 20
132.8549898687
 11
-153.4099544394
 21
133.2354965737
  0
LINE
  8
Layer1$C$L1
 62
     3
 10
-153.3526335724
 20
132.9168369573
 11
-153.4817908046
 21
133.2354965737
  0
LINE
  8
Layer1$C$L1
 62
     3
 10
-165.2626848715
 20
133.0086328829
 11
-165.1066893169
 21
133.2082869481
  0
LINE
  8
Layer1$C$L1
 62
     3
 10
-166.3210549057
 20
133.0632819216
 11
-166.1749942463
 21
133.2075438545
  0
LINE
  8
Layer1$C$L1
 62
     3
 10
-159.8655519755
 20
133.1094390277
 11
-159.9155519755
 21
133.1094390277
  0
LINE
  8
Layer1$C$L1
 62
     3
 10
-162.9561097047
 20
133.2075438545
 11
-163.5564952983
 21
133.6762062839
  0
LINE
  8
Layer1$C$L1
 62
     3
 10
-164.0244146342
 20
133.2082869481
 11
-164.1465519755
 21
133.3353176956
  0
LINE
  8
Layer1$C$L1
 62
     3
 10
-165.1066893169
 20
133.2082869481
 11
-164.9845519755
 21
133.3353176956
  0
LINE
  8
Layer1$C$L1
 62
     3
 10
-159.9155519755
 20
133.2354965737
 11
-152.8155519755
 21
133.2354965737
  0
LINE
  8
Layer1$C$L1
 62
     3
 10
-164.5655519755
 20
133.3172246953
 11
-164.5655519755
 21
133.5017487898
  0
LINE
  8
Layer1$C$L1
 62
     3
 10
-164.9845519755
 20
133.3353176956
 11
-164.5655519755
 21
133.5017487898
  0
LINE
  8
Layer1$C$L1
 62
     3
 10
-164.1465519755
 20
133.3353176956
 11
-164.5655519755
 21
133.5017487898
  0
LINE
  8
Layer1$C$L1
 62
     3
 10
-168.0655519755
 20
133.4673436253
 11
-168.1155519755
 21
133.4673436253
  0
LINE
  8
Layer1$C$L1
 62
     3
 10
-167.5784703786
 20
133.4877391458
 11
-167.6569173639
 21
133.9861293622
  0
LINE
  8
Layer1$C$L1
 62
     3
 10
-154.9655519755
 20
133.5095460136
 11
-153.3734981953
 21
133.8030249234
  0
LINE
  8
Layer1$C$L1
 62
     3
 10
-154.9655519755
 20
133.5095460136
 11
-155.5891663694
 21
133.5095460136
  0
LINE
  8
Layer1$C$L1
 62
     3
 10
-157.7655519755
 20
133.5095460136
 11
-159.3576057558
 21
133.8030249234
  0
LINE
  8
Layer1$C$L1
 62
     3
 10
-154.9655519755
 20
133.5095460136
 11
-153.0155519755
 21
135.3931013749
  0
LINE
  8
Layer1$C$L1
 62
     3
 10
-157.7655519755
 20
133.5095460136
 11
-159.7155519755
 21
135.3931013749
  0
LINE
  8
Layer1$C$L1
 62
     3
 10
-157.1435360365
 20
133.5095460136
 11
-157.7655519755
 21
133.5095460136
  0
LINE
  8
Layer1$C$L1
 62
     3
 10
-165.7742627179
 20
133.5202107292
 11
-165.5746086527
 21
133.6762062839
  0
LINE
  8
Layer1$C$L1
 62
     3
 10
-163.5564952983
 20
133.6762062839
 11
-163.6835260458
 21
133.7983436253
  0
LINE
  8
Layer1$C$L1
 62
     3
 10
-163.6835260458
 20
133.7983436253
 11
-163.8499571400
 21
134.2173436253
  0
LINE
  8
Layer1$C$L1
 62
     3
 10
-165.4475779052
 20
133.7983436253
 11
-165.2811468110
 21
134.2173436253
  0
LINE
  8
Layer1$C$L1
 62
     3
 10
-161.2155519755
 20
133.8173436253
 11
-161.4914667457
 21
133.8173436253
  0
LINE
  8
Layer1$C$L1
 62
     3
 10
-167.6303503652
 20
133.8173436253
 11
-167.9155519755
 21
133.8173436253
  0
LINE
  8
Layer1$C$L1
 62
     3
 10
-157.9978171934
 20
133.8770302163
 11
-157.0620870984
 21
135.0349127395
  0
LINE
  8
Layer1$C$L1
 62
     3
 10
-153.1975009790
 20
133.9730251800
 11
-153.0155519755
 21
135.3931013749
  0
LINE
  8
Layer1$C$L1
 62
     3
 10
-159.5336029721
 20
133.9730251800
 11
-159.7155519755
 21
135.3931013749
  0
LINE
  8
Layer1$C$L1
 62
     3
 10
-153.1929893913
 20
134.0082372347
 11
-152.8155519755
 21
134.0082372347
  0
LINE
  8
Layer1$C$L1
 62
     3
 10
-159.9155519755
 20
134.0082372347
 11
-159.5381145597
 21
134.0082372347
  0
LINE
  8
Layer1$C$L1
 62
     3
 10
-165.4656709054
 20
134.2173436253
 11
-165.2811468110
 21
134.2173436253
  0
LINE
  8
Layer1$C$L1
 62
     3
 10
-168.1155519755
 20
134.2173436253
 11
-168.0655519755
 21
134.2173436253
  0
LINE
  8
Layer1$C$L1
 62
     3
 10
-161.0655519755
 20
134.2173436253
 11
-161.0155519755
 21
134.2173436253
  0
LINE
  8
Layer1$C$L1
 62
     3
 10
-165.2811468110
 20
134.2173436253
 11
-165.4475779052
 21
134.6363436253
  0
LINE
  8
Layer1$C$L1
 62
     3
 10
-163.8499571400
 20
134.2173436253
 11
-163.6835260458
 21
134.6363436253
  0
LINE
  8
Layer1$C$L1
 62
     3
 10
-163.8499571400
 20
134.2173436253
 11
-163.6654330456
 21
134.2173436253
  0
LINE
  8
Layer1$C$L1
 62
     3
 10
-153.0655519755
 20
134.2363294231
 11
-153.0655519755
 21
135.0028612065
  0
LINE
  8
Layer1$C$L1
 62
     3
 10
-153.1637648000
 20
134.2363294231
 11
-153.0655519755
 21
134.2363294231
  0
LINE
  8
Layer1$C$L1
 62
     3
 10
-159.6655519755
 20
134.2363294231
 11
-159.6655519755
 21
135.0028612065
  0
LINE
  8
Layer1$C$L1
 62
     3
 10
-159.6655519755
 20
134.2363294231
 11
-159.5673391510
 21
134.2363294231
  0
LINE
  8
Layer1$C$L1
 62
     3
 10
-157.5196136792
 20
134.2553394303
 11
-157.3753517463
 21
134.3829954750
  0
LINE
  8
Layer1$C$L1
 62
     3
 10
-155.3557522048
 20
134.3829954750
 11
-155.8244146342
 21
135.3583022356
  0
LINE
  8
Layer1$C$L1
 62
     3
 10
-161.4741865871
 20
134.4485578883
 11
-161.5526335724
 21
134.9469481047
  0
LINE
  8
Layer1$C$L1
 62
     3
 10
-153.0655519755
 20
134.5224078072
 11
-152.8155519755
 21
134.5224078072
  0
LINE
  8
Layer1$C$L1
 62
     3
 10
-159.9155519755
 20
134.5224078072
 11
-159.6655519755
 21
134.5224078072
  0
LINE
  8
Layer1$C$L1
 62
     3
 10
-161.2155519755
 20
134.6173436252
 11
-161.5007535858
 21
134.6173436252
  0
LINE
  8
Layer1$C$L1
 62
     3
 10
-167.6396372053
 20
134.6173436253
 11
-167.9155519755
 21
134.6173436253
  0
LINE
  8
Layer1$C$L1
 62
     3
 10
-165.4475779052
 20
134.6363436253
 11
-165.5746086527
 21
134.7584809666
  0
LINE
  8
Layer1$C$L1
 62
     3
 10
-163.6835260458
 20
134.6363436253
 11
-163.5564952983
 21
134.7584809666
  0
LINE
  8
Layer1$C$L1
 62
     3
 10
-165.5746086527
 20
134.7584809666
 11
-166.1749942463
 21
135.2271433960
  0
LINE
  8
Layer1$C$L1
 62
     3
 10
-163.5564952983
 20
134.7584809666
 11
-163.3568412332
 21
134.9144765213
  0
LINE
  8
Layer1$C$L1
 62
     3
 10
-158.1210549057
 20
134.8362870440
 11
-157.9749942463
 21
134.9622056523
  0
LINE
  8
Layer1$C$L1
 62
     3
 10
-164.5655519755
 20
134.9329384607
 11
-164.9845519755
 21
135.0993695549
  0
LINE
  8
Layer1$C$L1
 62
     3
 10
-164.5655519755
 20
134.9329384607
 11
-164.1465519755
 21
135.0993695549
  0
LINE
  8
Layer1$C$L1
 62
     3
 10
-164.5655519755
 20
134.9329384607
 11
-164.5655519755
 21
135.1174625552
  0
LINE
  8
Layer1$C$L1
 62
     3
 10
-156.3655519755
 20
135.0220535311
 11
-156.3655519755
 21
135.7008578551
  0
LINE
  8
Layer1$C$L1
 62
     3
 10
-157.0626848715
 20
135.0343526144
 11
-156.9066893169
 21
135.3583022356
  0
LINE
  8
Layer1$C$L1
 62
     3
 10
-164.1465519755
 20
135.0993695549
 11
-164.0244146342
 21
135.2264003024
  0
LINE
  8
Layer1$C$L1
 62
     3
 10
-159.9155519755
 20
135.1812182971
 11
-159.6884041964
 21
135.1812182971
  0
LINE
  8
Layer1$C$L1
 62
     3
 10
-153.0426997546
 20
135.1812182971
 11
-152.8155519755
 21
135.1812182971
  0
LINE
  8
Layer1$C$L1
 62
     3
 10
-161.0655519755
 20
135.2173436253
 11
-161.0155519755
 21
135.2173436253
  0
LINE
  8
Layer1$C$L1
 62
     3
 10
-168.1155519755
 20
135.2173436253
 11
-168.0655519755
 21
135.2173436253
  0
LINE
  8
Layer1$C$L1
 62
     3
 10
-164.0244146342
 20
135.2264003024
 11
-163.8684190795
 21
135.4260543676
  0
LINE
  8
Layer1$C$L1
 62
     3
 10
-165.1066893169
 20
135.2264003024
 11
-165.5753517463
 21
135.8267858960
  0
LINE
  8
Layer1$C$L1
 62
     3
 10
-162.9561097047
 20
135.2271433960
 11
-162.8100490453
 21
135.3714053289
  0
LINE
  8
Layer1$C$L1
 62
     3
 10
-159.1139968269
 20
135.2838352760
 11
-159.2011310023
 21
135.5274780161
  0
LINE
  8
Layer1$C$L1
 62
     3
 10
-153.6171071242
 20
135.2838352760
 11
-153.5299729487
 21
135.5274780161
  0
LINE
  8
Layer1$C$L1
 62
     3
 10
-156.9066893169
 20
135.3583022356
 11
-156.7845519755
 21
135.5041944159
  0
LINE
  8
Layer1$C$L1
 62
     3
 10
-155.8244146342
 20
135.3583022356
 11
-155.9465519755
 21
135.5041944159
  0
LINE
  8
Layer1$C$L1
 62
     3
 10
-159.7155519755
 20
135.3931013749
 11
-159.7155519755
 21
147.6673436253
  0
LINE
  8
Layer1$C$L1
 62
     3
 10
-153.0155519755
 20
135.3931013749
 11
-153.0155519755
 21
138.3565127336
  0
LINE
  8
Layer1$C$L1
 62
     3
 10
-163.8690168527
 20
135.4254744834
 11
-163.4787390496
 21
135.9254445167
  0
LINE
  8
Layer1$C$L1
 62
     3
 10
-156.7845519755
 20
135.5041944159
 11
-156.3655519755
 21
135.7008578551
  0
LINE
  8
Layer1$C$L1
 62
     3
 10
-155.9465519755
 20
135.5041944159
 11
-156.3655519755
 21
135.7008578551
  0
LINE
  8
Layer1$C$L1
 62
     3
 10
-167.9155519755
 20
135.6173436253
 11
-167.7336029721
 21
137.2093974055
  0
LINE
  8
Layer1$C$L1
 62
     3
 10
-167.9155519755
 20
135.6173436253
 11
-165.9655519755
 21
137.5673436253
  0
LINE
  8
Layer1$C$L1
 62
     3
 10
-161.2155519755
 20
135.6173436253
 11
-161.3975009790
 21
137.2093974055
  0
LINE
  8
Layer1$C$L1
 62
     3
 10
-161.2155519755
 20
135.6173436253
 11
-163.1655519755
 21
137.5673436253
  0
LINE
  8
Layer1$C$L1
 62
     3
 10
-159.3784703786
 20
135.7873858502
 11
-159.4569173639
 21
136.2503017063
  0
LINE
  8
Layer1$C$L1
 62
     3
 10
-159.8655519755
 20
135.7952000133
 11
-159.8655519755
 21
138.1673436253
  0
LINE
  8
Layer1$C$L1
 62
     3
 10
-159.7155519755
 20
135.7952000133
 11
-159.8655519755
 21
135.7952000133
  0
LINE
  8
Layer1$C$L1
 62
     3
 10
-152.8655519755
 20
135.7952000133
 11
-153.0155519755
 21
135.7952000133
  0
LINE
  8
Layer1$C$L1
 62
     3
 10
-152.8655519755
 20
135.7952000133
 11
-152.8655519755
 21
139.2173436253
  0
LINE
  8
Layer1$C$L1
 62
     3
 10
-163.5557522048
 20
135.8267858960
 11
-163.4114902719
 21
135.9728465555
  0
LINE
  8
Layer1$C$L1
 62
     3
 10
-155.4654330456
 20
135.8915016522
 11
-155.6499571400
 21
136.3920693879
  0
LINE
  8
Layer1$C$L1
 62
     3
 10
-157.2656709054
 20
135.8915016522
 11
-157.0811468110
 21
136.3920693879
  0
LINE
  8
Layer1$C$L1
 62
     3
 10
-159.9155519755
 20
136.1471441234
 11
-159.8655519755
 21
136.1471441234
  0
LINE
  8
Layer1$C$L1
 62
     3
 10
-152.8655519755
 20
136.1471441234
 11
-152.8155519755
 21
136.1471441234
  0
LINE
  8
Layer1$C$L1
 62
     3
 10
-161.0155519755
 20
136.1673436253
 11
-159.9155519755
 21
136.1673436253
  0
LINE
  8
Layer1$C$L1
 62
     3
 10
-162.3067330554
 20
136.1916123725
 11
-162.2358679653
 21
136.2624774626
  0
LINE
  8
Layer1$C$L1
 62
     3
 10
-162.4093349454
 20
136.3031835326
 11
-162.3386203222
 21
136.3739092773
  0
LINE
  8
Layer1$C$L1
 62
     3
 10
-153.0155519755
 20
136.3590272012
 11
-153.2678235525
 21
136.3590272012
  0
LINE
  8
Layer1$C$L1
 62
     3
 10
-159.4632803986
 20
136.3590272012
 11
-159.7155519755
 21
136.3590272012
  0
LINE
  8
Layer1$C$L1
 62
     3
 10
-162.4800511833
 20
136.3738886504
 11
-162.4093365601
 21
136.4446143952
  0
LINE
  8
Layer1$C$L1
 62
     3
 10
-157.0811468110
 20
136.3920693879
 11
-157.2475779052
 21
136.7608889620
  0
LINE
  8
Layer1$C$L1
 62
     3
 10
-155.6499571400
 20
136.3920693879
 11
-155.4835260458
 21
136.7608889620
  0
LINE
  8
Layer1$C$L1
 62
     3
 10
-159.4655519755
 20
136.4736375343
 11
-159.4655519755
 21
136.6551952760
  0
LINE
  8
Layer1$C$L1
 62
     3
 10
-153.2655519755
 20
136.4736375343
 11
-153.2655519755
 21
136.6552751653
  0
LINE
  8
Layer1$C$L1
 62
     3
 10
-162.5912832283
 20
136.4761625453
 11
-162.5204181382
 21
136.5470276354
  0
LINE
  8
Layer1$C$L1
 62
     3
 10
-153.2655915499
 20
136.6396501450
 11
-153.3030727234
 21
137.1350263809
  0
LINE
  8
Layer1$C$L1
 62
     3
 10
-168.0655519755
 20
136.6673436253
 11
-168.1155519755
 21
136.6673436253
  0
LINE
  8
Layer1$C$L1
 62
     3
 10
-161.0155519755
 20
136.6673436253
 11
-161.0655519755
 21
136.6673436253
  0
LINE
  8
Layer1$C$L1
 62
     3
 10
-153.2741865871
 20
136.6969733624
 11
-153.3526335724
 21
137.1968734695
  0
LINE
  8
Layer1$C$L1
 62
     3
 10
-155.4835260458
 20
136.7608889620
 11
-155.3564952983
 21
136.8556746739
  0
LINE
  8
Layer1$C$L1
 62
     3
 10
-157.2475779052
 20
136.7608889620
 11
-157.3746086527
 21
136.8556746739
  0
LINE
  8
Layer1$C$L1
 62
     3
 10
-157.3746086527
 20
136.8556746739
 11
-157.9749942463
 21
136.9129890082
  0
LINE
  8
Layer1$C$L1
 62
     3
 10
-155.3564952983
 20
136.8556746739
 11
-155.1568412332
 21
136.8752562056
  0
LINE
  8
Layer1$C$L1
 62
     3
 10
-155.1574211174
 20
136.8746788010
 11
-153.9586929213
 21
137.7785246663
  0
LINE
  8
Layer1$C$L1
 62
     3
 10
-154.7561097047
 20
136.9129890082
 11
-154.6100490453
 21
137.0657630534
  0
LINE
  8
Layer1$C$L1
 62
     3
 10
-153.0155519755
 20
137.1317678622
 11
-153.3021574280
 21
137.1317678622
  0
LINE
  8
Layer1$C$L1
 62
     3
 10
-159.4259541739
 20
137.1317678622
 11
-159.7155519755
 21
137.1317678622
  0
LINE
  8
Layer1$C$L1
 62
     3
 10
-163.8359474961
 20
137.2302620283
 11
-164.3343377125
 21
137.3087090136
  0
LINE
  8
Layer1$C$L1
 62
     3
 10
-164.1655519755
 20
137.2821420149
 11
-164.1655519755
 21
137.5673436253
  0
LINE
  8
Layer1$C$L1
 62
     3
 10
-164.9655519755
 20
137.2914288550
 11
-164.9655519755
 21
137.5673436253
  0
LINE
  8
Layer1$C$L1
 62
     3
 10
-161.5734981953
 20
137.3853946218
 11
-163.1655519755
 21
137.5673436253
  0
LINE
  8
Layer1$C$L1
 62
     3
 10
-167.5576057558
 20
137.3853946218
 11
-165.9655519755
 21
137.5673436253
  0
LINE
  8
Layer1$C$L1
 62
     3
 10
-159.8655519755
 20
137.4412393489
 11
-159.9155519755
 21
137.4412393489
  0
LINE
  8
Layer1$C$L1
 62
     3
 10
-152.8155519755
 20
137.4412393489
 11
-152.8655519755
 21
137.4412393489
  0
LINE
  8
Layer1$C$L1
 62
     3
 10
-155.3557522048
 20
137.4921991855
 11
-155.2114902719
 21
137.6467106672
  0
LINE
  8
Layer1$C$L1
 62
     3
 10
-159.8655519755
 20
137.5477365715
 11
-159.9155519755
 21
137.5477365715
  0
LINE
  8
Layer1$C$L1
 62
     3
 10
-152.8155519755
 20
137.5477365715
 11
-152.8655519755
 21
137.5477365715
  0
LINE
  8
Layer1$C$L1
 62
     3
 10
-165.9655519755
 20
137.5673436253
 11
-163.1655519755
 21
137.5673436253
  0
LINE
  8
Layer1$C$L1
 62
     3
 10
-167.1155519755
 20
137.6173436253
 11
-167.1155519755
 21
137.6673436253
  0
LINE
  8
Layer1$C$L1
 62
     3
 10
-162.0155519755
 20
137.6173436253
 11
-162.0155519755
 21
137.6673436253
  0
LINE
  8
Layer1$C$L1
 62
     3
 10
-168.0655519755
 20
137.6173436253
 11
-161.0655519755
 21
137.6173436253
  0
LINE
  8
Layer1$C$L1
 62
     3
 10
-168.1155519755
 20
137.6673436253
 11
-159.9155519755
 21
137.6673436253
  0
LINE
  8
Layer1$C$L1
 62
     3
 10
-169.2155519755
 20
138.0673436253
 11
-159.9155519755
 21
138.0673436253
  0
LINE
  8
Layer1$C$L1
 62
     3
 10
-159.7155519755
 20
138.0976936885
 11
-158.5564050656
 21
139.2173436253
  0
LINE
  8
Layer1$C$L1
 62
     3
 10
-159.7155519755
 20
138.0976936885
 11
-159.5924986273
 21
139.2173436253
  0
LINE
  8
Layer1$C$L1
 62
     3
 10
-153.0155519755
 20
138.0976936885
 11
-153.1386053237
 21
139.2173436253
  0
LINE
  8
Layer1$C$L1
 62
     3
 10
-153.0155519755
 20
138.0976936885
 11
-154.1746988855
 21
139.2173436253
  0
LINE
  8
Layer1$C$L1
 62
     3
 10
-169.2155519755
 20
138.1673436253
 11
-159.7155519755
 21
138.1673436253
  0
LINE
  8
Layer1$C$L1
 62
     3
 10
-159.7155519755
 20
138.3565127336
 11
-159.6209437234
 21
139.2173436253
  0
LINE
  8
Layer1$C$L1
 62
     3
 10
-153.0155519755
 20
138.3565127336
 11
-153.1101602276
 21
139.2173436253
  0
LINE
  8
Layer1$C$L1
 62
     3
 10
-154.1509931827
 20
138.4284693711
 11
-154.0358679653
 21
138.5396717918
  0
LINE
  8
Layer1$C$L1
 62
     3
 10
-152.8655519755
 20
138.5136623978
 11
-152.8155519755
 21
138.5136623978
  0
LINE
  8
Layer1$C$L1
 62
     3
 10
-154.4418489956
 20
138.6972329513
 11
-154.3204181382
 21
138.8145261526
  0
LINE
  8
Layer1$C$L1
 62
     3
 10
-154.3204181382
 20
138.8145261526
 11
-155.0264847114
 21
139.2173436253
  0
LINE
  8
Layer1$C$L1
 62
     3
 10
-154.3582573989
 20
139.0272669146
 11
-154.7045965925
 21
139.2173436253
  0
LINE
  8
Layer1$C$L1
 62
     3
 10
-152.8155519755
 20
139.1173436253
 11
-151.7155519755
 21
139.1173436253
  0
LINE
  8
Layer1$C$L1
 62
     3
 10
-159.7155519755
 20
139.2173436253
 11
-151.7155519755
 21
139.2173436253
  0
ARC
  8
Layer1$C$L1
 62
     3
 10
-154.4155519755
 20
118.8673436253
 40
3.2000000000
 50
154.9921667653
 51
188.9892993452
  0
ARC
  8
Layer1$C$L1
 62
     3
 10
-162.8655519755
 20
126.6673436253
 40
3.2000000000
 50
54.6812270970
 51
398.6821874535
  0
ARC
  8
Layer1$C$L1
 62
     3
 10
-161.5962075135
 20
131.2479991632
 40
0.2000000000
 50
276.5198017517
 51
353.4801982483
  0
ARC
  8
Layer1$C$L1
 62
     3
 10
-167.5348964375
 20
131.2479991632
 40
0.2000000000
 50
186.5198017517
 51
263.4801982483
  0
ARC
  8
Layer1$C$L1
 62
     3
 10
-156.5198477546
 20
131.9305270202
 40
2.7547411226
 50
195.2452803533
 51
215.1626466977
  0
ARC
  8
Layer1$C$L1
 62
     3
 10
-157.0794453098
 20
132.1030700964
 40
2.3749525235
 50
194.5269172647
 51
221.9314667299
  0
ARC
  8
Layer1$C$L1
 62
     3
 10
-156.5632538429
 20
132.3738187505
 40
2.9023025370
 50
162.0618358953
 51
179.6821121164
  0
ARC
  8
Layer1$C$L1
 62
     3
 10
-164.5655519755
 20
134.2173436252
 40
3.1000000000
 50
13.6126254017
 51
44.0803396533
  0
ARC
  8
Layer1$C$L1
 62
     3
 10
-164.5655519755
 20
134.2173436252
 40
2.9081369033
 50
34.1440345515
 51
55.8559654485
  0
ARC
  8
Layer1$C$L1
 62
     3
 10
-164.5655519755
 20
134.2173436253
 40
1.9000000000
 50
302.1050717473
 51
327.8949282527
  0
ARC
  8
Layer1$C$L1
 62
     3
 10
-164.5655519755
 20
134.2173436253
 40
3.1000000000
 50
193.6126254016
 51
256.3873745984
  0
CIRCLE
  8
Layer1$C$L1
 62
     3
 10
-164.5655519755
 20
134.2173436253
 40
0.2000000000
  0
ARC
  8
Layer1$C$L1
 62
     3
 10
-164.5655519755
 20
134.2173436253
 40
3.1000000000
 50
265.7226080881
 51
364.2773919119
  0
CIRCLE
  8
Layer1$C$L1
 62
     3
 10
-164.5655519755
 20
134.2173436253
 40
3.0000000000
  0
ARC
  8
Layer1$C$L1
 62
     3
 10
-164.5655519755
 20
134.2173436253
 40
3.1000000000
 50
85.7226080881
 51
184.2773919119
  0
ARC
  8
Layer1$C$L1
 62
     3
 10
-164.5655519755
 20
134.2173436253
 40
1.9000000000
 50
122.1050717473
 51
147.8949282527
  0
ARC
  8
Layer1$C$L1
 62
     3
 10
-164.5655519755
 20
134.2173436253
 40
2.9081369033
 50
214.1440345515
 51
235.8559654485
  0
ARC
  8
Layer1$C$L1
 62
     3
 10
-164.5655519755
 20
134.2173436253
 40
3.1000000000
 50
45.9286707505
 51
76.3873745984
  0
ARC
  8
Layer1$C$L1
 62
     3
 10
-156.5198477546
 20
136.2105635323
 40
2.7547411226
 50
195.2452803533
 51
215.1626466977
  0
ARC
  8
Layer1$C$L1
 62
     3
 10
-157.0794453098
 20
136.3831066086
 40
2.3749525235
 50
194.5269172647
 51
221.9314667299
  0
ARC
  8
Layer1$C$L1
 62
     3
 10
-156.2800311218
 20
136.5525917572
 40
2.9974581459
 50
12.4121649831
 51
41.5230803561
  0
ARC
  8
Layer1$C$L1
 62
     3
 10
-156.3389332770
 20
136.6959749100
 40
3.0674444567
 50
8.2291603250
 51
40.3900101214
  0
ARC
  8
Layer1$C$L1
 62
     3
 10
-161.5962075135
 20
137.1866880873
 40
0.2000000000
 50
6.5198017517
 51
83.4801982483
  0
ARC
  8
Layer1$C$L1
 62
     3
 10
-167.5348964375
 20
137.1866880873
 40
0.2000000000
 50
96.5198017517
 51
173.4801982483
  0
ARC
  8
Layer1$C$L1
 62
     3
 10
-181.2637897727
 20
158.1769285047
 40
36.8121587510
 50
316.3896442968
 51
317.3488807703
  0
LINE
  8
Layer1$C$L1
  6
CENTER
 62
     3
 10
-162.8655519755
 20
129.6673287044
 11
-162.8655519755
 21
123.6673287044
  0
LINE
  8
Layer1$C$L1
  6
CENTER
 62
     3
 10
-160.3655519755
 20
126.6673439632
 11
-166.3655519755
 21
126.6673439632
  0
LINE
  8
Layer1$C$L1
 62
     3
 10
-166.0088004522
 20
127.2673348079
 11
-164.2155580790
 21
127.2673348079
  0
LINE
  8
Layer1$C$L1
 62
     3
 10
-166.0087975395
 20
126.0673378597
 11
-164.2155580790
 21
126.0673378597
  0
LINE
  8
Layer1$C$L1
 62
     3
 10
-162.2655458720
 20
124.2173470150
 11
-162.2655458720
 21
125.3173378597
  0
LINE
  8
Layer1$C$L1
 62
     3
 10
-163.4655580790
 20
124.2173470150
 11
-163.4655580790
 21
125.3173378597
  0
LINE
  8
Layer1$C$L1
 62
     3
 10
-163.4655580790
 20
129.1173409115
 11
-162.2655458720
 21
129.1173409115
  0
LINE
  8
Layer1$C$L1
 62
     3
 10
-163.4655580790
 20
124.2173470150
 11
-162.2655458720
 21
124.2173470150
  0
LINE
  8
Layer1$C$L1
 62
     3
 10
-165.3155489238
 20
126.0673378597
 11
-165.3155489238
 21
127.2673348079
  0
LINE
  8
Layer1$C$L1
 62
     3
 10
-160.4155550273
 20
126.0673378597
 11
-160.4155550273
 21
127.2673348079
  0
LINE
  8
Layer1$C$L1
 62
     3
 10
-163.4655580790
 20
128.0173348079
 11
-163.4655580790
 21
129.1173409115
  0
LINE
  8
Layer1$C$L1
 62
     3
 10
-161.5155458720
 20
126.0673378597
 11
-159.7223064115
 21
126.0673378597
  0
LINE
  8
Layer1$C$L1
 62
     3
 10
-161.5155458720
 20
127.2673348079
 11
-159.7223034988
 21
127.2673348079
  0
LINE
  8
Layer1$C$L1
 62
     3
 10
-162.2655458720
 20
128.0173348079
 11
-162.2655458720
 21
129.1173409115
  0
ARC
  8
Layer1$C$L1
 62
     3
 10
-164.2155580790
 20
125.3173378597
 40
0.7500000000
 50
0.0000000000
 51
89.9999820139
  0
ARC
  8
Layer1$C$L1
 62
     3
 10
-161.5155458720
 20
125.3173378597
 40
0.7500000000
 50
89.9999820139
 51
179.9999640278
  0
ARC
  8
Layer1$C$L1
 62
     3
 10
-161.5155458720
 20
128.0173348079
 40
0.7500000000
 50
179.9999640278
 51
269.9999460417
  0
ARC
  8
Layer1$C$L1
 62
     3
 10
-164.2155580790
 20
128.0173348079
 40
0.7500000000
 50
270.0000179861
 51
360.0000000000
  0
TEXT
  8
Layer8$C$L8
 62
     3
 10
-155.6559962075
 20
150.0942914700
 40
2.5000000000
  1
éném
 41
0.6410253223
 72
     5
 11
-150.8483062904
 21
150.0942914700
  0
LINE
  8
Layer1$C$L1
 62
     3
 10
-142.2232799755
 20
152.8673570802
 11
-142.2232799755
 21
153.7673570802
  0
LINE
  8
Layer1$C$L1
 62
     3
 10
-161.2232799755
 20
152.8673570802
 11
-142.2232799755
 21
152.8673570802
  0
LINE
  8
Layer1$C$L1
 62
     3
 10
-161.2232799755
 20
153.7673570802
 11
-142.2232799755
 21
153.7673570802
  0
LINE
  8
Layer1$C$L1
 62
     3
 10
-161.2232799755
 20
153.7673570802
 11
-161.2232799755
 21
152.8673570802
  0
POLYLINE
  8
Layer1$C$L1
 62
     3
 66
     1
 70
     1
  0
VERTEX
  8
Layer1$C$L1
 62
     3
 10
-161.2232799755
 20
153.3173570802
  0
VERTEX
  8
Layer1$C$L1
 62
     3
 10
-161.2232799755
 20
152.8673570802
  0
VERTEX
  8
Layer1$C$L1
 62
     3
 10
-156.9059962075
 20
152.8673570802
  0
VERTEX
  8
Layer1$C$L1
 62
     3
 10
-151.7155519755
 20
152.8673570802
  0
VERTEX
  8
Layer1$C$L1
 62
     3
 10
-149.5983062904
 20
152.8673570802
  0
VERTEX
  8
Layer1$C$L1
 62
     3
 10
-142.2232799755
 20
152.8673570802
  0
VERTEX
  8
Layer1$C$L1
 62
     3
 10
-142.2232799755
 20
153.3173570802
  0
VERTEX
  8
Layer1$C$L1
 62
     3
 10
-142.2232799755
 20
153.7673570802
  0
VERTEX
  8
Layer1$C$L1
 62
     3
 10
-149.5983062904
 20
153.7673570802
  0
VERTEX
  8
Layer1$C$L1
 62
     3
 10
-151.7155519755
 20
153.7673570802
  0
VERTEX
  8
Layer1$C$L1
 62
     3
 10
-156.9059962075
 20
153.7673570802
  0
VERTEX
  8
Layer1$C$L1
 62
     3
 10
-161.2232799755
 20
153.7673570802
  0
SEQEND
  8
Layer1$C$L1
 62
     3
  0
ARC
  8
Layer1$C$L1
 62
     3
 10
-148.8155519755
 20
151.9677070802
 40
0.3000000000
 50
0.0000000000
 51
180.0000000000
  0
POLYLINE
  8
Layer1$C$L1
 62
     3
 66
     1
 70
     1
  0
VERTEX
  8
Layer1$C$L1
 62
     3
 10
-151.7155519755
 20
153.7673570802
  0
VERTEX
  8
Layer1$C$L1
 62
     3
 10
-149.5983062904
 20
153.7673570802
  0
VERTEX
  8
Layer1$C$L1
 62
     3
 10
-142.2232799755
 20
153.7673570802
  0
VERTEX
  8
Layer1$C$L1
 62
     3
 10
-142.2232799755
 20
153.3173570802
  0
VERTEX
  8
Layer1$C$L1
 62
     3
 10
-142.2232799755
 20
152.8673570802
  0
VERTEX
  8
Layer1$C$L1
 62
     3
 10
-149.5983062904
 20
152.8673570802
  0
VERTEX
  8
Layer1$C$L1
 62
     3
 10
-151.7155519755
 20
152.8673570802
  0
VERTEX
  8
Layer1$C$L1
 62
     3
 10
-156.9059962075
 20
152.8673570802
  0
VERTEX
  8
Layer1$C$L1
 62
     3
 10
-161.2232799755
 20
152.8673570802
  0
VERTEX
  8
Layer1$C$L1
 62
     3
 10
-161.2232799755
 20
153.3173570802
  0
VERTEX
  8
Layer1$C$L1
 62
     3
 10
-161.2232799755
 20
153.7673570802
  0
VERTEX
  8
Layer1$C$L1
 62
     3
 10
-156.9059962075
 20
153.7673570802
  0
SEQEND
  8
Layer1$C$L1
 62
     3
  0
LINE
  8
Layer1$C$L1
 62
     3
 10
-142.2232799755
 20
148.5673300802
 11
-142.2232799755
 21
149.4673730802
  0
LINE
  8
Layer1$C$L1
 62
     3
 10
-161.2232799755
 20
149.4673730802
 11
-142.2232799755
 21
149.4673730802
  0
LINE
  8
Layer1$C$L1
 62
     3
 10
-161.2232799755
 20
148.5673730802
 11
-142.2232799755
 21
148.5673730802
  0
LINE
  8
Layer1$C$L1
 62
     3
 10
-161.2232799755
 20
149.4673730802
 11
-161.2232799755
 21
148.5673300802
  0
POLYLINE
  8
Layer1$C$L1
 62
     3
 66
     1
 70
     1
  0
VERTEX
  8
Layer1$C$L1
 62
     3
 10
-161.2232799755
 20
149.0173515802
  0
VERTEX
  8
Layer1$C$L1
 62
     3
 10
-161.2232799755
 20
148.5673300802
  0
VERTEX
  8
Layer1$C$L1
 62
     3
 10
-151.7155519755
 20
148.5673730802
  0
VERTEX
  8
Layer1$C$L1
 62
     3
 10
-142.2232799755
 20
148.5673730802
  0
VERTEX
  8
Layer1$C$L1
 62
     3
 10
-142.2232799755
 20
149.0173515802
  0
VERTEX
  8
Layer1$C$L1
 62
     3
 10
-142.2232799755
 20
149.4673730802
  0
VERTEX
  8
Layer1$C$L1
 62
     3
 10
-151.7155519755
 20
149.4673730802
  0
VERTEX
  8
Layer1$C$L1
 62
     3
 10
-161.2232799755
 20
149.4673730802
  0
SEQEND
  8
Layer1$C$L1
 62
     3
  0
POLYLINE
  8
Layer1$C$L1
 62
     3
 66
     1
 70
     1
  0
VERTEX
  8
Layer1$C$L1
 62
     3
 10
-151.7155519755
 20
149.4673730802
  0
VERTEX
  8
Layer1$C$L1
 62
     3
 10
-149.5983062904
 20
149.4673730802
  0
VERTEX
  8
Layer1$C$L1
 62
     3
 10
-142.2232799755
 20
149.4673730802
  0
VERTEX
  8
Layer1$C$L1
 62
     3
 10
-142.2232799755
 20
149.0173515802
  0
VERTEX
  8
Layer1$C$L1
 62
     3
 10
-142.2232799755
 20
148.5673300802
  0
VERTEX
  8
Layer1$C$L1
 62
     3
 10
-151.7155519755
 20
148.5673730802
  0
VERTEX
  8
Layer1$C$L1
 62
     3
 10
-161.2232799755
 20
148.5673730802
  0
VERTEX
  8
Layer1$C$L1
 62
     3
 10
-161.2232799755
 20
149.0173515802
  0
VERTEX
  8
Layer1$C$L1
 62
     3
 10
-161.2232799755
 20
149.4673730802
  0
VERTEX
  8
Layer1$C$L1
 62
     3
 10
-156.9059962075
 20
149.4673730802
  0
SEQEND
  8
Layer1$C$L1
 62
     3
  0
POLYLINE
  8
Layer1$C$L1
 62
     3
 66
     1
 70
     1
  0
VERTEX
  8
Layer1$C$L1
 62
     3
 10
-156.9059962075
 20
149.4673730802
  0
VERTEX
  8
Layer1$C$L1
 62
     3
 10
-151.7155519755
 20
149.4673730802
  0
VERTEX
  8
Layer1$C$L1
 62
     3
 10
-149.5983062904
 20
149.4673730802
  0
VERTEX
  8
Layer1$C$L1
 62
     3
 10
-142.2232799755
 20
149.4673730802
  0
VERTEX
  8
Layer1$C$L1
 62
     3
 10
-142.2232799755
 20
149.0173515802
  0
VERTEX
  8
Layer1$C$L1
 62
     3
 10
-142.2232799755
 20
148.5673300802
  0
VERTEX
  8
Layer1$C$L1
 62
     3
 10
-151.7155519755
 20
148.5673730802
  0
VERTEX
  8
Layer1$C$L1
 62
     3
 10
-161.2232799755
 20
148.5673730802
  0
VERTEX
  8
Layer1$C$L1
 62
     3
 10
-161.2232799755
 20
149.0173515802
  0
VERTEX
  8
Layer1$C$L1
 62
     3
 10
-161.2232799755
 20
149.4673730802
  0
SEQEND
  8
Layer1$C$L1
 62
     3
  0
ARC
  8
Layer1$C$L1
 62
     3
 10
-148.8155519755
 20
150.3673435802
 40
0.3000000000
 50
180.0000000000
 51
360.0000000000
  0
LINE
  8
Layer1$C$L1
 62
     3
 10
-148.5155519755
 20
150.3673435802
 11
-148.5155519755
 21
151.9677070802
  0
LINE
  8
Layer1$C$L1
 62
     3
 10
-149.1155519755
 20
150.3673435802
 11
-149.1155519755
 21
151.9677070802
  0
POLYLINE
  8
Layer1$C$L1
 62
     3
 66
     1
 70
     1
  0
VERTEX
  8
Layer1$C$L1
 62
     3
 10
-148.8155519755
 20
152.2677070802
  0
VERTEX
  8
Layer1$C$L1
 62
     3
 10
-148.8449571176
 20
152.2662624982
  0
VERTEX
  8
Layer1$C$L1
 62
     3
 10
-148.8740790721
 20
152.2619426643
  0
VERTEX
  8
Layer1$C$L1
 62
     3
 10
-148.9026373787
 20
152.2547891809
  0
VERTEX
  8
Layer1$C$L1
 62
     3
 10
-148.9303570052
 20
152.2448709399
  0
VERTEX
  8
Layer1$C$L1
 62
     3
 10
-148.9569709966
 20
152.2322834595
  0
VERTEX
  8
Layer1$C$L1
 62
     3
 10
-148.9822230454
 20
152.2171479639
  0
VERTEX
  8
Layer1$C$L1
 62
     3
 10
-149.0058699608
 20
152.1996102162
  0
VERTEX
  8
Layer1$C$L1
 62
     3
 10
-149.0276840099
 20
152.1798391145
  0
VERTEX
  8
Layer1$C$L1
 62
     3
 10
-149.0474551115
 20
152.1580250654
  0
VERTEX
  8
Layer1$C$L1
 62
     3
 10
-149.0649928592
 20
152.1343781501
  0
VERTEX
  8
Layer1$C$L1
 62
     3
 10
-149.0801283548
 20
152.1091261012
  0
VERTEX
  8
Layer1$C$L1
 62
     3
 10
-149.0927158353
 20
152.0825121099
  0
VERTEX
  8
Layer1$C$L1
 62
     3
 10
-149.1026340762
 20
152.0547924834
  0
VERTEX
  8
Layer1$C$L1
 62
     3
 10
-149.1097875596
 20
152.0262341768
  0
VERTEX
  8
Layer1$C$L1
 62
     3
 10
-149.1141073935
 20
151.9971122223
  0
VERTEX
  8
Layer1$C$L1
 62
     3
 10
-149.1155519755
 20
151.9677070802
  0
VERTEX
  8
Layer1$C$L1
 62
     3
 10
-149.1155519755
 20
151.1673435802
  0
VERTEX
  8
Layer1$C$L1
 62
     3
 10
-149.1155519755
 20
150.3673435802
  0
VERTEX
  8
Layer1$C$L1
 62
     3
 10
-149.1141073935
 20
150.3379384381
  0
VERTEX
  8
Layer1$C$L1
 62
     3
 10
-149.1097875596
 20
150.3088164836
  0
VERTEX
  8
Layer1$C$L1
 62
     3
 10
-149.1026340762
 20
150.2802581770
  0
VERTEX
  8
Layer1$C$L1
 62
     3
 10
-149.0927158353
 20
150.2525385505
  0
VERTEX
  8
Layer1$C$L1
 62
     3
 10
-149.0801283548
 20
150.2259245591
  0
VERTEX
  8
Layer1$C$L1
 62
     3
 10
-149.0649928592
 20
150.2006725103
  0
VERTEX
  8
Layer1$C$L1
 62
     3
 10
-149.0474551115
 20
150.1770255949
  0
VERTEX
  8
Layer1$C$L1
 62
     3
 10
-149.0276840099
 20
150.1552115458
  0
VERTEX
  8
Layer1$C$L1
 62
     3
 10
-149.0058699608
 20
150.1354404442
  0
VERTEX
  8
Layer1$C$L1
 62
     3
 10
-148.9822230454
 20
150.1179026965
  0
VERTEX
  8
Layer1$C$L1
 62
     3
 10
-148.9569709966
 20
150.1027672009
  0
VERTEX
  8
Layer1$C$L1
 62
     3
 10
-148.9303570052
 20
150.0901797204
  0
VERTEX
  8
Layer1$C$L1
 62
     3
 10
-148.9026373787
 20
150.0802614795
  0
VERTEX
  8
Layer1$C$L1
 62
     3
 10
-148.8740790721
 20
150.0731079961
  0
VERTEX
  8
Layer1$C$L1
 62
     3
 10
-148.8449571176
 20
150.0687881622
  0
VERTEX
  8
Layer1$C$L1
 62
     3
 10
-148.8155519755
 20
150.0673435802
  0
VERTEX
  8
Layer1$C$L1
 62
     3
 10
-148.7861468334
 20
150.0687881622
  0
VERTEX
  8
Layer1$C$L1
 62
     3
 10
-148.7570248789
 20
150.0731079961
  0
VERTEX
  8
Layer1$C$L1
 62
     3
 10
-148.7284665723
 20
150.0802614795
  0
VERTEX
  8
Layer1$C$L1
 62
     3
 10
-148.7007469458
 20
150.0901797204
  0
VERTEX
  8
Layer1$C$L1
 62
     3
 10
-148.6741329545
 20
150.1027672009
  0
VERTEX
  8
Layer1$C$L1
 62
     3
 10
-148.6488809056
 20
150.1179026965
  0
VERTEX
  8
Layer1$C$L1
 62
     3
 10
-148.6252339903
 20
150.1354404442
  0
VERTEX
  8
Layer1$C$L1
 62
     3
 10
-148.6034199412
 20
150.1552115458
  0
VERTEX
  8
Layer1$C$L1
 62
     3
 10
-148.5836488395
 20
150.1770255949
  0
VERTEX
  8
Layer1$C$L1
 62
     3
 10
-148.5661110918
 20
150.2006725103
  0
VERTEX
  8
Layer1$C$L1
 62
     3
 10
-148.5509755962
 20
150.2259245591
  0
VERTEX
  8
Layer1$C$L1
 62
     3
 10
-148.5383881158
 20
150.2525385505
  0
VERTEX
  8
Layer1$C$L1
 62
     3
 10
-148.5284698748
 20
150.2802581770
  0
VERTEX
  8
Layer1$C$L1
 62
     3
 10
-148.5213163914
 20
150.3088164836
  0
VERTEX
  8
Layer1$C$L1
 62
     3
 10
-148.5169965575
 20
150.3379384381
  0
VERTEX
  8
Layer1$C$L1
 62
     3
 10
-148.5155519755
 20
150.3673435802
  0
VERTEX
  8
Layer1$C$L1
 62
     3
 10
-148.5155519755
 20
151.1673435802
  0
VERTEX
  8
Layer1$C$L1
 62
     3
 10
-148.5155519755
 20
151.9677070802
  0
VERTEX
  8
Layer1$C$L1
 62
     3
 10
-148.5169965575
 20
151.9971122223
  0
VERTEX
  8
Layer1$C$L1
 62
     3
 10
-148.5213163914
 20
152.0262341768
  0
VERTEX
  8
Layer1$C$L1
 62
     3
 10
-148.5284698748
 20
152.0547924834
  0
VERTEX
  8
Layer1$C$L1
 62
     3
 10
-148.5383881158
 20
152.0825121099
  0
VERTEX
  8
Layer1$C$L1
 62
     3
 10
-148.5509755962
 20
152.1091261012
  0
VERTEX
  8
Layer1$C$L1
 62
     3
 10
-148.5661110918
 20
152.1343781501
  0
VERTEX
  8
Layer1$C$L1
 62
     3
 10
-148.5836488395
 20
152.1580250654
  0
VERTEX
  8
Layer1$C$L1
 62
     3
 10
-148.6034199412
 20
152.1798391145
  0
VERTEX
  8
Layer1$C$L1
 62
     3
 10
-148.6252339903
 20
152.1996102162
  0
VERTEX
  8
Layer1$C$L1
 62
     3
 10
-148.6488809056
 20
152.2171479639
  0
VERTEX
  8
Layer1$C$L1
 62
     3
 10
-148.6741329545
 20
152.2322834595
  0
VERTEX
  8
Layer1$C$L1
 62
     3
 10
-148.7007469458
 20
152.2448709399
  0
VERTEX
  8
Layer1$C$L1
 62
     3
 10
-148.7284665723
 20
152.2547891809
  0
VERTEX
  8
Layer1$C$L1
 62
     3
 10
-148.7570248789
 20
152.2619426643
  0
VERTEX
  8
Layer1$C$L1
 62
     3
 10
-148.7861468334
 20
152.2662624982
  0
SEQEND
  8
Layer1$C$L1
 62
     3
  0
INSERT
  8
Layer6$C$L6
 62
     3
  2
*X0
 10
0.000000
 20
0.000000
  0
INSERT
  8
Layer6$C$L6
 62
     3
  2
*X1
 10
0.000000
 20
0.000000
  0
INSERT
  8
Layer6$C$L6
 62
     3
  2
*X2
 10
0.000000
 20
0.000000
  0
INSERT
  8
Layer6$C$L6
 62
     3
  2
*X3
 10
0.000000
 20
0.000000
  0
INSERT
  8
Layer6$C$L6
 62
     3
  2
*X4
 10
0.000000
 20
0.000000
  0
LINE
  8
Layer1$C$L1
 62
     3
 10
-67.1655489238
 20
122.7673436253
 11
-67.1655489238
 21
130.5673436253
  0
LINE
  8
Layer1$C$L1
 62
     3
 10
-82.4655489238
 20
178.6673436253
 11
-82.4655489238
 21
186.4673436253
  0
LINE
  8
Layer1$C$L1
 62
     3
 10
-67.1655489238
 20
122.7673436253
 11
-66.4655489238
 21
122.7673436253
  0
LINE
  8
Layer1$C$L1
 62
     3
 10
-67.1655489238
 20
130.5673436253
 11
-66.4655489238
 21
130.5673436253
  0
LINE
  8
Layer1$C$L1
 62
     3
 10
-82.4655489238
 20
178.6673436253
 11
-81.7655489238
 21
178.6673436253
  0
LINE
  8
Layer1$C$L1
 62
     3
 10
-82.4655489238
 20
186.4673436253
 11
-81.7655489238
 21
186.4673436253
  0
LINE
  8
Layer1$C$L1
  6
CENTER
 62
     3
 10
-110.1649054192
 20
154.6173436253
 11
-29.4245691466
 21
154.6173436253
  0
ARC
  8
Layer1$C$L1
  6
DASH
 62
     3
 10
-35.6655489238
 20
140.1173512546
 40
2.0000000000
 50
89.9999273724
 51
179.9999640278
  0
LINE
  8
Layer1$C$L1
  6
DASH
 62
     3
 10
-35.9655367167
 20
141.1173512546
 11
-30.1655489238
 21
141.1173512546
  0
ARC
  8
Layer1$C$L1
  6
DASH
 62
     3
 10
-35.6655489238
 20
169.1173512546
 40
2.0000000000
 50
203.4374641641
 51
270.0000179861
  0
LINE
  8
Layer1$C$L1
  6
DASH
 62
     3
 10
-30.1655489238
 20
141.1173512546
 11
-30.1655489238
 21
168.1173512546
  0
LINE
  8
Layer1$C$L1
  6
DASH
 62
     3
 10
-31.8655458720
 20
142.1173512546
 11
-31.8655458720
 21
167.1173512546
  0
LINE
  8
Layer1$C$L1
  6
DASH
 62
     3
 10
-35.6655489238
 20
142.1173512546
 11
-31.8655458720
 21
142.1173512546
  0
LINE
  8
Layer1$C$L1
  6
DASH
 62
     3
 10
-35.6655489238
 20
167.1173512546
 11
-31.8655458720
 21
167.1173512546
  0
LINE
  8
Layer1$C$L1
  6
DASH
 62
     3
 10
-35.9655367167
 20
168.1173512546
 11
-30.1655489238
 21
168.1173512546
  0
LINE
  8
Layer1$C$L1
  6
DASH
 62
     3
 10
-36.6655489238
 20
170.1173512546
 11
-36.6655489238
 21
172.1673436253
  0
LINE
  8
Layer1$C$L1
  6
DASH
 62
     3
 10
-35.9655367167
 20
168.1173512546
 11
-35.9655367167
 21
168.6173512546
  0
LINE
  8
Layer1$C$L1
  6
DASH
 62
     3
 10
-36.6655599347
 20
170.1173235040
 11
-35.9655553392
 21
168.6173152915
  0
LINE
  8
Layer1$C$L1
  6
DASH
 62
     3
 10
-36.6655489238
 20
139.1173512546
 11
-36.6655489238
 21
138.7006769586
  0
LINE
  8
Layer1$C$L1
  6
DASH
 62
     3
 10
-36.6655888023
 20
139.1173879711
 11
-35.9655810495
 21
140.6173948023
  0
LINE
  8
Layer1$C$L1
  6
DASH
 62
     3
 10
-35.9655367167
 20
141.1173512546
 11
-35.9655367167
 21
140.6173512546
  0
LINE
  8
Layer1$C$L1
  6
CENTER
 62
     3
 10
-173.1601889056
 20
154.6173436253
 11
-130.0023885133
 21
154.6173436253
  0
LINE
  8
Layer1$C$L1
  6
CENTER
 62
     3
 10
-151.7155519755
 20
111.7061970958
 11
-151.7155519755
 21
196.6120515625
  0
ARC
  8
Layer1$C$L1
 62
     3
 10
-79.7655489238
 20
188.8673436253
 40
2.0000000000
 50
90.0000000000
 51
180.0000000000
  0
CIRCLE
  8
Layer1$C$L1
 62
     3
 10
-37.6655489238
 20
179.6673436253
 40
1.1000000000
  0
CIRCLE
  8
Layer1$C$L1
 62
     3
 10
-37.6655489238
 20
179.6673436253
 40
2.2500000000
  0
ARC
  8
Layer1$C$L1
 62
     3
 10
-95.6796786804
 20
176.1673436253
 40
1.0000000000
 50
90.0000000000
 51
171.1201796396
  0
CIRCLE
  8
Layer1$C$L1
 62
     3
 10
-83.9655489238
 20
173.1673436253
 40
1.1000000000
  0
CIRCLE
  8
Layer1$C$L1
 62
     3
 10
-83.9655489238
 20
173.1673436253
 40
2.2500000000
  0
ARC
  8
Layer1$C$L1
 62
     3
 10
-38.5655489238
 20
169.0673436253
 40
1.3000000000
 50
313.8130614604
 51
374.6219744214
  0
ARC
  8
Layer1$C$L1
 62
     3
 10
-95.7655489238
 20
154.1673436253
 40
0.3000000000
 50
289.3037542760
 51
337.7140257111
  0
ARC
  8
Layer1$C$L1
 62
     3
 10
51.5344510769
 20
153.1673436253
 40
149.6000000007
 50
183.4073852670
 51
184.0554087313
  0
ARC
  8
Layer1$C$L1
 62
     3
 10
-90.4655489238
 20
153.1673436253
 40
5.1000000000
 50
168.6922705659
 51
191.3077294341
  0
ARC
  8
Layer1$C$L1
 62
     3
 10
-90.4655489238
 20
153.1673436253
 40
5.2500000000
 50
168.8053514548
 51
191.1946485452
  0
ARC
  8
Layer1$C$L1
 62
     3
 10
-90.4655489238
 20
153.1673436253
 40
9.3000000000
 50
250.4569979860
 51
508.3970533255
  0
ARC
  8
Layer1$C$L1
 62
     3
 10
-90.4655489238
 20
153.1673436253
 40
9.0000000000
 50
248.3615607713
 51
594.7525819799
  0
ARC
  8
Layer1$C$L1
 62
     3
 10
-90.4655489238
 20
153.1673436253
 40
9.3000000000
 50
211.6029466745
 51
232.6571447653
  0
ARC
  8
Layer1$C$L1
 62
     3
 10
51.5344510762
 20
153.1673436252
 40
150.0000000000
 50
171.1201796396
 51
178.3812799915
  0
ARC
  8
Layer1$C$L1
 62
     3
 10
51.5344510760
 20
153.1673436252
 40
149.9999999998
 50
181.6187200085
 51
185.3362185881
  0
CIRCLE
  8
Layer1$C$L1
 62
     3
 10
-95.6655489238
 20
143.5673436253
 40
1.1000000000
  0
ARC
  8
Layer1$C$L1
 62
     3
 10
-95.6655489238
 20
143.5673436253
 40
2.2500000000
 50
205.8173698561
 51
521.6454241422
  0
CIRCLE
  8
Layer1$C$L1
 62
     3
 10
-43.6655489238
 20
139.8673436253
 40
1.1000000000
  0
CIRCLE
  8
Layer1$C$L1
 62
     3
 10
-43.6655489238
 20
139.8673436253
 40
2.2500000000
  0
ARC
  8
Layer1$C$L1
 62
     3
 10
-34.4655489238
 20
135.8673436253
 40
1.0000000000
 50
0.0000000000
 51
90.0000000000
  0
ARC
  8
Layer1$C$L1
 62
     3
 10
-64.4655489238
 20
120.3673436253
 40
2.0000000000
 50
180.0000000000
 51
270.0000000000
  0
LINE
  8
Layer1$C$L1
 62
     3
 10
-33.4655489238
 20
193.9673436253
 11
-38.4655489238
 21
193.9673436253
  0
LINE
  8
Layer1$C$L1
 62
     3
 10
-37.3655489238
 20
192.9673436253
 11
-34.8655489238
 21
192.9673436253
  0
LINE
  8
Layer1$C$L1
 62
     3
 10
-37.3655489238
 20
191.5673436253
 11
-34.8655489238
 21
191.5673436253
  0
LINE
  8
Layer1$C$L1
 62
     3
 10
-34.8655489238
 20
190.8673436253
 11
-34.8655489238
 21
192.9673436253
  0
LINE
  8
Layer1$C$L1
 62
     3
 10
-37.3655489238
 20
190.8673436253
 11
-37.3655489238
 21
192.9673436253
  0
LINE
  8
Layer1$C$L1
 62
     3
 10
-79.7655489238
 20
190.8673436253
 11
-33.4655489238
 21
190.8673436253
  0
LINE
  8
Layer1$C$L1
 62
     3
 10
-46.4655489238
 20
188.7181502868
 11
-81.7655489238
 21
188.7181502868
  0
LINE
  8
Layer1$C$L1
 62
     3
 10
-46.4655489238
 20
187.4107722538
 11
-46.4655489238
 21
190.8673436253
  0
LINE
  8
Layer1$C$L1
 62
     3
 10
-38.4655489238
 20
187.4107722538
 11
-46.4655489238
 21
187.4107722538
  0
LINE
  8
Layer1$C$L1
 62
     3
 10
-38.4655489238
 20
187.4107722538
 11
-38.4655489238
 21
193.9673436253
  0
LINE
  8
Layer1$C$L1
 62
     3
 10
-81.7655489238
 20
177.1673436253
 11
-81.7655489238
 21
188.8673436253
  0
LINE
  8
Layer1$C$L1
 62
     3
 10
-95.6796786804
 20
177.1673436253
 11
-81.7655489238
 21
177.1673436253
  0
LINE
  8
Layer1$C$L1
 62
     3
 10
-33.4655489238
 20
172.1673436253
 11
-33.4655489238
 21
193.9673436253
  0
LINE
  8
Layer1$C$L1
 62
     3
 10
-37.6655489238
 20
172.1673436253
 11
-36.5655489238
 21
172.1673436253
  0
LINE
  8
Layer1$C$L1
 62
     3
 10
-37.6655489238
 20
170.7673436253
 11
-37.6655489238
 21
172.1673436253
  0
LINE
  8
Layer1$C$L1
 62
     3
 10
-35.4655489238
 20
170.1673436253
 11
-33.4655489238
 21
172.1673436253
  0
LINE
  8
Layer1$C$L1
 62
     3
 10
-36.1655489238
 20
170.1673436253
 11
-35.4655489238
 21
170.1673436253
  0
LINE
  8
Layer1$C$L1
 62
     3
 10
-36.1655489238
 20
170.1673436253
 11
-36.5655489238
 21
172.1673436253
  0
LINE
  8
Layer1$C$L1
 62
     3
 10
-37.3076527724
 20
169.3955162510
 11
-37.6655489238
 21
170.7673436253
  0
LINE
  8
Layer1$C$L1
 62
     3
 10
-95.4665488238
 20
154.1673436253
 11
-99.3396685984
 21
154.6673436253
  0
LINE
  8
Layer1$C$L1
 62
     3
 10
-95.6916851639
 20
153.6673436253
 11
-95.5409799399
 21
153.6673436253
  0
LINE
  8
Layer1$C$L1
 62
     3
 10
-99.3396685984
 20
151.6673436253
 11
-95.4665488238
 21
152.1673436253
  0
LINE
  8
Layer1$C$L1
 62
     3
 10
-95.4931240637
 20
140.3054873459
 11
-95.4755489238
 21
140.3054873459
  0
LINE
  8
Layer1$C$L1
 62
     3
 10
-95.5655489238
 20
140.2860811631
 11
-86.7756239045
 21
142.6413344736
  0
LINE
  8
Layer1$C$L1
 62
     3
 10
-95.4755489238
 20
140.1554873459
 11
-86.8857441052
 21
142.4571186102
  0
LINE
  8
Layer1$C$L1
 62
     3
 10
-95.4755489238
 20
140.0673436253
 11
-95.5655489238
 21
140.0673436253
  0
LINE
  8
Layer1$C$L1
 62
     3
 10
-95.5655489238
 20
139.8202068819
 11
-95.5655489238
 21
140.2860811631
  0
LINE
  8
Layer1$C$L1
 62
     3
 10
-95.4755489238
 20
139.7413768737
 11
-95.4755489238
 21
140.3054873459
  0
LINE
  8
Layer1$C$L1
 62
     3
 10
-96.4755489238
 20
139.4734276813
 11
-96.4755489238
 21
139.5763731168
  0
LINE
  8
Layer1$C$L1
 62
     3
 10
-36.4655489238
 20
139.3673436253
 11
-35.3655489238
 21
139.3673436253
  0
LINE
  8
Layer1$C$L1
 62
     3
 10
-97.8154652277
 20
139.2173436253
 11
-95.5655489238
 21
139.8202068819
  0
LINE
  8
Layer1$C$L1
 62
     3
 10
-97.8044727127
 20
139.1173436253
 11
-95.4755489238
 21
139.7413768737
  0
LINE
  8
Layer1$C$L1
 62
     3
 10
-97.8019487032
 20
139.0733838937
 11
-97.8154652277
 21
139.2173436253
  0
LINE
  8
Layer1$C$L1
 62
     3
 10
-97.7858851233
 20
138.9659598579
 11
-97.8019487032
 21
139.0733838937
  0
LINE
  8
Layer1$C$L1
 62
     3
 10
-73.7222696133
 20
138.1673436253
 11
-67.5655489238
 21
138.1673436253
  0
LINE
  8
Layer1$C$L1
 62
     3
 10
-73.5180919330
 20
138.0673436253
 11
-67.6755489238
 21
138.0673436253
  0
LINE
  8
Layer1$C$L1
 62
     3
 10
-37.0655489238
 20
137.3673436253
 11
-36.4655489238
 21
139.3673436253
  0
LINE
  8
Layer1$C$L1
 62
     3
 10
-37.6655489238
 20
137.3673436253
 11
-37.0655489238
 21
137.3673436253
  0
LINE
  8
Layer1$C$L1
 62
     3
 10
-33.4655489238
 20
137.0673436253
 11
-35.3655489238
 21
139.3673436253
  0
LINE
  8
Layer1$C$L1
 62
     3
 10
-37.6655489238
 20
136.8673436253
 11
-37.6655489238
 21
168.1292604733
  0
LINE
  8
Layer1$C$L1
 62
     3
 10
-34.4655489238
 20
136.8673436253
 11
-37.6655489238
 21
136.8673436253
  0
LINE
  8
Layer1$C$L1
 62
     3
 10
-84.7827172572
 20
135.2037056111
 11
-86.7756239045
 21
142.6413344736
  0
LINE
  8
Layer1$C$L1
 62
     3
 10
-84.7827172572
 20
135.2037056111
 11
-73.7222696133
 21
138.1673436253
  0
LINE
  8
Layer1$C$L1
 62
     3
 10
-84.8928374579
 20
135.0194897477
 11
-86.8857441052
 21
142.4571186102
  0
LINE
  8
Layer1$C$L1
 62
     3
 10
-84.8928374579
 20
135.0194897477
 11
-73.5180919330
 21
138.0673436253
  0
LINE
  8
Layer1$C$L1
 62
     3
 10
-66.4655489238
 20
133.5673436253
 11
-67.5655489238
 21
133.5673436253
  0
LINE
  8
Layer1$C$L1
 62
     3
 10
-67.5655489238
 20
133.5673436253
 11
-67.5655489238
 21
138.1673436253
  0
LINE
  8
Layer1$C$L1
 62
     3
 10
-67.6755489238
 20
133.4673436253
 11
-67.6755489238
 21
138.0673436253
  0
LINE
  8
Layer1$C$L1
 62
     3
 10
-66.4755489238
 20
133.4673436253
 11
-66.4755489238
 21
133.5673436253
  0
LINE
  8
Layer1$C$L1
 62
     3
 10
-67.6755489238
 20
133.4673436253
 11
-66.6755489238
 21
133.4673436253
  0
LINE
  8
Layer1$C$L1
 62
     3
 10
-66.6755489238
 20
133.2995236990
 11
-66.6755489238
 21
133.4673436253
  0
LINE
  8
Layer1$C$L1
 62
     3
 10
-38.4655489238
 20
132.0673436253
 11
-66.4655489238
 21
132.0673436253
  0
LINE
  8
Layer1$C$L1
 62
     3
 10
-38.4655489238
 20
130.5673436253
 11
-66.4655489238
 21
130.5673436253
  0
LINE
  8
Layer1$C$L1
 62
     3
 10
-38.4655489238
 20
129.0673436253
 11
-66.4655489238
 21
129.0673436253
  0
LINE
  8
Layer1$C$L1
 62
     3
 10
-38.4655489238
 20
124.2673436253
 11
-66.4655489238
 21
124.2673436253
  0
LINE
  8
Layer1$C$L1
 62
     3
 10
-38.4655489238
 20
122.7673436253
 11
-66.4655489238
 21
122.7673436253
  0
LINE
  8
Layer1$C$L1
 62
     3
 10
-44.4655489238
 20
120.4165369637
 11
-66.4655489238
 21
120.4165369637
  0
LINE
  8
Layer1$C$L1
 62
     3
 10
-44.4655489238
 20
120.4165369637
 11
-44.4655489238
 21
122.7673436253
  0
LINE
  8
Layer1$C$L1
 62
     3
 10
-66.4655489238
 20
120.3673436253
 11
-66.4655489238
 21
133.5673436253
  0
LINE
  8
Layer1$C$L1
 62
     3
 10
-33.4655489238
 20
119.7673436253
 11
-38.4655489238
 21
119.7673436253
  0
LINE
  8
Layer1$C$L1
 62
     3
 10
-43.4655489238
 20
118.3673436253
 11
-43.4655489238
 21
122.7673436253
  0
LINE
  8
Layer1$C$L1
 62
     3
 10
-38.4655489238
 20
118.3673436253
 11
-64.4655489238
 21
118.3673436253
  0
LINE
  8
Layer1$C$L1
 62
     3
 10
-33.4655489238
 20
117.9673436253
 11
-38.4655489238
 21
117.9673436253
  0
LINE
  8
Layer1$C$L1
 62
     3
 10
-38.4655489238
 20
115.1673436253
 11
-38.4655489238
 21
132.0673436253
  0
LINE
  8
Layer1$C$L1
 62
     3
 10
-33.4655489238
 20
115.1673436253
 11
-33.4655489238
 21
137.0673436253
  0
LINE
  8
Layer1$C$L1
 62
     3
 10
-33.4655489238
 20
115.1673436253
 11
-38.4655489238
 21
115.1673436253
  0
POLYLINE
  8
Layer1$C$L1
 62
     3
 66
     1
  0
VERTEX
  8
Layer1$C$L1
 62
     3
 10
-44.4655489238
 20
120.4165369637
  0
VERTEX
  8
Layer1$C$L1
 62
     3
 10
-44.2394918457
 20
119.7658478488
  0
VERTEX
  8
Layer1$C$L1
 62
     3
 10
-44.1376509122
 20
119.0715511898
  0
VERTEX
  8
Layer1$C$L1
 62
     3
 10
-44.1649688189
 20
118.3673436253
  0
SEQEND
  8
Layer1$C$L1
 62
     3
  0
ARC
  8
Layer1$C$L1
  6
DASH
 62
     3
 10
-30.4537564862
 20
281.8630490465
 40
147.0000000000
 50
239.6132805004
 51
241.6907010522
  0
ARC
  8
Layer1$C$L1
  6
DASH
 62
     3
 10
-30.4537564864
 20
281.8630490459
 40
149.9999999994
 50
239.7910745217
 51
243.0735247323
  0
ARC
  8
Layer1$C$L1
  6
DASH
 62
     3
 10
-90.4655496533
 20
153.1673432873
 40
9.3000000000
 50
188.9565134760
 51
206.3883584935
  0
ARC
  8
Layer1$C$L1
  6
DASH
 62
     3
 10
-105.8263120272
 20
152.4064236030
 40
0.2000000000
 50
155.0000000000
 51
239.7910745218
  0
ARC
  8
Layer1$C$L1
  6
DASH
 62
     3
 10
-100.6399595615
 20
151.5637900392
 40
1.0000000000
 50
8.9565134760
 51
61.6907010522
  0
LINE
  8
Layer1$C$L1
  6
DASH
 62
     3
 10
-104.8973908446
 20
154.8717418244
 11
-104.8113294692
 21
155.0563010396
  0
LINE
  8
Layer1$C$L1
  6
DASH
 62
     3
 10
-104.8102351019
 20
153.8755471263
 11
-104.8973908446
 21
154.8717418244
  0
LINE
  8
Layer1$C$L1
  6
DASH
 62
     3
 10
-105.3853883790
 20
153.8252277347
 11
-104.8102351019
 21
153.8755471263
  0
LINE
  8
Layer1$C$L1
  6
DASH
 62
     3
 10
-105.2982326362
 20
152.8290330366
 11
-105.3853883790
 21
153.8252277347
  0
LINE
  8
Layer1$C$L1
  6
DASH
 62
     3
 10
-105.8733859133
 20
152.7787136451
 11
-105.2982326362
 21
152.8290330366
  0
LINE
  8
Layer1$C$L1
  6
DASH
 62
     3
 10
-106.0075735846
 20
152.4909472554
 11
-105.8733859133
 21
152.7787136451
  0
LINE
  8
Layer1$C$L1
  6
DASH
 62
     3
 10
-99.2176632322
 20
151.0696045280
 11
-99.5615090935
 21
151.2299424863
  0
LINE
  8
Layer1$C$L1
  6
DASH
 62
     3
 10
-99.5891378198
 20
148.7454354566
 11
-98.7965090335
 21
149.0339287417
  0
CIRCLE
  8
Layer1$C$L1
 62
     3
 10
-71.3713747808
 20
132.1173432873
 40
0.8500000000
  0
ARC
  8
Layer1$C$L1
 62
     3
 10
-95.6366495163
 20
129.6673432873
 40
1.0000000000
 50
187.0000000000
 51
270.0000000000
  0
ARC
  8
Layer1$C$L1
 62
     3
 10
-73.6004751195
 20
129.1673432873
 40
0.5000000000
 50
270.0000000000
 51
344.3388578781
  0
ARC
  8
Layer1$C$L1
 62
     3
 10
-72.3779520149
 20
129.1673432873
 40
0.5000000000
 50
270.0000000000
 51
310.0000000000
  0
LINE
  8
Layer1$C$L1
 62
     3
 10
-67.0714264496
 20
132.9673432873
 11
-71.3713747808
 21
132.9673432873
  0
LINE
  8
Layer1$C$L1
 62
     3
 10
-72.8898242007
 20
129.8499502530
 11
-69.7998810738
 21
130.6778980185
  0
LINE
  8
Layer1$C$L1
 62
     3
 10
-96.6291956679
 20
129.5454739439
 11
-97.8044734423
 21
139.1173432873
  0
LINE
  8
Layer1$C$L1
 62
     3
 10
-73.1190375966
 20
129.0323695432
 11
-72.1898185697
 21
132.3467986523
  0
LINE
  8
Layer1$C$L1
 62
     3
 10
-72.0565582101
 20
128.7843210657
 11
-66.4755496533
 21
133.4673432873
  0
LINE
  8
Layer1$C$L1
 62
     3
 10
-95.6366495163
 20
128.6673432873
 11
-72.3779520149
 21
128.6673432873
  0
ARC
  8
Layer1$C$L1
  6
DASH
 62
     3
 10
-98.4191453058
 20
140.0206893595
 40
0.5000000000
 50
97.0000000000
 51
187.0000000000
  0
ARC
  8
Layer1$C$L1
  6
DASH
 62
     3
 10
-71.3713747808
 20
132.1173432873
 40
0.7500000000
 50
90.0000000000
 51
164.2828032244
  0
ARC
  8
Layer1$C$L1
  6
DASH
 62
     3
 10
-95.6366495163
 20
129.6673432873
 40
1.0000000000
 50
187.0000000000
 51
270.0000000000
  0
ARC
  8
Layer1$C$L1
  6
DASH
 62
     3
 10
-95.3671999084
 20
119.2673432873
 40
1.0000000000
 50
187.0000000000
 51
270.0000000000
  0
LINE
  8
Layer1$C$L1
  6
DASH
 62
     3
 10
-98.4800799775
 20
140.5169624353
 11
-97.9838069017
 21
140.5778971070
  0
LINE
  8
Layer1$C$L1
  6
DASH
 62
     3
 10
-71.3713747808
 20
132.8673432873
 11
-66.6213747808
 21
132.8673432873
  0
LINE
  8
Layer1$C$L1
  6
DASH
 62
     3
 10
-96.6291956679
 20
129.5454739439
 11
-97.9838069017
 21
140.5778971070
  0
LINE
  8
Layer1$C$L1
  6
DASH
 62
     3
 10
-73.1213747808
 20
128.6673432873
 11
-72.0933326446
 21
132.3205103196
  0
LINE
  8
Layer1$C$L1
  6
DASH
 62
     3
 10
-95.6366495163
 20
128.6673432873
 11
-66.6213747808
 21
128.6673432873
  0
LINE
  8
Layer1$C$L1
  6
DASH
 62
     3
 10
-96.3597460600
 20
119.1454739439
 11
-98.9154183816
 21
139.9597546878
  0
LINE
  8
Layer1$C$L1
  6
DASH
 62
     3
 10
-66.6213747808
 20
118.2673432873
 11
-66.6213747808
 21
132.8673432873
  0
LINE
  8
Layer1$C$L1
  6
DASH
 62
     3
 10
-66.6213747808
 20
118.2673432873
 11
-95.3671999084
 21
118.2673432873
  0
LINE
  8
Layer1$C$L1
  6
DASH
 62
     3
 10
-151.7155519755
 20
139.2173436253
 11
-151.7155519755
 21
140.0816243691
  0
ARC
  8
Layer1$C$L1
 62
     3
 10
-146.7155580790
 20
128.0173348079
 40
0.7500000000
 50
270.0000179861
 51
360.0000000000
  0
ARC
  8
Layer1$C$L1
 62
     3
 10
-144.0155458720
 20
128.0173348079
 40
0.7500000000
 50
179.9999640278
 51
269.9999460417
  0
ARC
  8
Layer1$C$L1
 62
     3
 10
-144.0155458720
 20
125.3173378597
 40
0.7500000000
 50
89.9999820139
 51
179.9999640278
  0
ARC
  8
Layer1$C$L1
 62
     3
 10
-146.7155580790
 20
125.3173378597
 40
0.7500000000
 50
0.0000000000
 51
89.9999820139
  0
LINE
  8
Layer1$C$L1
 62
     3
 10
-144.7655458720
 20
128.0173348079
 11
-144.7655458720
 21
129.1173409115
  0
LINE
  8
Layer1$C$L1
 62
     3
 10
-144.0155458720
 20
127.2673348079
 11
-142.2223034988
 21
127.2673348079
  0
LINE
  8
Layer1$C$L1
 62
     3
 10
-144.0155458720
 20
126.0673378597
 11
-142.2223064115
 21
126.0673378597
  0
LINE
  8
Layer1$C$L1
 62
     3
 10
-145.9655580790
 20
128.0173348079
 11
-145.9655580790
 21
129.1173409115
  0
LINE
  8
Layer1$C$L1
 62
     3
 10
-142.9155550273
 20
126.0673378597
 11
-142.9155550273
 21
127.2673348079
  0
LINE
  8
Layer1$C$L1
 62
     3
 10
-147.8155489238
 20
126.0673378597
 11
-147.8155489238
 21
127.2673348079
  0
LINE
  8
Layer1$C$L1
 62
     3
 10
-145.9655580790
 20
124.2173470150
 11
-144.7655458720
 21
124.2173470150
  0
LINE
  8
Layer1$C$L1
 62
     3
 10
-145.9655580790
 20
129.1173409115
 11
-144.7655458720
 21
129.1173409115
  0
LINE
  8
Layer1$C$L1
 62
     3
 10
-145.9655580790
 20
124.2173470150
 11
-145.9655580790
 21
125.3173378597
  0
LINE
  8
Layer1$C$L1
 62
     3
 10
-144.7655458720
 20
124.2173470150
 11
-144.7655458720
 21
125.3173378597
  0
LINE
  8
Layer1$C$L1
 62
     3
 10
-148.5087975395
 20
126.0673378597
 11
-146.7155580790
 21
126.0673378597
  0
LINE
  8
Layer1$C$L1
 62
     3
 10
-148.5088004522
 20
127.2673348079
 11
-146.7155580790
 21
127.2673348079
  0
LINE
  8
Layer1$C$L1
  6
CENTER
 62
     3
 10
-142.8655519755
 20
126.6673439632
 11
-148.8655519755
 21
126.6673439632
  0
LINE
  8
Layer1$C$L1
  6
CENTER
 62
     3
 10
-145.3655519755
 20
129.6673287044
 11
-145.3655519755
 21
123.6673287044
  0
ARC
  8
Layer1$C$L1
 62
     3
 10
-163.7637897727
 20
158.1769285047
 40
36.8121587510
 50
316.3896442968
 51
317.3488807703
  0
ARC
  8
Layer1$C$L1
 62
     3
 10
-150.0348964375
 20
137.1866880873
 40
0.2000000000
 50
96.5198017517
 51
173.4801982483
  0
ARC
  8
Layer1$C$L1
 62
     3
 10
-144.0962075135
 20
137.1866880873
 40
0.2000000000
 50
6.5198017517
 51
83.4801982483
  0
ARC
  8
Layer1$C$L1
 62
     3
 10
-138.8389332770
 20
136.6959749100
 40
3.0674444567
 50
8.2291603250
 51
40.3900101214
  0
ARC
  8
Layer1$C$L1
 62
     3
 10
-138.7800311218
 20
136.5525917572
 40
2.9974581459
 50
12.4121649831
 51
41.5230803561
  0
ARC
  8
Layer1$C$L1
 62
     3
 10
-139.5794453098
 20
136.3831066086
 40
2.3749525235
 50
194.5269172647
 51
221.9314667299
  0
ARC
  8
Layer1$C$L1
 62
     3
 10
-139.0198477546
 20
136.2105635323
 40
2.7547411226
 50
195.2452803533
 51
215.1626466977
  0
ARC
  8
Layer1$C$L1
 62
     3
 10
-147.0655519755
 20
134.2173436253
 40
3.1000000000
 50
45.9286707505
 51
76.3873745984
  0
ARC
  8
Layer1$C$L1
 62
     3
 10
-147.0655519755
 20
134.2173436253
 40
2.9081369033
 50
214.1440345515
 51
235.8559654485
  0
ARC
  8
Layer1$C$L1
 62
     3
 10
-147.0655519755
 20
134.2173436253
 40
1.9000000000
 50
122.1050717473
 51
147.8949282527
  0
ARC
  8
Layer1$C$L1
 62
     3
 10
-147.0655519755
 20
134.2173436253
 40
3.1000000000
 50
85.7226080881
 51
184.2773919119
  0
CIRCLE
  8
Layer1$C$L1
 62
     3
 10
-147.0655519755
 20
134.2173436253
 40
3.0000000000
  0
ARC
  8
Layer1$C$L1
 62
     3
 10
-147.0655519755
 20
134.2173436253
 40
3.1000000000
 50
265.7226080881
 51
364.2773919119
  0
CIRCLE
  8
Layer1$C$L1
 62
     3
 10
-147.0655519755
 20
134.2173436253
 40
0.2000000000
  0
ARC
  8
Layer1$C$L1
 62
     3
 10
-147.0655519755
 20
134.2173436253
 40
3.1000000000
 50
193.6126254016
 51
256.3873745984
  0
ARC
  8
Layer1$C$L1
 62
     3
 10
-147.0655519755
 20
134.2173436253
 40
1.9000000000
 50
302.1050717473
 51
327.8949282527
  0
ARC
  8
Layer1$C$L1
 62
     3
 10
-147.0655519755
 20
134.2173436252
 40
2.9081369033
 50
34.1440345515
 51
55.8559654485
  0
ARC
  8
Layer1$C$L1
 62
     3
 10
-147.0655519755
 20
134.2173436252
 40
3.1000000000
 50
13.6126254017
 51
44.0803396533
  0
ARC
  8
Layer1$C$L1
 62
     3
 10
-139.0632538429
 20
132.3738187505
 40
2.9023025370
 50
162.0618358953
 51
179.6821121164
  0
ARC
  8
Layer1$C$L1
 62
     3
 10
-139.5794453098
 20
132.1030700964
 40
2.3749525235
 50
194.5269172647
 51
221.9314667299
  0
ARC
  8
Layer1$C$L1
 62
     3
 10
-139.0198477546
 20
131.9305270202
 40
2.7547411226
 50
195.2452803533
 51
215.1626466977
  0
ARC
  8
Layer1$C$L1
 62
     3
 10
-150.0348964375
 20
131.2479991632
 40
0.2000000000
 50
186.5198017517
 51
263.4801982483
  0
ARC
  8
Layer1$C$L1
 62
     3
 10
-144.0962075135
 20
131.2479991632
 40
0.2000000000
 50
276.5198017517
 51
353.4801982483
  0
ARC
  8
Layer1$C$L1
 62
     3
 10
-145.3655519755
 20
126.6673436253
 40
3.2000000000
 50
54.6812270970
 51
398.6821874535
  0
ARC
  8
Layer1$C$L1
 62
     3
 10
-137.4655519755
 20
126.6673436253
 40
2.4000000000
 50
270.0000000000
 51
432.4362628140
  0
ARC
  8
Layer1$C$L1
 62
     3
 10
-136.9155519755
 20
118.8673436253
 40
3.2000000000
 50
154.9921667653
 51
188.9892993452
  0
ARC
  8
Layer1$C$L1
 62
     3
 10
-136.9155519755
 20
118.8673436253
 40
2.3000000000
 50
23.0356841059
 51
336.9643158941
  0
ARC
  8
Layer1$C$L1
 62
     3
 10
-154.5155519756
 20
118.8673436252
 40
3.2000000001
 50
351.0107006557
 51
388.9550243718
  0
ARC
  8
Layer1$C$L1
 62
     3
 10
-145.8155519755
 20
118.3673436253
 40
2.0000000000
 50
180.0000000000
 51
360.0000000000
  0
ARC
  8
Layer1$C$L1
 62
     3
 10
-142.5155519755
 20
116.3673436253
 40
1.0000000000
 50
270.0000000000
 51
360.0000000000
  0
ARC
  8
Layer1$C$L1
 62
     3
 10
-149.1155519755
 20
116.3673436253
 40
1.0000000000
 50
180.0000000000
 51
270.0000000000
  0
LINE
  8
Layer1$C$L1
 62
     3
 10
-142.2155519755
 20
139.2173436253
 11
-134.2155519755
 21
139.2173436253
  0
LINE
  8
Layer1$C$L1
 62
     3
 10
-135.3155519755
 20
139.1173436253
 11
-134.2155519755
 21
139.1173436253
  0
LINE
  8
Layer1$C$L1
 62
     3
 10
-136.8582573989
 20
139.0272669146
 11
-137.2045965925
 21
139.2173436253
  0
LINE
  8
Layer1$C$L1
 62
     3
 10
-136.8204181382
 20
138.8145261526
 11
-137.5264847114
 21
139.2173436253
  0
LINE
  8
Layer1$C$L1
 62
     3
 10
-136.9418489956
 20
138.6972329513
 11
-136.8204181382
 21
138.8145261526
  0
LINE
  8
Layer1$C$L1
 62
     3
 10
-135.3655519755
 20
138.5136623978
 11
-135.3155519755
 21
138.5136623978
  0
LINE
  8
Layer1$C$L1
 62
     3
 10
-136.6509931827
 20
138.4284693711
 11
-136.5358679653
 21
138.5396717918
  0
LINE
  8
Layer1$C$L1
 62
     3
 10
-135.5155519755
 20
138.3565127336
 11
-135.6101602276
 21
139.2173436253
  0
LINE
  8
Layer1$C$L1
 62
     3
 10
-142.2155519755
 20
138.3565127336
 11
-142.1209437234
 21
139.2173436253
  0
LINE
  8
Layer1$C$L1
 62
     3
 10
-151.7155519755
 20
138.1673436253
 11
-142.2155519755
 21
138.1673436253
  0
LINE
  8
Layer1$C$L1
 62
     3
 10
-135.5155519755
 20
138.0976936885
 11
-136.6746988855
 21
139.2173436253
  0
LINE
  8
Layer1$C$L1
 62
     3
 10
-135.5155519755
 20
138.0976936885
 11
-135.6386053237
 21
139.2173436253
  0
LINE
  8
Layer1$C$L1
 62
     3
 10
-142.2155519755
 20
138.0976936885
 11
-142.0924986273
 21
139.2173436253
  0
LINE
  8
Layer1$C$L1
 62
     3
 10
-142.2155519755
 20
138.0976936885
 11
-141.0564050656
 21
139.2173436253
  0
LINE
  8
Layer1$C$L1
 62
     3
 10
-151.2155519755
 20
138.0673436253
 11
-151.2155519755
 21
138.1673436253
  0
LINE
  8
Layer1$C$L1
 62
     3
 10
-151.7155519755
 20
138.0673436253
 11
-142.4155519755
 21
138.0673436253
  0
LINE
  8
Layer1$C$L1
 62
     3
 10
-150.6155519755
 20
137.6673436253
 11
-142.4155519755
 21
137.6673436253
  0
LINE
  8
Layer1$C$L1
 62
     3
 10
-150.5655519755
 20
137.6173436253
 11
-143.5655519755
 21
137.6173436253
  0
LINE
  8
Layer1$C$L1
 62
     3
 10
-144.5155519755
 20
137.6173436253
 11
-144.5155519755
 21
137.6673436253
  0
LINE
  8
Layer1$C$L1
 62
     3
 10
-149.6155519755
 20
137.6173436253
 11
-149.6155519755
 21
137.6673436253
  0
LINE
  8
Layer1$C$L1
 62
     3
 10
-148.4655519755
 20
137.5673436253
 11
-145.6655519755
 21
137.5673436253
  0
LINE
  8
Layer1$C$L1
 62
     3
 10
-135.3155519755
 20
137.5477365715
 11
-135.3655519755
 21
137.5477365715
  0
LINE
  8
Layer1$C$L1
 62
     3
 10
-142.3655519755
 20
137.5477365715
 11
-142.4155519755
 21
137.5477365715
  0
LINE
  8
Layer1$C$L1
 62
     3
 10
-137.8557522048
 20
137.4921991855
 11
-137.7114902719
 21
137.6467106672
  0
LINE
  8
Layer1$C$L1
 62
     3
 10
-135.3155519755
 20
137.4412393489
 11
-135.3655519755
 21
137.4412393489
  0
LINE
  8
Layer1$C$L1
 62
     3
 10
-142.3655519755
 20
137.4412393489
 11
-142.4155519755
 21
137.4412393489
  0
LINE
  8
Layer1$C$L1
 62
     3
 10
-150.0576057558
 20
137.3853946218
 11
-148.4655519755
 21
137.5673436253
  0
LINE
  8
Layer1$C$L1
 62
     3
 10
-144.0734981953
 20
137.3853946218
 11
-145.6655519755
 21
137.5673436253
  0
LINE
  8
Layer1$C$L1
 62
     3
 10
-147.4655519755
 20
137.2914288550
 11
-147.4655519755
 21
137.5673436253
  0
LINE
  8
Layer1$C$L1
 62
     3
 10
-146.6655519755
 20
137.2821420149
 11
-146.6655519755
 21
137.5673436253
  0
LINE
  8
Layer1$C$L1
 62
     3
 10
-146.3359474961
 20
137.2302620283
 11
-146.8343377125
 21
137.3087090136
  0
LINE
  8
Layer1$C$L1
 62
     3
 10
-141.9259541739
 20
137.1317678622
 11
-142.2155519755
 21
137.1317678622
  0
LINE
  8
Layer1$C$L1
 62
     3
 10
-135.5155519755
 20
137.1317678622
 11
-135.8021574280
 21
137.1317678622
  0
LINE
  8
Layer1$C$L1
 62
     3
 10
-137.2561097047
 20
136.9129890082
 11
-137.1100490453
 21
137.0657630534
  0
LINE
  8
Layer1$C$L1
 62
     3
 10
-137.6574211174
 20
136.8746788010
 11
-136.4586929213
 21
137.7785246663
  0
LINE
  8
Layer1$C$L1
 62
     3
 10
-137.8564952983
 20
136.8556746739
 11
-137.6568412332
 21
136.8752562056
  0
LINE
  8
Layer1$C$L1
 62
     3
 10
-139.8746086527
 20
136.8556746739
 11
-140.4749942463
 21
136.9129890082
  0
LINE
  8
Layer1$C$L1
 62
     3
 10
-139.7475779052
 20
136.7608889620
 11
-139.8746086527
 21
136.8556746739
  0
LINE
  8
Layer1$C$L1
 62
     3
 10
-137.9835260458
 20
136.7608889620
 11
-137.8564952983
 21
136.8556746739
  0
LINE
  8
Layer1$C$L1
 62
     3
 10
-135.7741865871
 20
136.6969733624
 11
-135.8526335724
 21
137.1968734695
  0
LINE
  8
Layer1$C$L1
 62
     3
 10
-143.5155519755
 20
136.6673436253
 11
-143.5655519755
 21
136.6673436253
  0
LINE
  8
Layer1$C$L1
 62
     3
 10
-150.5655519755
 20
136.6673436253
 11
-150.6155519755
 21
136.6673436253
  0
LINE
  8
Layer1$C$L1
 62
     3
 10
-135.7655915499
 20
136.6396501450
 11
-135.8030727234
 21
137.1350263809
  0
LINE
  8
Layer1$C$L1
 62
     3
 10
-145.0912832283
 20
136.4761625453
 11
-145.0204181382
 21
136.5470276354
  0
LINE
  8
Layer1$C$L1
 62
     3
 10
-135.7655519755
 20
136.4736375343
 11
-135.7655519755
 21
136.6552751653
  0
LINE
  8
Layer1$C$L1
 62
     3
 10
-141.9655519755
 20
136.4736375343
 11
-141.9655519755
 21
136.6551952760
  0
LINE
  8
Layer1$C$L1
 62
     3
 10
-138.1499571400
 20
136.3920693879
 11
-137.9835260458
 21
136.7608889620
  0
LINE
  8
Layer1$C$L1
 62
     3
 10
-139.5811468110
 20
136.3920693879
 11
-139.7475779052
 21
136.7608889620
  0
LINE
  8
Layer1$C$L1
 62
     3
 10
-144.9800511833
 20
136.3738886504
 11
-144.9093365601
 21
136.4446143952
  0
LINE
  8
Layer1$C$L1
 62
     3
 10
-141.9632803986
 20
136.3590272012
 11
-142.2155519755
 21
136.3590272012
  0
LINE
  8
Layer1$C$L1
 62
     3
 10
-135.5155519755
 20
136.3590272012
 11
-135.7678235525
 21
136.3590272012
  0
LINE
  8
Layer1$C$L1
 62
     3
 10
-144.9093349454
 20
136.3031835326
 11
-144.8386203222
 21
136.3739092773
  0
LINE
  8
Layer1$C$L1
 62
     3
 10
-144.8067330554
 20
136.1916123725
 11
-144.7358679653
 21
136.2624774626
  0
LINE
  8
Layer1$C$L1
 62
     3
 10
-143.5155519755
 20
136.1673436253
 11
-142.4155519755
 21
136.1673436253
  0
LINE
  8
Layer1$C$L1
 62
     3
 10
-135.3655519755
 20
136.1471441234
 11
-135.3155519755
 21
136.1471441234
  0
LINE
  8
Layer1$C$L1
 62
     3
 10
-142.4155519755
 20
136.1471441234
 11
-142.3655519755
 21
136.1471441234
  0
LINE
  8
Layer1$C$L1
 62
     3
 10
-139.7656709054
 20
135.8915016522
 11
-139.5811468110
 21
136.3920693879
  0
LINE
  8
Layer1$C$L1
 62
     3
 10
-137.9654330456
 20
135.8915016522
 11
-138.1499571400
 21
136.3920693879
  0
LINE
  8
Layer1$C$L1
 62
     3
 10
-146.0557522048
 20
135.8267858960
 11
-145.9114902719
 21
135.9728465555
  0
LINE
  8
Layer1$C$L1
 62
     3
 10
-135.3655519755
 20
135.7952000133
 11
-135.3655519755
 21
139.2173436253
  0
LINE
  8
Layer1$C$L1
 62
     3
 10
-135.3655519755
 20
135.7952000133
 11
-135.5155519755
 21
135.7952000133
  0
LINE
  8
Layer1$C$L1
 62
     3
 10
-142.2155519755
 20
135.7952000133
 11
-142.3655519755
 21
135.7952000133
  0
LINE
  8
Layer1$C$L1
 62
     3
 10
-142.3655519755
 20
135.7952000133
 11
-142.3655519755
 21
138.1673436253
  0
LINE
  8
Layer1$C$L1
 62
     3
 10
-141.8784703786
 20
135.7873858502
 11
-141.9569173639
 21
136.2503017063
  0
LINE
  8
Layer1$C$L1
 62
     3
 10
-143.7155519755
 20
135.6173436253
 11
-145.6655519755
 21
137.5673436253
  0
LINE
  8
Layer1$C$L1
 62
     3
 10
-143.7155519755
 20
135.6173436253
 11
-143.8975009790
 21
137.2093974055
  0
LINE
  8
Layer1$C$L1
 62
     3
 10
-150.4155519755
 20
135.6173436253
 11
-148.4655519755
 21
137.5673436253
  0
LINE
  8
Layer1$C$L1
 62
     3
 10
-150.4155519755
 20
135.6173436253
 11
-150.2336029721
 21
137.2093974055
  0
LINE
  8
Layer1$C$L1
 62
     3
 10
-138.4465519755
 20
135.5041944159
 11
-138.8655519755
 21
135.7008578551
  0
LINE
  8
Layer1$C$L1
 62
     3
 10
-139.2845519755
 20
135.5041944159
 11
-138.8655519755
 21
135.7008578551
  0
LINE
  8
Layer1$C$L1
 62
     3
 10
-146.3690168527
 20
135.4254744834
 11
-145.9787390496
 21
135.9254445167
  0
LINE
  8
Layer1$C$L1
 62
     3
 10
-135.5155519755
 20
135.3931013749
 11
-135.5155519755
 21
138.3565127336
  0
LINE
  8
Layer1$C$L1
 62
     3
 10
-142.2155519755
 20
135.3931013749
 11
-142.2155519755
 21
147.6673436253
  0
LINE
  8
Layer1$C$L1
 62
     3
 10
-138.3244146342
 20
135.3583022356
 11
-138.4465519755
 21
135.5041944159
  0
LINE
  8
Layer1$C$L1
 62
     3
 10
-139.4066893169
 20
135.3583022356
 11
-139.2845519755
 21
135.5041944159
  0
LINE
  8
Layer1$C$L1
 62
     3
 10
-136.1171071242
 20
135.2838352760
 11
-136.0299729487
 21
135.5274780161
  0
LINE
  8
Layer1$C$L1
 62
     3
 10
-141.6139968269
 20
135.2838352760
 11
-141.7011310023
 21
135.5274780161
  0
LINE
  8
Layer1$C$L1
 62
     3
 10
-145.4561097047
 20
135.2271433960
 11
-145.3100490453
 21
135.3714053289
  0
LINE
  8
Layer1$C$L1
 62
     3
 10
-147.6066893169
 20
135.2264003024
 11
-148.0753517463
 21
135.8267858960
  0
LINE
  8
Layer1$C$L1
 62
     3
 10
-146.5244146342
 20
135.2264003024
 11
-146.3684190795
 21
135.4260543676
  0
LINE
  8
Layer1$C$L1
 62
     3
 10
-150.6155519755
 20
135.2173436253
 11
-150.5655519755
 21
135.2173436253
  0
LINE
  8
Layer1$C$L1
 62
     3
 10
-143.5655519755
 20
135.2173436253
 11
-143.5155519755
 21
135.2173436253
  0
LINE
  8
Layer1$C$L1
 62
     3
 10
-135.5426997546
 20
135.1812182971
 11
-135.3155519755
 21
135.1812182971
  0
LINE
  8
Layer1$C$L1
 62
     3
 10
-142.4155519755
 20
135.1812182971
 11
-142.1884041964
 21
135.1812182971
  0
LINE
  8
Layer1$C$L1
 62
     3
 10
-146.6465519755
 20
135.0993695549
 11
-146.5244146342
 21
135.2264003024
  0
LINE
  8
Layer1$C$L1
 62
     3
 10
-139.5626848715
 20
135.0343526144
 11
-139.4066893169
 21
135.3583022356
  0
LINE
  8
Layer1$C$L1
 62
     3
 10
-138.8655519755
 20
135.0220535311
 11
-138.8655519755
 21
135.7008578551
  0
LINE
  8
Layer1$C$L1
 62
     3
 10
-147.0655519755
 20
134.9329384607
 11
-147.0655519755
 21
135.1174625552
  0
LINE
  8
Layer1$C$L1
 62
     3
 10
-147.0655519755
 20
134.9329384607
 11
-146.6465519755
 21
135.0993695549
  0
LINE
  8
Layer1$C$L1
 62
     3
 10
-147.0655519755
 20
134.9329384607
 11
-147.4845519755
 21
135.0993695549
  0
LINE
  8
Layer1$C$L1
 62
     3
 10
-140.6210549057
 20
134.8362870440
 11
-140.4749942463
 21
134.9622056523
  0
LINE
  8
Layer1$C$L1
 62
     3
 10
-146.0564952983
 20
134.7584809666
 11
-145.8568412332
 21
134.9144765213
  0
LINE
  8
Layer1$C$L1
 62
     3
 10
-148.0746086527
 20
134.7584809666
 11
-148.6749942463
 21
135.2271433960
  0
LINE
  8
Layer1$C$L1
 62
     3
 10
-146.1835260458
 20
134.6363436253
 11
-146.0564952983
 21
134.7584809666
  0
LINE
  8
Layer1$C$L1
 62
     3
 10
-147.9475779052
 20
134.6363436253
 11
-148.0746086527
 21
134.7584809666
  0
LINE
  8
Layer1$C$L1
 62
     3
 10
-150.1396372053
 20
134.6173436253
 11
-150.4155519755
 21
134.6173436253
  0
LINE
  8
Layer1$C$L1
 62
     3
 10
-143.7155519755
 20
134.6173436252
 11
-144.0007535858
 21
134.6173436252
  0
LINE
  8
Layer1$C$L1
 62
     3
 10
-142.4155519755
 20
134.5224078072
 11
-142.1655519755
 21
134.5224078072
  0
LINE
  8
Layer1$C$L1
 62
     3
 10
-135.5655519755
 20
134.5224078072
 11
-135.3155519755
 21
134.5224078072
  0
LINE
  8
Layer1$C$L1
 62
     3
 10
-143.9741865871
 20
134.4485578883
 11
-144.0526335724
 21
134.9469481047
  0
LINE
  8
Layer1$C$L1
 62
     3
 10
-137.8557522048
 20
134.3829954750
 11
-138.3244146342
 21
135.3583022356
  0
LINE
  8
Layer1$C$L1
 62
     3
 10
-140.0196136792
 20
134.2553394303
 11
-139.8753517463
 21
134.3829954750
  0
LINE
  8
Layer1$C$L1
 62
     3
 10
-142.1655519755
 20
134.2363294231
 11
-142.0673391510
 21
134.2363294231
  0
LINE
  8
Layer1$C$L1
 62
     3
 10
-142.1655519755
 20
134.2363294231
 11
-142.1655519755
 21
135.0028612065
  0
LINE
  8
Layer1$C$L1
 62
     3
 10
-135.6637648000
 20
134.2363294231
 11
-135.5655519755
 21
134.2363294231
  0
LINE
  8
Layer1$C$L1
 62
     3
 10
-135.5655519755
 20
134.2363294231
 11
-135.5655519755
 21
135.0028612065
  0
LINE
  8
Layer1$C$L1
 62
     3
 10
-146.3499571400
 20
134.2173436253
 11
-146.1654330456
 21
134.2173436253
  0
LINE
  8
Layer1$C$L1
 62
     3
 10
-146.3499571400
 20
134.2173436253
 11
-146.1835260458
 21
134.6363436253
  0
LINE
  8
Layer1$C$L1
 62
     3
 10
-147.7811468110
 20
134.2173436253
 11
-147.9475779052
 21
134.6363436253
  0
LINE
  8
Layer1$C$L1
 62
     3
 10
-143.5655519755
 20
134.2173436253
 11
-143.5155519755
 21
134.2173436253
  0
LINE
  8
Layer1$C$L1
 62
     3
 10
-150.6155519755
 20
134.2173436253
 11
-150.5655519755
 21
134.2173436253
  0
LINE
  8
Layer1$C$L1
 62
     3
 10
-147.9656709054
 20
134.2173436253
 11
-147.7811468110
 21
134.2173436253
  0
LINE
  8
Layer1$C$L1
 62
     3
 10
-142.4155519755
 20
134.0082372347
 11
-142.0381145597
 21
134.0082372347
  0
LINE
  8
Layer1$C$L1
 62
     3
 10
-135.6929893913
 20
134.0082372347
 11
-135.3155519755
 21
134.0082372347
  0
LINE
  8
Layer1$C$L1
 62
     3
 10
-142.0336029721
 20
133.9730251800
 11
-142.2155519755
 21
135.3931013749
  0
LINE
  8
Layer1$C$L1
 62
     3
 10
-135.6975009790
 20
133.9730251800
 11
-135.5155519755
 21
135.3931013749
  0
LINE
  8
Layer1$C$L1
 62
     3
 10
-140.4978171934
 20
133.8770302163
 11
-139.5620870984
 21
135.0349127395
  0
LINE
  8
Layer1$C$L1
 62
     3
 10
-150.1303503652
 20
133.8173436253
 11
-150.4155519755
 21
133.8173436253
  0
LINE
  8
Layer1$C$L1
 62
     3
 10
-143.7155519755
 20
133.8173436253
 11
-143.9914667457
 21
133.8173436253
  0
LINE
  8
Layer1$C$L1
 62
     3
 10
-147.9475779052
 20
133.7983436253
 11
-147.7811468110
 21
134.2173436253
  0
LINE
  8
Layer1$C$L1
 62
     3
 10
-146.1835260458
 20
133.7983436253
 11
-146.3499571400
 21
134.2173436253
  0
LINE
  8
Layer1$C$L1
 62
     3
 10
-146.0564952983
 20
133.6762062839
 11
-146.1835260458
 21
133.7983436253
  0
LINE
  8
Layer1$C$L1
 62
     3
 10
-148.2742627179
 20
133.5202107292
 11
-148.0746086527
 21
133.6762062839
  0
LINE
  8
Layer1$C$L1
 62
     3
 10
-139.6435360365
 20
133.5095460136
 11
-140.2655519755
 21
133.5095460136
  0
LINE
  8
Layer1$C$L1
 62
     3
 10
-140.2655519755
 20
133.5095460136
 11
-142.2155519755
 21
135.3931013749
  0
LINE
  8
Layer1$C$L1
 62
     3
 10
-137.4655519755
 20
133.5095460136
 11
-135.5155519755
 21
135.3931013749
  0
LINE
  8
Layer1$C$L1
 62
     3
 10
-140.2655519755
 20
133.5095460136
 11
-141.8576057558
 21
133.8030249234
  0
LINE
  8
Layer1$C$L1
 62
     3
 10
-137.4655519755
 20
133.5095460136
 11
-138.0891663694
 21
133.5095460136
  0
LINE
  8
Layer1$C$L1
 62
     3
 10
-137.4655519755
 20
133.5095460136
 11
-135.8734981953
 21
133.8030249234
  0
LINE
  8
Layer1$C$L1
 62
     3
 10
-150.0784703786
 20
133.4877391458
 11
-150.1569173639
 21
133.9861293622
  0
LINE
  8
Layer1$C$L1
 62
     3
 10
-150.5655519755
 20
133.4673436253
 11
-150.6155519755
 21
133.4673436253
  0
LINE
  8
Layer1$C$L1
 62
     3
 10
-146.6465519755
 20
133.3353176956
 11
-147.0655519755
 21
133.5017487898
  0
LINE
  8
Layer1$C$L1
 62
     3
 10
-147.4845519755
 20
133.3353176956
 11
-147.0655519755
 21
133.5017487898
  0
LINE
  8
Layer1$C$L1
 62
     3
 10
-147.0655519755
 20
133.3172246953
 11
-147.0655519755
 21
133.5017487898
  0
LINE
  8
Layer1$C$L1
 62
     3
 10
-142.4155519755
 20
133.2354965737
 11
-135.3155519755
 21
133.2354965737
  0
LINE
  8
Layer1$C$L1
 62
     3
 10
-147.6066893169
 20
133.2082869481
 11
-147.4845519755
 21
133.3353176956
  0
LINE
  8
Layer1$C$L1
 62
     3
 10
-146.5244146342
 20
133.2082869481
 11
-146.6465519755
 21
133.3353176956
  0
LINE
  8
Layer1$C$L1
 62
     3
 10
-145.4561097047
 20
133.2075438545
 11
-146.0564952983
 21
133.6762062839
  0
LINE
  8
Layer1$C$L1
 62
     3
 10
-142.3655519755
 20
133.1094390277
 11
-142.4155519755
 21
133.1094390277
  0
LINE
  8
Layer1$C$L1
 62
     3
 10
-148.8210549057
 20
133.0632819216
 11
-148.6749942463
 21
133.2075438545
  0
LINE
  8
Layer1$C$L1
 62
     3
 10
-147.7626848715
 20
133.0086328829
 11
-147.6066893169
 21
133.2082869481
  0
LINE
  8
Layer1$C$L1
 62
     3
 10
-135.8526335724
 20
132.9168369573
 11
-135.9817908046
 21
133.2354965737
  0
LINE
  8
Layer1$C$L1
 62
     3
 10
-135.8030727234
 20
132.8549898687
 11
-135.9099544394
 21
133.2354965737
  0
LINE
  8
Layer1$C$L1
 62
     3
 10
-141.9259541739
 20
132.8517313500
 11
-142.2155519755
 21
132.8517313500
  0
LINE
  8
Layer1$C$L1
 62
     3
 10
-135.5155519755
 20
132.8517313500
 11
-135.8021574280
 21
132.8517313500
  0
LINE
  8
Layer1$C$L1
 62
     3
 10
-135.3655519755
 20
132.8337283278
 11
-135.3155519755
 21
132.8337283278
  0
LINE
  8
Layer1$C$L1
 62
     3
 10
-143.7155519755
 20
132.8173436253
 11
-143.7155519755
 21
135.6173436253
  0
LINE
  8
Layer1$C$L1
 62
     3
 10
-150.4155519755
 20
132.8173436253
 11
-150.4155519755
 21
135.6173436253
  0
LINE
  8
Layer1$C$L1
 62
     3
 10
-143.5655519755
 20
132.7673436253
 11
-143.5155519755
 21
132.7673436253
  0
LINE
  8
Layer1$C$L1
 62
     3
 10
-150.6155519755
 20
132.7673436253
 11
-150.5655519755
 21
132.7673436253
  0
LINE
  8
Layer1$C$L1
 62
     3
 10
-137.2561097047
 20
132.6329524960
 11
-137.1100490453
 21
132.7857265413
  0
LINE
  8
Layer1$C$L1
 62
     3
 10
-143.5655519755
 20
132.6173436253
 11
-143.5655519755
 21
137.6173436253
  0
LINE
  8
Layer1$C$L1
 62
     3
 10
-143.5655519755
 20
132.6173436253
 11
-143.7384091184
 21
132.6173436253
  0
LINE
  8
Layer1$C$L1
 62
     3
 10
-150.5655519755
 20
132.6173436253
 11
-150.5655519755
 21
137.6173436253
  0
LINE
  8
Layer1$C$L1
 62
     3
 10
-150.3926948327
 20
132.6173436253
 11
-150.5655519755
 21
132.6173436253
  0
LINE
  8
Layer1$C$L1
 62
     3
 10
-146.0557522048
 20
132.6079013545
 11
-146.5244146342
 21
133.2082869481
  0
LINE
  8
Layer1$C$L1
 62
     3
 10
-137.6574211174
 20
132.5946422889
 11
-136.8074862664
 21
133.2354965737
  0
LINE
  8
Layer1$C$L1
 62
     3
 10
-137.8564952983
 20
132.5756381617
 11
-137.6568412332
 21
132.5952196934
  0
LINE
  8
Layer1$C$L1
 62
     3
 10
-139.8746086527
 20
132.5756381617
 11
-140.4749942463
 21
132.6329524960
  0
LINE
  8
Layer1$C$L1
 62
     3
 10
-148.1523649014
 20
132.5092427338
 11
-147.7620870984
 21
133.0092127671
  0
LINE
  8
Layer1$C$L1
 62
     3
 10
-137.9835260458
 20
132.4808524499
 11
-137.8564952983
 21
132.5756381617
  0
LINE
  8
Layer1$C$L1
 62
     3
 10
-139.7475779052
 20
132.4808524499
 11
-139.8746086527
 21
132.5756381617
  0
LINE
  8
Layer1$C$L1
 62
     3
 10
-148.2196136792
 20
132.4618406950
 11
-148.0753517463
 21
132.6079013545
  0
LINE
  8
Layer1$C$L1
 62
     3
 10
-135.7741865871
 20
132.4169368502
 11
-135.8526335724
 21
132.9168369573
  0
LINE
  8
Layer1$C$L1
 62
     3
 10
-135.7655915499
 20
132.3596136328
 11
-135.8030727234
 21
132.8549898687
  0
LINE
  8
Layer1$C$L1
 62
     3
 10
-135.7655519755
 20
132.1936010221
 11
-135.7655519755
 21
132.3752386531
  0
LINE
  8
Layer1$C$L1
 62
     3
 10
-141.9655519755
 20
132.1936010221
 11
-141.9655519755
 21
132.3751587638
  0
LINE
  8
Layer1$C$L1
 62
     3
 10
-149.3952359857
 20
132.1722097879
 11
-149.3243708956
 21
132.2430748780
  0
LINE
  8
Layer1$C$L1
 62
     3
 10
-138.1499571400
 20
132.1120328757
 11
-137.9835260458
 21
132.4808524499
  0
LINE
  8
Layer1$C$L1
 62
     3
 10
-139.5811468110
 20
132.1120328757
 11
-139.7475779052
 21
132.4808524499
  0
LINE
  8
Layer1$C$L1
 62
     3
 10
-141.9632803986
 20
132.0789906890
 11
-142.2155519755
 21
132.0789906890
  0
LINE
  8
Layer1$C$L1
 62
     3
 10
-135.5155519755
 20
132.0789906890
 11
-135.7678235525
 21
132.0789906890
  0
LINE
  8
Layer1$C$L1
 62
     3
 10
-149.1106858129
 20
131.8876596151
 11
-149.0398207228
 21
131.9585247052
  0
LINE
  8
Layer1$C$L1
 62
     3
 10
-135.3655519755
 20
131.8671076112
 11
-135.3155519755
 21
131.8671076112
  0
LINE
  8
Layer1$C$L1
 62
     3
 10
-142.4155519755
 20
131.8671076112
 11
-142.3655519755
 21
131.8671076112
  0
LINE
  8
Layer1$C$L1
 62
     3
 10
-143.5155519755
 20
131.7673436253
 11
-143.7655519755
 21
131.7673436253
  0
LINE
  8
Layer1$C$L1
 62
     3
 10
-150.3655519755
 20
131.7673436253
 11
-150.6155519755
 21
131.7673436253
  0
LINE
  8
Layer1$C$L1
 62
     3
 10
-143.5155519755
 20
131.6173436253
 11
-143.7655519755
 21
131.6173436253
  0
LINE
  8
Layer1$C$L1
 62
     3
 10
-150.3655519755
 20
131.6173436253
 11
-150.6155519755
 21
131.6173436253
  0
LINE
  8
Layer1$C$L1
 62
     3
 10
-139.7656709054
 20
131.6114651401
 11
-139.5811468110
 21
132.1120328757
  0
LINE
  8
Layer1$C$L1
 62
     3
 10
-137.9654330456
 20
131.6114651401
 11
-138.1499571400
 21
132.1120328757
  0
LINE
  8
Layer1$C$L1
 62
     3
 10
-135.3655519755
 20
131.5151635012
 11
-135.5155519755
 21
131.5151635012
  0
LINE
  8
Layer1$C$L1
 62
     3
 10
-135.3655519755
 20
131.5151635012
 11
-135.3655519755
 21
133.2354965737
  0
LINE
  8
Layer1$C$L1
 62
     3
 10
-142.2155519755
 20
131.5151635012
 11
-142.3655519755
 21
131.5151635012
  0
LINE
  8
Layer1$C$L1
 62
     3
 10
-142.3655519755
 20
131.5151635012
 11
-142.3655519755
 21
133.2354965737
  0
LINE
  8
Layer1$C$L1
 62
     3
 10
-141.8784703786
 20
131.5073493380
 11
-141.9569173639
 21
131.9702651941
  0
LINE
  8
Layer1$C$L1
 62
     3
 10
-150.2336029721
 20
131.2252898450
 11
-150.4155519755
 21
132.8173436253
  0
LINE
  8
Layer1$C$L1
 62
     3
 10
-143.8975009790
 20
131.2252898450
 11
-143.7155519755
 21
132.8173436253
  0
LINE
  8
Layer1$C$L1
 62
     3
 10
-138.4465519755
 20
131.2241579037
 11
-138.8655519755
 21
131.4208213429
  0
LINE
  8
Layer1$C$L1
 62
     3
 10
-139.2845519755
 20
131.2241579037
 11
-138.8655519755
 21
131.4208213429
  0
LINE
  8
Layer1$C$L1
 62
     3
 10
-147.2967662385
 20
131.1259782369
 11
-147.7951564550
 21
131.2044252222
  0
LINE
  8
Layer1$C$L1
 62
     3
 10
-135.5155519755
 20
131.1130648627
 11
-135.5155519755
 21
133.2354965737
  0
LINE
  8
Layer1$C$L1
 62
     3
 10
-142.2155519755
 20
131.1130648627
 11
-142.2155519755
 21
133.2354965737
  0
LINE
  8
Layer1$C$L1
 62
     3
 10
-139.4066893169
 20
131.0782657234
 11
-139.2845519755
 21
131.2241579037
  0
LINE
  8
Layer1$C$L1
 62
     3
 10
-138.3244146342
 20
131.0782657234
 11
-138.4465519755
 21
131.2241579037
  0
LINE
  8
Layer1$C$L1
 62
     3
 10
-136.1171071242
 20
131.0037987639
 11
-136.0299729487
 21
131.2474415039
  0
LINE
  8
Layer1$C$L1
 62
     3
 10
-141.6139968269
 20
131.0037987639
 11
-141.7011310023
 21
131.2474415039
  0
LINE
  8
Layer1$C$L1
 62
     3
 10
-142.1884041964
 20
130.9011817849
 11
-142.4155519755
 21
130.9011817849
  0
LINE
  8
Layer1$C$L1
 62
     3
 10
-135.3155519755
 20
130.9011817849
 11
-135.5426997546
 21
130.9011817849
  0
LINE
  8
Layer1$C$L1
 62
     3
 10
-147.4655519755
 20
130.8673436253
 11
-147.4655519755
 21
131.1525452356
  0
LINE
  8
Layer1$C$L1
 62
     3
 10
-146.6655519755
 20
130.8673436253
 11
-146.6655519755
 21
131.1432583955
  0
LINE
  8
Layer1$C$L1
 62
     3
 10
-148.4655519755
 20
130.8673436253
 11
-150.0576057558
 21
131.0492926287
  0
LINE
  8
Layer1$C$L1
 62
     3
 10
-148.4655519755
 20
130.8673436253
 11
-150.4155519755
 21
132.8173436253
  0
LINE
  8
Layer1$C$L1
 62
     3
 10
-145.6655519755
 20
130.8673436253
 11
-148.4655519755
 21
130.8673436253
  0
LINE
  8
Layer1$C$L1
 62
     3
 10
-145.6655519755
 20
130.8673436253
 11
-143.7155519755
 21
132.8173436253
  0
LINE
  8
Layer1$C$L1
 62
     3
 10
-145.6655519755
 20
130.8673436253
 11
-144.0734981953
 21
131.0492926287
  0
LINE
  8
Layer1$C$L1
 62
     3
 10
-150.3655519755
 20
130.8173436253
 11
-150.3655519755
 21
132.3798436253
  0
LINE
  8
Layer1$C$L1
 62
     3
 10
-149.0655519755
 20
130.8173436253
 11
-149.0655519755
 21
130.9359150538
  0
LINE
  8
Layer1$C$L1
 62
     3
 10
-145.0655519755
 20
130.8173436253
 11
-145.0655519755
 21
130.9359150538
  0
LINE
  8
Layer1$C$L1
 62
     3
 10
-143.7655519755
 20
130.8173436253
 11
-143.7655519755
 21
132.3798436252
  0
LINE
  8
Layer1$C$L1
 62
     3
 10
-143.5155519755
 20
130.8173436253
 11
-150.6155519755
 21
130.8173436253
  0
LINE
  8
Layer1$C$L1
 62
     3
 10
-149.6155519755
 20
130.7673436253
 11
-149.6155519755
 21
130.8173436253
  0
LINE
  8
Layer1$C$L1
 62
     3
 10
-150.6155519755
 20
130.7673436253
 11
-143.5155519755
 21
130.7673436253
  0
LINE
  8
Layer1$C$L1
 62
     3
 10
-139.5626848715
 20
130.7543161022
 11
-139.4066893169
 21
131.0782657234
  0
LINE
  8
Layer1$C$L1
 62
     3
 10
-138.8655519755
 20
130.7420170189
 11
-138.8655519755
 21
131.4208213429
  0
LINE
  8
Layer1$C$L1
 62
     3
 10
-140.6210549057
 20
130.5562505318
 11
-140.4749942463
 21
130.6821691401
  0
LINE
  8
Layer1$C$L1
 62
     3
 10
-142.4155519755
 20
130.2423712950
 11
-142.1655519755
 21
130.2423712950
  0
LINE
  8
Layer1$C$L1
 62
     3
 10
-135.5655519755
 20
130.2423712950
 11
-135.3155519755
 21
130.2423712950
  0
LINE
  8
Layer1$C$L1
 62
     3
 10
-137.8557522048
 20
130.1029589628
 11
-138.3244146342
 21
131.0782657234
  0
LINE
  8
Layer1$C$L1
 62
     3
 10
-140.0196136792
 20
129.9753029181
 11
-139.8753517463
 21
130.1029589628
  0
LINE
  8
Layer1$C$L1
 62
     3
 10
-143.5155519755
 20
129.9673436253
 11
-150.6155519755
 21
129.9673436253
  0
LINE
  8
Layer1$C$L1
 62
     3
 10
-142.1655519755
 20
129.9562929110
 11
-142.1655519755
 21
130.7228246943
  0
LINE
  8
Layer1$C$L1
 62
     3
 10
-135.5655519755
 20
129.9562929110
 11
-135.5655519755
 21
130.7228246943
  0
LINE
  8
Layer1$C$L1
 62
     3
 10
-135.6637648000
 20
129.9562929110
 11
-135.5655519755
 21
129.9562929110
  0
LINE
  8
Layer1$C$L1
 62
     3
 10
-142.1655519755
 20
129.9562929110
 11
-142.0673391510
 21
129.9562929110
  0
LINE
  8
Layer1$C$L1
 62
     3
 10
-145.3655519755
 20
129.8673436253
 11
-145.3655519755
 21
129.9673436253
  0
LINE
  8
Layer1$C$L1
 62
     3
 10
-142.4155519755
 20
129.7282007225
 11
-142.0381145597
 21
129.7282007225
  0
LINE
  8
Layer1$C$L1
 62
     3
 10
-135.6929893913
 20
129.7282007225
 11
-135.3155519755
 21
129.7282007225
  0
LINE
  8
Layer1$C$L1
 62
     3
 10
-142.0336029721
 20
129.6929886678
 11
-142.2155519755
 21
131.1130648627
  0
LINE
  8
Layer1$C$L1
 62
     3
 10
-135.6975009790
 20
129.6929886678
 11
-135.5155519755
 21
131.1130648627
  0
LINE
  8
Layer1$C$L1
 62
     3
 10
-140.4978171934
 20
129.5969937041
 11
-139.5620870984
 21
130.7548762273
  0
LINE
  8
Layer1$C$L1
 62
     3
 10
-138.0891663694
 20
129.2295095014
 11
-137.4655519755
 21
129.2295095014
  0
LINE
  8
Layer1$C$L1
 62
     3
 10
-137.4655519755
 20
129.2295095014
 11
-135.5155519755
 21
131.1130648627
  0
LINE
  8
Layer1$C$L1
 62
     3
 10
-140.2655519755
 20
129.2295095014
 11
-142.2155519755
 21
131.1130648627
  0
LINE
  8
Layer1$C$L1
 62
     3
 10
-140.2655519755
 20
129.2295095014
 11
-139.6435360365
 21
129.2295095014
  0
LINE
  8
Layer1$C$L1
 62
     3
 10
-140.2655519755
 20
129.2295095014
 11
-141.8576057558
 21
129.5229884113
  0
LINE
  8
Layer1$C$L1
 62
     3
 10
-137.4655519755
 20
129.2295095014
 11
-135.8734981953
 21
129.5229884113
  0
LINE
  8
Layer1$C$L1
 62
     3
 10
-142.4155519755
 20
128.9554600615
 11
-135.3155519755
 21
128.9554600615
  0
LINE
  8
Layer1$C$L1
 62
     3
 10
-142.4155519755
 20
128.6673436253
 11
-142.4155519755
 21
138.1673436253
  0
LINE
  8
Layer1$C$L1
 62
     3
 10
-134.2155519755
 20
128.6673436253
 11
-135.3155519755
 21
128.6673436253
  0
LINE
  8
Layer1$C$L1
 62
     3
 10
-135.3155519755
 20
128.6673436253
 11
-135.3155519755
 21
139.2173436253
  0
LINE
  8
Layer1$C$L1
 62
     3
 10
-142.4155519755
 20
128.6673436253
 11
-143.5155519755
 21
128.6673436253
  0
LINE
  8
Layer1$C$L1
 62
     3
 10
-143.5155519755
 20
128.6673436253
 11
-143.5155519755
 21
137.6673436253
  0
LINE
  8
Layer1$C$L1
 62
     3
 10
-150.6155519755
 20
128.6673436253
 11
-150.6155519755
 21
137.6673436253
  0
LINE
  8
Layer1$C$L1
 62
     3
 10
-150.6155519755
 20
128.6673436253
 11
-151.7155519755
 21
128.6673436253
  0
LINE
  8
Layer1$C$L1
 62
     3
 10
-137.4655519755
 20
124.2673436253
 11
-137.9655519755
 21
124.2673436253
  0
LINE
  8
Layer1$C$L1
 62
     3
 10
-137.9655519755
 20
122.7673436253
 11
-137.9655519755
 21
124.2673436253
  0
LINE
  8
Layer1$C$L1
 62
     3
 10
-137.9655519755
 20
122.7673436253
 11
-139.8155519755
 21
122.7673436253
  0
LINE
  8
Layer1$C$L1
 62
     3
 10
-139.8155519755
 20
120.2201185511
 11
-139.8155519755
 21
128.9554600615
  0
LINE
  8
Layer1$C$L1
 62
     3
 10
-134.2155519755
 20
119.7673436253
 11
-134.7989509267
 21
119.7673436253
  0
LINE
  8
Layer1$C$L1
 62
     3
 10
-145.3655519755
 20
118.3673436253
 11
-145.3655519755
 21
123.4673436253
  0
LINE
  8
Layer1$C$L1
 62
     3
 10
-134.7989509267
 20
117.9673436253
 11
-134.2155519755
 21
117.9673436253
  0
LINE
  8
Layer1$C$L1
 62
     3
 10
-141.5155519755
 20
116.3673436253
 11
-141.5155519755
 21
118.3673436253
  0
LINE
  8
Layer1$C$L1
 62
     3
 10
-150.1155519755
 20
116.3673436253
 11
-150.1155519755
 21
118.3673436253
  0
LINE
  8
Layer1$C$L1
 62
     3
 10
-149.1155519755
 20
115.3673436253
 11
-142.5155519755
 21
115.3673436253
  0
LINE
  8
Layer1$C$L1
 62
     3
 10
-141.4155519755
 20
115.1673436253
 11
-134.2155519755
 21
115.1673436253
  0
LINE
  8
Layer1$C$L1
 62
     3
 10
-134.2155519755
 20
115.1673436253
 11
-134.2155519755
 21
117.9673436253
  0
LINE
  8
Layer1$C$L1
 62
     3
 10
-141.4155519755
 20
115.1673436253
 11
-141.4155519755
 21
118.3673436253
  0
POLYLINE
  8
Layer1$C$L1
 62
     3
 66
     1
 70
     1
  0
VERTEX
  8
Layer1$C$L1
 62
     3
 10
-138.6655519755
 20
132.1829872465
  0
VERTEX
  8
Layer1$C$L1
 62
     3
 10
-138.6807760690
 20
132.1090584844
  0
VERTEX
  8
Layer1$C$L1
 62
     3
 10
-138.7241306193
 20
132.0463847061
  0
VERTEX
  8
Layer1$C$L1
 62
     3
 10
-138.7890152890
 20
132.0045074263
  0
VERTEX
  8
Layer1$C$L1
 62
     3
 10
-138.8655519755
 20
131.9898020812
  0
VERTEX
  8
Layer1$C$L1
 62
     3
 10
-138.9420886620
 20
132.0045074263
  0
VERTEX
  8
Layer1$C$L1
 62
     3
 10
-139.0069733318
 20
132.0463847061
  0
VERTEX
  8
Layer1$C$L1
 62
     3
 10
-139.0503278820
 20
132.1090584844
  0
VERTEX
  8
Layer1$C$L1
 62
     3
 10
-139.0655519755
 20
132.1829872465
  0
VERTEX
  8
Layer1$C$L1
 62
     3
 10
-139.0503278820
 20
132.2569160086
  0
VERTEX
  8
Layer1$C$L1
 62
     3
 10
-139.0069733318
 20
132.3195897869
  0
VERTEX
  8
Layer1$C$L1
 62
     3
 10
-138.9420886620
 20
132.3614670667
  0
VERTEX
  8
Layer1$C$L1
 62
     3
 10
-138.8655519755
 20
132.3761724118
  0
VERTEX
  8
Layer1$C$L1
 62
     3
 10
-138.7890152890
 20
132.3614670667
  0
VERTEX
  8
Layer1$C$L1
 62
     3
 10
-138.7241306193
 20
132.3195897869
  0
VERTEX
  8
Layer1$C$L1
 62
     3
 10
-138.6807760690
 20
132.2569160086
  0
SEQEND
  8
Layer1$C$L1
 62
     3
  0
POLYLINE
  8
Layer1$C$L1
 62
     3
 66
     1
 70
     1
  0
VERTEX
  8
Layer1$C$L1
 62
     3
 10
-138.6655519755
 20
136.4630237587
  0
VERTEX
  8
Layer1$C$L1
 62
     3
 10
-138.6807760690
 20
136.3890949965
  0
VERTEX
  8
Layer1$C$L1
 62
     3
 10
-138.7241306193
 20
136.3264212183
  0
VERTEX
  8
Layer1$C$L1
 62
     3
 10
-138.7890152890
 20
136.2845439385
  0
VERTEX
  8
Layer1$C$L1
 62
     3
 10
-138.8655519755
 20
136.2698385934
  0
VERTEX
  8
Layer1$C$L1
 62
     3
 10
-138.9420886620
 20
136.2845439385
  0
VERTEX
  8
Layer1$C$L1
 62
     3
 10
-139.0069733318
 20
136.3264212183
  0
VERTEX
  8
Layer1$C$L1
 62
     3
 10
-139.0503278820
 20
136.3890949965
  0
VERTEX
  8
Layer1$C$L1
 62
     3
 10
-139.0655519755
 20
136.4630237587
  0
VERTEX
  8
Layer1$C$L1
 62
     3
 10
-139.0503278820
 20
136.5369525208
  0
VERTEX
  8
Layer1$C$L1
 62
     3
 10
-139.0069733318
 20
136.5996262991
  0
VERTEX
  8
Layer1$C$L1
 62
     3
 10
-138.9420886620
 20
136.6415035788
  0
VERTEX
  8
Layer1$C$L1
 62
     3
 10
-138.8655519755
 20
136.6562089239
  0
VERTEX
  8
Layer1$C$L1
 62
     3
 10
-138.7890152890
 20
136.6415035788
  0
VERTEX
  8
Layer1$C$L1
 62
     3
 10
-138.7241306193
 20
136.5996262991
  0
VERTEX
  8
Layer1$C$L1
 62
     3
 10
-138.6807760690
 20
136.5369525208
  0
SEQEND
  8
Layer1$C$L1
 62
     3
  0
POLYLINE
  8
Layer1$C$L1
 62
     3
 66
     1
  0
VERTEX
  8
Layer1$C$L1
 62
     3
 10
-136.8582573989
 20
139.0272669146
  0
VERTEX
  8
Layer1$C$L1
 62
     3
 10
-136.8107045141
 20
138.9874280879
  0
VERTEX
  8
Layer1$C$L1
 62
     3
 10
-136.7639988765
 20
138.9466648354
  0
VERTEX
  8
Layer1$C$L1
 62
     3
 10
-136.7181597436
 20
138.9049939645
  0
VERTEX
  8
Layer1$C$L1
 62
     3
 10
-136.6732060155
 20
138.8624326567
  0
VERTEX
  8
Layer1$C$L1
 62
     3
 10
-136.6291562275
 20
138.8189984608
  0
VERTEX
  8
Layer1$C$L1
 62
     3
 10
-136.5860285419
 20
138.7747092853
  0
VERTEX
  8
Layer1$C$L1
 62
     3
 10
-136.5438407411
 20
138.7295833915
  0
VERTEX
  8
Layer1$C$L1
 62
     3
 10
-136.5026102197
 20
138.6836393854
  0
SEQEND
  8
Layer1$C$L1
 62
     3
  0
POLYLINE
  8
Layer1$C$L1
 62
     3
 66
     1
  0
VERTEX
  8
Layer1$C$L1
 62
     3
 10
-136.5358679653
 20
138.5396717918
  0
VERTEX
  8
Layer1$C$L1
 62
     3
 10
-136.5693821327
 20
138.5759497473
  0
VERTEX
  8
Layer1$C$L1
 62
     3
 10
-136.6035017102
 20
138.6116972896
  0
VERTEX
  8
Layer1$C$L1
 62
     3
 10
-136.6382177016
 20
138.6469049934
  0
VERTEX
  8
Layer1$C$L1
 62
     3
 10
-136.6735209538
 20
138.6815635760
  0
VERTEX
  8
Layer1$C$L1
 62
     3
 10
-136.7094021588
 20
138.7156638990
  0
VERTEX
  8
Layer1$C$L1
 62
     3
 10
-136.7458518559
 20
138.7491969718
  0
VERTEX
  8
Layer1$C$L1
 62
     3
 10
-136.7828604350
 20
138.7821539528
  0
VERTEX
  8
Layer1$C$L1
 62
     3
 10
-136.8204181382
 20
138.8145261526
  0
SEQEND
  8
Layer1$C$L1
 62
     3
  0
POLYLINE
  8
Layer1$C$L1
 62
     3
 66
     1
  0
VERTEX
  8
Layer1$C$L1
 62
     3
 10
-137.2332867576
 20
138.5267248576
  0
VERTEX
  8
Layer1$C$L1
 62
     3
 10
-137.1211519257
 20
138.4494623435
  0
VERTEX
  8
Layer1$C$L1
 62
     3
 10
-137.0129303342
 20
138.3671577865
  0
VERTEX
  8
Layer1$C$L1
 62
     3
 10
-136.9088647585
 20
138.2799958216
  0
VERTEX
  8
Layer1$C$L1
 62
     3
 10
-136.8091886506
 20
138.1881719807
  0
VERTEX
  8
Layer1$C$L1
 62
     3
 10
-136.7141256154
 20
138.0918922538
  0
VERTEX
  8
Layer1$C$L1
 62
     3
 10
-136.6238889093
 20
137.9913726266
  0
VERTEX
  8
Layer1$C$L1
 62
     3
 10
-136.5386809618
 20
137.8868385965
  0
VERTEX
  8
Layer1$C$L1
 62
     3
 10
-136.4586929213
 20
137.7785246663
  0
SEQEND
  8
Layer1$C$L1
 62
     3
  0
POLYLINE
  8
Layer1$C$L1
 62
     3
 66
     1
  0
VERTEX
  8
Layer1$C$L1
 62
     3
 10
-139.8753517463
 20
137.4921991855
  0
VERTEX
  8
Layer1$C$L1
 62
     3
 10
-139.8019305722
 20
137.4195445017
  0
VERTEX
  8
Layer1$C$L1
 62
     3
 10
-139.7283622545
 20
137.3469687765
  0
VERTEX
  8
Layer1$C$L1
 62
     3
 10
-139.6546590822
 20
137.2744841330
  0
VERTEX
  8
Layer1$C$L1
 62
     3
 10
-139.5808333666
 20
137.2021026792
  0
VERTEX
  8
Layer1$C$L1
 62
     3
 10
-139.5068974399
 20
137.1298365058
  0
VERTEX
  8
Layer1$C$L1
 62
     3
 10
-139.4328636523
 20
137.0576976842
  0
VERTEX
  8
Layer1$C$L1
 62
     3
 10
-139.3587443705
 20
136.9856982646
  0
VERTEX
  8
Layer1$C$L1
 62
     3
 10
-139.2845519755
 20
136.9138502738
  0
SEQEND
  8
Layer1$C$L1
 62
     3
  0
POLYLINE
  8
Layer1$C$L1
 62
     3
 66
     1
  0
VERTEX
  8
Layer1$C$L1
 62
     3
 10
-138.4465519755
 20
136.9138502738
  0
VERTEX
  8
Layer1$C$L1
 62
     3
 10
-138.3723595805
 20
136.9856982646
  0
VERTEX
  8
Layer1$C$L1
 62
     3
 10
-138.2982402988
 20
137.0576976842
  0
VERTEX
  8
Layer1$C$L1
 62
     3
 10
-138.2242065111
 20
137.1298365058
  0
VERTEX
  8
Layer1$C$L1
 62
     3
 10
-138.1502705844
 20
137.2021026792
  0
VERTEX
  8
Layer1$C$L1
 62
     3
 10
-138.0764448689
 20
137.2744841330
  0
VERTEX
  8
Layer1$C$L1
 62
     3
 10
-138.0027416965
 20
137.3469687765
  0
VERTEX
  8
Layer1$C$L1
 62
     3
 10
-137.9291733789
 20
137.4195445017
  0
VERTEX
  8
Layer1$C$L1
 62
     3
 10
-137.8557522048
 20
137.4921991855
  0
SEQEND
  8
Layer1$C$L1
 62
     3
  0
POLYLINE
  8
Layer1$C$L1
 62
     3
 66
     1
  0
VERTEX
  8
Layer1$C$L1
 62
     3
 10
-140.4749942463
 20
136.9129890082
  0
VERTEX
  8
Layer1$C$L1
 62
     3
 10
-140.4156612482
 20
136.9988686305
  0
VERTEX
  8
Layer1$C$L1
 62
     3
 10
-140.3514223313
 20
137.0813894504
  0
VERTEX
  8
Layer1$C$L1
 62
     3
 10
-140.2824808045
 20
137.1602902989
  0
VERTEX
  8
Layer1$C$L1
 62
     3
 10
-140.2090548598
 20
137.2353214638
  0
VERTEX
  8
Layer1$C$L1
 62
     3
 10
-140.1313768819
 20
137.3062454801
  0
VERTEX
  8
Layer1$C$L1
 62
     3
 10
-140.0496927129
 20
137.3728378814
  0
VERTEX
  8
Layer1$C$L1
 62
     3
 10
-139.9642608737
 20
137.4348879103
  0
VERTEX
  8
Layer1$C$L1
 62
     3
 10
-139.8753517463
 20
137.4921991855
  0
SEQEND
  8
Layer1$C$L1
 62
     3
  0
POLYLINE
  8
Layer1$C$L1
 62
     3
 66
     1
  0
VERTEX
  8
Layer1$C$L1
 62
     3
 10
-139.2845519755
 20
134.8844480592
  0
VERTEX
  8
Layer1$C$L1
 62
     3
 10
-139.2322292682
 20
134.9011557494
  0
VERTEX
  8
Layer1$C$L1
 62
     3
 10
-139.1798865282
 20
134.9180059507
  0
VERTEX
  8
Layer1$C$L1
 62
     3
 10
-139.1275263007
 20
134.9349978437
  0
VERTEX
  8
Layer1$C$L1
 62
     3
 10
-139.0751511314
 20
134.9521306024
  0
VERTEX
  8
Layer1$C$L1
 62
     3
 10
-139.0227635668
 20
134.9694033937
  0
VERTEX
  8
Layer1$C$L1
 62
     3
 10
-138.9703661542
 20
134.9868153777
  0
VERTEX
  8
Layer1$C$L1
 62
     3
 10
-138.9179614411
 20
135.0043657080
  0
VERTEX
  8
Layer1$C$L1
 62
     3
 10
-138.8655519755
 20
135.0220535311
  0
SEQEND
  8
Layer1$C$L1
 62
     3
  0
POLYLINE
  8
Layer1$C$L1
 62
     3
 66
     1
  0
VERTEX
  8
Layer1$C$L1
 62
     3
 10
-138.8655519755
 20
136.7609497734
  0
VERTEX
  8
Layer1$C$L1
 62
     3
 10
-138.8131425099
 20
136.7798489692
  0
VERTEX
  8
Layer1$C$L1
 62
     3
 10
-138.7607377969
 20
136.7988109783
  0
VERTEX
  8
Layer1$C$L1
 62
     3
 10
-138.7083403842
 20
136.8178348787
  0
VERTEX
  8
Layer1$C$L1
 62
     3
 10
-138.6559528197
 20
136.8369197454
  0
VERTEX
  8
Layer1$C$L1
 62
     3
 10
-138.6035776503
 20
136.8560646506
  0
VERTEX
  8
Layer1$C$L1
 62
     3
 10
-138.5512174228
 20
136.8752686633
  0
VERTEX
  8
Layer1$C$L1
 62
     3
 10
-138.4988746829
 20
136.8945308499
  0
VERTEX
  8
Layer1$C$L1
 62
     3
 10
-138.4465519755
 20
136.9138502738
  0
SEQEND
  8
Layer1$C$L1
 62
     3
  0
POLYLINE
  8
Layer1$C$L1
 62
     3
 66
     1
  0
VERTEX
  8
Layer1$C$L1
 62
     3
 10
-139.2845519755
 20
136.9138502738
  0
VERTEX
  8
Layer1$C$L1
 62
     3
 10
-139.2322292682
 20
136.8945308499
  0
VERTEX
  8
Layer1$C$L1
 62
     3
 10
-139.1798865282
 20
136.8752686633
  0
VERTEX
  8
Layer1$C$L1
 62
     3
 10
-139.1275263007
 20
136.8560646506
  0
VERTEX
  8
Layer1$C$L1
 62
     3
 10
-139.0751511314
 20
136.8369197454
  0
VERTEX
  8
Layer1$C$L1
 62
     3
 10
-139.0227635668
 20
136.8178348787
  0
VERTEX
  8
Layer1$C$L1
 62
     3
 10
-138.9703661542
 20
136.7988109783
  0
VERTEX
  8
Layer1$C$L1
 62
     3
 10
-138.9179614411
 20
136.7798489692
  0
VERTEX
  8
Layer1$C$L1
 62
     3
 10
-138.8655519755
 20
136.7609497734
  0
SEQEND
  8
Layer1$C$L1
 62
     3
  0
POLYLINE
  8
Layer1$C$L1
 62
     3
 66
     1
  0
VERTEX
  8
Layer1$C$L1
 62
     3
 10
-139.9160478621
 20
136.3038720877
  0
VERTEX
  8
Layer1$C$L1
 62
     3
 10
-139.9866871218
 20
136.3791521437
  0
VERTEX
  8
Layer1$C$L1
 62
     3
 10
-140.0571295492
 20
136.4547031319
  0
VERTEX
  8
Layer1$C$L1
 62
     3
 10
-140.1273633777
 20
136.5305124322
  0
VERTEX
  8
Layer1$C$L1
 62
     3
 10
-140.1973768752
 20
136.6065673812
  0
VERTEX
  8
Layer1$C$L1
 62
     3
 10
-140.2671583467
 20
136.6828552748
  0
VERTEX
  8
Layer1$C$L1
 62
     3
 10
-140.3366961357
 20
136.7593633696
  0
VERTEX
  8
Layer1$C$L1
 62
     3
 10
-140.4059786266
 20
136.8360788856
  0
VERTEX
  8
Layer1$C$L1
 62
     3
 10
-140.4749942463
 20
136.9129890082
  0
SEQEND
  8
Layer1$C$L1
 62
     3
  0
POLYLINE
  8
Layer1$C$L1
 62
     3
 66
     1
  0
VERTEX
  8
Layer1$C$L1
 62
     3
 10
-137.8150560889
 20
136.3038720877
  0
VERTEX
  8
Layer1$C$L1
 62
     3
 10
-137.7444168293
 20
136.3791521437
  0
VERTEX
  8
Layer1$C$L1
 62
     3
 10
-137.6739744018
 20
136.4547031319
  0
VERTEX
  8
Layer1$C$L1
 62
     3
 10
-137.6037405734
 20
136.5305124322
  0
VERTEX
  8
Layer1$C$L1
 62
     3
 10
-137.5337270758
 20
136.6065673812
  0
VERTEX
  8
Layer1$C$L1
 62
     3
 10
-137.4639456043
 20
136.6828552748
  0
VERTEX
  8
Layer1$C$L1
 62
     3
 10
-137.3944078153
 20
136.7593633696
  0
VERTEX
  8
Layer1$C$L1
 62
     3
 10
-137.3251253244
 20
136.8360788856
  0
VERTEX
  8
Layer1$C$L1
 62
     3
 10
-137.2561097047
 20
136.9129890082
  0
SEQEND
  8
Layer1$C$L1
 62
     3
  0
POLYLINE
  8
Layer1$C$L1
 62
     3
 66
     1
  0
VERTEX
  8
Layer1$C$L1
 62
     3
 10
-137.2561097047
 20
130.6821691401
  0
VERTEX
  8
Layer1$C$L1
 62
     3
 10
-137.3154427029
 20
130.5962895178
  0
VERTEX
  8
Layer1$C$L1
 62
     3
 10
-137.3796816198
 20
130.5137686979
  0
VERTEX
  8
Layer1$C$L1
 62
     3
 10
-137.4486231466
 20
130.4348678494
  0
VERTEX
  8
Layer1$C$L1
 62
     3
 10
-137.5220490913
 20
130.3598366845
  0
VERTEX
  8
Layer1$C$L1
 62
     3
 10
-137.5997270691
 20
130.2889126682
  0
VERTEX
  8
Layer1$C$L1
 62
     3
 10
-137.6814112382
 20
130.2223202669
  0
VERTEX
  8
Layer1$C$L1
 62
     3
 10
-137.7668430774
 20
130.1602702380
  0
VERTEX
  8
Layer1$C$L1
 62
     3
 10
-137.8557522048
 20
130.1029589628
  0
SEQEND
  8
Layer1$C$L1
 62
     3
  0
POLYLINE
  8
Layer1$C$L1
 62
     3
 66
     1
  0
VERTEX
  8
Layer1$C$L1
 62
     3
 10
-139.7656709054
 20
135.8915016522
  0
VERTEX
  8
Layer1$C$L1
 62
     3
 10
-139.7846097400
 20
135.9427309949
  0
VERTEX
  8
Layer1$C$L1
 62
     3
 10
-139.8035099176
 20
135.9940559001
  0
VERTEX
  8
Layer1$C$L1
 62
     3
 10
-139.8223705193
 20
136.0454738724
  0
VERTEX
  8
Layer1$C$L1
 62
     3
 10
-139.8411906280
 20
136.0969824117
  0
VERTEX
  8
Layer1$C$L1
 62
     3
 10
-139.8599693286
 20
136.1485790137
  0
VERTEX
  8
Layer1$C$L1
 62
     3
 10
-139.8787057081
 20
136.2002611696
  0
VERTEX
  8
Layer1$C$L1
 62
     3
 10
-139.8973988556
 20
136.2520263665
  0
VERTEX
  8
Layer1$C$L1
 62
     3
 10
-139.9160478621
 20
136.3038720877
  0
SEQEND
  8
Layer1$C$L1
 62
     3
  0
POLYLINE
  8
Layer1$C$L1
 62
     3
 66
     1
  0
VERTEX
  8
Layer1$C$L1
 62
     3
 10
-137.9654330456
 20
135.8915016522
  0
VERTEX
  8
Layer1$C$L1
 62
     3
 10
-137.9464942110
 20
135.9427309949
  0
VERTEX
  8
Layer1$C$L1
 62
     3
 10
-137.9275940334
 20
135.9940559001
  0
VERTEX
  8
Layer1$C$L1
 62
     3
 10
-137.9087334318
 20
136.0454738724
  0
VERTEX
  8
Layer1$C$L1
 62
     3
 10
-137.8899133231
 20
136.0969824117
  0
VERTEX
  8
Layer1$C$L1
 62
     3
 10
-137.8711346225
 20
136.1485790137
  0
VERTEX
  8
Layer1$C$L1
 62
     3
 10
-137.8523982429
 20
136.2002611696
  0
VERTEX
  8
Layer1$C$L1
 62
     3
 10
-137.8337050954
 20
136.2520263665
  0
VERTEX
  8
Layer1$C$L1
 62
     3
 10
-137.8150560889
 20
136.3038720877
  0
SEQEND
  8
Layer1$C$L1
 62
     3
  0
POLYLINE
  8
Layer1$C$L1
 62
     3
 66
     1
  0
VERTEX
  8
Layer1$C$L1
 62
     3
 10
-137.8150560889
 20
135.4944262453
  0
VERTEX
  8
Layer1$C$L1
 62
     3
 10
-137.8337050954
 20
135.5436602328
  0
VERTEX
  8
Layer1$C$L1
 62
     3
 10
-137.8523982429
 20
135.5930134444
  0
VERTEX
  8
Layer1$C$L1
 62
     3
 10
-137.8711346225
 20
135.6424834806
  0
VERTEX
  8
Layer1$C$L1
 62
     3
 10
-137.8899133231
 20
135.6920679361
  0
VERTEX
  8
Layer1$C$L1
 62
     3
 10
-137.9087334318
 20
135.7417643999
  0
VERTEX
  8
Layer1$C$L1
 62
     3
 10
-137.9275940334
 20
135.7915704559
  0
VERTEX
  8
Layer1$C$L1
 62
     3
 10
-137.9464942110
 20
135.8414836822
  0
VERTEX
  8
Layer1$C$L1
 62
     3
 10
-137.9654330456
 20
135.8915016522
  0
SEQEND
  8
Layer1$C$L1
 62
     3
  0
POLYLINE
  8
Layer1$C$L1
 62
     3
 66
     1
  0
VERTEX
  8
Layer1$C$L1
 62
     3
 10
-139.7656709054
 20
135.8915016522
  0
VERTEX
  8
Layer1$C$L1
 62
     3
 10
-139.7846097400
 20
135.8414836822
  0
VERTEX
  8
Layer1$C$L1
 62
     3
 10
-139.8035099176
 20
135.7915704559
  0
VERTEX
  8
Layer1$C$L1
 62
     3
 10
-139.8223705193
 20
135.7417643999
  0
VERTEX
  8
Layer1$C$L1
 62
     3
 10
-139.8411906280
 20
135.6920679361
  0
VERTEX
  8
Layer1$C$L1
 62
     3
 10
-139.8599693286
 20
135.6424834806
  0
VERTEX
  8
Layer1$C$L1
 62
     3
 10
-139.8787057081
 20
135.5930134444
  0
VERTEX
  8
Layer1$C$L1
 62
     3
 10
-139.8973988556
 20
135.5436602328
  0
VERTEX
  8
Layer1$C$L1
 62
     3
 10
-139.9160478621
 20
135.4944262453
  0
SEQEND
  8
Layer1$C$L1
 62
     3
  0
POLYLINE
  8
Layer1$C$L1
 62
     3
 66
     1
  0
VERTEX
  8
Layer1$C$L1
 62
     3
 10
-137.8150560889
 20
132.0238355755
  0
VERTEX
  8
Layer1$C$L1
 62
     3
 10
-137.7444168293
 20
132.0991156315
  0
VERTEX
  8
Layer1$C$L1
 62
     3
 10
-137.6739744018
 20
132.1746666197
  0
VERTEX
  8
Layer1$C$L1
 62
     3
 10
-137.6037405734
 20
132.2504759200
  0
VERTEX
  8
Layer1$C$L1
 62
     3
 10
-137.5337270758
 20
132.3265308691
  0
VERTEX
  8
Layer1$C$L1
 62
     3
 10
-137.4639456043
 20
132.4028187626
  0
VERTEX
  8
Layer1$C$L1
 62
     3
 10
-137.3944078153
 20
132.4793268574
  0
VERTEX
  8
Layer1$C$L1
 62
     3
 10
-137.3251253244
 20
132.5560423734
  0
VERTEX
  8
Layer1$C$L1
 62
     3
 10
-137.2561097047
 20
132.6329524960
  0
SEQEND
  8
Layer1$C$L1
 62
     3
  0
POLYLINE
  8
Layer1$C$L1
 62
     3
 66
     1
  0
VERTEX
  8
Layer1$C$L1
 62
     3
 10
-148.1160478621
 20
134.6363436253
  0
VERTEX
  8
Layer1$C$L1
 62
     3
 10
-148.0973988556
 20
134.5840209179
  0
VERTEX
  8
Layer1$C$L1
 62
     3
 10
-148.0787057081
 20
134.5316781780
  0
VERTEX
  8
Layer1$C$L1
 62
     3
 10
-148.0599693286
 20
134.4793179504
  0
VERTEX
  8
Layer1$C$L1
 62
     3
 10
-148.0411906280
 20
134.4269427811
  0
VERTEX
  8
Layer1$C$L1
 62
     3
 10
-148.0223705193
 20
134.3745552166
  0
VERTEX
  8
Layer1$C$L1
 62
     3
 10
-148.0035099176
 20
134.3221578039
  0
VERTEX
  8
Layer1$C$L1
 62
     3
 10
-147.9846097400
 20
134.2697530908
  0
VERTEX
  8
Layer1$C$L1
 62
     3
 10
-147.9656709054
 20
134.2173436253
  0
SEQEND
  8
Layer1$C$L1
 62
     3
  0
POLYLINE
  8
Layer1$C$L1
 62
     3
 66
     1
  0
VERTEX
  8
Layer1$C$L1
 62
     3
 10
-139.7656709054
 20
131.6114651401
  0
VERTEX
  8
Layer1$C$L1
 62
     3
 10
-139.7846097400
 20
131.6626944827
  0
VERTEX
  8
Layer1$C$L1
 62
     3
 10
-139.8035099176
 20
131.7140193880
  0
VERTEX
  8
Layer1$C$L1
 62
     3
 10
-139.8223705193
 20
131.7654373602
  0
VERTEX
  8
Layer1$C$L1
 62
     3
 10
-139.8411906280
 20
131.8169458995
  0
VERTEX
  8
Layer1$C$L1
 62
     3
 10
-139.8599693286
 20
131.8685425015
  0
VERTEX
  8
Layer1$C$L1
 62
     3
 10
-139.8787057081
 20
131.9202246574
  0
VERTEX
  8
Layer1$C$L1
 62
     3
 10
-139.8973988556
 20
131.9719898544
  0
VERTEX
  8
Layer1$C$L1
 62
     3
 10
-139.9160478621
 20
132.0238355755
  0
SEQEND
  8
Layer1$C$L1
 62
     3
  0
POLYLINE
  8
Layer1$C$L1
 62
     3
 66
     1
  0
VERTEX
  8
Layer1$C$L1
 62
     3
 10
-147.4845519755
 20
135.2678395119
  0
VERTEX
  8
Layer1$C$L1
 62
     3
 10
-147.5587443705
 20
135.3384787715
  0
VERTEX
  8
Layer1$C$L1
 62
     3
 10
-147.6328636523
 20
135.4089211989
  0
VERTEX
  8
Layer1$C$L1
 62
     3
 10
-147.7068974399
 20
135.4791550274
  0
VERTEX
  8
Layer1$C$L1
 62
     3
 10
-147.7808333666
 20
135.5491685250
  0
VERTEX
  8
Layer1$C$L1
 62
     3
 10
-147.8546590822
 20
135.6189499964
  0
VERTEX
  8
Layer1$C$L1
 62
     3
 10
-147.9283622545
 20
135.6884877855
  0
VERTEX
  8
Layer1$C$L1
 62
     3
 10
-148.0019305722
 20
135.7577702763
  0
VERTEX
  8
Layer1$C$L1
 62
     3
 10
-148.0753517463
 20
135.8267858960
  0
SEQEND
  8
Layer1$C$L1
 62
     3
  0
POLYLINE
  8
Layer1$C$L1
 62
     3
 66
     1
  0
VERTEX
  8
Layer1$C$L1
 62
     3
 10
-146.0557522048
 20
135.8267858960
  0
VERTEX
  8
Layer1$C$L1
 62
     3
 10
-146.1291733789
 20
135.7577702763
  0
VERTEX
  8
Layer1$C$L1
 62
     3
 10
-146.2027416965
 20
135.6884877855
  0
VERTEX
  8
Layer1$C$L1
 62
     3
 10
-146.2764448689
 20
135.6189499964
  0
VERTEX
  8
Layer1$C$L1
 62
     3
 10
-146.3502705844
 20
135.5491685250
  0
VERTEX
  8
Layer1$C$L1
 62
     3
 10
-146.4242065111
 20
135.4791550274
  0
VERTEX
  8
Layer1$C$L1
 62
     3
 10
-146.4982402988
 20
135.4089211989
  0
VERTEX
  8
Layer1$C$L1
 62
     3
 10
-146.5723595805
 20
135.3384787715
  0
VERTEX
  8
Layer1$C$L1
 62
     3
 10
-146.6465519755
 20
135.2678395119
  0
SEQEND
  8
Layer1$C$L1
 62
     3
  0
POLYLINE
  8
Layer1$C$L1
 62
     3
 66
     1
  0
VERTEX
  8
Layer1$C$L1
 62
     3
 10
-147.0655519755
 20
135.1174625552
  0
VERTEX
  8
Layer1$C$L1
 62
     3
 10
-147.1179614411
 20
135.1364013898
  0
VERTEX
  8
Layer1$C$L1
 62
     3
 10
-147.1703661542
 20
135.1553015674
  0
VERTEX
  8
Layer1$C$L1
 62
     3
 10
-147.2227635668
 20
135.1741621690
  0
VERTEX
  8
Layer1$C$L1
 62
     3
 10
-147.2751511314
 20
135.1929822777
  0
VERTEX
  8
Layer1$C$L1
 62
     3
 10
-147.3275263007
 20
135.2117609783
  0
VERTEX
  8
Layer1$C$L1
 62
     3
 10
-147.3798865282
 20
135.2304973579
  0
VERTEX
  8
Layer1$C$L1
 62
     3
 10
-147.4322292682
 20
135.2491905053
  0
VERTEX
  8
Layer1$C$L1
 62
     3
 10
-147.4845519755
 20
135.2678395119
  0
SEQEND
  8
Layer1$C$L1
 62
     3
  0
POLYLINE
  8
Layer1$C$L1
 62
     3
 66
     1
  0
VERTEX
  8
Layer1$C$L1
 62
     3
 10
-146.6465519755
 20
135.2678395119
  0
VERTEX
  8
Layer1$C$L1
 62
     3
 10
-146.6988746829
 20
135.2491905053
  0
VERTEX
  8
Layer1$C$L1
 62
     3
 10
-146.7512174228
 20
135.2304973579
  0
VERTEX
  8
Layer1$C$L1
 62
     3
 10
-146.8035776503
 20
135.2117609783
  0
VERTEX
  8
Layer1$C$L1
 62
     3
 10
-146.8559528197
 20
135.1929822777
  0
VERTEX
  8
Layer1$C$L1
 62
     3
 10
-146.9083403842
 20
135.1741621690
  0
VERTEX
  8
Layer1$C$L1
 62
     3
 10
-146.9607377969
 20
135.1553015674
  0
VERTEX
  8
Layer1$C$L1
 62
     3
 10
-147.0131425099
 20
135.1364013898
  0
VERTEX
  8
Layer1$C$L1
 62
     3
 10
-147.0655519755
 20
135.1174625552
  0
SEQEND
  8
Layer1$C$L1
 62
     3
  0
POLYLINE
  8
Layer1$C$L1
 62
     3
 66
     1
  0
VERTEX
  8
Layer1$C$L1
 62
     3
 10
-139.2845519755
 20
132.6338137616
  0
VERTEX
  8
Layer1$C$L1
 62
     3
 10
-139.2322292682
 20
132.6144943377
  0
VERTEX
  8
Layer1$C$L1
 62
     3
 10
-139.1798865282
 20
132.5952321511
  0
VERTEX
  8
Layer1$C$L1
 62
     3
 10
-139.1275263007
 20
132.5760281384
  0
VERTEX
  8
Layer1$C$L1
 62
     3
 10
-139.0751511314
 20
132.5568832332
  0
VERTEX
  8
Layer1$C$L1
 62
     3
 10
-139.0227635668
 20
132.5377983665
  0
VERTEX
  8
Layer1$C$L1
 62
     3
 10
-138.9703661542
 20
132.5187744661
  0
VERTEX
  8
Layer1$C$L1
 62
     3
 10
-138.9179614411
 20
132.4998124570
  0
VERTEX
  8
Layer1$C$L1
 62
     3
 10
-138.8655519755
 20
132.4809132612
  0
SEQEND
  8
Layer1$C$L1
 62
     3
  0
POLYLINE
  8
Layer1$C$L1
 62
     3
 66
     1
  0
VERTEX
  8
Layer1$C$L1
 62
     3
 10
-139.9160478621
 20
135.4944262453
  0
VERTEX
  8
Layer1$C$L1
 62
     3
 10
-139.9866871218
 20
135.4263776004
  0
VERTEX
  8
Layer1$C$L1
 62
     3
 10
-140.0571295492
 20
135.3587411316
  0
VERTEX
  8
Layer1$C$L1
 62
     3
 10
-140.1273633777
 20
135.2915281369
  0
VERTEX
  8
Layer1$C$L1
 62
     3
 10
-140.1973768752
 20
135.2247498437
  0
VERTEX
  8
Layer1$C$L1
 62
     3
 10
-140.2671583467
 20
135.1584174068
  0
VERTEX
  8
Layer1$C$L1
 62
     3
 10
-140.3366961357
 20
135.0925419063
  0
VERTEX
  8
Layer1$C$L1
 62
     3
 10
-140.4059786266
 20
135.0271343462
  0
VERTEX
  8
Layer1$C$L1
 62
     3
 10
-140.4749942463
 20
134.9622056523
  0
SEQEND
  8
Layer1$C$L1
 62
     3
  0
POLYLINE
  8
Layer1$C$L1
 62
     3
 66
     1
  0
VERTEX
  8
Layer1$C$L1
 62
     3
 10
-137.2561097047
 20
134.9622056523
  0
VERTEX
  8
Layer1$C$L1
 62
     3
 10
-137.3251253244
 20
135.0271343462
  0
VERTEX
  8
Layer1$C$L1
 62
     3
 10
-137.3944078153
 20
135.0925419063
  0
VERTEX
  8
Layer1$C$L1
 62
     3
 10
-137.4639456043
 20
135.1584174068
  0
VERTEX
  8
Layer1$C$L1
 62
     3
 10
-137.5337270758
 20
135.2247498437
  0
VERTEX
  8
Layer1$C$L1
 62
     3
 10
-137.6037405734
 20
135.2915281369
  0
VERTEX
  8
Layer1$C$L1
 62
     3
 10
-137.6739744018
 20
135.3587411316
  0
VERTEX
  8
Layer1$C$L1
 62
     3
 10
-137.7444168293
 20
135.4263776004
  0
VERTEX
  8
Layer1$C$L1
 62
     3
 10
-137.8150560889
 20
135.4944262453
  0
SEQEND
  8
Layer1$C$L1
 62
     3
  0
POLYLINE
  8
Layer1$C$L1
 62
     3
 66
     1
  0
VERTEX
  8
Layer1$C$L1
 62
     3
 10
-146.1654330456
 20
134.2173436253
  0
VERTEX
  8
Layer1$C$L1
 62
     3
 10
-146.1464942110
 20
134.1649341597
  0
VERTEX
  8
Layer1$C$L1
 62
     3
 10
-146.1275940334
 20
134.1125294466
  0
VERTEX
  8
Layer1$C$L1
 62
     3
 10
-146.1087334318
 20
134.0601320339
  0
VERTEX
  8
Layer1$C$L1
 62
     3
 10
-146.0899133231
 20
134.0077444694
  0
VERTEX
  8
Layer1$C$L1
 62
     3
 10
-146.0711346225
 20
133.9553693001
  0
VERTEX
  8
Layer1$C$L1
 62
     3
 10
-146.0523982429
 20
133.9030090725
  0
VERTEX
  8
Layer1$C$L1
 62
     3
 10
-146.0337050954
 20
133.8506663326
  0
VERTEX
  8
Layer1$C$L1
 62
     3
 10
-146.0150560889
 20
133.7983436253
  0
SEQEND
  8
Layer1$C$L1
 62
     3
  0
POLYLINE
  8
Layer1$C$L1
 62
     3
 66
     1
  0
VERTEX
  8
Layer1$C$L1
 62
     3
 10
-138.8655519755
 20
135.0220535311
  0
VERTEX
  8
Layer1$C$L1
 62
     3
 10
-138.8131425099
 20
135.0043657080
  0
VERTEX
  8
Layer1$C$L1
 62
     3
 10
-138.7607377969
 20
134.9868153777
  0
VERTEX
  8
Layer1$C$L1
 62
     3
 10
-138.7083403842
 20
134.9694033937
  0
VERTEX
  8
Layer1$C$L1
 62
     3
 10
-138.6559528197
 20
134.9521306024
  0
VERTEX
  8
Layer1$C$L1
 62
     3
 10
-138.6035776503
 20
134.9349978437
  0
VERTEX
  8
Layer1$C$L1
 62
     3
 10
-138.5512174228
 20
134.9180059507
  0
VERTEX
  8
Layer1$C$L1
 62
     3
 10
-138.4988746829
 20
134.9011557494
  0
VERTEX
  8
Layer1$C$L1
 62
     3
 10
-138.4465519755
 20
134.8844480592
  0
SEQEND
  8
Layer1$C$L1
 62
     3
  0
POLYLINE
  8
Layer1$C$L1
 62
     3
 66
     1
  0
VERTEX
  8
Layer1$C$L1
 62
     3
 10
-140.4978171934
 20
129.5969937041
  0
VERTEX
  8
Layer1$C$L1
 62
     3
 10
-140.6099520254
 20
129.6742562182
  0
VERTEX
  8
Layer1$C$L1
 62
     3
 10
-140.7181736168
 20
129.7565607753
  0
VERTEX
  8
Layer1$C$L1
 62
     3
 10
-140.8222391925
 20
129.8437227401
  0
VERTEX
  8
Layer1$C$L1
 62
     3
 10
-140.9219153005
 20
129.9355465810
  0
VERTEX
  8
Layer1$C$L1
 62
     3
 10
-141.0169783357
 20
130.0318263079
  0
VERTEX
  8
Layer1$C$L1
 62
     3
 10
-141.1072150418
 20
130.1323459351
  0
VERTEX
  8
Layer1$C$L1
 62
     3
 10
-141.1924229892
 20
130.2368799652
  0
VERTEX
  8
Layer1$C$L1
 62
     3
 10
-141.2724110297
 20
130.3451938955
  0
SEQEND
  8
Layer1$C$L1
 62
     3
  0
POLYLINE
  8
Layer1$C$L1
 62
     3
 66
     1
  0
VERTEX
  8
Layer1$C$L1
 62
     3
 10
-148.6749942463
 20
135.2271433960
  0
VERTEX
  8
Layer1$C$L1
 62
     3
 10
-148.6059786266
 20
135.1537222219
  0
VERTEX
  8
Layer1$C$L1
 62
     3
 10
-148.5366961357
 20
135.0801539042
  0
VERTEX
  8
Layer1$C$L1
 62
     3
 10
-148.4671583467
 20
135.0064507319
  0
VERTEX
  8
Layer1$C$L1
 62
     3
 10
-148.3973768752
 20
134.9326250164
  0
VERTEX
  8
Layer1$C$L1
 62
     3
 10
-148.3273633777
 20
134.8586890896
  0
VERTEX
  8
Layer1$C$L1
 62
     3
 10
-148.2571295492
 20
134.7846553020
  0
VERTEX
  8
Layer1$C$L1
 62
     3
 10
-148.1866871218
 20
134.7105360202
  0
VERTEX
  8
Layer1$C$L1
 62
     3
 10
-148.1160478621
 20
134.6363436253
  0
SEQEND
  8
Layer1$C$L1
 62
     3
  0
POLYLINE
  8
Layer1$C$L1
 62
     3
 66
     1
  0
VERTEX
  8
Layer1$C$L1
 62
     3
 10
-146.0150560889
 20
134.6363436253
  0
VERTEX
  8
Layer1$C$L1
 62
     3
 10
-145.9444168293
 20
134.7105360202
  0
VERTEX
  8
Layer1$C$L1
 62
     3
 10
-145.8739744018
 20
134.7846553020
  0
VERTEX
  8
Layer1$C$L1
 62
     3
 10
-145.8037405734
 20
134.8586890896
  0
VERTEX
  8
Layer1$C$L1
 62
     3
 10
-145.7337270758
 20
134.9326250164
  0
VERTEX
  8
Layer1$C$L1
 62
     3
 10
-145.6639456043
 20
135.0064507319
  0
VERTEX
  8
Layer1$C$L1
 62
     3
 10
-145.5944078153
 20
135.0801539042
  0
VERTEX
  8
Layer1$C$L1
 62
     3
 10
-145.5251253244
 20
135.1537222219
  0
VERTEX
  8
Layer1$C$L1
 62
     3
 10
-145.4561097047
 20
135.2271433960
  0
SEQEND
  8
Layer1$C$L1
 62
     3
  0
POLYLINE
  8
Layer1$C$L1
 62
     3
 66
     1
  0
VERTEX
  8
Layer1$C$L1
 62
     3
 10
-139.2845519755
 20
130.6044115470
  0
VERTEX
  8
Layer1$C$L1
 62
     3
 10
-139.2322292682
 20
130.6211192372
  0
VERTEX
  8
Layer1$C$L1
 62
     3
 10
-139.1798865282
 20
130.6379694385
  0
VERTEX
  8
Layer1$C$L1
 62
     3
 10
-139.1275263007
 20
130.6549613315
  0
VERTEX
  8
Layer1$C$L1
 62
     3
 10
-139.0751511314
 20
130.6720940902
  0
VERTEX
  8
Layer1$C$L1
 62
     3
 10
-139.0227635668
 20
130.6893668815
  0
VERTEX
  8
Layer1$C$L1
 62
     3
 10
-138.9703661542
 20
130.7067788656
  0
VERTEX
  8
Layer1$C$L1
 62
     3
 10
-138.9179614411
 20
130.7243291958
  0
VERTEX
  8
Layer1$C$L1
 62
     3
 10
-138.8655519755
 20
130.7420170189
  0
SEQEND
  8
Layer1$C$L1
 62
     3
  0
POLYLINE
  8
Layer1$C$L1
 62
     3
 66
     1
  0
VERTEX
  8
Layer1$C$L1
 62
     3
 10
-138.4465519755
 20
134.8844480592
  0
VERTEX
  8
Layer1$C$L1
 62
     3
 10
-138.3723595805
 20
134.8198314795
  0
VERTEX
  8
Layer1$C$L1
 62
     3
 10
-138.2982402988
 20
134.7557465793
  0
VERTEX
  8
Layer1$C$L1
 62
     3
 10
-138.2242065111
 20
134.6922040633
  0
VERTEX
  8
Layer1$C$L1
 62
     3
 10
-138.1502705844
 20
134.6292145458
  0
VERTEX
  8
Layer1$C$L1
 62
     3
 10
-138.0764448689
 20
134.5667885486
  0
VERTEX
  8
Layer1$C$L1
 62
     3
 10
-138.0027416965
 20
134.5049364994
  0
VERTEX
  8
Layer1$C$L1
 62
     3
 10
-137.9291733789
 20
134.4436687301
  0
VERTEX
  8
Layer1$C$L1
 62
     3
 10
-137.8557522048
 20
134.3829954750
  0
SEQEND
  8
Layer1$C$L1
 62
     3
  0
POLYLINE
  8
Layer1$C$L1
 62
     3
 66
     1
  0
VERTEX
  8
Layer1$C$L1
 62
     3
 10
-137.2561097047
 20
134.9622056523
  0
VERTEX
  8
Layer1$C$L1
 62
     3
 10
-137.3154427029
 20
134.8763260300
  0
VERTEX
  8
Layer1$C$L1
 62
     3
 10
-137.3796816198
 20
134.7938052101
  0
VERTEX
  8
Layer1$C$L1
 62
     3
 10
-137.4486231466
 20
134.7149043616
  0
VERTEX
  8
Layer1$C$L1
 62
     3
 10
-137.5220490913
 20
134.6398731966
  0
VERTEX
  8
Layer1$C$L1
 62
     3
 10
-137.5997270691
 20
134.5689491803
  0
VERTEX
  8
Layer1$C$L1
 62
     3
 10
-137.6814112382
 20
134.5023567791
  0
VERTEX
  8
Layer1$C$L1
 62
     3
 10
-137.7668430774
 20
134.4403067502
  0
VERTEX
  8
Layer1$C$L1
 62
     3
 10
-137.8557522048
 20
134.3829954750
  0
SEQEND
  8
Layer1$C$L1
 62
     3
  0
POLYLINE
  8
Layer1$C$L1
 62
     3
 66
     1
  0
VERTEX
  8
Layer1$C$L1
 62
     3
 10
-139.8753517463
 20
134.3829954750
  0
VERTEX
  8
Layer1$C$L1
 62
     3
 10
-139.8019305722
 20
134.4436687301
  0
VERTEX
  8
Layer1$C$L1
 62
     3
 10
-139.7283622545
 20
134.5049364994
  0
VERTEX
  8
Layer1$C$L1
 62
     3
 10
-139.6546590822
 20
134.5667885486
  0
VERTEX
  8
Layer1$C$L1
 62
     3
 10
-139.5808333666
 20
134.6292145458
  0
VERTEX
  8
Layer1$C$L1
 62
     3
 10
-139.5068974399
 20
134.6922040633
  0
VERTEX
  8
Layer1$C$L1
 62
     3
 10
-139.4328636523
 20
134.7557465793
  0
VERTEX
  8
Layer1$C$L1
 62
     3
 10
-139.3587443705
 20
134.8198314795
  0
VERTEX
  8
Layer1$C$L1
 62
     3
 10
-139.2845519755
 20
134.8844480592
  0
SEQEND
  8
Layer1$C$L1
 62
     3
  0
POLYLINE
  8
Layer1$C$L1
 62
     3
 66
     1
  0
VERTEX
  8
Layer1$C$L1
 62
     3
 10
-139.8753517463
 20
130.1029589628
  0
VERTEX
  8
Layer1$C$L1
 62
     3
 10
-139.8019305722
 20
130.1636322179
  0
VERTEX
  8
Layer1$C$L1
 62
     3
 10
-139.7283622545
 20
130.2248999872
  0
VERTEX
  8
Layer1$C$L1
 62
     3
 10
-139.6546590822
 20
130.2867520364
  0
VERTEX
  8
Layer1$C$L1
 62
     3
 10
-139.5808333666
 20
130.3491780336
  0
VERTEX
  8
Layer1$C$L1
 62
     3
 10
-139.5068974399
 20
130.4121675511
  0
VERTEX
  8
Layer1$C$L1
 62
     3
 10
-139.4328636523
 20
130.4757100671
  0
VERTEX
  8
Layer1$C$L1
 62
     3
 10
-139.3587443705
 20
130.5397949674
  0
VERTEX
  8
Layer1$C$L1
 62
     3
 10
-139.2845519755
 20
130.6044115470
  0
SEQEND
  8
Layer1$C$L1
 62
     3
  0
POLYLINE
  8
Layer1$C$L1
 62
     3
 66
     1
  0
VERTEX
  8
Layer1$C$L1
 62
     3
 10
-137.2561097047
 20
130.6821691401
  0
VERTEX
  8
Layer1$C$L1
 62
     3
 10
-137.3251253244
 20
130.7470978340
  0
VERTEX
  8
Layer1$C$L1
 62
     3
 10
-137.3944078153
 20
130.8125053941
  0
VERTEX
  8
Layer1$C$L1
 62
     3
 10
-137.4639456043
 20
130.8783808946
  0
VERTEX
  8
Layer1$C$L1
 62
     3
 10
-137.5337270758
 20
130.9447133316
  0
VERTEX
  8
Layer1$C$L1
 62
     3
 10
-137.6037405734
 20
131.0114916248
  0
VERTEX
  8
Layer1$C$L1
 62
     3
 10
-137.6739744018
 20
131.0787046194
  0
VERTEX
  8
Layer1$C$L1
 62
     3
 10
-137.7444168293
 20
131.1463410882
  0
VERTEX
  8
Layer1$C$L1
 62
     3
 10
-137.8150560889
 20
131.2143897331
  0
SEQEND
  8
Layer1$C$L1
 62
     3
  0
POLYLINE
  8
Layer1$C$L1
 62
     3
 66
     1
  0
VERTEX
  8
Layer1$C$L1
 62
     3
 10
-146.1654330456
 20
134.2173436253
  0
VERTEX
  8
Layer1$C$L1
 62
     3
 10
-146.1464942110
 20
134.2697530908
  0
VERTEX
  8
Layer1$C$L1
 62
     3
 10
-146.1275940334
 20
134.3221578039
  0
VERTEX
  8
Layer1$C$L1
 62
     3
 10
-146.1087334318
 20
134.3745552166
  0
VERTEX
  8
Layer1$C$L1
 62
     3
 10
-146.0899133231
 20
134.4269427811
  0
VERTEX
  8
Layer1$C$L1
 62
     3
 10
-146.0711346225
 20
134.4793179504
  0
VERTEX
  8
Layer1$C$L1
 62
     3
 10
-146.0523982429
 20
134.5316781780
  0
VERTEX
  8
Layer1$C$L1
 62
     3
 10
-146.0337050954
 20
134.5840209179
  0
VERTEX
  8
Layer1$C$L1
 62
     3
 10
-146.0150560889
 20
134.6363436253
  0
SEQEND
  8
Layer1$C$L1
 62
     3
  0
POLYLINE
  8
Layer1$C$L1
 62
     3
 66
     1
  0
VERTEX
  8
Layer1$C$L1
 62
     3
 10
-140.4978171934
 20
133.8770302163
  0
VERTEX
  8
Layer1$C$L1
 62
     3
 10
-140.6099520254
 20
133.9542927304
  0
VERTEX
  8
Layer1$C$L1
 62
     3
 10
-140.7181736168
 20
134.0365972874
  0
VERTEX
  8
Layer1$C$L1
 62
     3
 10
-140.8222391925
 20
134.1237592523
  0
VERTEX
  8
Layer1$C$L1
 62
     3
 10
-140.9219153005
 20
134.2155830932
  0
VERTEX
  8
Layer1$C$L1
 62
     3
 10
-141.0169783357
 20
134.3118628201
  0
VERTEX
  8
Layer1$C$L1
 62
     3
 10
-141.1072150418
 20
134.4123824473
  0
VERTEX
  8
Layer1$C$L1
 62
     3
 10
-141.1924229892
 20
134.5169164774
  0
VERTEX
  8
Layer1$C$L1
 62
     3
 10
-141.2724110297
 20
134.6252304076
  0
SEQEND
  8
Layer1$C$L1
 62
     3
  0
POLYLINE
  8
Layer1$C$L1
 62
     3
 66
     1
  0
VERTEX
  8
Layer1$C$L1
 62
     3
 10
-138.4465519755
 20
130.6044115470
  0
VERTEX
  8
Layer1$C$L1
 62
     3
 10
-138.3723595805
 20
130.5397949674
  0
VERTEX
  8
Layer1$C$L1
 62
     3
 10
-138.2982402988
 20
130.4757100671
  0
VERTEX
  8
Layer1$C$L1
 62
     3
 10
-138.2242065111
 20
130.4121675511
  0
VERTEX
  8
Layer1$C$L1
 62
     3
 10
-138.1502705844
 20
130.3491780336
  0
VERTEX
  8
Layer1$C$L1
 62
     3
 10
-138.0764448689
 20
130.2867520364
  0
VERTEX
  8
Layer1$C$L1
 62
     3
 10
-138.0027416965
 20
130.2248999872
  0
VERTEX
  8
Layer1$C$L1
 62
     3
 10
-137.9291733789
 20
130.1636322179
  0
VERTEX
  8
Layer1$C$L1
 62
     3
 10
-137.8557522048
 20
130.1029589628
  0
SEQEND
  8
Layer1$C$L1
 62
     3
  0
POLYLINE
  8
Layer1$C$L1
 62
     3
 66
     1
  0
VERTEX
  8
Layer1$C$L1
 62
     3
 10
-147.0655519755
 20
133.3172246953
  0
VERTEX
  8
Layer1$C$L1
 62
     3
 10
-147.1179614411
 20
133.2982858607
  0
VERTEX
  8
Layer1$C$L1
 62
     3
 10
-147.1703661542
 20
133.2793856831
  0
VERTEX
  8
Layer1$C$L1
 62
     3
 10
-147.2227635668
 20
133.2605250815
  0
VERTEX
  8
Layer1$C$L1
 62
     3
 10
-147.2751511314
 20
133.2417049728
  0
VERTEX
  8
Layer1$C$L1
 62
     3
 10
-147.3275263007
 20
133.2229262722
  0
VERTEX
  8
Layer1$C$L1
 62
     3
 10
-147.3798865282
 20
133.2041898926
  0
VERTEX
  8
Layer1$C$L1
 62
     3
 10
-147.4322292682
 20
133.1854967452
  0
VERTEX
  8
Layer1$C$L1
 62
     3
 10
-147.4845519755
 20
133.1668477386
  0
SEQEND
  8
Layer1$C$L1
 62
     3
  0
POLYLINE
  8
Layer1$C$L1
 62
     3
 66
     1
  0
VERTEX
  8
Layer1$C$L1
 62
     3
 10
-139.9160478621
 20
132.0238355755
  0
VERTEX
  8
Layer1$C$L1
 62
     3
 10
-139.9866871218
 20
132.0991156315
  0
VERTEX
  8
Layer1$C$L1
 62
     3
 10
-140.0571295492
 20
132.1746666197
  0
VERTEX
  8
Layer1$C$L1
 62
     3
 10
-140.1273633777
 20
132.2504759200
  0
VERTEX
  8
Layer1$C$L1
 62
     3
 10
-140.1973768752
 20
132.3265308691
  0
VERTEX
  8
Layer1$C$L1
 62
     3
 10
-140.2671583467
 20
132.4028187626
  0
VERTEX
  8
Layer1$C$L1
 62
     3
 10
-140.3366961357
 20
132.4793268574
  0
VERTEX
  8
Layer1$C$L1
 62
     3
 10
-140.4059786266
 20
132.5560423734
  0
VERTEX
  8
Layer1$C$L1
 62
     3
 10
-140.4749942463
 20
132.6329524960
  0
SEQEND
  8
Layer1$C$L1
 62
     3
  0
POLYLINE
  8
Layer1$C$L1
 62
     3
 66
     1
  0
VERTEX
  8
Layer1$C$L1
 62
     3
 10
-147.9656709054
 20
134.2173436253
  0
VERTEX
  8
Layer1$C$L1
 62
     3
 10
-147.9846097400
 20
134.1649341597
  0
VERTEX
  8
Layer1$C$L1
 62
     3
 10
-148.0035099176
 20
134.1125294466
  0
VERTEX
  8
Layer1$C$L1
 62
     3
 10
-148.0223705193
 20
134.0601320339
  0
VERTEX
  8
Layer1$C$L1
 62
     3
 10
-148.0411906280
 20
134.0077444694
  0
VERTEX
  8
Layer1$C$L1
 62
     3
 10
-148.0599693286
 20
133.9553693001
  0
VERTEX
  8
Layer1$C$L1
 62
     3
 10
-148.0787057081
 20
133.9030090725
  0
VERTEX
  8
Layer1$C$L1
 62
     3
 10
-148.0973988556
 20
133.8506663326
  0
VERTEX
  8
Layer1$C$L1
 62
     3
 10
-148.1160478621
 20
133.7983436253
  0
SEQEND
  8
Layer1$C$L1
 62
     3
  0
POLYLINE
  8
Layer1$C$L1
 62
     3
 66
     1
  0
VERTEX
  8
Layer1$C$L1
 62
     3
 10
-139.8753517463
 20
133.2121626733
  0
VERTEX
  8
Layer1$C$L1
 62
     3
 10
-139.8019305722
 20
133.1395079895
  0
VERTEX
  8
Layer1$C$L1
 62
     3
 10
-139.7283622545
 20
133.0669322643
  0
VERTEX
  8
Layer1$C$L1
 62
     3
 10
-139.6546590822
 20
132.9944476208
  0
VERTEX
  8
Layer1$C$L1
 62
     3
 10
-139.5808333666
 20
132.9220661670
  0
VERTEX
  8
Layer1$C$L1
 62
     3
 10
-139.5068974399
 20
132.8497999936
  0
VERTEX
  8
Layer1$C$L1
 62
     3
 10
-139.4328636523
 20
132.7776611720
  0
VERTEX
  8
Layer1$C$L1
 62
     3
 10
-139.3587443705
 20
132.7056617524
  0
VERTEX
  8
Layer1$C$L1
 62
     3
 10
-139.2845519755
 20
132.6338137616
  0
SEQEND
  8
Layer1$C$L1
 62
     3
  0
POLYLINE
  8
Layer1$C$L1
 62
     3
 66
     1
  0
VERTEX
  8
Layer1$C$L1
 62
     3
 10
-138.4465519755
 20
132.6338137616
  0
VERTEX
  8
Layer1$C$L1
 62
     3
 10
-138.3723595805
 20
132.7056617524
  0
VERTEX
  8
Layer1$C$L1
 62
     3
 10
-138.2982402988
 20
132.7776611720
  0
VERTEX
  8
Layer1$C$L1
 62
     3
 10
-138.2242065111
 20
132.8497999936
  0
VERTEX
  8
Layer1$C$L1
 62
     3
 10
-138.1502705844
 20
132.9220661670
  0
VERTEX
  8
Layer1$C$L1
 62
     3
 10
-138.0764448689
 20
132.9944476208
  0
VERTEX
  8
Layer1$C$L1
 62
     3
 10
-138.0027416965
 20
133.0669322643
  0
VERTEX
  8
Layer1$C$L1
 62
     3
 10
-137.9291733789
 20
133.1395079895
  0
VERTEX
  8
Layer1$C$L1
 62
     3
 10
-137.8557522048
 20
133.2121626733
  0
SEQEND
  8
Layer1$C$L1
 62
     3
  0
POLYLINE
  8
Layer1$C$L1
 62
     3
 66
     1
  0
VERTEX
  8
Layer1$C$L1
 62
     3
 10
-140.4749942463
 20
132.6329524960
  0
VERTEX
  8
Layer1$C$L1
 62
     3
 10
-140.4156612482
 20
132.7188321183
  0
VERTEX
  8
Layer1$C$L1
 62
     3
 10
-140.3514223313
 20
132.8013529382
  0
VERTEX
  8
Layer1$C$L1
 62
     3
 10
-140.2824808045
 20
132.8802537867
  0
VERTEX
  8
Layer1$C$L1
 62
     3
 10
-140.2090548598
 20
132.9552849517
  0
VERTEX
  8
Layer1$C$L1
 62
     3
 10
-140.1313768819
 20
133.0262089680
  0
VERTEX
  8
Layer1$C$L1
 62
     3
 10
-140.0496927129
 20
133.0928013692
  0
VERTEX
  8
Layer1$C$L1
 62
     3
 10
-139.9642608737
 20
133.1548513981
  0
VERTEX
  8
Layer1$C$L1
 62
     3
 10
-139.8753517463
 20
133.2121626733
  0
SEQEND
  8
Layer1$C$L1
 62
     3
  0
POLYLINE
  8
Layer1$C$L1
 62
     3
 66
     1
  0
VERTEX
  8
Layer1$C$L1
 62
     3
 10
-138.8655519755
 20
130.7420170189
  0
VERTEX
  8
Layer1$C$L1
 62
     3
 10
-138.8131425099
 20
130.7243291958
  0
VERTEX
  8
Layer1$C$L1
 62
     3
 10
-138.7607377968
 20
130.7067788656
  0
VERTEX
  8
Layer1$C$L1
 62
     3
 10
-138.7083403842
 20
130.6893668815
  0
VERTEX
  8
Layer1$C$L1
 62
     3
 10
-138.6559528197
 20
130.6720940902
  0
VERTEX
  8
Layer1$C$L1
 62
     3
 10
-138.6035776503
 20
130.6549613315
  0
VERTEX
  8
Layer1$C$L1
 62
     3
 10
-138.5512174228
 20
130.6379694385
  0
VERTEX
  8
Layer1$C$L1
 62
     3
 10
-138.4988746829
 20
130.6211192372
  0
VERTEX
  8
Layer1$C$L1
 62
     3
 10
-138.4465519755
 20
130.6044115470
  0
SEQEND
  8
Layer1$C$L1
 62
     3
  0
POLYLINE
  8
Layer1$C$L1
 62
     3
 66
     1
  0
VERTEX
  8
Layer1$C$L1
 62
     3
 10
-137.9654330456
 20
131.6114651401
  0
VERTEX
  8
Layer1$C$L1
 62
     3
 10
-137.9464942110
 20
131.6626944827
  0
VERTEX
  8
Layer1$C$L1
 62
     3
 10
-137.9275940334
 20
131.7140193880
  0
VERTEX
  8
Layer1$C$L1
 62
     3
 10
-137.9087334318
 20
131.7654373602
  0
VERTEX
  8
Layer1$C$L1
 62
     3
 10
-137.8899133231
 20
131.8169458995
  0
VERTEX
  8
Layer1$C$L1
 62
     3
 10
-137.8711346225
 20
131.8685425015
  0
VERTEX
  8
Layer1$C$L1
 62
     3
 10
-137.8523982429
 20
131.9202246574
  0
VERTEX
  8
Layer1$C$L1
 62
     3
 10
-137.8337050954
 20
131.9719898544
  0
VERTEX
  8
Layer1$C$L1
 62
     3
 10
-137.8150560889
 20
132.0238355755
  0
SEQEND
  8
Layer1$C$L1
 62
     3
  0
POLYLINE
  8
Layer1$C$L1
 62
     3
 66
     1
  0
VERTEX
  8
Layer1$C$L1
 62
     3
 10
-148.1160478621
 20
133.7983436253
  0
VERTEX
  8
Layer1$C$L1
 62
     3
 10
-148.1866871218
 20
133.7241512303
  0
VERTEX
  8
Layer1$C$L1
 62
     3
 10
-148.2571295492
 20
133.6500319485
  0
VERTEX
  8
Layer1$C$L1
 62
     3
 10
-148.3273633777
 20
133.5759981609
  0
VERTEX
  8
Layer1$C$L1
 62
     3
 10
-148.3973768752
 20
133.5020622341
  0
VERTEX
  8
Layer1$C$L1
 62
     3
 10
-148.4671583467
 20
133.4282365186
  0
VERTEX
  8
Layer1$C$L1
 62
     3
 10
-148.5366961357
 20
133.3545333463
  0
VERTEX
  8
Layer1$C$L1
 62
     3
 10
-148.6059786266
 20
133.2809650286
  0
VERTEX
  8
Layer1$C$L1
 62
     3
 10
-148.6749942463
 20
133.2075438545
  0
SEQEND
  8
Layer1$C$L1
 62
     3
  0
POLYLINE
  8
Layer1$C$L1
 62
     3
 66
     1
  0
VERTEX
  8
Layer1$C$L1
 62
     3
 10
-146.0150560889
 20
133.7983436253
  0
VERTEX
  8
Layer1$C$L1
 62
     3
 10
-145.9444168293
 20
133.7241512303
  0
VERTEX
  8
Layer1$C$L1
 62
     3
 10
-145.8739744018
 20
133.6500319485
  0
VERTEX
  8
Layer1$C$L1
 62
     3
 10
-145.8037405734
 20
133.5759981609
  0
VERTEX
  8
Layer1$C$L1
 62
     3
 10
-145.7337270758
 20
133.5020622341
  0
VERTEX
  8
Layer1$C$L1
 62
     3
 10
-145.6639456043
 20
133.4282365186
  0
VERTEX
  8
Layer1$C$L1
 62
     3
 10
-145.5944078153
 20
133.3545333463
  0
VERTEX
  8
Layer1$C$L1
 62
     3
 10
-145.5251253244
 20
133.2809650286
  0
VERTEX
  8
Layer1$C$L1
 62
     3
 10
-145.4561097047
 20
133.2075438545
  0
SEQEND
  8
Layer1$C$L1
 62
     3
  0
POLYLINE
  8
Layer1$C$L1
 62
     3
 66
     1
  0
VERTEX
  8
Layer1$C$L1
 62
     3
 10
-138.8655519755
 20
132.4809132612
  0
VERTEX
  8
Layer1$C$L1
 62
     3
 10
-138.8131425099
 20
132.4998124570
  0
VERTEX
  8
Layer1$C$L1
 62
     3
 10
-138.7607377968
 20
132.5187744661
  0
VERTEX
  8
Layer1$C$L1
 62
     3
 10
-138.7083403842
 20
132.5377983665
  0
VERTEX
  8
Layer1$C$L1
 62
     3
 10
-138.6559528197
 20
132.5568832332
  0
VERTEX
  8
Layer1$C$L1
 62
     3
 10
-138.6035776503
 20
132.5760281384
  0
VERTEX
  8
Layer1$C$L1
 62
     3
 10
-138.5512174228
 20
132.5952321511
  0
VERTEX
  8
Layer1$C$L1
 62
     3
 10
-138.4988746829
 20
132.6144943377
  0
VERTEX
  8
Layer1$C$L1
 62
     3
 10
-138.4465519755
 20
132.6338137616
  0
SEQEND
  8
Layer1$C$L1
 62
     3
  0
POLYLINE
  8
Layer1$C$L1
 62
     3
 66
     1
  0
VERTEX
  8
Layer1$C$L1
 62
     3
 10
-146.6465519755
 20
133.1668477386
  0
VERTEX
  8
Layer1$C$L1
 62
     3
 10
-146.6988746829
 20
133.1854967452
  0
VERTEX
  8
Layer1$C$L1
 62
     3
 10
-146.7512174228
 20
133.2041898926
  0
VERTEX
  8
Layer1$C$L1
 62
     3
 10
-146.8035776503
 20
133.2229262722
  0
VERTEX
  8
Layer1$C$L1
 62
     3
 10
-146.8559528197
 20
133.2417049728
  0
VERTEX
  8
Layer1$C$L1
 62
     3
 10
-146.9083403842
 20
133.2605250815
  0
VERTEX
  8
Layer1$C$L1
 62
     3
 10
-146.9607377969
 20
133.2793856831
  0
VERTEX
  8
Layer1$C$L1
 62
     3
 10
-147.0131425099
 20
133.2982858607
  0
VERTEX
  8
Layer1$C$L1
 62
     3
 10
-147.0655519755
 20
133.3172246953
  0
SEQEND
  8
Layer1$C$L1
 62
     3
  0
POLYLINE
  8
Layer1$C$L1
 62
     3
 66
     1
  0
VERTEX
  8
Layer1$C$L1
 62
     3
 10
-147.4845519755
 20
133.1668477386
  0
VERTEX
  8
Layer1$C$L1
 62
     3
 10
-147.5587443705
 20
133.0962084790
  0
VERTEX
  8
Layer1$C$L1
 62
     3
 10
-147.6328636523
 20
133.0257660516
  0
VERTEX
  8
Layer1$C$L1
 62
     3
 10
-147.7068974399
 20
132.9555322231
  0
VERTEX
  8
Layer1$C$L1
 62
     3
 10
-147.7808333666
 20
132.8855187255
  0
VERTEX
  8
Layer1$C$L1
 62
     3
 10
-147.8546590822
 20
132.8157372541
  0
VERTEX
  8
Layer1$C$L1
 62
     3
 10
-147.9283622545
 20
132.7461994650
  0
VERTEX
  8
Layer1$C$L1
 62
     3
 10
-148.0019305722
 20
132.6769169742
  0
VERTEX
  8
Layer1$C$L1
 62
     3
 10
-148.0753517463
 20
132.6079013545
  0
SEQEND
  8
Layer1$C$L1
 62
     3
  0
POLYLINE
  8
Layer1$C$L1
 62
     3
 66
     1
  0
VERTEX
  8
Layer1$C$L1
 62
     3
 10
-139.7656709054
 20
131.6114651401
  0
VERTEX
  8
Layer1$C$L1
 62
     3
 10
-139.7846097400
 20
131.5614471701
  0
VERTEX
  8
Layer1$C$L1
 62
     3
 10
-139.8035099176
 20
131.5115339437
  0
VERTEX
  8
Layer1$C$L1
 62
     3
 10
-139.8223705193
 20
131.4617278877
  0
VERTEX
  8
Layer1$C$L1
 62
     3
 10
-139.8411906280
 20
131.4120314239
  0
VERTEX
  8
Layer1$C$L1
 62
     3
 10
-139.8599693286
 20
131.3624469684
  0
VERTEX
  8
Layer1$C$L1
 62
     3
 10
-139.8787057081
 20
131.3129769322
  0
VERTEX
  8
Layer1$C$L1
 62
     3
 10
-139.8973988556
 20
131.2636237206
  0
VERTEX
  8
Layer1$C$L1
 62
     3
 10
-139.9160478621
 20
131.2143897331
  0
SEQEND
  8
Layer1$C$L1
 62
     3
  0
POLYLINE
  8
Layer1$C$L1
 62
     3
 66
     1
  0
VERTEX
  8
Layer1$C$L1
 62
     3
 10
-137.8150560889
 20
131.2143897331
  0
VERTEX
  8
Layer1$C$L1
 62
     3
 10
-137.8337050954
 20
131.2636237206
  0
VERTEX
  8
Layer1$C$L1
 62
     3
 10
-137.8523982429
 20
131.3129769322
  0
VERTEX
  8
Layer1$C$L1
 62
     3
 10
-137.8711346225
 20
131.3624469684
  0
VERTEX
  8
Layer1$C$L1
 62
     3
 10
-137.8899133231
 20
131.4120314239
  0
VERTEX
  8
Layer1$C$L1
 62
     3
 10
-137.9087334318
 20
131.4617278877
  0
VERTEX
  8
Layer1$C$L1
 62
     3
 10
-137.9275940334
 20
131.5115339437
  0
VERTEX
  8
Layer1$C$L1
 62
     3
 10
-137.9464942110
 20
131.5614471701
  0
VERTEX
  8
Layer1$C$L1
 62
     3
 10
-137.9654330456
 20
131.6114651401
  0
SEQEND
  8
Layer1$C$L1
 62
     3
  0
POLYLINE
  8
Layer1$C$L1
 62
     3
 66
     1
  0
VERTEX
  8
Layer1$C$L1
 62
     3
 10
-139.9160478621
 20
131.2143897331
  0
VERTEX
  8
Layer1$C$L1
 62
     3
 10
-139.9866871218
 20
131.1463410882
  0
VERTEX
  8
Layer1$C$L1
 62
     3
 10
-140.0571295492
 20
131.0787046194
  0
VERTEX
  8
Layer1$C$L1
 62
     3
 10
-140.1273633777
 20
131.0114916248
  0
VERTEX
  8
Layer1$C$L1
 62
     3
 10
-140.1973768752
 20
130.9447133316
  0
VERTEX
  8
Layer1$C$L1
 62
     3
 10
-140.2671583467
 20
130.8783808946
  0
VERTEX
  8
Layer1$C$L1
 62
     3
 10
-140.3366961357
 20
130.8125053941
  0
VERTEX
  8
Layer1$C$L1
 62
     3
 10
-140.4059786266
 20
130.7470978340
  0
VERTEX
  8
Layer1$C$L1
 62
     3
 10
-140.4749942463
 20
130.6821691401
  0
SEQEND
  8
Layer1$C$L1
 62
     3
  0
POLYLINE
  8
Layer1$C$L1
 62
     3
 66
     1
  0
VERTEX
  8
Layer1$C$L1
 62
     3
 10
-146.0557522048
 20
132.6079013545
  0
VERTEX
  8
Layer1$C$L1
 62
     3
 10
-146.1291733789
 20
132.6769169742
  0
VERTEX
  8
Layer1$C$L1
 62
     3
 10
-146.2027416965
 20
132.7461994650
  0
VERTEX
  8
Layer1$C$L1
 62
     3
 10
-146.2764448689
 20
132.8157372541
  0
VERTEX
  8
Layer1$C$L1
 62
     3
 10
-146.3502705844
 20
132.8855187255
  0
VERTEX
  8
Layer1$C$L1
 62
     3
 10
-146.4242065111
 20
132.9555322231
  0
VERTEX
  8
Layer1$C$L1
 62
     3
 10
-146.4982402988
 20
133.0257660516
  0
VERTEX
  8
Layer1$C$L1
 62
     3
 10
-146.5723595805
 20
133.0962084790
  0
VERTEX
  8
Layer1$C$L1
 62
     3
 10
-146.6465519755
 20
133.1668477386
  0
SEQEND
  8
Layer1$C$L1
 62
     3
  0
POLYLINE
  8
Layer1$C$L1
 62
     3
 66
     1
  0
VERTEX
  8
Layer1$C$L1
 62
     3
 10
-137.3978678558
 20
133.7951118622
  0
VERTEX
  8
Layer1$C$L1
 62
     3
 10
-136.9226053534
 20
134.1025576188
  0
VERTEX
  8
Layer1$C$L1
 62
     3
 10
-136.3788320931
 20
134.7424636247
  0
VERTEX
  8
Layer1$C$L1
 62
     3
 10
-136.0474850156
 20
135.5075463354
  0
VERTEX
  8
Layer1$C$L1
 62
     3
 10
-135.9555180555
 20
136.3304470926
  0
VERTEX
  8
Layer1$C$L1
 62
     3
 10
-136.1076726710
 20
137.1408248877
  0
VERTEX
  8
Layer1$C$L1
 62
     3
 10
-136.4656219435
 20
137.8401855093
  0
VERTEX
  8
Layer1$C$L1
 62
     3
 10
-136.5195836103
 20
137.9144696791
  0
SEQEND
  8
Layer1$C$L1
 62
     3
  0
POLYLINE
  8
Layer1$C$L1
 62
     3
 66
     1
  0
VERTEX
  8
Layer1$C$L1
 62
     3
 10
-135.8734981953
 20
133.8030249234
  0
VERTEX
  8
Layer1$C$L1
 62
     3
 10
-135.8360192683
 20
133.8131941096
  0
VERTEX
  8
Layer1$C$L1
 62
     3
 10
-135.8007497290
 20
133.8293569926
  0
VERTEX
  8
Layer1$C$L1
 62
     3
 10
-135.7689842502
 20
133.8509202659
  0
VERTEX
  8
Layer1$C$L1
 62
     3
 10
-135.7418888779
 20
133.8770923858
  0
VERTEX
  8
Layer1$C$L1
 62
     3
 10
-135.7204582279
 20
133.9069126271
  0
VERTEX
  8
Layer1$C$L1
 62
     3
 10
-135.7054789757
 20
133.9392863496
  0
VERTEX
  8
Layer1$C$L1
 62
     3
 10
-135.6975009790
 20
133.9730251800
  0
SEQEND
  8
Layer1$C$L1
 62
     3
  0
POLYLINE
  8
Layer1$C$L1
 62
     3
 66
     1
  0
VERTEX
  8
Layer1$C$L1
 62
     3
 10
-142.0336029721
 20
133.9730251800
  0
VERTEX
  8
Layer1$C$L1
 62
     3
 10
-142.0256249753
 20
133.9392863496
  0
VERTEX
  8
Layer1$C$L1
 62
     3
 10
-142.0106457231
 20
133.9069126271
  0
VERTEX
  8
Layer1$C$L1
 62
     3
 10
-141.9892150731
 20
133.8770923858
  0
VERTEX
  8
Layer1$C$L1
 62
     3
 10
-141.9621197008
 20
133.8509202659
  0
VERTEX
  8
Layer1$C$L1
 62
     3
 10
-141.9303542220
 20
133.8293569926
  0
VERTEX
  8
Layer1$C$L1
 62
     3
 10
-141.8950846828
 20
133.8131941096
  0
VERTEX
  8
Layer1$C$L1
 62
     3
 10
-141.8576057558
 20
133.8030249234
  0
SEQEND
  8
Layer1$C$L1
 62
     3
  0
POLYLINE
  8
Layer1$C$L1
 62
     3
 66
     1
  0
VERTEX
  8
Layer1$C$L1
 62
     3
 10
-135.8734981953
 20
129.5229884113
  0
VERTEX
  8
Layer1$C$L1
 62
     3
 10
-135.8360192683
 20
129.5331575974
  0
VERTEX
  8
Layer1$C$L1
 62
     3
 10
-135.8007497290
 20
129.5493204804
  0
VERTEX
  8
Layer1$C$L1
 62
     3
 10
-135.7689842502
 20
129.5708837537
  0
VERTEX
  8
Layer1$C$L1
 62
     3
 10
-135.7418888779
 20
129.5970558736
  0
VERTEX
  8
Layer1$C$L1
 62
     3
 10
-135.7204582279
 20
129.6268761149
  0
VERTEX
  8
Layer1$C$L1
 62
     3
 10
-135.7054789757
 20
129.6592498374
  0
VERTEX
  8
Layer1$C$L1
 62
     3
 10
-135.6975009790
 20
129.6929886678
  0
SEQEND
  8
Layer1$C$L1
 62
     3
  0
POLYLINE
  8
Layer1$C$L1
 62
     3
 66
     1
  0
VERTEX
  8
Layer1$C$L1
 62
     3
 10
-142.0336029721
 20
129.6929886678
  0
VERTEX
  8
Layer1$C$L1
 62
     3
 10
-142.0256249753
 20
129.6592498374
  0
VERTEX
  8
Layer1$C$L1
 62
     3
 10
-142.0106457231
 20
129.6268761149
  0
VERTEX
  8
Layer1$C$L1
 62
     3
 10
-141.9892150731
 20
129.5970558736
  0
VERTEX
  8
Layer1$C$L1
 62
     3
 10
-141.9621197008
 20
129.5708837537
  0
VERTEX
  8
Layer1$C$L1
 62
     3
 10
-141.9303542220
 20
129.5493204804
  0
VERTEX
  8
Layer1$C$L1
 62
     3
 10
-141.8950846828
 20
129.5331575974
  0
VERTEX
  8
Layer1$C$L1
 62
     3
 10
-141.8576057558
 20
129.5229884113
  0
SEQEND
  8
Layer1$C$L1
 62
     3
  0
POLYLINE
  8
Layer1$C$L1
 62
     3
 66
     1
  0
VERTEX
  8
Layer1$C$L1
 62
     3
 10
-140.4690904963
 20
139.2173436253
  0
VERTEX
  8
Layer1$C$L1
 62
     3
 10
-140.5911026460
 20
139.1423018884
  0
VERTEX
  8
Layer1$C$L1
 62
     3
 10
-141.0575829972
 20
138.7720353245
  0
VERTEX
  8
Layer1$C$L1
 62
     3
 10
-141.4409111512
 20
138.3214499058
  0
VERTEX
  8
Layer1$C$L1
 62
     3
 10
-141.7265459915
 20
137.8076380764
  0
VERTEX
  8
Layer1$C$L1
 62
     3
 10
-141.9036522863
 20
137.2500907020
  0
VERTEX
  8
Layer1$C$L1
 62
     3
 10
-141.9655117101
 20
136.6699577066
  0
SEQEND
  8
Layer1$C$L1
 62
     3
  0
POLYLINE
  8
Layer1$C$L1
 62
     3
 66
     1
  0
VERTEX
  8
Layer1$C$L1
 62
     3
 10
-141.9569173639
 20
136.2503017063
  0
VERTEX
  8
Layer1$C$L1
 62
     3
 10
-141.9350662369
 20
136.8925445420
  0
VERTEX
  8
Layer1$C$L1
 62
     3
 10
-141.7718552690
 20
137.5154955214
  0
VERTEX
  8
Layer1$C$L1
 62
     3
 10
-141.4748007886
 20
138.0904659846
  0
VERTEX
  8
Layer1$C$L1
 62
     3
 10
-141.0575829972
 20
138.5909769102
  0
VERTEX
  8
Layer1$C$L1
 62
     3
 10
-140.5394159579
 20
138.9939783501
  0
VERTEX
  8
Layer1$C$L1
 62
     3
 10
-140.1071623509
 20
139.2173436253
  0
SEQEND
  8
Layer1$C$L1
 62
     3
  0
POLYLINE
  8
Layer1$C$L1
 62
     3
 66
     1
  0
VERTEX
  8
Layer1$C$L1
 62
     3
 10
-148.2736828337
 20
133.5208085024
  0
VERTEX
  8
Layer1$C$L1
 62
     3
 10
-148.3057331969
 20
133.5191115238
  0
VERTEX
  8
Layer1$C$L1
 62
     3
 10
-148.3468498270
 20
133.5028521987
  0
VERTEX
  8
Layer1$C$L1
 62
     3
 10
-148.4090606052
 20
133.4592724184
  0
VERTEX
  8
Layer1$C$L1
 62
     3
 10
-148.4748278107
 20
133.4019614591
  0
VERTEX
  8
Layer1$C$L1
 62
     3
 10
-148.5601910364
 20
133.3209900743
  0
VERTEX
  8
Layer1$C$L1
 62
     3
 10
-148.6749942463
 20
133.2075438545
  0
SEQEND
  8
Layer1$C$L1
 62
     3
  0
POLYLINE
  8
Layer1$C$L1
 62
     3
 66
     1
  0
VERTEX
  8
Layer1$C$L1
 62
     3
 10
-141.7011310023
 20
135.5274780161
  0
VERTEX
  8
Layer1$C$L1
 62
     3
 10
-141.7187215244
 20
135.5781750474
  0
VERTEX
  8
Layer1$C$L1
 62
     3
 10
-141.8655519755
 20
136.4736375343
  0
VERTEX
  8
Layer1$C$L1
 62
     3
 10
-141.7187215244
 20
137.3691000212
  0
VERTEX
  8
Layer1$C$L1
 62
     3
 10
-141.2926029586
 20
138.1769084008
  0
VERTEX
  8
Layer1$C$L1
 62
     3
 10
-140.6289077324
 20
138.8179887606
  0
VERTEX
  8
Layer1$C$L1
 62
     3
 10
-139.8307443523
 20
139.2173436253
  0
SEQEND
  8
Layer1$C$L1
 62
     3
  0
POLYLINE
  8
Layer1$C$L1
 62
     3
 66
     1
  0
VERTEX
  8
Layer1$C$L1
 62
     3
 10
-145.8574211174
 20
134.9138787481
  0
VERTEX
  8
Layer1$C$L1
 62
     3
 10
-145.8253707542
 20
134.9155757267
  0
VERTEX
  8
Layer1$C$L1
 62
     3
 10
-145.7842541241
 20
134.9318350518
  0
VERTEX
  8
Layer1$C$L1
 62
     3
 10
-145.7220433458
 20
134.9754148321
  0
VERTEX
  8
Layer1$C$L1
 62
     3
 10
-145.6562761403
 20
135.0327257914
  0
VERTEX
  8
Layer1$C$L1
 62
     3
 10
-145.5709129146
 20
135.1136971762
  0
VERTEX
  8
Layer1$C$L1
 62
     3
 10
-145.4561097047
 20
135.2271433960
  0
SEQEND
  8
Layer1$C$L1
 62
     3
  0
POLYLINE
  8
Layer1$C$L1
 62
     3
 66
     1
  0
VERTEX
  8
Layer1$C$L1
 62
     3
 10
-137.9104704022
 20
139.2206428189
  0
VERTEX
  8
Layer1$C$L1
 62
     3
 10
-137.1021962186
 20
138.8179887606
  0
VERTEX
  8
Layer1$C$L1
 62
     3
 10
-136.4385009924
 20
138.1769084008
  0
VERTEX
  8
Layer1$C$L1
 62
     3
 10
-136.0123824266
 20
137.3691000212
  0
VERTEX
  8
Layer1$C$L1
 62
     3
 10
-135.8655519755
 20
136.4736375343
  0
VERTEX
  8
Layer1$C$L1
 62
     3
 10
-136.0123824266
 20
135.5781750474
  0
VERTEX
  8
Layer1$C$L1
 62
     3
 10
-136.0299729487
 20
135.5274780161
  0
SEQEND
  8
Layer1$C$L1
 62
     3
  0
POLYLINE
  8
Layer1$C$L1
 62
     3
 66
     1
  0
VERTEX
  8
Layer1$C$L1
 62
     3
 10
-137.3978678558
 20
129.5150753500
  0
VERTEX
  8
Layer1$C$L1
 62
     3
 10
-136.9226053534
 20
129.8225211067
  0
VERTEX
  8
Layer1$C$L1
 62
     3
 10
-136.3788320931
 20
130.4624271126
  0
VERTEX
  8
Layer1$C$L1
 62
     3
 10
-136.0474850156
 20
131.2275098232
  0
VERTEX
  8
Layer1$C$L1
 62
     3
 10
-135.9555180555
 20
132.0504105804
  0
VERTEX
  8
Layer1$C$L1
 62
     3
 10
-136.1076726710
 20
132.8607883755
  0
VERTEX
  8
Layer1$C$L1
 62
     3
 10
-136.2994571707
 20
133.2354965737
  0
SEQEND
  8
Layer1$C$L1
 62
     3
  0
POLYLINE
  8
Layer1$C$L1
 62
     3
 66
     1
  0
VERTEX
  8
Layer1$C$L1
 62
     3
 10
-140.5624145324
 20
129.6292466735
  0
VERTEX
  8
Layer1$C$L1
 62
     3
 10
-140.0899501152
 20
129.3595715424
  0
VERTEX
  8
Layer1$C$L1
 62
     3
 10
-139.2857049822
 20
129.1252559855
  0
VERTEX
  8
Layer1$C$L1
 62
     3
 10
-138.4425611683
 20
129.1256622751
  0
VERTEX
  8
Layer1$C$L1
 62
     3
 10
-137.6313354677
 20
129.3640459163
  0
VERTEX
  8
Layer1$C$L1
 62
     3
 10
-137.3978678558
 20
129.5150753500
  0
SEQEND
  8
Layer1$C$L1
 62
     3
  0
POLYLINE
  8
Layer1$C$L1
 62
     3
 66
     1
  0
VERTEX
  8
Layer1$C$L1
 62
     3
 10
-140.5624145324
 20
133.9092831857
  0
VERTEX
  8
Layer1$C$L1
 62
     3
 10
-140.0899501152
 20
133.6396080546
  0
VERTEX
  8
Layer1$C$L1
 62
     3
 10
-139.2857049822
 20
133.4052924977
  0
VERTEX
  8
Layer1$C$L1
 62
     3
 10
-138.4425611683
 20
133.4056987872
  0
VERTEX
  8
Layer1$C$L1
 62
     3
 10
-137.6313354677
 20
133.6440824285
  0
VERTEX
  8
Layer1$C$L1
 62
     3
 10
-137.3978678558
 20
133.7951118622
  0
SEQEND
  8
Layer1$C$L1
 62
     3
  0
POLYLINE
  8
Layer1$C$L1
 62
     3
 66
     1
  0
VERTEX
  8
Layer1$C$L1
 62
     3
 10
-140.4979866150
 20
133.8765616837
  0
VERTEX
  8
Layer1$C$L1
 62
     3
 10
-140.4741306435
 20
133.8760198912
  0
VERTEX
  8
Layer1$C$L1
 62
     3
 10
-140.3653501845
 20
133.9603798314
  0
VERTEX
  8
Layer1$C$L1
 62
     3
 10
-140.1829214753
 20
134.1129994342
  0
VERTEX
  8
Layer1$C$L1
 62
     3
 10
-140.0196136792
 20
134.2553394303
  0
SEQEND
  8
Layer1$C$L1
 62
     3
  0
POLYLINE
  8
Layer1$C$L1
 62
     3
 66
     1
  0
VERTEX
  8
Layer1$C$L1
 62
     3
 10
-145.3100490453
 20
135.3714053289
  0
VERTEX
  8
Layer1$C$L1
 62
     3
 10
-145.0676605759
 20
135.5971495922
  0
VERTEX
  8
Layer1$C$L1
 62
     3
 10
-144.8606499052
 20
135.7609633236
  0
VERTEX
  8
Layer1$C$L1
 62
     3
 10
-144.7160577910
 20
135.8417116158
  0
VERTEX
  8
Layer1$C$L1
 62
     3
 10
-144.6591987936
 20
135.8497782647
  0
SEQEND
  8
Layer1$C$L1
 62
     3
  0
POLYLINE
  8
Layer1$C$L1
 62
     3
 66
     1
  0
VERTEX
  8
Layer1$C$L1
 62
     3
 10
-140.6210549057
 20
130.5562505318
  0
VERTEX
  8
Layer1$C$L1
 62
     3
 10
-140.8634433752
 20
130.3770434989
  0
VERTEX
  8
Layer1$C$L1
 62
     3
 10
-141.0704540459
 20
130.2836940410
  0
VERTEX
  8
Layer1$C$L1
 62
     3
 10
-141.2150461601
 20
130.2872651495
  0
VERTEX
  8
Layer1$C$L1
 62
     3
 10
-141.2719051575
 20
130.3440730792
  0
SEQEND
  8
Layer1$C$L1
 62
     3
  0
POLYLINE
  8
Layer1$C$L1
 62
     3
 66
     1
  0
VERTEX
  8
Layer1$C$L1
 62
     3
 10
-140.6210549057
 20
134.8362870440
  0
VERTEX
  8
Layer1$C$L1
 62
     3
 10
-140.8634433752
 20
134.6570800110
  0
VERTEX
  8
Layer1$C$L1
 62
     3
 10
-141.0704540459
 20
134.5637305532
  0
VERTEX
  8
Layer1$C$L1
 62
     3
 10
-141.2150461601
 20
134.5673016617
  0
VERTEX
  8
Layer1$C$L1
 62
     3
 10
-141.2719051575
 20
134.6241095914
  0
SEQEND
  8
Layer1$C$L1
 62
     3
  0
POLYLINE
  8
Layer1$C$L1
 62
     3
 66
     1
  0
VERTEX
  8
Layer1$C$L1
 62
     3
 10
-145.4331173361
 20
136.6236968072
  0
VERTEX
  8
Layer1$C$L1
 62
     3
 10
-145.4569733076
 20
136.5303332086
  0
VERTEX
  8
Layer1$C$L1
 62
     3
 10
-145.5657537665
 20
136.3616817462
  0
VERTEX
  8
Layer1$C$L1
 62
     3
 10
-145.7481824758
 20
136.1453190567
  0
VERTEX
  8
Layer1$C$L1
 62
     3
 10
-145.9114902719
 20
135.9728465555
  0
SEQEND
  8
Layer1$C$L1
 62
     3
  0
POLYLINE
  8
Layer1$C$L1
 62
     3
 66
     1
  0
VERTEX
  8
Layer1$C$L1
 62
     3
 10
-148.8210549057
 20
133.0632819216
  0
VERTEX
  8
Layer1$C$L1
 62
     3
 10
-149.0634433752
 20
132.8375376583
  0
VERTEX
  8
Layer1$C$L1
 62
     3
 10
-149.2704540459
 20
132.6737239269
  0
VERTEX
  8
Layer1$C$L1
 62
     3
 10
-149.4150461601
 20
132.5929756347
  0
VERTEX
  8
Layer1$C$L1
 62
     3
 10
-149.4719051575
 20
132.5849089858
  0
SEQEND
  8
Layer1$C$L1
 62
     3
  0
POLYLINE
  8
Layer1$C$L1
 62
     3
 66
     1
  0
VERTEX
  8
Layer1$C$L1
 62
     3
 10
-141.7011310023
 20
131.2474415039
  0
VERTEX
  8
Layer1$C$L1
 62
     3
 10
-141.7187215244
 20
131.2981385352
  0
VERTEX
  8
Layer1$C$L1
 62
     3
 10
-141.8655519755
 20
132.1936010221
  0
VERTEX
  8
Layer1$C$L1
 62
     3
 10
-141.7187215244
 20
133.0890635090
  0
VERTEX
  8
Layer1$C$L1
 62
     3
 10
-141.6649295740
 20
133.2354965737
  0
SEQEND
  8
Layer1$C$L1
 62
     3
  0
POLYLINE
  8
Layer1$C$L1
 62
     3
 66
     1
  0
VERTEX
  8
Layer1$C$L1
 62
     3
 10
-136.0661743770
 20
133.2354965737
  0
VERTEX
  8
Layer1$C$L1
 62
     3
 10
-136.0123824266
 20
133.0890635090
  0
VERTEX
  8
Layer1$C$L1
 62
     3
 10
-135.8655519755
 20
132.1936010221
  0
VERTEX
  8
Layer1$C$L1
 62
     3
 10
-136.0123824266
 20
131.2981385352
  0
VERTEX
  8
Layer1$C$L1
 62
     3
 10
-136.0299729487
 20
131.2474415039
  0
SEQEND
  8
Layer1$C$L1
 62
     3
  0
POLYLINE
  8
Layer1$C$L1
 62
     3
 66
     1
  0
VERTEX
  8
Layer1$C$L1
 62
     3
 10
-135.7741865871
 20
132.4169368502
  0
VERTEX
  8
Layer1$C$L1
 62
     3
 10
-135.7960377142
 20
131.7746940145
  0
VERTEX
  8
Layer1$C$L1
 62
     3
 10
-135.9592486820
 20
131.1517430350
  0
VERTEX
  8
Layer1$C$L1
 62
     3
 10
-136.2563031624
 20
130.5767725719
  0
VERTEX
  8
Layer1$C$L1
 62
     3
 10
-136.2945216098
 20
130.5206233863
  0
SEQEND
  8
Layer1$C$L1
 62
     3
  0
POLYLINE
  8
Layer1$C$L1
 62
     3
 66
     1
  0
VERTEX
  8
Layer1$C$L1
 62
     3
 10
-135.7741865871
 20
136.6969733624
  0
VERTEX
  8
Layer1$C$L1
 62
     3
 10
-135.7960377142
 20
136.0547305266
  0
VERTEX
  8
Layer1$C$L1
 62
     3
 10
-135.9592486820
 20
135.4317795472
  0
VERTEX
  8
Layer1$C$L1
 62
     3
 10
-136.2563031624
 20
134.8568090841
  0
VERTEX
  8
Layer1$C$L1
 62
     3
 10
-136.2945216098
 20
134.8006598985
  0
SEQEND
  8
Layer1$C$L1
 62
     3
  0
POLYLINE
  8
Layer1$C$L1
 62
     3
 66
     1
  0
VERTEX
  8
Layer1$C$L1
 62
     3
 10
-137.1100490453
 20
137.0657630534
  0
VERTEX
  8
Layer1$C$L1
 62
     3
 10
-136.8676605759
 20
137.3226604484
  0
VERTEX
  8
Layer1$C$L1
 62
     3
 10
-136.6606499052
 20
137.5457748184
  0
VERTEX
  8
Layer1$C$L1
 62
     3
 10
-136.5160577910
 20
137.7053396487
  0
VERTEX
  8
Layer1$C$L1
 62
     3
 10
-136.4591987936
 20
137.7777311473
  0
SEQEND
  8
Layer1$C$L1
 62
     3
  0
POLYLINE
  8
Layer1$C$L1
 62
     3
 66
     1
  0
VERTEX
  8
Layer1$C$L1
 62
     3
 10
-137.2331173361
 20
138.5252790550
  0
VERTEX
  8
Layer1$C$L1
 62
     3
 10
-137.2569733076
 20
138.3443726402
  0
VERTEX
  8
Layer1$C$L1
 62
     3
 10
-137.3657537665
 20
138.1029229740
  0
VERTEX
  8
Layer1$C$L1
 62
     3
 10
-137.5481824758
 20
137.8375619575
  0
VERTEX
  8
Layer1$C$L1
 62
     3
 10
-137.7114902719
 20
137.6467106672
  0
SEQEND
  8
Layer1$C$L1
 62
     3
  0
POLYLINE
  8
Layer1$C$L1
 62
     3
 66
     1
  0
VERTEX
  8
Layer1$C$L1
 62
     3
 10
-140.4979866150
 20
129.5965251716
  0
VERTEX
  8
Layer1$C$L1
 62
     3
 10
-140.4741306435
 20
129.5959833790
  0
VERTEX
  8
Layer1$C$L1
 62
     3
 10
-140.3653501845
 20
129.6803433192
  0
VERTEX
  8
Layer1$C$L1
 62
     3
 10
-140.1829214753
 20
129.8329629220
  0
VERTEX
  8
Layer1$C$L1
 62
     3
 10
-140.0196136792
 20
129.9753029181
  0
SEQEND
  8
Layer1$C$L1
 62
     3
  0
POLYLINE
  8
Layer1$C$L1
 62
     3
 66
     1
  0
VERTEX
  8
Layer1$C$L1
 62
     3
 10
-148.6979866150
 20
131.8109904433
  0
VERTEX
  8
Layer1$C$L1
 62
     3
 10
-148.6741306435
 20
131.9043540419
  0
VERTEX
  8
Layer1$C$L1
 62
     3
 10
-148.5653501845
 20
132.0730055043
  0
VERTEX
  8
Layer1$C$L1
 62
     3
 10
-148.3829214753
 20
132.2893681938
  0
VERTEX
  8
Layer1$C$L1
 62
     3
 10
-148.2196136792
 20
132.4618406950
  0
SEQEND
  8
Layer1$C$L1
 62
     3
  0
POLYLINE
  8
Layer1$C$L1
 62
     3
 66
     1
  0
VERTEX
  8
Layer1$C$L1
 62
     3
 10
-136.1171071242
 20
131.0037987639
  0
VERTEX
  8
Layer1$C$L1
 62
     3
 10
-136.5192205700
 20
130.2618215623
  0
VERTEX
  8
Layer1$C$L1
 62
     3
 10
-137.1479642998
 20
129.6545017555
  0
VERTEX
  8
Layer1$C$L1
 62
     3
 10
-137.3786872092
 20
129.5071104642
  0
SEQEND
  8
Layer1$C$L1
 62
     3
  0
POLYLINE
  8
Layer1$C$L1
 62
     3
 66
     1
  0
VERTEX
  8
Layer1$C$L1
 62
     3
 10
-136.1171071242
 20
135.2838352760
  0
VERTEX
  8
Layer1$C$L1
 62
     3
 10
-136.5192205700
 20
134.5418580745
  0
VERTEX
  8
Layer1$C$L1
 62
     3
 10
-137.1479642998
 20
133.9345382677
  0
VERTEX
  8
Layer1$C$L1
 62
     3
 10
-137.3786872092
 20
133.7871469764
  0
SEQEND
  8
Layer1$C$L1
 62
     3
  0
POLYLINE
  8
Layer1$C$L1
 62
     3
 66
     1
  0
VERTEX
  8
Layer1$C$L1
 62
     3
 10
-141.9569173639
 20
131.9702651941
  0
VERTEX
  8
Layer1$C$L1
 62
     3
 10
-141.9350662369
 20
132.6125080298
  0
VERTEX
  8
Layer1$C$L1
 62
     3
 10
-141.7718552690
 20
133.2354590093
  0
VERTEX
  8
Layer1$C$L1
 62
     3
 10
-141.7718408357
 20
133.2354965737
  0
SEQEND
  8
Layer1$C$L1
 62
     3
  0
LINE
  8
Layer1$C$L1
 62
     3
 10
-147.4845519755
 20
135.0993695549
 11
-147.6066893169
 21
135.2264003024
  0
LINE
  8
Layer1$C$L1
 62
     3
 10
-148.0746086527
 20
133.6762062839
 11
-147.9475779052
 21
133.7983436253
  0
ARC
  8
Layer1$C$L1
  6
DASH
 62
     3
 10
-151.5155519755
 20
118.4673436253
 40
0.2000000000
 50
180.0000000000
 51
270.0000000000
  0
ARC
  8
Layer1$C$L1
  6
DASH
 62
     3
 10
-134.4155519755
 20
118.4673436253
 40
0.2000000000
 50
270.0000000000
 51
360.0000000000
  0
LINE
  8
Layer1$C$L1
  6
DASH
 62
     3
 10
-134.7155519755
 20
140.5778974449
 11
-151.2155519755
 21
140.5778974449
  0
LINE
  8
Layer1$C$L1
  6
DASH
 62
     3
 10
-134.4155519755
 20
118.2673436253
 11
-151.5155519755
 21
118.2673436253
  0
POLYLINE
  8
Layer1$C$L1
  6
DASH
 62
     3
 66
     1
  0
VERTEX
  8
Layer1$C$L1
  6
DASH
 62
     3
 10
-151.7155519755
 20
140.0816243691
  0
VERTEX
  8
Layer1$C$L1
  6
DASH
 62
     3
 10
-151.7059446157
 20
140.1784424433
  0
VERTEX
  8
Layer1$C$L1
  6
DASH
 62
     3
 10
-151.6774917418
 20
140.2715398532
  0
VERTEX
  8
Layer1$C$L1
  6
DASH
 62
     3
 10
-151.6312867817
 20
140.3573389175
  0
VERTEX
  8
Layer1$C$L1
  6
DASH
 62
     3
 10
-151.5691053661
 20
140.4325424264
  0
VERTEX
  8
Layer1$C$L1
  6
DASH
 62
     3
 10
-151.4933370920
 20
140.4942603511
  0
VERTEX
  8
Layer1$C$L1
  6
DASH
 62
     3
 10
-151.4068936917
 20
140.5401209064
  0
VERTEX
  8
Layer1$C$L1
  6
DASH
 62
     3
 10
-151.3130971365
 20
140.5683616970
  0
VERTEX
  8
Layer1$C$L1
  6
DASH
 62
     3
 10
-151.2155519755
 20
140.5778974449
  0
SEQEND
  8
Layer1$C$L1
  6
DASH
 62
     3
  0
POLYLINE
  8
Layer1$C$L1
  6
DASH
 62
     3
 66
     1
  0
VERTEX
  8
Layer1$C$L1
  6
DASH
 62
     3
 10
-134.7155519755
 20
140.5778974449
  0
VERTEX
  8
Layer1$C$L1
  6
DASH
 62
     3
 10
-134.6180068145
 20
140.5683616970
  0
VERTEX
  8
Layer1$C$L1
  6
DASH
 62
     3
 10
-134.5242102593
 20
140.5401209064
  0
VERTEX
  8
Layer1$C$L1
  6
DASH
 62
     3
 10
-134.4377668590
 20
140.4942603511
  0
VERTEX
  8
Layer1$C$L1
  6
DASH
 62
     3
 10
-134.3619985849
 20
140.4325424264
  0
VERTEX
  8
Layer1$C$L1
  6
DASH
 62
     3
 10
-134.2998171694
 20
140.3573389175
  0
VERTEX
  8
Layer1$C$L1
  6
DASH
 62
     3
 10
-134.2536122093
 20
140.2715398532
  0
VERTEX
  8
Layer1$C$L1
  6
DASH
 62
     3
 10
-134.2251593353
 20
140.1784424433
  0
VERTEX
  8
Layer1$C$L1
  6
DASH
 62
     3
 10
-134.2155519755
 20
140.0816243691
  0
SEQEND
  8
Layer1$C$L1
  6
DASH
 62
     3
  0
LINE
  8
Layer1$C$L1
  6
DASH
 62
     3
 10
-134.2155519755
 20
118.4673436253
 11
-134.2155519755
 21
119.7673436253
  0
LINE
  8
Layer1$C$L1
 62
     3
 10
-147.9655519755
 20
165.4673436253
 11
-146.4655519755
 21
165.4673436253
  0
LINE
  8
Layer1$C$L1
 62
     3
 10
-153.9655519755
 20
165.4673436253
 11
-152.4655519755
 21
165.4673436253
  0
LINE
  8
Layer1$C$L1
 62
     3
 10
-150.9655519755
 20
165.4673436253
 11
-149.4655519755
 21
165.4673436253
  0
LINE
  8
Layer1$C$L1
 62
     3
 10
-156.9655519755
 20
165.4673436253
 11
-155.4655519755
 21
165.4673436253
  0
LINE
  8
Layer1$C$L1
 62
     3
 10
-147.9655519755
 20
163.9673436253
 11
-147.9655519755
 21
165.4673436253
  0
LINE
  8
Layer1$C$L1
 62
     3
 10
-155.4655519755
 20
163.9673436253
 11
-155.4655519755
 21
165.4673436253
  0
LINE
  8
Layer1$C$L1
 62
     3
 10
-150.9655519755
 20
163.9673436253
 11
-150.9655519755
 21
165.4673436253
  0
LINE
  8
Layer1$C$L1
 62
     3
 10
-156.9655519755
 20
163.9673436253
 11
-156.9655519755
 21
165.4673436253
  0
LINE
  8
Layer1$C$L1
 62
     3
 10
-149.4655519755
 20
163.9673436253
 11
-150.9655519755
 21
163.9673436253
  0
LINE
  8
Layer1$C$L1
 62
     3
 10
-152.4655519755
 20
163.9673436253
 11
-153.9655519755
 21
163.9673436253
  0
LINE
  8
Layer1$C$L1
 62
     3
 10
-149.4655519755
 20
163.9673436253
 11
-149.4655519755
 21
165.4673436253
  0
LINE
  8
Layer1$C$L1
 62
     3
 10
-155.4655519755
 20
163.9673436253
 11
-156.9655519755
 21
163.9673436253
  0
LINE
  8
Layer1$C$L1
 62
     3
 10
-152.4655519755
 20
163.9673436253
 11
-152.4655519755
 21
165.4673436253
  0
LINE
  8
Layer1$C$L1
 62
     3
 10
-153.9655519755
 20
163.9673436253
 11
-153.9655519755
 21
165.4673436253
  0
LINE
  8
Layer1$C$L1
 62
     3
 10
-146.4655519755
 20
163.9673436253
 11
-146.4655519755
 21
165.4673436253
  0
LINE
  8
Layer1$C$L1
 62
     3
 10
-146.4655519755
 20
163.9673436253
 11
-147.9655519755
 21
163.9673436253
  0
LINE
  8
Layer1$C$L1
 62
     3
 10
-150.9655519755
 20
162.4673436253
 11
-149.4655519755
 21
162.4673436253
  0
LINE
  8
Layer1$C$L1
 62
     3
 10
-156.9655519755
 20
162.4673436253
 11
-155.4655519755
 21
162.4673436253
  0
LINE
  8
Layer1$C$L1
 62
     3
 10
-147.9655519755
 20
162.4673436253
 11
-146.4655519755
 21
162.4673436253
  0
LINE
  8
Layer1$C$L1
 62
     3
 10
-153.9655519755
 20
162.4673436253
 11
-152.4655519755
 21
162.4673436253
  0
LINE
  8
Layer1$C$L1
 62
     3
 10
-149.4655519755
 20
160.9673436253
 11
-149.4655519755
 21
162.4673436253
  0
LINE
  8
Layer1$C$L1
 62
     3
 10
-152.4655519755
 20
160.9673436253
 11
-152.4655519755
 21
162.4673436253
  0
LINE
  8
Layer1$C$L1
 62
     3
 10
-156.9655519755
 20
160.9673436253
 11
-155.4655519755
 21
160.9673436253
  0
LINE
  8
Layer1$C$L1
 62
     3
 10
-156.9655519755
 20
160.9673436253
 11
-156.9655519755
 21
162.4673436253
  0
LINE
  8
Layer1$C$L1
 62
     3
 10
-147.9655519755
 20
160.9673436253
 11
-147.9655519755
 21
162.4673436253
  0
LINE
  8
Layer1$C$L1
 62
     3
 10
-150.9655519755
 20
160.9673436253
 11
-149.4655519755
 21
160.9673436253
  0
LINE
  8
Layer1$C$L1
 62
     3
 10
-150.9655519755
 20
160.9673436253
 11
-150.9655519755
 21
162.4673436253
  0
LINE
  8
Layer1$C$L1
 62
     3
 10
-147.9655519755
 20
160.9673436253
 11
-146.4655519755
 21
160.9673436253
  0
LINE
  8
Layer1$C$L1
 62
     3
 10
-153.9655519755
 20
160.9673436253
 11
-152.4655519755
 21
160.9673436253
  0
LINE
  8
Layer1$C$L1
 62
     3
 10
-155.4655519755
 20
160.9673436253
 11
-155.4655519755
 21
162.4673436253
  0
LINE
  8
Layer1$C$L1
 62
     3
 10
-146.4655519755
 20
160.9673436253
 11
-146.4655519755
 21
162.4673436253
  0
LINE
  8
Layer1$C$L1
 62
     3
 10
-153.9655519755
 20
160.9673436253
 11
-153.9655519755
 21
162.4673436253
  0
LINE
  8
Layer1$C$L1
  6
CENTER
 62
     3
 10
-162.8655519755
 20
129.6673283665
 11
-162.8655519755
 21
123.6673283665
  0
LINE
  8
Layer1$C$L1
  6
CENTER
 62
     3
 10
-166.5155519755
 20
193.2673283665
 11
-166.5155519755
 21
187.2673283665
  0
LINE
  8
Layer1$C$L1
  6
CENTER
 62
     3
 10
-164.1155519755
 20
190.2673436253
 11
-170.1155519755
 21
190.2673436253
  0
LINE
  8
Layer1$C$L1
  6
CENTER
 62
     3
 10
-155.5655519755
 20
182.5673436253
 11
-161.5655519755
 21
182.5673436253
  0
LINE
  8
Layer1$C$L1
  6
CENTER
 62
     3
 10
-158.0655519755
 20
185.5673283665
 11
-158.0655519755
 21
179.5673283665
  0
LINE
  8
Layer1$C$L1
  6
CENTER
 62
     3
 10
-160.3655519755
 20
126.6673436253
 11
-166.3849734740
 21
126.6673436253
  0
ARC
  8
Layer1$C$L1
 62
     3
 10
-166.5155519755
 20
190.2673436253
 40
2.3000000000
 50
90.0000000000
 51
156.9643158941
  0
ARC
  8
Layer1$C$L1
 62
     3
 10
-166.4155519755
 20
190.2673436253
 40
3.2000000000
 50
331.0449756281
 51
370.8069228749
  0
ARC
  8
Layer1$C$L1
 62
     3
 10
-165.6155519755
 20
190.2673436253
 40
2.3000000000
 50
270.0000000000
 51
450.0000000000
  0
ARC
  8
Layer1$C$L1
 62
     3
 10
-166.5155519755
 20
190.2673436253
 40
2.3000000000
 50
203.0356841059
 51
270.0000000000
  0
ARC
  8
Layer1$C$L1
 62
     3
 10
-165.9655519755
 20
182.5673436253
 40
2.4000000000
 50
90.0000000000
 51
270.0000000000
  0
CIRCLE
  8
Layer1$C$L1
 62
     3
 10
-158.0655519755
 20
182.5673436253
 40
3.2000000000
  0
ARC
  8
Layer1$C$L1
 62
     3
 10
-166.8155519755
 20
166.4673436253
 40
0.5000000000
 50
90.0000000000
 51
180.0000000000
  0
CIRCLE
  8
Layer1$C$L1
 62
     3
 10
-162.8655519755
 20
126.6673436253
 40
3.2000000000
  0
ARC
  8
Layer1$C$L1
 62
     3
 10
-172.0155519756
 20
118.8673436252
 40
3.2000000001
 50
351.0107006557
 51
388.9550243718
  0
LINE
  8
Layer1$C$L1
 62
     3
 10
-159.7155519755
 20
193.9673436253
 11
-169.2155519755
 21
193.9673436253
  0
LINE
  8
Layer1$C$L1
 62
     3
 10
-166.5155519755
 20
192.5673436253
 11
-165.6155519755
 21
192.5673436253
  0
LINE
  8
Layer1$C$L1
 62
     3
 10
-168.5321530244
 20
191.1673436253
 11
-169.2155519755
 21
191.1673436253
  0
LINE
  8
Layer1$C$L1
 62
     3
 10
-169.2155519755
 20
191.1673436253
 11
-169.2155519755
 21
193.9673436253
  0
LINE
  8
Layer1$C$L1
 62
     3
 10
-159.7155519755
 20
190.8673436253
 11
-159.7155519755
 21
193.9673436253
  0
LINE
  8
Layer1$C$L1
 62
     3
 10
-151.7155519755
 20
190.8673436253
 11
-163.2723052464
 21
190.8673436253
  0
LINE
  8
Layer1$C$L1
 62
     3
 10
-169.2155519755
 20
189.3673436253
 11
-168.5321530244
 21
189.3673436253
  0
LINE
  8
Layer1$C$L1
 62
     3
 10
-165.6155519755
 20
187.9673436253
 11
-166.5155519755
 21
187.9673436253
  0
LINE
  8
Layer1$C$L1
 62
     3
 10
-165.4655519755
 20
186.4673436253
 11
-163.6155519755
 21
186.4673436253
  0
LINE
  8
Layer1$C$L1
 62
     3
 10
-163.6155519755
 20
186.4673436253
 11
-163.6155519755
 21
188.7181502868
  0
LINE
  8
Layer1$C$L1
 62
     3
 10
-158.0655519755
 20
185.7673436253
 11
-158.0655519755
 21
190.8673436253
  0
LINE
  8
Layer1$C$L1
 62
     3
 10
-165.9655519755
 20
184.9673436253
 11
-165.4655519755
 21
184.9673436253
  0
LINE
  8
Layer1$C$L1
 62
     3
 10
-165.4655519755
 20
184.9673436253
 11
-165.4655519755
 21
186.4673436253
  0
LINE
  8
Layer1$C$L1
 62
     3
 10
-169.2155519755
 20
183.5865272137
 11
-168.1383991430
 21
183.5865272137
  0
LINE
  8
Layer1$C$L1
 62
     3
 10
-165.4655519755
 20
180.1673436253
 11
-165.9655519755
 21
180.1673436253
  0
LINE
  8
Layer1$C$L1
 62
     3
 10
-163.6155519755
 20
178.6673436253
 11
-165.4655519755
 21
178.6673436253
  0
LINE
  8
Layer1$C$L1
 62
     3
 10
-159.7155519755
 20
177.2673436253
 11
-158.0655519755
 21
177.2673436253
  0
LINE
  8
Layer1$C$L1
 62
     3
 10
-163.6155519755
 20
177.1673436253
 11
-163.6155519755
 21
186.4673436253
  0
LINE
  8
Layer1$C$L1
 62
     3
 10
-158.0655519755
 20
177.1673436253
 11
-158.0655519755
 21
179.3673436253
  0
LINE
  8
Layer1$C$L1
 62
     3
 10
-159.7155519755
 20
166.9673436253
 11
-159.7155519755
 21
177.2673436253
  0
LINE
  8
Layer1$C$L1
 62
     3
 10
-167.6155519755
 20
162.5540363335
 11
-167.3155519755
 21
162.5540363335
  0
LINE
  8
Layer1$C$L1
 62
     3
 10
-167.3155519755
 20
160.8426286362
 11
-167.6155519755
 21
160.8426286362
  0
LINE
  8
Layer1$C$L1
 62
     3
 10
-167.3155519755
 20
158.9709005147
 11
-167.3155519755
 21
166.9673436253
  0
LINE
  8
Layer1$C$L1
 62
     3
 10
-165.5155519755
 20
158.9709005147
 11
-167.3155519755
 21
158.9709005147
  0
LINE
  8
Layer1$C$L1
 62
     3
 10
-168.9155519755
 20
158.0408199179
 11
-169.2155519755
 21
158.0408199179
  0
LINE
  8
Layer1$C$L1
 62
     3
 10
-168.9155519755
 20
157.4045789693
 11
-168.9155519755
 21
158.0408199179
  0
LINE
  8
Layer1$C$L1
 62
     3
 10
-167.6155519755
 20
157.4045789693
 11
-168.9155519755
 21
157.4045789693
  0
LINE
  8
Layer1$C$L1
 62
     3
 10
-167.6155519755
 20
157.4045789693
 11
-167.6155519755
 21
177.1673436253
  0
LINE
  8
Layer1$C$L1
 62
     3
 10
-165.7155519755
 20
156.1673436253
 11
-165.5155519755
 21
156.1673436253
  0
LINE
  8
Layer1$C$L1
 62
     3
 10
-165.5155519755
 20
155.9673436253
 11
-165.6155519755
 21
155.9673436253
  0
LINE
  8
Layer1$C$L1
 62
     3
 10
-165.5155519755
 20
155.1673436253
 11
-165.6155519755
 21
155.1673436253
  0
LINE
  8
Layer1$C$L1
 62
     3
 10
-169.2155519755
 20
154.6673436253
 11
-166.5155519755
 21
154.6673436253
  0
LINE
  8
Layer1$C$L1
 62
     3
 10
-167.6155519755
 20
154.1865929507
 11
-166.5155519755
 21
154.1865929507
  0
LINE
  8
Layer1$C$L1
 62
     3
 10
-167.6155519755
 20
154.1673436253
 11
-169.2155519755
 21
154.1673436253
  0
LINE
  8
Layer1$C$L1
 62
     3
 10
-167.6155519755
 20
152.1673436253
 11
-169.2155519755
 21
152.1673436253
  0
LINE
  8
Layer1$C$L1
 62
     3
 10
-167.5155519755
 20
152.1480942998
 11
-167.5155519755
 21
154.1865929507
  0
LINE
  8
Layer1$C$L1
 62
     3
 10
-166.5155519755
 20
152.1480942998
 11
-167.6155519755
 21
152.1480942998
  0
LINE
  8
Layer1$C$L1
 62
     3
 10
-167.6155519755
 20
152.1480942998
 11
-167.6155519755
 21
154.1865929507
  0
LINE
  8
Layer1$C$L1
 62
     3
 10
-166.5155519755
 20
151.6673436253
 11
-166.5155519755
 21
154.6673436253
  0
LINE
  8
Layer1$C$L1
 62
     3
 10
-169.2155519755
 20
151.6673436253
 11
-166.5155519755
 21
151.6673436253
  0
LINE
  8
Layer1$C$L1
 62
     3
 10
-165.6155519755
 20
151.1673436253
 11
-165.6155519755
 21
155.9673436253
  0
LINE
  8
Layer1$C$L1
 62
     3
 10
-165.5155519755
 20
151.1673436253
 11
-165.6155519755
 21
151.1673436253
  0
LINE
  8
Layer1$C$L1
 62
     3
 10
-165.5155519755
 20
149.1673436253
 11
-165.7155519755
 21
149.1673436253
  0
LINE
  8
Layer1$C$L1
 62
     3
 10
-165.7155519755
 20
148.9301082813
 11
-168.9155519755
 21
148.9301082813
  0
LINE
  8
Layer1$C$L1
 62
     3
 10
-165.6155519755
 20
148.8372166063
 11
-165.7155519755
 21
148.8372166063
  0
LINE
  8
Layer1$C$L1
 62
     3
 10
-168.9155519755
 20
148.2938673326
 11
-169.2155519755
 21
148.2938673326
  0
LINE
  8
Layer1$C$L1
 62
     3
 10
-168.9155519755
 20
148.2938673326
 11
-168.9155519755
 21
148.9301082813
  0
LINE
  8
Layer1$C$L1
 62
     3
 10
-165.6155519755
 20
148.1673436253
 11
-165.7155519755
 21
148.1673436253
  0
LINE
  8
Layer1$C$L1
 62
     3
 10
-165.6155519755
 20
147.9755315382
 11
-165.7155519755
 21
147.9755315382
  0
LINE
  8
Layer1$C$L1
 62
     3
 10
-165.7155519755
 20
147.6673436253
 11
-165.7155519755
 21
158.9709005147
  0
LINE
  8
Layer1$C$L1
 62
     3
 10
-165.6155519755
 20
147.6673436253
 11
-165.6155519755
 21
149.1673436253
  0
LINE
  8
Layer1$C$L1
 62
     3
 10
-165.5155519755
 20
147.6673436253
 11
-165.5155519755
 21
159.5673436253
  0
LINE
  8
Layer1$C$L1
 62
     3
 10
-159.7155519755
 20
138.1673436253
 11
-159.7155519755
 21
147.6673436253
  0
LINE
  8
Layer1$C$L1
 62
     3
 10
-166.9655519755
 20
138.0673436253
 11
-166.9655519755
 21
138.1673436253
  0
LINE
  8
Layer1$C$L1
 62
     3
 10
-168.7155519755
 20
138.0673436253
 11
-168.7155519755
 21
138.1673436253
  0
LINE
  8
Layer1$C$L1
 62
     3
 10
-166.1155519755
 20
138.0673436253
 11
-166.1155519755
 21
138.1673436253
  0
LINE
  8
Layer1$C$L1
 62
     3
 10
-165.4655519755
 20
138.0673436253
 11
-165.4655519755
 21
138.1673436253
  0
LINE
  8
Layer1$C$L1
 62
     3
 10
-165.6155519755
 20
138.0673436253
 11
-165.6155519755
 21
138.1673436253
  0
LINE
  8
Layer1$C$L1
 62
     3
 10
-162.8821611702
 20
138.0673436253
 11
-163.1581343791
 21
138.1673436253
  0
LINE
  8
Layer1$C$L1
 62
     3
 10
-162.8655519755
 20
129.8673436253
 11
-162.8655519755
 21
133.0673436253
  0
LINE
  8
Layer1$C$L1
 62
     3
 10
-154.9655519755
 20
124.2673436253
 11
-155.4655519755
 21
124.2673436253
  0
LINE
  8
Layer1$C$L1
 62
     3
 10
-155.4655519755
 20
122.7673436253
 11
-157.3155519755
 21
122.7673436253
  0
LINE
  8
Layer1$C$L1
 62
     3
 10
-155.4655519755
 20
122.7673436253
 11
-155.4655519755
 21
124.2673436253
  0
LINE
  8
Layer1$C$L1
 62
     3
 10
-169.2155519755
 20
120.4165369637
 11
-169.2155519755
 21
189.3673436253
  0
LINE
  8
Layer1$C$L1
 62
     3
 10
-169.2155519755
 20
118.3673436253
 11
-169.2155519755
 21
120.2367642815
  0
LINE
  8
Layer1$C$L1
 62
     3
 10
-140.0762481014
 20
118.3673436253
 11
-169.2155519755
 21
118.3673436253
  0
LINE
  8
Layer1$C$L1
 62
     3
 10
-162.8655519755
 20
118.3673436253
 11
-162.8655519755
 21
123.4673436253
  0
POLYLINE
  8
Layer1$C$L1
 62
     3
 66
     1
  0
VERTEX
  8
Layer1$C$L1
 62
     3
 10
-151.9155519755
 20
139.1173436253
  0
VERTEX
  8
Layer1$C$L1
 62
     3
 10
-151.8765339111
 20
139.1183480271
  0
VERTEX
  8
Layer1$C$L1
 62
     3
 10
-151.8390152890
 20
139.1213226340
  0
VERTEX
  8
Layer1$C$L1
 62
     3
 10
-151.8044379289
 20
139.1261531336
  0
VERTEX
  8
Layer1$C$L1
 62
     3
 10
-151.7741306193
 20
139.1326538924
  0
VERTEX
  8
Layer1$C$L1
 62
     3
 10
-151.7492580531
 20
139.1405750898
  0
VERTEX
  8
Layer1$C$L1
 62
     3
 10
-151.7307760690
 20
139.1496123189
  0
VERTEX
  8
Layer1$C$L1
 62
     3
 10
-151.7193949194
 20
139.1594182838
  0
VERTEX
  8
Layer1$C$L1
 62
     3
 10
-151.7155519755
 20
139.1696161469
  0
SEQEND
  8
Layer1$C$L1
 62
     3
  0
POLYLINE
  8
Layer1$C$L1
 62
     3
 66
     1
  0
VERTEX
  8
Layer1$C$L1
 62
     3
 10
-166.8155519755
 20
159.5673436253
  0
VERTEX
  8
Layer1$C$L1
 62
     3
 10
-166.8791203844
 20
159.5634488060
  0
VERTEX
  8
Layer1$C$L1
 62
     3
 10
-167.0011467663
 20
159.5330505337
  0
VERTEX
  8
Layer1$C$L1
 62
     3
 10
-167.1082292524
 20
159.4765004148
  0
VERTEX
  8
Layer1$C$L1
 62
     3
 10
-167.2276753948
 20
159.3590249948
  0
VERTEX
  8
Layer1$C$L1
 62
     3
 10
-167.3068538473
 20
159.1760708062
  0
VERTEX
  8
Layer1$C$L1
 62
     3
 10
-167.3155519755
 20
159.0867063806
  0
SEQEND
  8
Layer1$C$L1
 62
     3
  0
LINE
  8
Layer1$C$L1
 62
     3
 10
-161.2088004522
 20
183.1673344700
 11
-159.4155580790
 21
183.1673344700
  0
LINE
  8
Layer1$C$L1
 62
     3
 10
-161.2087975395
 20
181.9673375217
 11
-159.4155580790
 21
181.9673375217
  0
LINE
  8
Layer1$C$L1
 62
     3
 10
-157.4655458720
 20
180.1173466770
 11
-157.4655458720
 21
181.2173375217
  0
LINE
  8
Layer1$C$L1
 62
     3
 10
-158.6655580790
 20
180.1173466770
 11
-158.6655580790
 21
181.2173375217
  0
LINE
  8
Layer1$C$L1
 62
     3
 10
-158.6655580790
 20
185.0173405735
 11
-157.4655458720
 21
185.0173405735
  0
LINE
  8
Layer1$C$L1
 62
     3
 10
-158.6655580790
 20
180.1173466770
 11
-157.4655458720
 21
180.1173466770
  0
LINE
  8
Layer1$C$L1
 62
     3
 10
-160.5155489238
 20
181.9673375217
 11
-160.5155489238
 21
183.1673344700
  0
LINE
  8
Layer1$C$L1
 62
     3
 10
-155.6155550273
 20
181.9673375217
 11
-155.6155550273
 21
183.1673344700
  0
LINE
  8
Layer1$C$L1
 62
     3
 10
-158.6655580790
 20
183.9173344700
 11
-158.6655580790
 21
185.0173405735
  0
LINE
  8
Layer1$C$L1
 62
     3
 10
-156.7155458720
 20
181.9673375217
 11
-154.9223064115
 21
181.9673375217
  0
LINE
  8
Layer1$C$L1
 62
     3
 10
-156.7155458720
 20
183.1673344700
 11
-154.9223034988
 21
183.1673344700
  0
LINE
  8
Layer1$C$L1
 62
     3
 10
-157.4655458720
 20
183.9173344700
 11
-157.4655458720
 21
185.0173405735
  0
ARC
  8
Layer1$C$L1
 62
     3
 10
-159.4155580790
 20
181.2173375217
 40
0.7500000000
 50
0.0000000000
 51
89.9999820139
  0
ARC
  8
Layer1$C$L1
 62
     3
 10
-156.7155458720
 20
181.2173375217
 40
0.7500000000
 50
89.9999820139
 51
179.9999640278
  0
ARC
  8
Layer1$C$L1
 62
     3
 10
-156.7155458720
 20
183.9173344700
 40
0.7500000000
 50
179.9999640278
 51
269.9999460417
  0
ARC
  8
Layer1$C$L1
 62
     3
 10
-159.4155580790
 20
183.9173344700
 40
0.7500000000
 50
270.0000179861
 51
360.0000000000
  0
LINE
  8
Layer1$C$L1
 62
     3
 10
-166.0088004522
 20
127.2673344700
 11
-164.2155580790
 21
127.2673344700
  0
LINE
  8
Layer1$C$L1
 62
     3
 10
-166.0087975395
 20
126.0673375217
 11
-164.2155580790
 21
126.0673375217
  0
LINE
  8
Layer1$C$L1
 62
     3
 10
-162.2655458720
 20
124.2173466770
 11
-162.2655458720
 21
125.3173375217
  0
LINE
  8
Layer1$C$L1
 62
     3
 10
-163.4655580790
 20
124.2173466770
 11
-163.4655580790
 21
125.3173375217
  0
LINE
  8
Layer1$C$L1
 62
     3
 10
-163.4655580790
 20
129.1173405735
 11
-162.2655458720
 21
129.1173405735
  0
LINE
  8
Layer1$C$L1
 62
     3
 10
-163.4655580790
 20
124.2173466770
 11
-162.2655458720
 21
124.2173466770
  0
LINE
  8
Layer1$C$L1
 62
     3
 10
-165.3155489238
 20
126.0673375217
 11
-165.3155489238
 21
127.2673344700
  0
LINE
  8
Layer1$C$L1
 62
     3
 10
-160.4155550273
 20
126.0673375217
 11
-160.4155550273
 21
127.2673344700
  0
LINE
  8
Layer1$C$L1
 62
     3
 10
-163.4655580790
 20
128.0173344700
 11
-163.4655580790
 21
129.1173405735
  0
LINE
  8
Layer1$C$L1
 62
     3
 10
-161.5155458720
 20
126.0673375217
 11
-159.7223064115
 21
126.0673375217
  0
LINE
  8
Layer1$C$L1
 62
     3
 10
-161.5155458720
 20
127.2673344700
 11
-159.7223034988
 21
127.2673344700
  0
LINE
  8
Layer1$C$L1
 62
     3
 10
-162.2655458720
 20
128.0173344700
 11
-162.2655458720
 21
129.1173405735
  0
ARC
  8
Layer1$C$L1
 62
     3
 10
-164.2155580790
 20
125.3173375217
 40
0.7500000000
 50
0.0000000000
 51
89.9999820139
  0
ARC
  8
Layer1$C$L1
 62
     3
 10
-161.5155458720
 20
125.3173375217
 40
0.7500000000
 50
89.9999820139
 51
179.9999640278
  0
ARC
  8
Layer1$C$L1
 62
     3
 10
-161.5155458720
 20
128.0173344700
 40
0.7500000000
 50
179.9999640278
 51
269.9999460417
  0
ARC
  8
Layer1$C$L1
 62
     3
 10
-164.2155580790
 20
128.0173344700
 40
0.7500000000
 50
270.0000179861
 51
360.0000000000
  0
ARC
  8
Layer1$C$L1
 62
     3
 10
-141.9155580790
 20
183.9173344700
 40
0.7500000000
 50
270.0000179861
 51
360.0000000000
  0
ARC
  8
Layer1$C$L1
 62
     3
 10
-139.2155458720
 20
183.9173344700
 40
0.7500000000
 50
179.9999640278
 51
269.9999460417
  0
ARC
  8
Layer1$C$L1
 62
     3
 10
-139.2155458720
 20
181.2173375217
 40
0.7500000000
 50
89.9999820139
 51
179.9999640278
  0
ARC
  8
Layer1$C$L1
 62
     3
 10
-141.9155580790
 20
181.2173375217
 40
0.7500000000
 50
0.0000000000
 51
89.9999820139
  0
LINE
  8
Layer1$C$L1
 62
     3
 10
-139.9655458720
 20
183.9173344700
 11
-139.9655458720
 21
185.0173405735
  0
LINE
  8
Layer1$C$L1
 62
     3
 10
-139.2155458720
 20
183.1673344700
 11
-137.4223034988
 21
183.1673344700
  0
LINE
  8
Layer1$C$L1
 62
     3
 10
-139.2155458720
 20
181.9673375217
 11
-137.4223064115
 21
181.9673375217
  0
LINE
  8
Layer1$C$L1
 62
     3
 10
-141.1655580790
 20
183.9173344700
 11
-141.1655580790
 21
185.0173405735
  0
LINE
  8
Layer1$C$L1
 62
     3
 10
-138.1155550273
 20
181.9673375217
 11
-138.1155550273
 21
183.1673344700
  0
LINE
  8
Layer1$C$L1
 62
     3
 10
-143.0155489238
 20
181.9673375217
 11
-143.0155489238
 21
183.1673344700
  0
LINE
  8
Layer1$C$L1
 62
     3
 10
-141.1655580790
 20
180.1173466770
 11
-139.9655458720
 21
180.1173466770
  0
LINE
  8
Layer1$C$L1
 62
     3
 10
-141.1655580790
 20
185.0173405735
 11
-139.9655458720
 21
185.0173405735
  0
LINE
  8
Layer1$C$L1
 62
     3
 10
-141.1655580790
 20
180.1173466770
 11
-141.1655580790
 21
181.2173375217
  0
LINE
  8
Layer1$C$L1
 62
     3
 10
-139.9655458720
 20
180.1173466770
 11
-139.9655458720
 21
181.2173375217
  0
LINE
  8
Layer1$C$L1
 62
     3
 10
-143.7087975395
 20
181.9673375217
 11
-141.9155580790
 21
181.9673375217
  0
LINE
  8
Layer1$C$L1
 62
     3
 10
-143.7088004522
 20
183.1673344700
 11
-141.9155580790
 21
183.1673344700
  0
POLYLINE
  8
Layer1$C$L1
 62
     3
 66
     1
  0
VERTEX
  8
Layer1$C$L1
 62
     3
 10
-136.1155519755
 20
159.0867063806
  0
VERTEX
  8
Layer1$C$L1
 62
     3
 10
-136.1268855147
 20
159.1885749964
  0
VERTEX
  8
Layer1$C$L1
 62
     3
 10
-136.2308513767
 20
159.3938779232
  0
VERTEX
  8
Layer1$C$L1
 62
     3
 10
-136.3482440832
 20
159.4929795238
  0
VERTEX
  8
Layer1$C$L1
 62
     3
 10
-136.4738748218
 20
159.5476715216
  0
VERTEX
  8
Layer1$C$L1
 62
     3
 10
-136.6155519755
 20
159.5673436253
  0
SEQEND
  8
Layer1$C$L1
 62
     3
  0
LINE
  8
Layer1$C$L1
 62
     3
 10
-151.7155519755
 20
118.3673436253
 11
-151.7155519755
 21
139.2173436253
  0
LINE
  8
Layer1$C$L1
 62
     3
 10
-134.2155519755
 20
119.7673436253
 11
-134.2155519755
 21
188.7181502868
  0
LINE
  8
Layer1$C$L1
 62
     3
 10
-151.7155519755
 20
177.1673436253
 11
-151.7155519755
 21
190.8673436253
  0
LINE
  8
Layer1$C$L1
 62
     3
 10
-137.8155519755
 20
147.6673436253
 11
-137.8155519755
 21
149.1673436253
  0
LINE
  8
Layer1$C$L1
 62
     3
 10
-137.9155519755
 20
147.6673436253
 11
-137.9155519755
 21
159.5673436253
  0
LINE
  8
Layer1$C$L1
 62
     3
 10
-165.7155519755
 20
147.6673436253
 11
-137.7155519755
 21
147.6673436253
  0
LINE
  8
Layer1$C$L1
 62
     3
 10
-137.7155519755
 20
147.6673436253
 11
-137.7155519755
 21
158.9709005147
  0
LINE
  8
Layer1$C$L1
 62
     3
 10
-134.5155519755
 20
148.2938673326
 11
-134.5155519755
 21
148.9301082813
  0
LINE
  8
Layer1$C$L1
 62
     3
 10
-134.2155519755
 20
148.2938673326
 11
-134.5155519755
 21
148.2938673326
  0
LINE
  8
Layer1$C$L1
 62
     3
 10
-137.7155519755
 20
148.8372166063
 11
-137.8155519755
 21
148.8372166063
  0
LINE
  8
Layer1$C$L1
 62
     3
 10
-134.5155519755
 20
148.9301082813
 11
-137.7155519755
 21
148.9301082813
  0
LINE
  8
Layer1$C$L1
 62
     3
 10
-137.7155519755
 20
149.1673436253
 11
-137.9155519755
 21
149.1673436253
  0
LINE
  8
Layer1$C$L1
 62
     3
 10
-137.8155519755
 20
151.1673436253
 11
-137.9155519755
 21
151.1673436253
  0
LINE
  8
Layer1$C$L1
 62
     3
 10
-137.8155519755
 20
151.1673436253
 11
-137.8155519755
 21
155.9673436253
  0
LINE
  8
Layer1$C$L1
 62
     3
 10
-136.9155519755
 20
151.6673436253
 11
-134.2155519755
 21
151.6673436253
  0
LINE
  8
Layer1$C$L1
 62
     3
 10
-136.9155519755
 20
151.6673436253
 11
-136.9155519755
 21
154.6673436253
  0
LINE
  8
Layer1$C$L1
 62
     3
 10
-135.9155519755
 20
152.1480942998
 11
-135.9155519755
 21
154.1865929507
  0
LINE
  8
Layer1$C$L1
 62
     3
 10
-135.8155519755
 20
152.1480942998
 11
-135.8155519755
 21
154.1865929507
  0
LINE
  8
Layer1$C$L1
 62
     3
 10
-135.8155519755
 20
152.1480942998
 11
-136.9155519755
 21
152.1480942998
  0
LINE
  8
Layer1$C$L1
 62
     3
 10
-134.2155519755
 20
152.1673436253
 11
-135.8155519755
 21
152.1673436253
  0
LINE
  8
Layer1$C$L1
 62
     3
 10
-134.2155519755
 20
154.1673436253
 11
-135.8155519755
 21
154.1673436253
  0
LINE
  8
Layer1$C$L1
 62
     3
 10
-136.9155519755
 20
154.1865929507
 11
-135.8155519755
 21
154.1865929507
  0
LINE
  8
Layer1$C$L1
 62
     3
 10
-136.9155519755
 20
154.6673436253
 11
-134.2155519755
 21
154.6673436253
  0
LINE
  8
Layer1$C$L1
 62
     3
 10
-137.8155519755
 20
155.1673436253
 11
-137.9155519755
 21
155.1673436253
  0
LINE
  8
Layer1$C$L1
 62
     3
 10
-137.8155519755
 20
155.9673436253
 11
-137.9155519755
 21
155.9673436253
  0
LINE
  8
Layer1$C$L1
 62
     3
 10
-137.9155519755
 20
156.1673436253
 11
-137.7155519755
 21
156.1673436253
  0
LINE
  8
Layer1$C$L1
 62
     3
 10
-134.5155519755
 20
157.4045789693
 11
-134.5155519755
 21
158.0408199179
  0
LINE
  8
Layer1$C$L1
 62
     3
 10
-134.5155519755
 20
157.4045789693
 11
-135.8155519755
 21
157.4045789693
  0
LINE
  8
Layer1$C$L1
 62
     3
 10
-135.8155519755
 20
157.4045789693
 11
-135.8155519755
 21
177.1673436253
  0
LINE
  8
Layer1$C$L1
 62
     3
 10
-134.2155519755
 20
158.0408199179
 11
-134.5155519755
 21
158.0408199179
  0
LINE
  8
Layer1$C$L1
 62
     3
 10
-136.1155519755
 20
158.9709005147
 11
-137.9155519755
 21
158.9709005147
  0
LINE
  8
Layer1$C$L1
 62
     3
 10
-136.1155519755
 20
158.9709005147
 11
-136.1155519755
 21
166.9673436253
  0
LINE
  8
Layer1$C$L1
 62
     3
 10
-166.8155519755
 20
159.5673436253
 11
-136.6155519755
 21
159.5673436253
  0
LINE
  8
Layer1$C$L1
 62
     3
 10
-135.8155519755
 20
160.8426286362
 11
-136.1155519755
 21
160.8426286362
  0
LINE
  8
Layer1$C$L1
 62
     3
 10
-136.1155519755
 20
162.5540363335
 11
-135.8155519755
 21
162.5540363335
  0
LINE
  8
Layer1$C$L1
 62
     3
 10
-167.3155519755
 20
166.9673436253
 11
-136.1155519755
 21
166.9673436253
  0
LINE
  8
Layer1$C$L1
 62
     3
 10
-142.2155519755
 20
166.9673436253
 11
-142.2155519755
 21
177.2673436253
  0
LINE
  8
Layer1$C$L1
 62
     3
 10
-169.2155519755
 20
177.1673436253
 11
-134.2155519755
 21
177.1673436253
  0
LINE
  8
Layer1$C$L1
 62
     3
 10
-140.5655519755
 20
177.1673436253
 11
-140.5655519755
 21
179.3673436253
  0
LINE
  8
Layer1$C$L1
 62
     3
 10
-146.1155519755
 20
177.1673436253
 11
-146.1155519755
 21
186.4673436253
  0
LINE
  8
Layer1$C$L1
 62
     3
 10
-142.2155519755
 20
177.2673436253
 11
-140.5655519755
 21
177.2673436253
  0
LINE
  8
Layer1$C$L1
 62
     3
 10
-146.1155519755
 20
178.6673436253
 11
-147.9655519755
 21
178.6673436253
  0
LINE
  8
Layer1$C$L1
 62
     3
 10
-147.9655519755
 20
178.6673436253
 11
-147.9655519755
 21
180.1673436253
  0
LINE
  8
Layer1$C$L1
 62
     3
 10
-147.9655519755
 20
180.1673436253
 11
-148.4655519755
 21
180.1673436253
  0
LINE
  8
Layer1$C$L1
 62
     3
 10
-151.7155519755
 20
183.5865272137
 11
-150.6383991430
 21
183.5865272137
  0
LINE
  8
Layer1$C$L1
 62
     3
 10
-147.9655519755
 20
184.9673436253
 11
-147.9655519755
 21
186.4673436253
  0
LINE
  8
Layer1$C$L1
 62
     3
 10
-148.4655519755
 20
184.9673436253
 11
-147.9655519755
 21
184.9673436253
  0
LINE
  8
Layer1$C$L1
 62
     3
 10
-140.5655519755
 20
185.7673436253
 11
-140.5655519755
 21
190.8673436253
  0
LINE
  8
Layer1$C$L1
 62
     3
 10
-146.1155519755
 20
186.4673436253
 11
-146.1155519755
 21
190.8673436253
  0
LINE
  8
Layer1$C$L1
 62
     3
 10
-147.9655519755
 20
186.4673436253
 11
-146.1155519755
 21
186.4673436253
  0
LINE
  8
Layer1$C$L1
 62
     3
 10
-134.2155519755
 20
188.9438811975
 11
-134.2155519755
 21
190.8673436253
  0
LINE
  8
Layer1$C$L1
 62
     3
 10
-134.2155519755
 20
190.8673436253
 11
-151.7155519755
 21
190.8673436253
  0
ARC
  8
Layer1$C$L1
 62
     3
 10
-136.6155519755
 20
166.4673436253
 40
0.5000000000
 50
1.2213329977E-12
 51
90.0000000000
  0
CIRCLE
  8
Layer1$C$L1
 62
     3
 10
-140.5655519755
 20
182.5673436253
 40
3.2000000000
  0
ARC
  8
Layer1$C$L1
 62
     3
 10
-148.4655519755
 20
182.5673436253
 40
2.4000000000
 50
90.0000000000
 51
270.0000000000
  0
ARC
  8
Layer1$C$L1
 62
     3
 10
-131.4155519755
 20
190.2673436253
 40
3.2000000000
 50
169.1930771251
 51
208.9550243719
  0
LINE
  8
Layer1$C$L1
  6
CENTER
 62
     3
 10
-140.5655519755
 20
185.5673283665
 11
-140.5655519755
 21
179.5673283665
  0
LINE
  8
Layer1$C$L1
  6
CENTER
 62
     3
 10
-138.0655519755
 20
182.5673436253
 11
-144.0655519755
 21
182.5673436253
  0
LINE
  8
Layer1$C$L1
  6
CENTER
 62
     3
 10
-134.4155519755
 20
118.8673436253
 11
-140.4155519755
 21
118.8673436253
  0
LINE
  8
Layer1$C$L1
  6
CENTER
 62
     3
 10
-136.9155519755
 20
121.8673283665
 11
-136.9155519755
 21
115.8673283665
  0
LINE
  8
Layer1$C$L1
 62
     3
 10
-165.4655519755
 20
178.6673436253
 11
-165.4655519755
 21
180.1673436253
  0
INSERT
  8
Layer8$C$L8
 66
     1
  2
Cadra_attr_0
 10
0.000000
 20
0.000000
  0
ATTRIB
  8
Layer8$C$L8
 10
-46.807405
 20
28.259260
 40
0.156000
  1
ìL>ÄK
  2
10
 70
    11
  0
SEQEND
  8
Layer8$C$L8
  0
INSERT
  8
Layer8$C$L8
 62
     5
 66
     1
  2
Cadra_attr_1
 10
0.000000
 20
0.000000
  0
ATTRIB
  8
Layer8$C$L8
 62
     5
 10
-46.747117
 20
18.500000
 40
0.156000
  1
  
  2
20
 70
    11
  0
SEQEND
  8
Layer8$C$L8
 62
     5
  0
ENDSEC
  0
EOF
