  0
SECTION
  2
HEADER
  9
$ACADVER
  1
AC1004
  9
$ANGBASE
 50
0.0000000000
  9
$ANGDIR
 70
     0
  9
$ATTDIA
 70
     0
  9
$ATTMODE
 70
     1
  9
$ATTREQ
 70
     1
  9
$AUNITS
 70
     0
  9
$AUPREC
 70
     0
  9
$AXISMODE
 70
     0
  9
$AXISUNIT
 10
0.0000000000
 20
0.0000000000
  9
$BLIPMODE
 70
     1
  9
$CECOLOR
 62
   256
  9
$CELTYPE
  6
BYLAYER
  9
$CHAMFERA
 40
0.0000000000
  9
$CHAMFERB
 40
0.0000000000
  9
$CLAYER
  8
0
  9
$COORDS
 70
     0
  9
$DIMALT
 70
     0
  9
$DIMALTD
 70
     2
  9
$DIMALTF
 40
25.4000000000
  9
$DIMAPOST
  1

  9
$DIMASO
 70
     1
  9
$DIMASZ
 40
1.9727878460
  9
$DIMBLK
  1

  9
$DIMBLK1
  1

  9
$DIMBLK2
  1

  9
$DIMCEN
 40
9.0000000000E-02
  9
$DIMDLE
 40
0.0000000000
  9
$DIMDLI
 40
0.3800000000
  9
$DIMEXE
 40
3.8099999428
  9
$DIMEXO
 40
2.5399999619
  9
$DIMLFAC
 40
1.0000000000
  9
$DIMLIM
 70
     0
  9
$DIMPOST
  1

  9
$DIMRND
 40
0.0000000000
  9
$DIMSCALE
 40
1.0000000000
  9
$DIMSE1
 70
     0
  9
$DIMSE2
 70
     0
  9
$DIMSHO
 70
     0
  9
$DIMTAD
 70
     0
  9
$DIMTIH
 70
     0
  9
$DIMTM
 40
0.0000000000
  9
$DIMTOH
 70
     1
  9
$DIMTOL
 70
     0
  9
$DIMTP
 40
0.0000000000
  9
$DIMTSZ
 40
0.0000000000
  9
$DIMTXT
 40
2.9999940395
  9
$DIMZIN
 70
     0
  9
$DRAGMODE
 70
     1
  9
$ELEVATION
 40
0.0000000000
  9
$EXTMAX
 10
3.1750000000
 20
249.0760772705
 30
0.0000000000
  9
$EXTMIN
 10
-167.1421173096
 20
-3.1750000000
 30
0.0000000000
  9
$FASTZOOM
 70
     1
  9
$FILLETRAD
 40
6.2500000000E-02
  9
$FILLMODE
 70
     1
  9
$GRIDMODE
 70
     0
  9
$GRIDUNIT
 10
0.0000000000
 20
0.0000000000
  9
$INSBASE
 10
0.0000000000
 20
0.0000000000
 30
0.0000000000
  9
$LIMCHECK
 70
     0
  9
$LIMMAX
 10
3.1750000000
 20
249.0760772705
  9
$LIMMIN
 10
-167.1421173096
 20
-3.1750000000
  9
$LTSCALE
 40
1.0000000000
  9
$LUNITS
 70
     2
  9
$LUPREC
 70
     3
  9
$MEASUREMENT
 70
     0
  9
$MENU
  1
ACAD
  9
$MIRRTEXT
 70
     0
  9
$ORTHOMODE
 70
     0
  9
$OSMODE
 70
     0
  9
$PDMODE
 70
     0
  9
$PDSIZE
 40
0.0000000000
  9
$PLINEWID
 40
0.0000000000
  9
$PROXYGRAPHICS
 70
     0
  9
$QTEXTMODE
 70
     0
  9
$REGENMODE
 70
     1
  9
$SKETCHINC
 40
0.1000000000
  9
$SKPOLY
 70
     0
  9
$SNAPANG
 50
0.0000000000
  9
$SNAPBASE
 10
0.0000000000
 20
0.0000000000
  9
$SNAPISOPAIR
 70
     0
  9
$SNAPMODE
 70
     0
  9
$SNAPSTYLE
 70
     0
  9
$SNAPUNIT
 10
1.0000000000
 20
1.0000000000
  9
$SPLFRAME
 70
     0
  9
$SPLINESEGS
 70
     8
  9
$TDCREATE
 40
2454365.4535532457
  9
$TDINDWG
 40
0.0000000000
  9
$TDUPDATE
 40
2454365.4535532457
  9
$TDUSRTIMER
 40
0.0000000000
  9
$TEXTSIZE
 40
2.9999940395
  9
$TEXTSTYLE
  7
STANDARD
  9
$THICKNESS
 40
0.0000000000
  9
$TRACEWID
 40
5.0000000000E-02
  9
$USERI1
 70
     0
  9
$USERI2
 70
     0
  9
$USERI3
 70
     0
  9
$USERI4
 70
     0
  9
$USERI5
 70
     0
  9
$USERR1
 40
0.0000000000
  9
$USERR2
 40
0.0000000000
  9
$USERR3
 40
0.0000000000
  9
$USERR4
 40
0.0000000000
  9
$USERR5
 40
0.0000000000
  9
$USRTIMER
 70
     1
  9
$VIEWCTR
 10
-81.9835586548
 20
122.9505386353
  9
$VIEWDIR
 10
0.0000000000
 20
0.0000000000
 30
1.0000000000
  9
$VIEWSIZE
 40
252.2510772705
  0
ENDSEC
  0
SECTION
  2
TABLES
  0
TABLE
  2
LTYPE
 70
     3
  0
LTYPE
  2
SOLID
  3
Solid
 70
    64
 72
    65
 73
     0
 40
0.0000000000
  0
LTYPE
  2
DASH
  3
Dash
 70
    64
 72
    65
 73
     2
 40
2.0000000000
 49
1.0000000000
 49
-1.0000000000
  0
LTYPE
  2
CENTER
  3
Center
 70
    64
 72
    65
 73
     4
 40
9.1000000238
 49
6.5000000000
 49
-0.8000000119
 49
1.0000000000
 49
-0.8000000119
  0
ENDTAB
  0
TABLE
  2
LAYER
 70
     3
  0
LAYER
  2
Layer1$C$L1
 70
     0
  6
SOLID
 62
     3
  0
LAYER
  2
Layer6$C$L6
 70
     0
  6
SOLID
 62
    31
  0
LAYER
  2
Layer8$C$L8
 70
     0
  6
SOLID
 62
     7
  0
ENDTAB
  0
TABLE
  2
STYLE
 70
     1
  0
STYLE
  2
STANDARD
  3
txt
  4

 40
0.0000000000
 41
1.0000000000
 42
4.7999906540
 50
0.0000000000
 70
     0
 71
     0
  0
ENDTAB
  0
ENDSEC
  0
SECTION
  2
BLOCKS
  0
BLOCK
  8
Layer6$C$L6
  2
*X0
 70
     1
 10
0.0000000000
 20
0.0000000000
  0
ENDBLK
  8
Layer6$C$L6
  0
BLOCK
  8
Layer8$C$L8
  2
Cadra_attr_0
 70
     2
 10
0.0000000000
 20
0.0000000000
  0
TEXT
  8
Layer8$C$L8
 10
-65.4730344216
 20
31.4914611388
 40
4.1671714783
  1
NC1V-1121
 41
0.8232750373
 72
     5
 11
-38.0272083879
 21
31.4914611388
  0
TEXT
  8
Layer8$C$L8
 10
-65.4730344216
 20
25.2407039214
 40
4.1671714783
  1
NC1V-1121F
 41
0.8144566824
 72
     5
 11
-34.9272085077
 21
25.2407039214
  0
ATTDEF
  8
Layer8$C$L8
 10
-50.200123
 20
30.449669
 40
0.156000
  1
ìL>ÄK
  3

  2
10
 70
    11
  0
ENDBLK
  8
Layer8$C$L8
  0
BLOCK
  8
Layer8$C$L8
  2
Cadra_attr_1
 70
     2
 10
0.000000
 20
0.000000
  0
TEXT
  8
Layer8$C$L8
 62
     5
 10
-66.0872999535
 20
16.0000000000
 40
5.0000000000
  1
MA4-C00274
 41
0.8595637381
 72
     5
 11
-27.4069317370
 21
16.0000000000
  0
ATTDEF
  8
Layer8$C$L8
 62
     5
 10
-46.747117
 20
18.500000
 40
0.156000
  1
  
  3

  2
20
 70
    11
  0
ENDBLK
  8
Layer8$C$L8
  0
ENDSEC
  0
SECTION
  2
ENTITIES
  0
INSERT
  8
Layer8$C$L8
 66
     1
  2
Cadra_attr_0
 10
0.000000
 20
0.000000
  0
ATTRIB
  8
Layer8$C$L8
 10
-50.200123
 20
30.449669
 40
0.156000
  1
ìL>ÄK
  2
10
 70
    11
  0
SEQEND
  8
Layer8$C$L8
  0
LINE
  8
Layer1$C$L1
 62
     3
 10
-149.0279005144
 20
199.2598939676
 11
-149.0279005144
 21
202.2598939676
  0
LINE
  8
Layer1$C$L1
 62
     3
 10
-149.0279005144
 20
199.2598939676
 11
-148.5279005144
 21
199.2598939676
  0
LINE
  8
Layer1$C$L1
 62
     3
 10
-148.5279005144
 20
199.2598939676
 11
-148.5279005144
 21
202.2598939676
  0
LINE
  8
Layer1$C$L1
 62
     3
 10
-149.0279005144
 20
202.2598939676
 11
-148.5279005144
 21
202.2598939676
  0
INSERT
  8
Layer6$C$L6
  2
*X0
 10
0.000000
 20
0.000000
  0
POLYLINE
  8
Layer1$C$L1
 66
     1
 70
     1
  0
VERTEX
  8
Layer1$C$L1
 10
-149.0279005144
 20
202.2598939676
  0
VERTEX
  8
Layer1$C$L1
 10
-148.5279005144
 20
202.2598939676
  0
VERTEX
  8
Layer1$C$L1
 10
-148.5279005144
 20
199.2598939676
  0
VERTEX
  8
Layer1$C$L1
 10
-149.0279005144
 20
199.2598939676
  0
SEQEND
  8
Layer1$C$L1
  0
LINE
  8
Layer1$C$L1
 62
     3
 10
-80.4671214396
 20
235.7563751309
 11
-79.7671214396
 21
235.7563751309
  0
LINE
  8
Layer1$C$L1
 62
     3
 10
-80.4671214396
 20
227.9563751309
 11
-79.7671214396
 21
227.9563751309
  0
LINE
  8
Layer1$C$L1
 62
     3
 10
-65.1671214396
 20
179.8563751309
 11
-64.4671214396
 21
179.8563751309
  0
LINE
  8
Layer1$C$L1
 62
     3
 10
-65.1671214396
 20
172.0563751309
 11
-64.4671214396
 21
172.0563751309
  0
LINE
  8
Layer1$C$L1
 62
     3
 10
-80.4671214396
 20
227.9563751309
 11
-80.4671214396
 21
235.7563751309
  0
LINE
  8
Layer1$C$L1
 62
     3
 10
-65.1671214396
 20
172.0563751309
 11
-65.1671214396
 21
179.8563751309
  0
TEXT
  8
Layer8$C$L8
 62
     3
 10
-157.0059837934
 20
199.0806015835
 40
3.7500000000
  1
éném
 41
0.6693333333
 72
     5
 11
-149.4759837934
 21
199.0806015835
  0
LINE
  8
Layer1$C$L1
  6
CENTER
 62
     3
 10
-150.4171244914
 20
175.9563751309
 11
-158.8171244914
 21
175.9563751309
  0
LINE
  8
Layer1$C$L1
  6
CENTER
 62
     3
 10
-145.6171244914
 20
231.8563751309
 11
-154.0171244914
 21
231.8563751309
  0
LINE
  8
Layer1$C$L1
  6
CENTER
 62
     3
 10
-163.9671244914
 20
203.9063751309
 11
-140.4671244914
 21
203.9063751309
  0
LINE
  8
Layer1$C$L1
  6
CENTER
 62
     3
 10
-108.1664779351
 20
203.9063751309
 11
-27.4261416624
 21
203.9063751309
  0
ARC
  8
Layer1$C$L1
  6
DASH
 62
     3
 10
-33.6671214396
 20
189.4063827603
 40
2.0000000000
 50
89.9999273724
 51
179.9999640278
  0
LINE
  8
Layer1$C$L1
  6
DASH
 62
     3
 10
-33.9671092326
 20
190.4063827603
 11
-28.1671214396
 21
190.4063827603
  0
ARC
  8
Layer1$C$L1
  6
DASH
 62
     3
 10
-33.6671214396
 20
218.4063827603
 40
2.0000000000
 50
203.4374641641
 51
270.0000179861
  0
LINE
  8
Layer1$C$L1
  6
DASH
 62
     3
 10
-28.1671214396
 20
190.4063827603
 11
-28.1671214396
 21
217.4063827603
  0
LINE
  8
Layer1$C$L1
  6
DASH
 62
     3
 10
-29.8671183879
 20
191.4063827603
 11
-29.8671183879
 21
216.4063827603
  0
LINE
  8
Layer1$C$L1
  6
DASH
 62
     3
 10
-33.6671214396
 20
191.4063827603
 11
-29.8671183879
 21
191.4063827603
  0
LINE
  8
Layer1$C$L1
  6
DASH
 62
     3
 10
-33.6671214396
 20
216.4063827603
 11
-29.8671183879
 21
216.4063827603
  0
LINE
  8
Layer1$C$L1
  6
DASH
 62
     3
 10
-33.9671092326
 20
217.4063827603
 11
-28.1671214396
 21
217.4063827603
  0
LINE
  8
Layer1$C$L1
  6
DASH
 62
     3
 10
-34.6671214396
 20
219.4063827603
 11
-34.6671214396
 21
221.4563751309
  0
LINE
  8
Layer1$C$L1
  6
DASH
 62
     3
 10
-33.9671092326
 20
217.4063827603
 11
-33.9671092326
 21
217.9063827603
  0
LINE
  8
Layer1$C$L1
  6
DASH
 62
     3
 10
-34.6671324505
 20
219.4063550097
 11
-33.9671278550
 21
217.9063467972
  0
LINE
  8
Layer1$C$L1
  6
DASH
 62
     3
 10
-34.6671214396
 20
188.4063827603
 11
-34.6671214396
 21
187.9897084643
  0
LINE
  8
Layer1$C$L1
  6
DASH
 62
     3
 10
-34.6671613181
 20
188.4064194768
 11
-33.9671535654
 21
189.9064263080
  0
LINE
  8
Layer1$C$L1
  6
DASH
 62
     3
 10
-33.9671092326
 20
190.4063827603
 11
-33.9671092326
 21
189.9063827603
  0
LINE
  8
Layer1$C$L1
  6
CENTER
 62
     3
 10
-152.2171244914
 20
160.9952286015
 11
-152.2171244914
 21
245.9010830682
  0
LINE
  8
Layer1$C$L1
  6
CENTER
 62
     3
 10
-146.2171244914
 20
171.2063598722
 11
-146.2171244914
 21
165.2063598722
  0
LINE
  8
Layer1$C$L1
  6
CENTER
 62
     3
 10
-143.7171244914
 20
168.2063751309
 11
-149.7171244914
 21
168.2063751309
  0
LINE
  8
Layer1$C$L1
  6
CENTER
 62
     3
 10
-154.6171244914
 20
178.9563598722
 11
-154.6171244914
 21
172.9563598722
  0
LINE
  8
Layer1$C$L1
  6
CENTER
 62
     3
 10
-158.2171244914
 20
242.6063598722
 11
-158.2171244914
 21
236.6063598722
  0
LINE
  8
Layer1$C$L1
  6
CENTER
 62
     3
 10
-155.7171244914
 20
239.6063751309
 11
-161.7171244914
 21
239.6063751309
  0
LINE
  8
Layer1$C$L1
  6
CENTER
 62
     3
 10
-149.8171244914
 20
234.8563598722
 11
-149.8171244914
 21
228.8563598722
  0
ARC
  8
Layer1$C$L1
 62
     3
 10
-77.7671214396
 20
238.1563751309
 40
2.0000000000
 50
90.0000000000
 51
180.0000000000
  0
CIRCLE
  8
Layer1$C$L1
 62
     3
 10
-35.6671214396
 20
228.9563751309
 40
1.1000000000
  0
CIRCLE
  8
Layer1$C$L1
 62
     3
 10
-35.6671214396
 20
228.9563751309
 40
2.2500000000
  0
ARC
  8
Layer1$C$L1
 62
     3
 10
-93.6812511962
 20
225.4563751309
 40
1.0000000000
 50
90.0000000000
 51
171.1201796396
  0
CIRCLE
  8
Layer1$C$L1
 62
     3
 10
-81.9671214396
 20
222.4563751309
 40
1.1000000000
  0
CIRCLE
  8
Layer1$C$L1
 62
     3
 10
-81.9671214396
 20
222.4563751309
 40
2.2500000000
  0
ARC
  8
Layer1$C$L1
 62
     3
 10
-36.5671214396
 20
218.3563751309
 40
1.3000000000
 50
313.8130614604
 51
374.6219744214
  0
ARC
  8
Layer1$C$L1
 62
     3
 10
-93.7671214396
 20
203.4563751309
 40
0.3000000000
 50
289.3037542760
 51
337.7140257111
  0
ARC
  8
Layer1$C$L1
 62
     3
 10
53.5328785610
 20
202.4563751310
 40
149.6000000007
 50
183.4073852670
 51
184.0554087313
  0
ARC
  8
Layer1$C$L1
 62
     3
 10
-88.4671214396
 20
202.4563751309
 40
5.1000000000
 50
168.6922705659
 51
191.3077294341
  0
ARC
  8
Layer1$C$L1
 62
     3
 10
-88.4671214396
 20
202.4563751309
 40
5.2500000000
 50
168.8053514548
 51
191.1946485452
  0
ARC
  8
Layer1$C$L1
 62
     3
 10
-88.4671214396
 20
202.4563751309
 40
9.3000000000
 50
250.4569979860
 51
508.3970533255
  0
ARC
  8
Layer1$C$L1
 62
     3
 10
-88.4671214396
 20
202.4563751309
 40
9.0000000000
 50
248.3615607713
 51
594.7525819799
  0
ARC
  8
Layer1$C$L1
 62
     3
 10
-88.4671214396
 20
202.4563751309
 40
9.3000000000
 50
211.6029466745
 51
232.6571447653
  0
ARC
  8
Layer1$C$L1
 62
     3
 10
53.5328785604
 20
202.4563751309
 40
150.0000000000
 50
171.1201796396
 51
178.3812799915
  0
ARC
  8
Layer1$C$L1
 62
     3
 10
53.5328785602
 20
202.4563751309
 40
149.9999999998
 50
181.6187200085
 51
185.3362185881
  0
CIRCLE
  8
Layer1$C$L1
 62
     3
 10
-93.6671214396
 20
192.8563751309
 40
1.1000000000
  0
ARC
  8
Layer1$C$L1
 62
     3
 10
-93.6671214396
 20
192.8563751309
 40
2.2500000000
 50
205.8173698561
 51
521.6454241422
  0
CIRCLE
  8
Layer1$C$L1
 62
     3
 10
-41.6671214396
 20
189.1563751309
 40
1.1000000000
  0
CIRCLE
  8
Layer1$C$L1
 62
     3
 10
-41.6671214396
 20
189.1563751309
 40
2.2500000000
  0
ARC
  8
Layer1$C$L1
 62
     3
 10
-32.4671214396
 20
185.1563751309
 40
1.0000000000
 50
0.0000000000
 51
90.0000000000
  0
ARC
  8
Layer1$C$L1
 62
     3
 10
-62.4671214396
 20
169.6563751309
 40
2.0000000000
 50
180.0000000000
 51
270.0000000000
  0
LINE
  8
Layer1$C$L1
 62
     3
 10
-31.4671214396
 20
243.2563751309
 11
-36.4671214396
 21
243.2563751309
  0
LINE
  8
Layer1$C$L1
 62
     3
 10
-35.3671214396
 20
242.2563751309
 11
-32.8671214396
 21
242.2563751309
  0
LINE
  8
Layer1$C$L1
 62
     3
 10
-35.3671214396
 20
240.8563751309
 11
-32.8671214396
 21
240.8563751309
  0
LINE
  8
Layer1$C$L1
 62
     3
 10
-32.8671214396
 20
240.1563751309
 11
-32.8671214396
 21
242.2563751309
  0
LINE
  8
Layer1$C$L1
 62
     3
 10
-35.3671214396
 20
240.1563751309
 11
-35.3671214396
 21
242.2563751309
  0
LINE
  8
Layer1$C$L1
 62
     3
 10
-77.7671214396
 20
240.1563751309
 11
-31.4671214396
 21
240.1563751309
  0
LINE
  8
Layer1$C$L1
 62
     3
 10
-44.4671214396
 20
238.0071817925
 11
-79.7671214396
 21
238.0071817925
  0
LINE
  8
Layer1$C$L1
 62
     3
 10
-44.4671214396
 20
236.6998037595
 11
-44.4671214396
 21
240.1563751309
  0
LINE
  8
Layer1$C$L1
 62
     3
 10
-36.4671214396
 20
236.6998037595
 11
-44.4671214396
 21
236.6998037595
  0
LINE
  8
Layer1$C$L1
 62
     3
 10
-36.4671214396
 20
236.6998037595
 11
-36.4671214396
 21
243.2563751309
  0
LINE
  8
Layer1$C$L1
 62
     3
 10
-79.7671214396
 20
226.4563751309
 11
-79.7671214396
 21
238.1563751309
  0
LINE
  8
Layer1$C$L1
 62
     3
 10
-93.6812511962
 20
226.4563751309
 11
-79.7671214396
 21
226.4563751309
  0
LINE
  8
Layer1$C$L1
 62
     3
 10
-31.4671214396
 20
221.4563751309
 11
-31.4671214396
 21
243.2563751309
  0
LINE
  8
Layer1$C$L1
 62
     3
 10
-35.6671214396
 20
221.4563751309
 11
-34.5671214396
 21
221.4563751309
  0
LINE
  8
Layer1$C$L1
 62
     3
 10
-35.6671214396
 20
220.0563751309
 11
-35.6671214396
 21
221.4563751309
  0
LINE
  8
Layer1$C$L1
 62
     3
 10
-33.4671214396
 20
219.4563751309
 11
-31.4671214396
 21
221.4563751309
  0
LINE
  8
Layer1$C$L1
 62
     3
 10
-34.1671214396
 20
219.4563751309
 11
-33.4671214396
 21
219.4563751309
  0
LINE
  8
Layer1$C$L1
 62
     3
 10
-34.1671214396
 20
219.4563751309
 11
-34.5671214396
 21
221.4563751309
  0
LINE
  8
Layer1$C$L1
 62
     3
 10
-35.3092252882
 20
218.6845477567
 11
-35.6671214396
 21
220.0563751309
  0
LINE
  8
Layer1$C$L1
 62
     3
 10
-93.4681213396
 20
203.4563751309
 11
-97.3412411143
 21
203.9563751309
  0
LINE
  8
Layer1$C$L1
 62
     3
 10
-93.6932576797
 20
202.9563751309
 11
-93.5425524558
 21
202.9563751309
  0
LINE
  8
Layer1$C$L1
 62
     3
 10
-97.3412411143
 20
200.9563751309
 11
-93.4681213396
 21
201.4563751309
  0
LINE
  8
Layer1$C$L1
 62
     3
 10
-93.4946965795
 20
189.5945188516
 11
-93.4771214396
 21
189.5945188516
  0
LINE
  8
Layer1$C$L1
 62
     3
 10
-93.5671214396
 20
189.5751126688
 11
-84.7771964204
 21
191.9303659792
  0
LINE
  8
Layer1$C$L1
 62
     3
 10
-93.4771214396
 20
189.4445188516
 11
-84.8873166211
 21
191.7461501159
  0
LINE
  8
Layer1$C$L1
 62
     3
 10
-93.4771214396
 20
189.3563751309
 11
-93.5671214396
 21
189.3563751309
  0
LINE
  8
Layer1$C$L1
 62
     3
 10
-93.5671214396
 20
189.1092383876
 11
-93.5671214396
 21
189.5751126688
  0
LINE
  8
Layer1$C$L1
 62
     3
 10
-93.4771214396
 20
189.0304083794
 11
-93.4771214396
 21
189.5945188516
  0
LINE
  8
Layer1$C$L1
 62
     3
 10
-94.4771214396
 20
188.7624591870
 11
-94.4771214396
 21
188.8654046225
  0
LINE
  8
Layer1$C$L1
 62
     3
 10
-34.4671214396
 20
188.6563751309
 11
-33.3671214396
 21
188.6563751309
  0
LINE
  8
Layer1$C$L1
 62
     3
 10
-95.8170377436
 20
188.5063751309
 11
-93.5671214396
 21
189.1092383876
  0
LINE
  8
Layer1$C$L1
 62
     3
 10
-95.8060452286
 20
188.4063751309
 11
-93.4771214396
 21
189.0304083794
  0
LINE
  8
Layer1$C$L1
 62
     3
 10
-95.8035212191
 20
188.3624153994
 11
-95.8170377436
 21
188.5063751309
  0
LINE
  8
Layer1$C$L1
 62
     3
 10
-95.7874576392
 20
188.2549913636
 11
-95.8035212191
 21
188.3624153994
  0
LINE
  8
Layer1$C$L1
 62
     3
 10
-71.7238421291
 20
187.4563751309
 11
-65.5671214396
 21
187.4563751309
  0
LINE
  8
Layer1$C$L1
 62
     3
 10
-71.5196644489
 20
187.3563751309
 11
-65.6771214396
 21
187.3563751309
  0
LINE
  8
Layer1$C$L1
 62
     3
 10
-35.0671214396
 20
186.6563751309
 11
-34.4671214396
 21
188.6563751309
  0
LINE
  8
Layer1$C$L1
 62
     3
 10
-35.6671214396
 20
186.6563751309
 11
-35.0671214396
 21
186.6563751309
  0
LINE
  8
Layer1$C$L1
 62
     3
 10
-31.4671214396
 20
186.3563751309
 11
-33.3671214396
 21
188.6563751309
  0
LINE
  8
Layer1$C$L1
 62
     3
 10
-35.6671214396
 20
186.1563751309
 11
-35.6671214396
 21
217.4182919790
  0
LINE
  8
Layer1$C$L1
 62
     3
 10
-32.4671214396
 20
186.1563751309
 11
-35.6671214396
 21
186.1563751309
  0
LINE
  8
Layer1$C$L1
 62
     3
 10
-82.7842897731
 20
184.4927371168
 11
-84.7771964204
 21
191.9303659792
  0
LINE
  8
Layer1$C$L1
 62
     3
 10
-82.7842897731
 20
184.4927371168
 11
-71.7238421291
 21
187.4563751309
  0
LINE
  8
Layer1$C$L1
 62
     3
 10
-82.8944099738
 20
184.3085212534
 11
-84.8873166211
 21
191.7461501159
  0
LINE
  8
Layer1$C$L1
 62
     3
 10
-82.8944099738
 20
184.3085212534
 11
-71.5196644489
 21
187.3563751309
  0
LINE
  8
Layer1$C$L1
 62
     3
 10
-64.4671214396
 20
182.8563751309
 11
-65.5671214396
 21
182.8563751309
  0
LINE
  8
Layer1$C$L1
 62
     3
 10
-65.5671214396
 20
182.8563751309
 11
-65.5671214396
 21
187.4563751309
  0
LINE
  8
Layer1$C$L1
 62
     3
 10
-65.6771214396
 20
182.7563751309
 11
-65.6771214396
 21
187.3563751309
  0
LINE
  8
Layer1$C$L1
 62
     3
 10
-64.4771214396
 20
182.7563751309
 11
-64.4771214396
 21
182.8563751309
  0
LINE
  8
Layer1$C$L1
 62
     3
 10
-65.6771214396
 20
182.7563751309
 11
-64.6771214396
 21
182.7563751309
  0
LINE
  8
Layer1$C$L1
 62
     3
 10
-64.6771214396
 20
182.5885552047
 11
-64.6771214396
 21
182.7563751309
  0
LINE
  8
Layer1$C$L1
 62
     3
 10
-36.4671214396
 20
181.3563751309
 11
-64.4671214396
 21
181.3563751309
  0
LINE
  8
Layer1$C$L1
 62
     3
 10
-36.4671214396
 20
179.8563751309
 11
-64.4671214396
 21
179.8563751309
  0
LINE
  8
Layer1$C$L1
 62
     3
 10
-36.4671214396
 20
178.3563751309
 11
-64.4671214396
 21
178.3563751309
  0
LINE
  8
Layer1$C$L1
 62
     3
 10
-36.4671214396
 20
173.5563751309
 11
-64.4671214396
 21
173.5563751309
  0
LINE
  8
Layer1$C$L1
 62
     3
 10
-36.4671214396
 20
172.0563751309
 11
-64.4671214396
 21
172.0563751309
  0
LINE
  8
Layer1$C$L1
 62
     3
 10
-42.4671214396
 20
169.7055684694
 11
-64.4671214396
 21
169.7055684694
  0
LINE
  8
Layer1$C$L1
 62
     3
 10
-42.4671214396
 20
169.7055684694
 11
-42.4671214396
 21
172.0563751309
  0
LINE
  8
Layer1$C$L1
 62
     3
 10
-64.4671214396
 20
169.6563751309
 11
-64.4671214396
 21
182.8563751309
  0
LINE
  8
Layer1$C$L1
 62
     3
 10
-31.4671214396
 20
169.0563751309
 11
-36.4671214396
 21
169.0563751309
  0
LINE
  8
Layer1$C$L1
 62
     3
 10
-41.4671214396
 20
167.6563751309
 11
-41.4671214396
 21
172.0563751309
  0
LINE
  8
Layer1$C$L1
 62
     3
 10
-36.4671214396
 20
167.6563751309
 11
-62.4671214396
 21
167.6563751309
  0
LINE
  8
Layer1$C$L1
 62
     3
 10
-31.4671214396
 20
167.2563751309
 11
-36.4671214396
 21
167.2563751309
  0
LINE
  8
Layer1$C$L1
 62
     3
 10
-36.4671214396
 20
164.4563751309
 11
-36.4671214396
 21
181.3563751309
  0
LINE
  8
Layer1$C$L1
 62
     3
 10
-31.4671214396
 20
164.4563751309
 11
-31.4671214396
 21
186.3563751309
  0
LINE
  8
Layer1$C$L1
 62
     3
 10
-31.4671214396
 20
164.4563751309
 11
-36.4671214396
 21
164.4563751309
  0
POLYLINE
  8
Layer1$C$L1
 62
     3
 66
     1
  0
VERTEX
  8
Layer1$C$L1
 62
     3
 10
-42.4671214396
 20
169.7055684694
  0
VERTEX
  8
Layer1$C$L1
 62
     3
 10
-42.2410643616
 20
169.0548793545
  0
VERTEX
  8
Layer1$C$L1
 62
     3
 10
-42.1392234280
 20
168.3605826955
  0
VERTEX
  8
Layer1$C$L1
 62
     3
 10
-42.1665413347
 20
167.6563751309
  0
SEQEND
  8
Layer1$C$L1
 62
     3
  0
ARC
  8
Layer1$C$L1
 62
     3
 10
-140.6671244914
 20
239.5563751309
 40
3.2000000000
 50
169.1930771251
 51
208.9550243719
  0
ARC
  8
Layer1$C$L1
 62
     3
 10
-158.1671244914
 20
239.5563751309
 40
2.3000000000
 50
90.0000000000
 51
156.9643158941
  0
ARC
  8
Layer1$C$L1
 62
     3
 10
-158.1671244914
 20
239.5563751309
 40
3.2000000000
 50
331.0449756281
 51
370.8069228749
  0
ARC
  8
Layer1$C$L1
 62
     3
 10
-157.2671244914
 20
239.5563751309
 40
2.3000000000
 50
270.0000000000
 51
450.0000000000
  0
ARC
  8
Layer1$C$L1
 62
     3
 10
-158.1671244914
 20
239.5563751309
 40
2.3000000000
 50
203.0356841059
 51
270.0000000000
  0
ARC
  8
Layer1$C$L1
 62
     3
 10
-157.7171244914
 20
231.8563751309
 40
2.4000000000
 50
90.0000000000
 51
270.0000000000
  0
CIRCLE
  8
Layer1$C$L1
 62
     3
 10
-149.8171244914
 20
231.8563751309
 40
3.2000000000
  0
ARC
  8
Layer1$C$L1
 62
     3
 10
-158.5671244914
 20
215.7563751309
 40
0.5000000000
 50
90.0000000000
 51
180.0000000000
  0
ARC
  8
Layer1$C$L1
 62
     3
 10
-145.8671244914
 20
215.7563751309
 40
0.5000000000
 50
1.2213329977E-12
 51
90.0000000000
  0
ARC
  8
Layer1$C$L1
 62
     3
 10
-146.7171244914
 20
175.9563751309
 40
2.4000000000
 50
270.0000000000
 51
432.4362360772
  0
ARC
  8
Layer1$C$L1
 62
     3
 10
-146.2671244914
 20
168.1563751309
 40
3.2000000000
 50
151.0449756281
 51
188.9892993452
  0
ARC
  8
Layer1$C$L1
 62
     3
 10
-146.2671244914
 20
168.1563751309
 40
2.3000000000
 50
23.0356841059
 51
336.9643158941
  0
ARC
  8
Layer1$C$L1
 62
     3
 10
-163.7671244914
 20
168.1563751309
 40
3.2000000001
 50
351.0107006557
 51
388.9550243718
  0
ARC
  8
Layer1$C$L1
 62
     3
 10
-155.0671244914
 20
167.6563751309
 40
2.0000000000
 50
180.0000000000
 51
360.0000000000
  0
ARC
  8
Layer1$C$L1
 62
     3
 10
-151.7671244914
 20
165.6563751309
 40
1.0000000000
 50
270.0000000000
 51
360.0000000000
  0
ARC
  8
Layer1$C$L1
 62
     3
 10
-158.3671244914
 20
165.6563751309
 40
1.0000000000
 50
180.0000000000
 51
270.0000000000
  0
LINE
  8
Layer1$C$L1
 62
     3
 10
-151.4671244914
 20
243.2563751309
 11
-160.9671244914
 21
243.2563751309
  0
LINE
  8
Layer1$C$L1
 62
     3
 10
-158.1671244914
 20
241.8563751309
 11
-157.2671244914
 21
241.8563751309
  0
LINE
  8
Layer1$C$L1
 62
     3
 10
-160.2837255402
 20
240.4563751309
 11
-160.9671244914
 21
240.4563751309
  0
LINE
  8
Layer1$C$L1
 62
     3
 10
-160.9671244914
 20
240.4563751309
 11
-160.9671244914
 21
243.2563751309
  0
LINE
  8
Layer1$C$L1
 62
     3
 10
-151.4671244914
 20
240.1563751309
 11
-151.4671244914
 21
243.2563751309
  0
LINE
  8
Layer1$C$L1
 62
     3
 10
-143.4671244914
 20
240.1563751309
 11
-155.0238777623
 21
240.1563751309
  0
LINE
  8
Layer1$C$L1
 62
     3
 10
-160.9671244914
 20
238.6563751309
 11
-160.2837255402
 21
238.6563751309
  0
LINE
  8
Layer1$C$L1
 62
     3
 10
-143.4671244914
 20
238.2329127032
 11
-143.4671244914
 21
240.1563751309
  0
LINE
  8
Layer1$C$L1
 62
     3
 10
-157.2671244914
 20
237.2563751309
 11
-158.1671244914
 21
237.2563751309
  0
LINE
  8
Layer1$C$L1
 62
     3
 10
-157.2171244914
 20
235.7563751309
 11
-155.3671244914
 21
235.7563751309
  0
LINE
  8
Layer1$C$L1
 62
     3
 10
-155.3671244914
 20
235.7563751309
 11
-155.3671244914
 21
238.0071817925
  0
LINE
  8
Layer1$C$L1
 62
     3
 10
-149.8171244914
 20
235.0563751309
 11
-149.8171244914
 21
240.1563751309
  0
LINE
  8
Layer1$C$L1
 62
     3
 10
-157.7171244914
 20
234.2563751309
 11
-157.2171244914
 21
234.2563751309
  0
LINE
  8
Layer1$C$L1
 62
     3
 10
-157.2171244914
 20
234.2563751309
 11
-157.2171244914
 21
235.7563751309
  0
LINE
  8
Layer1$C$L1
 62
     3
 10
-160.9671244914
 20
232.8755587194
 11
-159.8899716588
 21
232.8755587194
  0
LINE
  8
Layer1$C$L1
 62
     3
 10
-157.2171244914
 20
229.4563751309
 11
-157.7171244914
 21
229.4563751309
  0
LINE
  8
Layer1$C$L1
 62
     3
 10
-157.2171244914
 20
227.9563751309
 11
-157.2171244914
 21
229.4563751309
  0
LINE
  8
Layer1$C$L1
 62
     3
 10
-155.3671244914
 20
227.9563751309
 11
-157.2171244914
 21
227.9563751309
  0
LINE
  8
Layer1$C$L1
 62
     3
 10
-151.4671244914
 20
226.5563751309
 11
-149.8171244914
 21
226.5563751309
  0
LINE
  8
Layer1$C$L1
 62
     3
 10
-155.3671244914
 20
226.4563751309
 11
-155.3671244914
 21
235.7563751309
  0
LINE
  8
Layer1$C$L1
 62
     3
 10
-149.8171244914
 20
226.4563751309
 11
-149.8171244914
 21
228.6563751309
  0
LINE
  8
Layer1$C$L1
 62
     3
 10
-160.9671244914
 20
226.4563751309
 11
-143.4671244914
 21
226.4563751309
  0
LINE
  8
Layer1$C$L1
 62
     3
 10
-151.4671244914
 20
216.2563751309
 11
-151.4671244914
 21
226.5563751309
  0
LINE
  8
Layer1$C$L1
 62
     3
 10
-159.0671244914
 20
216.2563751309
 11
-145.3671244914
 21
216.2563751309
  0
LINE
  8
Layer1$C$L1
 62
     3
 10
-148.4671244914
 20
214.7563751309
 11
-146.9671244914
 21
214.7563751309
  0
LINE
  8
Layer1$C$L1
 62
     3
 10
-154.4671244914
 20
214.7563751309
 11
-152.9671244914
 21
214.7563751309
  0
LINE
  8
Layer1$C$L1
 62
     3
 10
-151.4671244914
 20
214.7563751309
 11
-149.9671244914
 21
214.7563751309
  0
LINE
  8
Layer1$C$L1
 62
     3
 10
-157.4671244914
 20
214.7563751309
 11
-155.9671244914
 21
214.7563751309
  0
LINE
  8
Layer1$C$L1
 62
     3
 10
-148.4671244914
 20
213.2563751309
 11
-148.4671244914
 21
214.7563751309
  0
LINE
  8
Layer1$C$L1
 62
     3
 10
-155.9671244914
 20
213.2563751309
 11
-155.9671244914
 21
214.7563751309
  0
LINE
  8
Layer1$C$L1
 62
     3
 10
-151.4671244914
 20
213.2563751309
 11
-151.4671244914
 21
214.7563751309
  0
LINE
  8
Layer1$C$L1
 62
     3
 10
-157.4671244914
 20
213.2563751309
 11
-157.4671244914
 21
214.7563751309
  0
LINE
  8
Layer1$C$L1
 62
     3
 10
-149.9671244914
 20
213.2563751309
 11
-151.4671244914
 21
213.2563751309
  0
LINE
  8
Layer1$C$L1
 62
     3
 10
-152.9671244914
 20
213.2563751309
 11
-154.4671244914
 21
213.2563751309
  0
LINE
  8
Layer1$C$L1
 62
     3
 10
-149.9671244914
 20
213.2563751309
 11
-149.9671244914
 21
214.7563751309
  0
LINE
  8
Layer1$C$L1
 62
     3
 10
-155.9671244914
 20
213.2563751309
 11
-157.4671244914
 21
213.2563751309
  0
LINE
  8
Layer1$C$L1
 62
     3
 10
-152.9671244914
 20
213.2563751309
 11
-152.9671244914
 21
214.7563751309
  0
LINE
  8
Layer1$C$L1
 62
     3
 10
-154.4671244914
 20
213.2563751309
 11
-154.4671244914
 21
214.7563751309
  0
LINE
  8
Layer1$C$L1
 62
     3
 10
-146.9671244914
 20
213.2563751309
 11
-146.9671244914
 21
214.7563751309
  0
LINE
  8
Layer1$C$L1
 62
     3
 10
-146.9671244914
 20
213.2563751309
 11
-148.4671244914
 21
213.2563751309
  0
LINE
  8
Layer1$C$L1
 62
     3
 10
-159.3671244914
 20
211.8430678392
 11
-159.0671244914
 21
211.8430678392
  0
LINE
  8
Layer1$C$L1
 62
     3
 10
-145.3671244914
 20
211.8430678392
 11
-145.0671244914
 21
211.8430678392
  0
LINE
  8
Layer1$C$L1
 62
     3
 10
-151.4671244914
 20
211.7563751309
 11
-149.9671244914
 21
211.7563751309
  0
LINE
  8
Layer1$C$L1
 62
     3
 10
-157.4671244914
 20
211.7563751309
 11
-155.9671244914
 21
211.7563751309
  0
LINE
  8
Layer1$C$L1
 62
     3
 10
-148.4671244914
 20
211.7563751309
 11
-146.9671244914
 21
211.7563751309
  0
LINE
  8
Layer1$C$L1
 62
     3
 10
-154.4671244914
 20
211.7563751309
 11
-152.9671244914
 21
211.7563751309
  0
LINE
  8
Layer1$C$L1
 62
     3
 10
-149.9671244914
 20
210.2563751309
 11
-149.9671244914
 21
211.7563751309
  0
LINE
  8
Layer1$C$L1
 62
     3
 10
-152.9671244914
 20
210.2563751309
 11
-152.9671244914
 21
211.7563751309
  0
LINE
  8
Layer1$C$L1
 62
     3
 10
-157.4671244914
 20
210.2563751309
 11
-155.9671244914
 21
210.2563751309
  0
LINE
  8
Layer1$C$L1
 62
     3
 10
-157.4671244914
 20
210.2563751309
 11
-157.4671244914
 21
211.7563751309
  0
LINE
  8
Layer1$C$L1
 62
     3
 10
-148.4671244914
 20
210.2563751309
 11
-148.4671244914
 21
211.7563751309
  0
LINE
  8
Layer1$C$L1
 62
     3
 10
-151.4671244914
 20
210.2563751309
 11
-149.9671244914
 21
210.2563751309
  0
LINE
  8
Layer1$C$L1
 62
     3
 10
-151.4671244914
 20
210.2563751309
 11
-151.4671244914
 21
211.7563751309
  0
LINE
  8
Layer1$C$L1
 62
     3
 10
-148.4671244914
 20
210.2563751309
 11
-146.9671244914
 21
210.2563751309
  0
LINE
  8
Layer1$C$L1
 62
     3
 10
-154.4671244914
 20
210.2563751309
 11
-152.9671244914
 21
210.2563751309
  0
LINE
  8
Layer1$C$L1
 62
     3
 10
-155.9671244914
 20
210.2563751309
 11
-155.9671244914
 21
211.7563751309
  0
LINE
  8
Layer1$C$L1
 62
     3
 10
-146.9671244914
 20
210.2563751309
 11
-146.9671244914
 21
211.7563751309
  0
LINE
  8
Layer1$C$L1
 62
     3
 10
-154.4671244914
 20
210.2563751309
 11
-154.4671244914
 21
211.7563751309
  0
LINE
  8
Layer1$C$L1
 62
     3
 10
-145.0671244914
 20
210.1316601419
 11
-145.3671244914
 21
210.1316601419
  0
LINE
  8
Layer1$C$L1
 62
     3
 10
-159.0671244914
 20
210.1316601419
 11
-159.3671244914
 21
210.1316601419
  0
LINE
  8
Layer1$C$L1
 62
     3
 10
-145.3671244914
 20
208.2599320204
 11
-145.3671244914
 21
216.2563751309
  0
LINE
  8
Layer1$C$L1
 62
     3
 10
-145.3671244914
 20
208.2599320204
 11
-147.1671244914
 21
208.2599320204
  0
LINE
  8
Layer1$C$L1
 62
     3
 10
-159.0671244914
 20
208.2599320204
 11
-159.0671244914
 21
216.2563751309
  0
LINE
  8
Layer1$C$L1
 62
     3
 10
-157.2671244914
 20
208.2599320204
 11
-159.0671244914
 21
208.2599320204
  0
LINE
  8
Layer1$C$L1
 62
     3
 10
-143.4671244914
 20
207.3298514236
 11
-143.7671244914
 21
207.3298514236
  0
LINE
  8
Layer1$C$L1
 62
     3
 10
-160.6671244914
 20
207.3298514236
 11
-160.9671244914
 21
207.3298514236
  0
LINE
  8
Layer1$C$L1
 62
     3
 10
-160.6671244914
 20
206.6936104749
 11
-160.6671244914
 21
207.3298514236
  0
LINE
  8
Layer1$C$L1
 62
     3
 10
-145.0671244914
 20
206.6936104749
 11
-145.0671244914
 21
226.4563751309
  0
LINE
  8
Layer1$C$L1
 62
     3
 10
-159.3671244914
 20
206.6936104749
 11
-160.6671244914
 21
206.6936104749
  0
LINE
  8
Layer1$C$L1
 62
     3
 10
-143.7671244914
 20
206.6936104749
 11
-145.0671244914
 21
206.6936104749
  0
LINE
  8
Layer1$C$L1
 62
     3
 10
-143.7671244914
 20
206.6936104749
 11
-143.7671244914
 21
207.3298514236
  0
LINE
  8
Layer1$C$L1
 62
     3
 10
-159.3671244914
 20
206.6936104749
 11
-159.3671244914
 21
226.4563751309
  0
LINE
  8
Layer1$C$L1
 62
     3
 10
-157.4671244914
 20
205.4563751309
 11
-157.2671244914
 21
205.4563751309
  0
LINE
  8
Layer1$C$L1
 62
     3
 10
-147.1671244914
 20
205.4563751309
 11
-146.9671244914
 21
205.4563751309
  0
LINE
  8
Layer1$C$L1
 62
     3
 10
-157.2671244914
 20
205.2563751309
 11
-157.3671244914
 21
205.2563751309
  0
LINE
  8
Layer1$C$L1
 62
     3
 10
-147.0671244914
 20
205.2563751309
 11
-147.1671244914
 21
205.2563751309
  0
LINE
  8
Layer1$C$L1
 62
     3
 10
-157.2671244914
 20
204.4563751309
 11
-157.3671244914
 21
204.4563751309
  0
LINE
  8
Layer1$C$L1
 62
     3
 10
-147.0671244914
 20
204.4563751309
 11
-147.1671244914
 21
204.4563751309
  0
LINE
  8
Layer1$C$L1
 62
     3
 10
-160.9671244914
 20
203.9563751309
 11
-158.2671244914
 21
203.9563751309
  0
LINE
  8
Layer1$C$L1
 62
     3
 10
-146.1671244914
 20
203.9563751309
 11
-143.4671244914
 21
203.9563751309
  0
LINE
  8
Layer1$C$L1
 62
     3
 10
-146.1671244914
 20
203.4756244564
 11
-145.0671244914
 21
203.4756244564
  0
LINE
  8
Layer1$C$L1
 62
     3
 10
-159.3671244914
 20
203.4756244564
 11
-158.2671244914
 21
203.4756244564
  0
LINE
  8
Layer1$C$L1
 62
     3
 10
-143.4671244914
 20
203.4563751309
 11
-145.0671244914
 21
203.4563751309
  0
LINE
  8
Layer1$C$L1
 62
     3
 10
-159.3671244914
 20
203.4563751309
 11
-160.9671244914
 21
203.4563751309
  0
LINE
  8
Layer1$C$L1
 62
     3
 10
-143.4671244914
 20
201.4563751309
 11
-145.0671244914
 21
201.4563751309
  0
LINE
  8
Layer1$C$L1
 62
     3
 10
-159.3671244914
 20
201.4563751309
 11
-160.9671244914
 21
201.4563751309
  0
LINE
  8
Layer1$C$L1
 62
     3
 10
-145.0671244914
 20
201.4371258054
 11
-146.1671244914
 21
201.4371258054
  0
LINE
  8
Layer1$C$L1
 62
     3
 10
-145.0671244914
 20
201.4371258054
 11
-145.0671244914
 21
203.4756244564
  0
LINE
  8
Layer1$C$L1
 62
     3
 10
-145.1671244914
 20
201.4371258054
 11
-145.1671244914
 21
203.4756244564
  0
LINE
  8
Layer1$C$L1
 62
     3
 10
-159.2671244914
 20
201.4371258054
 11
-159.2671244914
 21
203.4756244564
  0
LINE
  8
Layer1$C$L1
 62
     3
 10
-158.2671244914
 20
201.4371258054
 11
-159.3671244914
 21
201.4371258054
  0
LINE
  8
Layer1$C$L1
 62
     3
 10
-159.3671244914
 20
201.4371258054
 11
-159.3671244914
 21
203.4756244564
  0
LINE
  8
Layer1$C$L1
 62
     3
 10
-158.2671244914
 20
200.9563751309
 11
-158.2671244914
 21
203.9563751309
  0
LINE
  8
Layer1$C$L1
 62
     3
 10
-146.1671244914
 20
200.9563751309
 11
-146.1671244914
 21
203.9563751309
  0
LINE
  8
Layer1$C$L1
 62
     3
 10
-160.9671244914
 20
200.9563751309
 11
-158.2671244914
 21
200.9563751309
  0
LINE
  8
Layer1$C$L1
 62
     3
 10
-146.1671244914
 20
200.9563751309
 11
-143.4671244914
 21
200.9563751309
  0
LINE
  8
Layer1$C$L1
 62
     3
 10
-157.3671244914
 20
200.4563751309
 11
-157.3671244914
 21
205.2563751309
  0
LINE
  8
Layer1$C$L1
 62
     3
 10
-157.2671244914
 20
200.4563751309
 11
-157.3671244914
 21
200.4563751309
  0
LINE
  8
Layer1$C$L1
 62
     3
 10
-147.0671244914
 20
200.4563751309
 11
-147.0671244914
 21
205.2563751309
  0
LINE
  8
Layer1$C$L1
 62
     3
 10
-147.0671244914
 20
200.4563751309
 11
-147.1671244914
 21
200.4563751309
  0
LINE
  8
Layer1$C$L1
 62
     3
 10
-157.2671244914
 20
198.4563751309
 11
-157.4671244914
 21
198.4563751309
  0
LINE
  8
Layer1$C$L1
 62
     3
 10
-146.9671244914
 20
198.4563751309
 11
-147.1671244914
 21
198.4563751309
  0
LINE
  8
Layer1$C$L1
 62
     3
 10
-143.7671244914
 20
198.2191397869
 11
-146.9671244914
 21
198.2191397869
  0
LINE
  8
Layer1$C$L1
 62
     3
 10
-157.4671244914
 20
198.2191397869
 11
-160.6671244914
 21
198.2191397869
  0
LINE
  8
Layer1$C$L1
 62
     3
 10
-157.3671244914
 20
198.1262481120
 11
-157.4671244914
 21
198.1262481120
  0
LINE
  8
Layer1$C$L1
 62
     3
 10
-146.9671244914
 20
198.1262481120
 11
-147.0671244914
 21
198.1262481120
  0
LINE
  8
Layer1$C$L1
 62
     3
 10
-143.4671244914
 20
197.5828988383
 11
-143.7671244914
 21
197.5828988383
  0
LINE
  8
Layer1$C$L1
 62
     3
 10
-143.7671244914
 20
197.5828988383
 11
-143.7671244914
 21
198.2191397869
  0
LINE
  8
Layer1$C$L1
 62
     3
 10
-160.6671244914
 20
197.5828988383
 11
-160.9671244914
 21
197.5828988383
  0
LINE
  8
Layer1$C$L1
 62
     3
 10
-160.6671244914
 20
197.5828988383
 11
-160.6671244914
 21
198.2191397869
  0
LINE
  8
Layer1$C$L1
 62
     3
 10
-157.3671244914
 20
197.4563751309
 11
-157.4671244914
 21
197.4563751309
  0
LINE
  8
Layer1$C$L1
 62
     3
 10
-157.3671244914
 20
197.2645630438
 11
-157.4671244914
 21
197.2645630438
  0
LINE
  8
Layer1$C$L1
 62
     3
 10
-157.4671244914
 20
196.9563751309
 11
-157.4671244914
 21
208.2599320204
  0
LINE
  8
Layer1$C$L1
 62
     3
 10
-146.9671244914
 20
196.9563751309
 11
-146.9671244914
 21
208.2599320204
  0
LINE
  8
Layer1$C$L1
 62
     3
 10
-157.3671244914
 20
196.9563751309
 11
-157.3671244914
 21
198.4563751309
  0
LINE
  8
Layer1$C$L1
 62
     3
 10
-157.4671244914
 20
196.9563751309
 11
-146.9671244914
 21
196.9563751309
  0
LINE
  8
Layer1$C$L1
 62
     3
 10
-147.1671244914
 20
196.9563751309
 11
-147.1671244914
 21
208.8563751309
  0
LINE
  8
Layer1$C$L1
 62
     3
 10
-157.2671244914
 20
196.9563751309
 11
-157.2671244914
 21
208.8563751309
  0
LINE
  8
Layer1$C$L1
 62
     3
 10
-147.0671244914
 20
196.9563751309
 11
-147.0671244914
 21
198.4563751309
  0
LINE
  8
Layer1$C$L1
 62
     3
 10
-151.4671244914
 20
187.4563751309
 11
-151.4671244914
 21
196.9563751309
  0
LINE
  8
Layer1$C$L1
 62
     3
 10
-158.7171244914
 20
187.3563751309
 11
-158.7171244914
 21
187.4563751309
  0
LINE
  8
Layer1$C$L1
 62
     3
 10
-157.8671244914
 20
187.3563751309
 11
-157.8671244914
 21
187.4563751309
  0
LINE
  8
Layer1$C$L1
 62
     3
 10
-157.2171244914
 20
187.3563751309
 11
-157.2171244914
 21
187.4563751309
  0
LINE
  8
Layer1$C$L1
 62
     3
 10
-151.0171244914
 20
187.3563751309
 11
-151.0171244914
 21
188.5063751309
  0
LINE
  8
Layer1$C$L1
 62
     3
 10
-157.3671244914
 20
187.3563751309
 11
-157.3671244914
 21
187.4563751309
  0
LINE
  8
Layer1$C$L1
 62
     3
 10
-154.6337336861
 20
187.3563751309
 11
-154.9097068949
 21
187.4563751309
  0
LINE
  8
Layer1$C$L1
 62
     3
 10
-154.6171244914
 20
179.1563751309
 11
-154.6171244914
 21
179.2563747930
  0
LINE
  8
Layer1$C$L1
 62
     3
 10
-146.7171244914
 20
173.5563751309
 11
-147.2171244914
 21
173.5563751309
  0
LINE
  8
Layer1$C$L1
 62
     3
 10
-147.2171244914
 20
172.0563751309
 11
-149.0671244914
 21
172.0563751309
  0
LINE
  8
Layer1$C$L1
 62
     3
 10
-147.2171244914
 20
172.0563751309
 11
-147.2171244914
 21
173.5563751309
  0
LINE
  8
Layer1$C$L1
 62
     3
 10
-160.9671244914
 20
169.7055684694
 11
-160.9671244914
 21
238.6563751309
  0
LINE
  8
Layer1$C$L1
 62
     3
 10
-149.0671244914
 20
169.7055684694
 11
-149.0671244914
 21
178.2444912292
  0
LINE
  8
Layer1$C$L1
 62
     3
 10
-143.4671244914
 20
169.0563751309
 11
-143.4671244914
 21
238.0071817925
  0
LINE
  8
Layer1$C$L1
 62
     3
 10
-143.4671244914
 20
169.0563751309
 11
-144.1505234425
 21
169.0563751309
  0
LINE
  8
Layer1$C$L1
 62
     3
 10
-160.9671244914
 20
167.6563751309
 11
-160.9671244914
 21
169.5257957872
  0
LINE
  8
Layer1$C$L1
 62
     3
 10
-149.4278206172
 20
167.6563751309
 11
-160.9671244914
 21
167.6563751309
  0
LINE
  8
Layer1$C$L1
 62
     3
 10
-154.6171244914
 20
167.6563751309
 11
-154.6171244914
 21
172.7563751309
  0
LINE
  8
Layer1$C$L1
 62
     3
 10
-144.1505234425
 20
167.2563751309
 11
-143.4671244914
 21
167.2563751309
  0
LINE
  8
Layer1$C$L1
 62
     3
 10
-159.3671244914
 20
165.6563751309
 11
-159.3671244914
 21
167.6563751309
  0
LINE
  8
Layer1$C$L1
 62
     3
 10
-150.7671244914
 20
165.6563751309
 11
-150.7671244914
 21
167.6563751309
  0
LINE
  8
Layer1$C$L1
 62
     3
 10
-158.3671244914
 20
164.6563751309
 11
-151.7671244914
 21
164.6563751309
  0
LINE
  8
Layer1$C$L1
 62
     3
 10
-150.6671244914
 20
164.4563751309
 11
-143.4671244914
 21
164.4563751309
  0
LINE
  8
Layer1$C$L1
 62
     3
 10
-143.4671244914
 20
164.4563751309
 11
-143.4671244914
 21
167.2563751309
  0
LINE
  8
Layer1$C$L1
 62
     3
 10
-150.6671244914
 20
164.4563751309
 11
-150.6671244914
 21
167.6563751309
  0
POLYLINE
  8
Layer1$C$L1
 62
     3
 66
     1
  0
VERTEX
  8
Layer1$C$L1
 62
     3
 10
-143.6671244914
 20
188.4063751309
  0
VERTEX
  8
Layer1$C$L1
 62
     3
 10
-143.6281064270
 20
188.4073795328
  0
VERTEX
  8
Layer1$C$L1
 62
     3
 10
-143.5905878049
 20
188.4103541397
  0
VERTEX
  8
Layer1$C$L1
 62
     3
 10
-143.5560104448
 20
188.4151846393
  0
VERTEX
  8
Layer1$C$L1
 62
     3
 10
-143.5257031351
 20
188.4216853981
  0
VERTEX
  8
Layer1$C$L1
 62
     3
 10
-143.5008305689
 20
188.4296065955
  0
VERTEX
  8
Layer1$C$L1
 62
     3
 10
-143.4823485849
 20
188.4386438246
  0
VERTEX
  8
Layer1$C$L1
 62
     3
 10
-143.4709674353
 20
188.4484497895
  0
VERTEX
  8
Layer1$C$L1
 62
     3
 10
-143.4671244914
 20
188.4586476525
  0
SEQEND
  8
Layer1$C$L1
 62
     3
  0
POLYLINE
  8
Layer1$C$L1
 62
     3
 66
     1
  0
VERTEX
  8
Layer1$C$L1
 62
     3
 10
-158.5671244914
 20
208.8563751309
  0
VERTEX
  8
Layer1$C$L1
 62
     3
 10
-158.6306929002
 20
208.8524803117
  0
VERTEX
  8
Layer1$C$L1
 62
     3
 10
-158.7527192822
 20
208.8220820394
  0
VERTEX
  8
Layer1$C$L1
 62
     3
 10
-158.8598017682
 20
208.7655319205
  0
VERTEX
  8
Layer1$C$L1
 62
     3
 10
-158.9792479106
 20
208.6480565005
  0
VERTEX
  8
Layer1$C$L1
 62
     3
 10
-159.0584263632
 20
208.4651023118
  0
VERTEX
  8
Layer1$C$L1
 62
     3
 10
-159.0671244914
 20
208.3757378863
  0
SEQEND
  8
Layer1$C$L1
 62
     3
  0
POLYLINE
  8
Layer1$C$L1
 62
     3
 66
     1
  0
VERTEX
  8
Layer1$C$L1
 62
     3
 10
-145.3671244914
 20
208.3757378863
  0
VERTEX
  8
Layer1$C$L1
 62
     3
 10
-145.3784580306
 20
208.4776065021
  0
VERTEX
  8
Layer1$C$L1
 62
     3
 10
-145.4824238925
 20
208.6829094289
  0
VERTEX
  8
Layer1$C$L1
 62
     3
 10
-145.5998165991
 20
208.7820110295
  0
VERTEX
  8
Layer1$C$L1
 62
     3
 10
-145.7254473376
 20
208.8367030273
  0
VERTEX
  8
Layer1$C$L1
 62
     3
 10
-145.8671244914
 20
208.8563751309
  0
SEQEND
  8
Layer1$C$L1
 62
     3
  0
LINE
  8
Layer1$C$L1
 62
     3
 10
-152.9603729681
 20
232.4563659757
 11
-151.1671305949
 21
232.4563659757
  0
LINE
  8
Layer1$C$L1
 62
     3
 10
-152.9603700554
 20
231.2563690274
 11
-151.1671305949
 21
231.2563690274
  0
LINE
  8
Layer1$C$L1
 62
     3
 10
-149.2171183879
 20
229.4063781827
 11
-149.2171183879
 21
230.5063690274
  0
LINE
  8
Layer1$C$L1
 62
     3
 10
-150.4171305949
 20
229.4063781827
 11
-150.4171305949
 21
230.5063690274
  0
LINE
  8
Layer1$C$L1
 62
     3
 10
-150.4171305949
 20
234.3063720792
 11
-149.2171183879
 21
234.3063720792
  0
LINE
  8
Layer1$C$L1
 62
     3
 10
-150.4171305949
 20
229.4063781827
 11
-149.2171183879
 21
229.4063781827
  0
LINE
  8
Layer1$C$L1
 62
     3
 10
-152.2671214396
 20
231.2563690274
 11
-152.2671214396
 21
232.4563659757
  0
LINE
  8
Layer1$C$L1
 62
     3
 10
-147.3671275431
 20
231.2563690274
 11
-147.3671275431
 21
232.4563659757
  0
LINE
  8
Layer1$C$L1
 62
     3
 10
-150.4171305949
 20
233.2063659757
 11
-150.4171305949
 21
234.3063720792
  0
LINE
  8
Layer1$C$L1
 62
     3
 10
-148.4671183879
 20
231.2563690274
 11
-146.6738789274
 21
231.2563690274
  0
LINE
  8
Layer1$C$L1
 62
     3
 10
-148.4671183879
 20
232.4563659757
 11
-146.6738760147
 21
232.4563659757
  0
LINE
  8
Layer1$C$L1
 62
     3
 10
-149.2171183879
 20
233.2063659757
 11
-149.2171183879
 21
234.3063720792
  0
ARC
  8
Layer1$C$L1
 62
     3
 10
-151.1671305949
 20
230.5063690274
 40
0.7500000000
 50
0.0000000000
 51
89.9999820139
  0
ARC
  8
Layer1$C$L1
 62
     3
 10
-148.4671183879
 20
230.5063690274
 40
0.7500000000
 50
89.9999820139
 51
179.9999640278
  0
ARC
  8
Layer1$C$L1
 62
     3
 10
-148.4671183879
 20
233.2063659757
 40
0.7500000000
 50
179.9999640278
 51
269.9999460417
  0
ARC
  8
Layer1$C$L1
 62
     3
 10
-151.1671305949
 20
233.2063659757
 40
0.7500000000
 50
270.0000179861
 51
360.0000000000
  0
LINE
  8
Layer1$C$L1
 62
     3
 10
-157.7603729681
 20
176.5563659757
 11
-155.9671305949
 21
176.5563659757
  0
LINE
  8
Layer1$C$L1
 62
     3
 10
-157.7603700554
 20
175.3563690274
 11
-155.9671305949
 21
175.3563690274
  0
LINE
  8
Layer1$C$L1
 62
     3
 10
-154.0171183879
 20
173.5063781827
 11
-154.0171183879
 21
174.6063690274
  0
LINE
  8
Layer1$C$L1
 62
     3
 10
-155.2171305949
 20
173.5063781827
 11
-155.2171305949
 21
174.6063690274
  0
LINE
  8
Layer1$C$L1
 62
     3
 10
-155.2171305949
 20
178.4063720792
 11
-154.0171183879
 21
178.4063720792
  0
LINE
  8
Layer1$C$L1
 62
     3
 10
-155.2171305949
 20
173.5063781827
 11
-154.0171183879
 21
173.5063781827
  0
LINE
  8
Layer1$C$L1
 62
     3
 10
-157.0671214396
 20
175.3563690274
 11
-157.0671214396
 21
176.5563659757
  0
LINE
  8
Layer1$C$L1
 62
     3
 10
-152.1671275431
 20
175.3563690274
 11
-152.1671275431
 21
176.5563659757
  0
LINE
  8
Layer1$C$L1
 62
     3
 10
-155.2171305949
 20
177.3063659757
 11
-155.2171305949
 21
178.4063720792
  0
LINE
  8
Layer1$C$L1
 62
     3
 10
-153.2671183879
 20
175.3563690274
 11
-151.4738789274
 21
175.3563690274
  0
LINE
  8
Layer1$C$L1
 62
     3
 10
-153.2671183879
 20
176.5563659757
 11
-151.4738760147
 21
176.5563659757
  0
LINE
  8
Layer1$C$L1
 62
     3
 10
-154.0171183879
 20
177.3063659757
 11
-154.0171183879
 21
178.4063720792
  0
ARC
  8
Layer1$C$L1
 62
     3
 10
-155.9671305949
 20
174.6063690274
 40
0.7500000000
 50
0.0000000000
 51
89.9999820139
  0
ARC
  8
Layer1$C$L1
 62
     3
 10
-153.2671183879
 20
174.6063690274
 40
0.7500000000
 50
89.9999820139
 51
179.9999640278
  0
ARC
  8
Layer1$C$L1
 62
     3
 10
-153.2671183879
 20
177.3063659757
 40
0.7500000000
 50
179.9999640278
 51
269.9999460417
  0
ARC
  8
Layer1$C$L1
 62
     3
 10
-155.9671305949
 20
177.3063659757
 40
0.7500000000
 50
270.0000179861
 51
360.0000000000
  0
ARC
  8
Layer1$C$L1
  6
DASH
 62
     3
 10
-28.4553290020
 20
331.1520805521
 40
147.0000000000
 50
239.6132805004
 51
241.6907010522
  0
ARC
  8
Layer1$C$L1
  6
DASH
 62
     3
 10
-28.4553290023
 20
331.1520805516
 40
149.9999999994
 50
239.7910745217
 51
243.0735247323
  0
ARC
  8
Layer1$C$L1
  6
DASH
 62
     3
 10
-88.4671221692
 20
202.4563747930
 40
9.3000000000
 50
188.9565134760
 51
206.3883584935
  0
ARC
  8
Layer1$C$L1
  6
DASH
 62
     3
 10
-103.8278845431
 20
201.6954551087
 40
0.2000000000
 50
155.0000000000
 51
239.7910745218
  0
ARC
  8
Layer1$C$L1
  6
DASH
 62
     3
 10
-98.6415320774
 20
200.8528215449
 40
1.0000000000
 50
8.9565134760
 51
61.6907010522
  0
LINE
  8
Layer1$C$L1
  6
DASH
 62
     3
 10
-102.8989633605
 20
204.1607733301
 11
-102.8129019850
 21
204.3453325453
  0
LINE
  8
Layer1$C$L1
  6
DASH
 62
     3
 10
-102.8118076177
 20
203.1645786320
 11
-102.8989633605
 21
204.1607733301
  0
LINE
  8
Layer1$C$L1
  6
DASH
 62
     3
 10
-103.3869608948
 20
203.1142592404
 11
-102.8118076177
 21
203.1645786320
  0
LINE
  8
Layer1$C$L1
  6
DASH
 62
     3
 10
-103.2998051521
 20
202.1180645423
 11
-103.3869608948
 21
203.1142592404
  0
LINE
  8
Layer1$C$L1
  6
DASH
 62
     3
 10
-103.8749584292
 20
202.0677451508
 11
-103.2998051521
 21
202.1180645423
  0
LINE
  8
Layer1$C$L1
  6
DASH
 62
     3
 10
-104.0091461005
 20
201.7799787611
 11
-103.8749584292
 21
202.0677451508
  0
LINE
  8
Layer1$C$L1
  6
DASH
 62
     3
 10
-97.2192357481
 20
200.3586360337
 11
-97.5630816093
 21
200.5189739920
  0
LINE
  8
Layer1$C$L1
  6
DASH
 62
     3
 10
-97.5907103356
 20
198.0344669623
 11
-96.7980815494
 21
198.3229602474
  0
LINE
  8
Layer1$C$L1
 62
     3
 10
-158.5671244914
 20
208.8563751309
 11
-145.8671244914
 21
208.8563751309
  0
ARC
  8
Layer1$C$L1
 62
     3
 10
-173.0153622886
 20
207.4659596724
 40
36.8121587510
 50
316.3896442968
 51
317.3488807703
  0
ARC
  8
Layer1$C$L1
 62
     3
 10
-159.2864689534
 20
186.4757192550
 40
0.2000000000
 50
96.5198017517
 51
173.4801982483
  0
ARC
  8
Layer1$C$L1
 62
     3
 10
-153.3477800294
 20
186.4757192550
 40
0.2000000000
 50
6.5198017517
 51
83.4801982483
  0
ARC
  8
Layer1$C$L1
 62
     3
 10
-148.0905057929
 20
185.9850060777
 40
3.0674444567
 50
8.2291603250
 51
40.3900101214
  0
ARC
  8
Layer1$C$L1
 62
     3
 10
-148.0316036376
 20
185.8416229250
 40
2.9974581459
 50
12.4121649831
 51
41.5230803561
  0
ARC
  8
Layer1$C$L1
 62
     3
 10
-148.8310178257
 20
185.6721377763
 40
2.3749525235
 50
194.5269172647
 51
221.9314667299
  0
ARC
  8
Layer1$C$L1
 62
     3
 10
-148.2714202704
 20
185.4995947001
 40
2.7547411226
 50
195.2452803533
 51
215.1626466977
  0
ARC
  8
Layer1$C$L1
 62
     3
 10
-156.3171244914
 20
183.5063747930
 40
3.1000000000
 50
45.9286707505
 51
76.3873745984
  0
ARC
  8
Layer1$C$L1
 62
     3
 10
-156.3171244914
 20
183.5063747930
 40
2.9081369033
 50
214.1440345515
 51
235.8559654485
  0
ARC
  8
Layer1$C$L1
 62
     3
 10
-156.3171244914
 20
183.5063747930
 40
1.9000000000
 50
122.1050717473
 51
147.8949282527
  0
ARC
  8
Layer1$C$L1
 62
     3
 10
-156.3171244914
 20
183.5063747930
 40
3.1000000000
 50
85.7226080881
 51
184.2773919119
  0
CIRCLE
  8
Layer1$C$L1
 62
     3
 10
-156.3171244914
 20
183.5063747930
 40
3.0000000000
  0
ARC
  8
Layer1$C$L1
 62
     3
 10
-156.3171244914
 20
183.5063747930
 40
3.1000000000
 50
265.7226080881
 51
364.2773919119
  0
CIRCLE
  8
Layer1$C$L1
 62
     3
 10
-156.3171244914
 20
183.5063747930
 40
0.2000000000
  0
ARC
  8
Layer1$C$L1
 62
     3
 10
-156.3171244914
 20
183.5063747930
 40
3.1000000000
 50
193.6126254016
 51
256.3873745984
  0
ARC
  8
Layer1$C$L1
 62
     3
 10
-156.3171244914
 20
183.5063747930
 40
1.9000000000
 50
302.1050717473
 51
327.8949282527
  0
ARC
  8
Layer1$C$L1
 62
     3
 10
-156.3171244914
 20
183.5063747930
 40
2.9081369033
 50
34.1440345515
 51
55.8559654485
  0
ARC
  8
Layer1$C$L1
 62
     3
 10
-156.3171244914
 20
183.5063747930
 40
3.1000000000
 50
13.6126254017
 51
44.0803396533
  0
ARC
  8
Layer1$C$L1
 62
     3
 10
-148.3148263587
 20
181.6628499182
 40
2.9023025370
 50
162.0618358953
 51
179.6821121164
  0
ARC
  8
Layer1$C$L1
 62
     3
 10
-148.8310178257
 20
181.3921012641
 40
2.3749525235
 50
194.5269172647
 51
221.9314667299
  0
ARC
  8
Layer1$C$L1
 62
     3
 10
-148.2714202704
 20
181.2195581879
 40
2.7547411226
 50
195.2452803533
 51
215.1626466977
  0
ARC
  8
Layer1$C$L1
 62
     3
 10
-159.2864689534
 20
180.5370303310
 40
0.2000000000
 50
186.5198017517
 51
263.4801982483
  0
ARC
  8
Layer1$C$L1
 62
     3
 10
-153.3477800294
 20
180.5370303310
 40
0.2000000000
 50
276.5198017517
 51
353.4801982483
  0
LINE
  8
Layer1$C$L1
 62
     3
 10
-151.4671244914
 20
188.5063747930
 11
-143.4671244914
 21
188.5063747930
  0
LINE
  8
Layer1$C$L1
 62
     3
 10
-151.0171244914
 20
188.4063747930
 11
-143.4671244914
 21
188.4063747930
  0
LINE
  8
Layer1$C$L1
 62
     3
 10
-146.1098299147
 20
188.3162980823
 11
-146.4561691083
 21
188.5063747930
  0
LINE
  8
Layer1$C$L1
 62
     3
 10
-146.0719906540
 20
188.1035573204
 11
-146.7780572273
 21
188.5063747930
  0
LINE
  8
Layer1$C$L1
 62
     3
 10
-146.1934215115
 20
187.9862641190
 11
-146.0719906540
 21
188.1035573204
  0
LINE
  8
Layer1$C$L1
 62
     3
 10
-144.6171244914
 20
187.8026935655
 11
-144.5671244914
 21
187.8026935655
  0
LINE
  8
Layer1$C$L1
 62
     3
 10
-145.9025656986
 20
187.7175005388
 11
-145.7874404812
 21
187.8287029595
  0
LINE
  8
Layer1$C$L1
 62
     3
 10
-144.7671244914
 20
187.6455439013
 11
-144.8617327434
 21
188.5063747930
  0
LINE
  8
Layer1$C$L1
 62
     3
 10
-151.4671244914
 20
187.6455439013
 11
-151.3725162393
 21
188.5063747930
  0
LINE
  8
Layer1$C$L1
 62
     3
 10
-160.9671244914
 20
187.4563747930
 11
-151.4671244914
 21
187.4563747930
  0
LINE
  8
Layer1$C$L1
 62
     3
 10
-144.7671244914
 20
187.3867248562
 11
-145.9262714013
 21
188.5063747930
  0
LINE
  8
Layer1$C$L1
 62
     3
 10
-144.7671244914
 20
187.3867248562
 11
-144.8901778396
 21
188.5063747930
  0
LINE
  8
Layer1$C$L1
 62
     3
 10
-151.4671244914
 20
187.3867248562
 11
-151.3440711432
 21
188.5063747930
  0
LINE
  8
Layer1$C$L1
 62
     3
 10
-151.4671244914
 20
187.3867248562
 11
-150.3079775814
 21
188.5063747930
  0
LINE
  8
Layer1$C$L1
 62
     3
 10
-160.4671244914
 20
187.3563747930
 11
-160.4671244914
 21
187.4563751309
  0
LINE
  8
Layer1$C$L1
 62
     3
 10
-160.9671244914
 20
187.3563747930
 11
-151.0171244914
 21
187.3563747930
  0
LINE
  8
Layer1$C$L1
 62
     3
 10
-159.8671244914
 20
186.9563747930
 11
-151.6671244914
 21
186.9563747930
  0
LINE
  8
Layer1$C$L1
 62
     3
 10
-159.8171244914
 20
186.9063747930
 11
-152.8171244914
 21
186.9063747930
  0
LINE
  8
Layer1$C$L1
 62
     3
 10
-153.7671244914
 20
186.9063747930
 11
-153.7671244914
 21
186.9563747930
  0
LINE
  8
Layer1$C$L1
 62
     3
 10
-158.8671244914
 20
186.9063747930
 11
-158.8671244914
 21
186.9563747930
  0
LINE
  8
Layer1$C$L1
 62
     3
 10
-157.7171244914
 20
186.8563747930
 11
-154.9171244914
 21
186.8563747930
  0
LINE
  8
Layer1$C$L1
 62
     3
 10
-144.5671244914
 20
186.8367677392
 11
-144.6171244914
 21
186.8367677392
  0
LINE
  8
Layer1$C$L1
 62
     3
 10
-151.6171244914
 20
186.8367677392
 11
-151.6671244914
 21
186.8367677392
  0
LINE
  8
Layer1$C$L1
 62
     3
 10
-147.1073247206
 20
186.7812303532
 11
-146.9630627877
 21
186.9357418349
  0
LINE
  8
Layer1$C$L1
 62
     3
 10
-144.5671244914
 20
186.7302705166
 11
-144.6171244914
 21
186.7302705166
  0
LINE
  8
Layer1$C$L1
 62
     3
 10
-151.6171244914
 20
186.7302705166
 11
-151.6671244914
 21
186.7302705166
  0
LINE
  8
Layer1$C$L1
 62
     3
 10
-159.3091782716
 20
186.6744257895
 11
-157.7171244914
 21
186.8563747930
  0
LINE
  8
Layer1$C$L1
 62
     3
 10
-153.3250707111
 20
186.6744257895
 11
-154.9171244914
 21
186.8563747930
  0
LINE
  8
Layer1$C$L1
 62
     3
 10
-156.7171244914
 20
186.5804600228
 11
-156.7171244914
 21
186.8563747930
  0
LINE
  8
Layer1$C$L1
 62
     3
 10
-155.9171244914
 20
186.5711731827
 11
-155.9171244914
 21
186.8563747930
  0
LINE
  8
Layer1$C$L1
 62
     3
 10
-155.5875200119
 20
186.5192931961
 11
-156.0859102284
 21
186.5977401814
  0
LINE
  8
Layer1$C$L1
 62
     3
 10
-151.1775266898
 20
186.4207990299
 11
-151.4671244914
 21
186.4207990299
  0
LINE
  8
Layer1$C$L1
 62
     3
 10
-144.7671244914
 20
186.4207990299
 11
-145.0537299438
 21
186.4207990299
  0
LINE
  8
Layer1$C$L1
 62
     3
 10
-146.5076822206
 20
186.2020201759
 11
-146.3616215611
 21
186.3547942212
  0
LINE
  8
Layer1$C$L1
 62
     3
 10
-146.9089936332
 20
186.1637099688
 11
-145.7102654372
 21
187.0675558340
  0
LINE
  8
Layer1$C$L1
 62
     3
 10
-147.1080678142
 20
186.1447058416
 11
-146.9084137490
 21
186.1642873733
  0
LINE
  8
Layer1$C$L1
 62
     3
 10
-149.1261811686
 20
186.1447058416
 11
-149.7265667622
 21
186.2020201759
  0
LINE
  8
Layer1$C$L1
 62
     3
 10
-148.9991504211
 20
186.0499201298
 11
-149.1261811686
 21
186.1447058416
  0
LINE
  8
Layer1$C$L1
 62
     3
 10
-147.2350985617
 20
186.0499201298
 11
-147.1080678142
 21
186.1447058416
  0
LINE
  8
Layer1$C$L1
 62
     3
 10
-145.0257591030
 20
185.9860045301
 11
-145.1042060883
 21
186.4859046372
  0
LINE
  8
Layer1$C$L1
 62
     3
 10
-152.7671244914
 20
185.9563747930
 11
-152.8171244914
 21
185.9563747930
  0
LINE
  8
Layer1$C$L1
 62
     3
 10
-159.8171244914
 20
185.9563747930
 11
-159.8671244914
 21
185.9563747930
  0
LINE
  8
Layer1$C$L1
 62
     3
 10
-145.0171640658
 20
185.9286813127
 11
-145.0546452393
 21
186.4240575486
  0
LINE
  8
Layer1$C$L1
 62
     3
 10
-154.3428557441
 20
185.7651937131
 11
-154.2719906540
 21
185.8360588032
  0
LINE
  8
Layer1$C$L1
 62
     3
 10
-145.0171244914
 20
185.7626687020
 11
-145.0171244914
 21
185.9443063330
  0
LINE
  8
Layer1$C$L1
 62
     3
 10
-151.2171244914
 20
185.7626687020
 11
-151.2171244914
 21
185.9442264437
  0
LINE
  8
Layer1$C$L1
 62
     3
 10
-147.4015296559
 20
185.6811005556
 11
-147.2350985617
 21
186.0499201298
  0
LINE
  8
Layer1$C$L1
 62
     3
 10
-148.8327193269
 20
185.6811005556
 11
-148.9991504211
 21
186.0499201298
  0
LINE
  8
Layer1$C$L1
 62
     3
 10
-154.2316236992
 20
185.6629198182
 11
-154.1609090760
 21
185.7336455629
  0
LINE
  8
Layer1$C$L1
 62
     3
 10
-151.2148529144
 20
185.6480583689
 11
-151.4671244914
 21
185.6480583689
  0
LINE
  8
Layer1$C$L1
 62
     3
 10
-144.7671244914
 20
185.6480583689
 11
-145.0193960683
 21
185.6480583689
  0
LINE
  8
Layer1$C$L1
 62
     3
 10
-154.1609074612
 20
185.5922147003
 11
-154.0901928381
 21
185.6629404450
  0
LINE
  8
Layer1$C$L1
 62
     3
 10
-154.0583055713
 20
185.4806435402
 11
-153.9874404812
 21
185.5515086303
  0
LINE
  8
Layer1$C$L1
 62
     3
 10
-152.7671244914
 20
185.4563747930
 11
-151.6671244914
 21
185.4563747930
  0
LINE
  8
Layer1$C$L1
 62
     3
 10
-144.6171244914
 20
185.4361752911
 11
-144.5671244914
 21
185.4361752911
  0
LINE
  8
Layer1$C$L1
 62
     3
 10
-151.6671244914
 20
185.4361752911
 11
-151.6171244914
 21
185.4361752911
  0
LINE
  8
Layer1$C$L1
 62
     3
 10
-149.0172434213
 20
185.1805328200
 11
-148.8327193269
 21
185.6811005556
  0
LINE
  8
Layer1$C$L1
 62
     3
 10
-147.2170055615
 20
185.1805328200
 11
-147.4015296559
 21
185.6811005556
  0
LINE
  8
Layer1$C$L1
 62
     3
 10
-155.3073247206
 20
185.1158170638
 11
-155.1630627877
 21
185.2618777232
  0
LINE
  8
Layer1$C$L1
 62
     3
 10
-144.6171244914
 20
185.0842311811
 11
-144.6171244914
 21
188.5063747930
  0
LINE
  8
Layer1$C$L1
 62
     3
 10
-144.6171244914
 20
185.0842311811
 11
-144.7671244914
 21
185.0842311811
  0
LINE
  8
Layer1$C$L1
 62
     3
 10
-151.4671244914
 20
185.0842311811
 11
-151.6171244914
 21
185.0842311811
  0
LINE
  8
Layer1$C$L1
 62
     3
 10
-151.6171244914
 20
185.0842311811
 11
-151.6171244914
 21
187.4563747930
  0
LINE
  8
Layer1$C$L1
 62
     3
 10
-151.1300428944
 20
185.0764170179
 11
-151.2084898798
 21
185.5393328740
  0
LINE
  8
Layer1$C$L1
 62
     3
 10
-152.9671244914
 20
184.9063747930
 11
-154.9171244914
 21
186.8563747930
  0
LINE
  8
Layer1$C$L1
 62
     3
 10
-152.9671244914
 20
184.9063747930
 11
-153.1490734948
 21
186.4984285732
  0
LINE
  8
Layer1$C$L1
 62
     3
 10
-159.6671244914
 20
184.9063747930
 11
-157.7171244914
 21
186.8563747930
  0
LINE
  8
Layer1$C$L1
 62
     3
 10
-159.6671244914
 20
184.9063747930
 11
-159.4851754879
 21
186.4984285732
  0
LINE
  8
Layer1$C$L1
 62
     3
 10
-147.6981244914
 20
184.7932255836
 11
-148.1171244914
 21
184.9898890228
  0
LINE
  8
Layer1$C$L1
 62
     3
 10
-148.5361244914
 20
184.7932255836
 11
-148.1171244914
 21
184.9898890228
  0
LINE
  8
Layer1$C$L1
 62
     3
 10
-155.6205893685
 20
184.7145056511
 11
-155.2303115655
 21
185.2144756845
  0
LINE
  8
Layer1$C$L1
 62
     3
 10
-144.7671244914
 20
184.6821325426
 11
-144.7671244914
 21
187.6455439013
  0
LINE
  8
Layer1$C$L1
 62
     3
 10
-147.5759871500
 20
184.6473334033
 11
-147.6981244914
 21
184.7932255836
  0
LINE
  8
Layer1$C$L1
 62
     3
 10
-148.6582618327
 20
184.6473334033
 11
-148.5361244914
 21
184.7932255836
  0
LINE
  8
Layer1$C$L1
 62
     3
 10
-145.3686796400
 20
184.5728664438
 11
-145.2815454645
 21
184.8165091838
  0
LINE
  8
Layer1$C$L1
 62
     3
 10
-150.8655693427
 20
184.5728664438
 11
-150.9527035182
 21
184.8165091838
  0
LINE
  8
Layer1$C$L1
 62
     3
 10
-154.7076822206
 20
184.5161745637
 11
-154.5616215611
 21
184.6604364966
  0
LINE
  8
Layer1$C$L1
 62
     3
 10
-156.8582618327
 20
184.5154314702
 11
-157.3269242621
 21
185.1158170638
  0
LINE
  8
Layer1$C$L1
 62
     3
 10
-155.7759871500
 20
184.5154314702
 11
-155.6199915954
 21
184.7150855353
  0
LINE
  8
Layer1$C$L1
 62
     3
 10
-159.8671244914
 20
184.5063747930
 11
-159.8171244914
 21
184.5063747930
  0
LINE
  8
Layer1$C$L1
 62
     3
 10
-152.8171244914
 20
184.5063747930
 11
-152.7671244914
 21
184.5063747930
  0
LINE
  8
Layer1$C$L1
 62
     3
 10
-144.7942722705
 20
184.4702494648
 11
-144.5671244914
 21
184.4702494648
  0
LINE
  8
Layer1$C$L1
 62
     3
 10
-151.6671244914
 20
184.4702494648
 11
-151.4399767123
 21
184.4702494648
  0
LINE
  8
Layer1$C$L1
 62
     3
 10
-155.8981244914
 20
184.3884007227
 11
-155.7759871500
 21
184.5154314702
  0
LINE
  8
Layer1$C$L1
 62
     3
 10
-148.8142573874
 20
184.3233837821
 11
-148.6582618327
 21
184.6473334033
  0
LINE
  8
Layer1$C$L1
 62
     3
 10
-148.1171244914
 20
184.3110846988
 11
-148.1171244914
 21
184.9898890228
  0
LINE
  8
Layer1$C$L1
 62
     3
 10
-156.3171244914
 20
184.2219696285
 11
-156.3171244914
 21
184.4064937229
  0
LINE
  8
Layer1$C$L1
 62
     3
 10
-156.3171244914
 20
184.2219696285
 11
-155.8981244914
 21
184.3884007227
  0
LINE
  8
Layer1$C$L1
 62
     3
 10
-156.3171244914
 20
184.2219696285
 11
-156.7361244914
 21
184.3884007227
  0
LINE
  8
Layer1$C$L1
 62
     3
 10
-149.8726274216
 20
184.1253182117
 11
-149.7265667622
 21
184.2512368200
  0
LINE
  8
Layer1$C$L1
 62
     3
 10
-155.3080678142
 20
184.0475121343
 11
-155.1084137490
 21
184.2035076890
  0
LINE
  8
Layer1$C$L1
 62
     3
 10
-157.3261811686
 20
184.0475121343
 11
-157.9265667622
 21
184.5161745637
  0
LINE
  8
Layer1$C$L1
 62
     3
 10
-155.4350985617
 20
183.9253747930
 11
-155.3080678142
 21
184.0475121343
  0
LINE
  8
Layer1$C$L1
 62
     3
 10
-157.1991504211
 20
183.9253747930
 11
-157.3261811686
 21
184.0475121343
  0
LINE
  8
Layer1$C$L1
 62
     3
 10
-159.3912097212
 20
183.9063747930
 11
-159.6671244914
 21
183.9063747930
  0
LINE
  8
Layer1$C$L1
 62
     3
 10
-152.9671244914
 20
183.9063747930
 11
-153.2523261017
 21
183.9063747930
  0
LINE
  8
Layer1$C$L1
 62
     3
 10
-151.6671244914
 20
183.8114389749
 11
-151.4171244914
 21
183.8114389749
  0
LINE
  8
Layer1$C$L1
 62
     3
 10
-144.8171244914
 20
183.8114389749
 11
-144.5671244914
 21
183.8114389749
  0
LINE
  8
Layer1$C$L1
 62
     3
 10
-153.2257591030
 20
183.7375890560
 11
-153.3042060883
 21
184.2359792724
  0
LINE
  8
Layer1$C$L1
 62
     3
 10
-147.1073247206
 20
183.6720266427
 11
-147.5759871500
 21
184.6473334033
  0
LINE
  8
Layer1$C$L1
 62
     3
 10
-149.2711861950
 20
183.5443705980
 11
-149.1269242621
 21
183.6720266427
  0
LINE
  8
Layer1$C$L1
 62
     3
 10
-151.4171244914
 20
183.5253605909
 11
-151.3189116669
 21
183.5253605909
  0
LINE
  8
Layer1$C$L1
 62
     3
 10
-151.4171244914
 20
183.5253605909
 11
-151.4171244914
 21
184.2918923742
  0
LINE
  8
Layer1$C$L1
 62
     3
 10
-144.9153373159
 20
183.5253605909
 11
-144.8171244914
 21
183.5253605909
  0
LINE
  8
Layer1$C$L1
 62
     3
 10
-144.8171244914
 20
183.5253605909
 11
-144.8171244914
 21
184.2918923742
  0
LINE
  8
Layer1$C$L1
 62
     3
 10
-155.6015296559
 20
183.5063747930
 11
-155.4170055615
 21
183.5063747930
  0
LINE
  8
Layer1$C$L1
 62
     3
 10
-155.6015296559
 20
183.5063747930
 11
-155.4350985617
 21
183.9253747930
  0
LINE
  8
Layer1$C$L1
 62
     3
 10
-157.0327193269
 20
183.5063747930
 11
-157.1991504211
 21
183.9253747930
  0
LINE
  8
Layer1$C$L1
 62
     3
 10
-152.8171244914
 20
183.5063747930
 11
-152.7671244914
 21
183.5063747930
  0
LINE
  8
Layer1$C$L1
 62
     3
 10
-159.8671244914
 20
183.5063747930
 11
-159.8171244914
 21
183.5063747930
  0
LINE
  8
Layer1$C$L1
 62
     3
 10
-157.2172434213
 20
183.5063747930
 11
-157.0327193269
 21
183.5063747930
  0
LINE
  8
Layer1$C$L1
 62
     3
 10
-151.6671244914
 20
183.2972684024
 11
-151.2896870756
 21
183.2972684024
  0
LINE
  8
Layer1$C$L1
 62
     3
 10
-144.9445619072
 20
183.2972684024
 11
-144.5671244914
 21
183.2972684024
  0
LINE
  8
Layer1$C$L1
 62
     3
 10
-151.2851754879
 20
183.2620563477
 11
-151.4671244914
 21
184.6821325426
  0
LINE
  8
Layer1$C$L1
 62
     3
 10
-144.9490734948
 20
183.2620563477
 11
-144.7671244914
 21
184.6821325426
  0
LINE
  8
Layer1$C$L1
 62
     3
 10
-149.7493897093
 20
183.1660613840
 11
-148.8136596142
 21
184.3239439072
  0
LINE
  8
Layer1$C$L1
 62
     3
 10
-159.3819228811
 20
183.1063747930
 11
-159.6671244914
 21
183.1063747930
  0
LINE
  8
Layer1$C$L1
 62
     3
 10
-152.9671244914
 20
183.1063747930
 11
-153.2430392616
 21
183.1063747930
  0
LINE
  8
Layer1$C$L1
 62
     3
 10
-157.1991504211
 20
183.0873747930
 11
-157.0327193269
 21
183.5063747930
  0
LINE
  8
Layer1$C$L1
 62
     3
 10
-155.4350985617
 20
183.0873747930
 11
-155.6015296559
 21
183.5063747930
  0
LINE
  8
Layer1$C$L1
 62
     3
 10
-155.3080678142
 20
182.9652374516
 11
-155.4350985617
 21
183.0873747930
  0
LINE
  8
Layer1$C$L1
 62
     3
 10
-157.5258352337
 20
182.8092418970
 11
-157.3261811686
 21
182.9652374516
  0
LINE
  8
Layer1$C$L1
 62
     3
 10
-148.8951085524
 20
182.7985771813
 11
-149.5171244914
 21
182.7985771813
  0
LINE
  8
Layer1$C$L1
 62
     3
 10
-149.5171244914
 20
182.7985771813
 11
-151.4671244914
 21
184.6821325426
  0
LINE
  8
Layer1$C$L1
 62
     3
 10
-146.7171244914
 20
182.7985771813
 11
-144.7671244914
 21
184.6821325426
  0
LINE
  8
Layer1$C$L1
 62
     3
 10
-149.5171244914
 20
182.7985771813
 11
-151.1091782716
 21
183.0920560912
  0
LINE
  8
Layer1$C$L1
 62
     3
 10
-146.7171244914
 20
182.7985771813
 11
-147.3407388853
 21
182.7985771813
  0
LINE
  8
Layer1$C$L1
 62
     3
 10
-146.7171244914
 20
182.7985771813
 11
-145.1250707111
 21
183.0920560912
  0
LINE
  8
Layer1$C$L1
 62
     3
 10
-159.3300428944
 20
182.7767703135
 11
-159.4084898798
 21
183.2751605300
  0
LINE
  8
Layer1$C$L1
 62
     3
 10
-159.8171244914
 20
182.7563747930
 11
-159.8671244914
 21
182.7563747930
  0
LINE
  8
Layer1$C$L1
 62
     3
 10
-155.8981244914
 20
182.6243488633
 11
-156.3171244914
 21
182.7907799575
  0
LINE
  8
Layer1$C$L1
 62
     3
 10
-156.7361244914
 20
182.6243488633
 11
-156.3171244914
 21
182.7907799575
  0
LINE
  8
Layer1$C$L1
 62
     3
 10
-156.3171244914
 20
182.6062558631
 11
-156.3171244914
 21
182.7907799575
  0
LINE
  8
Layer1$C$L1
 62
     3
 10
-151.6671244914
 20
182.5245277414
 11
-144.5671244914
 21
182.5245277414
  0
LINE
  8
Layer1$C$L1
 62
     3
 10
-156.8582618327
 20
182.4973181158
 11
-156.7361244914
 21
182.6243488633
  0
LINE
  8
Layer1$C$L1
 62
     3
 10
-155.7759871500
 20
182.4973181158
 11
-155.8981244914
 21
182.6243488633
  0
LINE
  8
Layer1$C$L1
 62
     3
 10
-154.7076822206
 20
182.4965750222
 11
-155.3080678142
 21
182.9652374516
  0
LINE
  8
Layer1$C$L1
 62
     3
 10
-151.6171244914
 20
182.3984701954
 11
-151.6671244914
 21
182.3984701954
  0
LINE
  8
Layer1$C$L1
 62
     3
 10
-158.0726274216
 20
182.3523130893
 11
-157.9265667622
 21
182.4965750222
  0
LINE
  8
Layer1$C$L1
 62
     3
 10
-157.0142573874
 20
182.2976640506
 11
-156.8582618327
 21
182.4973181158
  0
LINE
  8
Layer1$C$L1
 62
     3
 10
-145.1042060883
 20
182.2058681251
 11
-145.2333633204
 21
182.5245277414
  0
LINE
  8
Layer1$C$L1
 62
     3
 10
-145.0546452393
 20
182.1440210365
 11
-145.1615269553
 21
182.5245277414
  0
LINE
  8
Layer1$C$L1
 62
     3
 10
-151.1775266898
 20
182.1407625177
 11
-151.4671244914
 21
182.1407625177
  0
LINE
  8
Layer1$C$L1
 62
     3
 10
-144.7671244914
 20
182.1407625177
 11
-145.0537299438
 21
182.1407625177
  0
LINE
  8
Layer1$C$L1
 62
     3
 10
-144.6171244914
 20
182.1227594955
 11
-144.5671244914
 21
182.1227594955
  0
LINE
  8
Layer1$C$L1
 62
     3
 10
-152.9671244914
 20
182.1063747930
 11
-152.9671244914
 21
184.9063747930
  0
LINE
  8
Layer1$C$L1
 62
     3
 10
-159.6671244914
 20
182.1063747930
 11
-159.6671244914
 21
184.9063747930
  0
LINE
  8
Layer1$C$L1
 62
     3
 10
-152.8171244914
 20
182.0563747930
 11
-152.7671244914
 21
182.0563747930
  0
LINE
  8
Layer1$C$L1
 62
     3
 10
-159.8671244914
 20
182.0563747930
 11
-159.8171244914
 21
182.0563747930
  0
LINE
  8
Layer1$C$L1
 62
     3
 10
-146.5076822206
 20
181.9219836637
 11
-146.3616215611
 21
182.0747577090
  0
LINE
  8
Layer1$C$L1
 62
     3
 10
-152.8171244914
 20
181.9063747930
 11
-152.8171244914
 21
186.9063747930
  0
LINE
  8
Layer1$C$L1
 62
     3
 10
-152.8171244914
 20
181.9063747930
 11
-152.9899816342
 21
181.9063747930
  0
LINE
  8
Layer1$C$L1
 62
     3
 10
-159.8171244914
 20
181.9063747930
 11
-159.8171244914
 21
186.9063747930
  0
LINE
  8
Layer1$C$L1
 62
     3
 10
-159.6442673485
 20
181.9063747930
 11
-159.8171244914
 21
181.9063747930
  0
LINE
  8
Layer1$C$L1
 62
     3
 10
-155.3073247206
 20
181.8969325222
 11
-155.7759871500
 21
182.4973181158
  0
LINE
  8
Layer1$C$L1
 62
     3
 10
-146.9089936332
 20
181.8836734566
 11
-146.0590587822
 21
182.5245277414
  0
LINE
  8
Layer1$C$L1
 62
     3
 10
-147.1080678142
 20
181.8646693294
 11
-146.9084137490
 21
181.8842508611
  0
LINE
  8
Layer1$C$L1
 62
     3
 10
-149.1261811686
 20
181.8646693294
 11
-149.7265667622
 21
181.9219836637
  0
LINE
  8
Layer1$C$L1
 62
     3
 10
-157.4039374173
 20
181.7982739015
 11
-157.0136596142
 21
182.2982439348
  0
LINE
  8
Layer1$C$L1
 62
     3
 10
-147.2350985617
 20
181.7698836176
 11
-147.1080678142
 21
181.8646693294
  0
LINE
  8
Layer1$C$L1
 62
     3
 10
-148.9991504211
 20
181.7698836176
 11
-149.1261811686
 21
181.8646693294
  0
LINE
  8
Layer1$C$L1
 62
     3
 10
-157.4711861950
 20
181.7508718628
 11
-157.3269242621
 21
181.8969325222
  0
LINE
  8
Layer1$C$L1
 62
     3
 10
-145.0257591030
 20
181.7059680179
 11
-145.1042060883
 21
182.2058681251
  0
LINE
  8
Layer1$C$L1
 62
     3
 10
-145.0171640658
 20
181.6486448005
 11
-145.0546452393
 21
182.1440210365
  0
LINE
  8
Layer1$C$L1
 62
     3
 10
-145.0171244914
 20
181.4826321899
 11
-145.0171244914
 21
181.6642698208
  0
LINE
  8
Layer1$C$L1
 62
     3
 10
-151.2171244914
 20
181.4826321899
 11
-151.2171244914
 21
181.6641899315
  0
LINE
  8
Layer1$C$L1
 62
     3
 10
-158.6468085016
 20
181.4612409556
 11
-158.5759434114
 21
181.5321060457
  0
LINE
  8
Layer1$C$L1
 62
     3
 10
-147.4015296559
 20
181.4010640434
 11
-147.2350985617
 21
181.7698836176
  0
LINE
  8
Layer1$C$L1
 62
     3
 10
-148.8327193269
 20
181.4010640434
 11
-148.9991504211
 21
181.7698836176
  0
LINE
  8
Layer1$C$L1
 62
     3
 10
-151.2148529144
 20
181.3680218567
 11
-151.4671244914
 21
181.3680218567
  0
LINE
  8
Layer1$C$L1
 62
     3
 10
-144.7671244914
 20
181.3680218567
 11
-145.0193960683
 21
181.3680218567
  0
LINE
  8
Layer1$C$L1
 62
     3
 10
-158.3622583287
 20
181.1766907828
 11
-158.2913932386
 21
181.2475558729
  0
LINE
  8
Layer1$C$L1
 62
     3
 10
-144.6171244914
 20
181.1561387789
 11
-144.5671244914
 21
181.1561387789
  0
LINE
  8
Layer1$C$L1
 62
     3
 10
-151.6671244914
 20
181.1561387789
 11
-151.6171244914
 21
181.1561387789
  0
LINE
  8
Layer1$C$L1
 62
     3
 10
-152.7671244914
 20
181.0563747930
 11
-153.0171244914
 21
181.0563747930
  0
LINE
  8
Layer1$C$L1
 62
     3
 10
-159.6171244914
 20
181.0563747930
 11
-159.8671244914
 21
181.0563747930
  0
LINE
  8
Layer1$C$L1
 62
     3
 10
-152.7671244914
 20
180.9063747930
 11
-153.0171244914
 21
180.9063747930
  0
LINE
  8
Layer1$C$L1
 62
     3
 10
-159.6171244914
 20
180.9063747930
 11
-159.8671244914
 21
180.9063747930
  0
LINE
  8
Layer1$C$L1
 62
     3
 10
-149.0172434213
 20
180.9004963078
 11
-148.8327193269
 21
181.4010640434
  0
LINE
  8
Layer1$C$L1
 62
     3
 10
-147.2170055615
 20
180.9004963078
 11
-147.4015296559
 21
181.4010640434
  0
LINE
  8
Layer1$C$L1
 62
     3
 10
-144.6171244914
 20
180.8041946689
 11
-144.7671244914
 21
180.8041946689
  0
LINE
  8
Layer1$C$L1
 62
     3
 10
-144.6171244914
 20
180.8041946689
 11
-144.6171244914
 21
182.5245277414
  0
LINE
  8
Layer1$C$L1
 62
     3
 10
-151.4671244914
 20
180.8041946689
 11
-151.6171244914
 21
180.8041946689
  0
LINE
  8
Layer1$C$L1
 62
     3
 10
-151.6171244914
 20
180.8041946689
 11
-151.6171244914
 21
182.5245277414
  0
LINE
  8
Layer1$C$L1
 62
     3
 10
-151.1300428944
 20
180.7963805057
 11
-151.2084898798
 21
181.2592963618
  0
LINE
  8
Layer1$C$L1
 62
     3
 10
-159.4851754879
 20
180.5143210127
 11
-159.6671244914
 21
182.1063747930
  0
LINE
  8
Layer1$C$L1
 62
     3
 10
-153.1490734948
 20
180.5143210127
 11
-152.9671244914
 21
182.1063747930
  0
LINE
  8
Layer1$C$L1
 62
     3
 10
-147.6981244914
 20
180.5131890714
 11
-148.1171244914
 21
180.7098525107
  0
LINE
  8
Layer1$C$L1
 62
     3
 10
-148.5361244914
 20
180.5131890714
 11
-148.1171244914
 21
180.7098525107
  0
LINE
  8
Layer1$C$L1
 62
     3
 10
-156.5483387544
 20
180.4150094046
 11
-157.0467289708
 21
180.4934563899
  0
LINE
  8
Layer1$C$L1
 62
     3
 10
-144.7671244914
 20
180.4020960304
 11
-144.7671244914
 21
182.5245277414
  0
LINE
  8
Layer1$C$L1
 62
     3
 10
-151.4671244914
 20
180.4020960304
 11
-151.4671244914
 21
182.5245277414
  0
LINE
  8
Layer1$C$L1
 62
     3
 10
-148.6582618327
 20
180.3672968912
 11
-148.5361244914
 21
180.5131890714
  0
LINE
  8
Layer1$C$L1
 62
     3
 10
-147.5759871500
 20
180.3672968912
 11
-147.6981244914
 21
180.5131890714
  0
LINE
  8
Layer1$C$L1
 62
     3
 10
-145.3686796400
 20
180.2928299316
 11
-145.2815454645
 21
180.5364726716
  0
LINE
  8
Layer1$C$L1
 62
     3
 10
-150.8655693427
 20
180.2928299316
 11
-150.9527035182
 21
180.5364726716
  0
LINE
  8
Layer1$C$L1
 62
     3
 10
-151.4399767123
 20
180.1902129526
 11
-151.6671244914
 21
180.1902129526
  0
LINE
  8
Layer1$C$L1
 62
     3
 10
-144.5671244914
 20
180.1902129526
 11
-144.7942722705
 21
180.1902129526
  0
LINE
  8
Layer1$C$L1
 62
     3
 10
-156.7171244914
 20
180.1563747930
 11
-156.7171244914
 21
180.4415764033
  0
LINE
  8
Layer1$C$L1
 62
     3
 10
-155.9171244914
 20
180.1563747930
 11
-155.9171244914
 21
180.4322895632
  0
LINE
  8
Layer1$C$L1
 62
     3
 10
-157.7171244914
 20
180.1563747930
 11
-159.3091782716
 21
180.3383237964
  0
LINE
  8
Layer1$C$L1
 62
     3
 10
-157.7171244914
 20
180.1563747930
 11
-159.6671244914
 21
182.1063747930
  0
LINE
  8
Layer1$C$L1
 62
     3
 10
-154.9171244914
 20
180.1563747930
 11
-157.7171244914
 21
180.1563747930
  0
LINE
  8
Layer1$C$L1
 62
     3
 10
-154.9171244914
 20
180.1563747930
 11
-152.9671244914
 21
182.1063747930
  0
LINE
  8
Layer1$C$L1
 62
     3
 10
-154.9171244914
 20
180.1563747930
 11
-153.3250707111
 21
180.3383237964
  0
LINE
  8
Layer1$C$L1
 62
     3
 10
-159.6171244914
 20
180.1063747930
 11
-159.6171244914
 21
181.6688747930
  0
LINE
  8
Layer1$C$L1
 62
     3
 10
-158.3171244914
 20
180.1063747930
 11
-158.3171244914
 21
180.2249462216
  0
LINE
  8
Layer1$C$L1
 62
     3
 10
-154.3171244914
 20
180.1063747930
 11
-154.3171244914
 21
180.2249462216
  0
LINE
  8
Layer1$C$L1
 62
     3
 10
-153.0171244914
 20
180.1063747930
 11
-153.0171244914
 21
181.6688747930
  0
LINE
  8
Layer1$C$L1
 62
     3
 10
-152.7671244914
 20
180.1063747930
 11
-159.8671244914
 21
180.1063747930
  0
LINE
  8
Layer1$C$L1
 62
     3
 10
-158.8671244914
 20
180.0563747930
 11
-158.8671244914
 21
180.1063747930
  0
LINE
  8
Layer1$C$L1
 62
     3
 10
-159.8671244914
 20
180.0563747930
 11
-152.7671244914
 21
180.0563747930
  0
LINE
  8
Layer1$C$L1
 62
     3
 10
-148.8142573874
 20
180.0433472699
 11
-148.6582618327
 21
180.3672968912
  0
LINE
  8
Layer1$C$L1
 62
     3
 10
-148.1171244914
 20
180.0310481867
 11
-148.1171244914
 21
180.7098525107
  0
LINE
  8
Layer1$C$L1
 62
     3
 10
-149.8726274216
 20
179.8452816996
 11
-149.7265667622
 21
179.9712003078
  0
LINE
  8
Layer1$C$L1
 62
     3
 10
-151.6671244914
 20
179.5314024628
 11
-151.4171244914
 21
179.5314024628
  0
LINE
  8
Layer1$C$L1
 62
     3
 10
-144.8171244914
 20
179.5314024628
 11
-144.5671244914
 21
179.5314024628
  0
LINE
  8
Layer1$C$L1
 62
     3
 10
-147.1073247206
 20
179.3919901305
 11
-147.5759871500
 21
180.3672968912
  0
LINE
  8
Layer1$C$L1
 62
     3
 10
-149.2711861950
 20
179.2643340858
 11
-149.1269242621
 21
179.3919901305
  0
LINE
  8
Layer1$C$L1
 62
     3
 10
-152.7671244914
 20
179.2563747930
 11
-159.8671244914
 21
179.2563747930
  0
LINE
  8
Layer1$C$L1
 62
     3
 10
-151.4171244914
 20
179.2453240787
 11
-151.4171244914
 21
180.0118558621
  0
LINE
  8
Layer1$C$L1
 62
     3
 10
-144.8171244914
 20
179.2453240787
 11
-144.8171244914
 21
180.0118558620
  0
LINE
  8
Layer1$C$L1
 62
     3
 10
-144.9153373159
 20
179.2453240787
 11
-144.8171244914
 21
179.2453240787
  0
LINE
  8
Layer1$C$L1
 62
     3
 10
-151.4171244914
 20
179.2453240787
 11
-151.3189116669
 21
179.2453240787
  0
LINE
  8
Layer1$C$L1
 62
     3
 10
-151.6671244914
 20
179.0172318903
 11
-151.2896870756
 21
179.0172318903
  0
LINE
  8
Layer1$C$L1
 62
     3
 10
-144.9445619072
 20
179.0172318903
 11
-144.5671244914
 21
179.0172318903
  0
LINE
  8
Layer1$C$L1
 62
     3
 10
-151.2851754879
 20
178.9820198356
 11
-151.4671244914
 21
180.4020960304
  0
LINE
  8
Layer1$C$L1
 62
     3
 10
-144.9490734948
 20
178.9820198356
 11
-144.7671244914
 21
180.4020960304
  0
LINE
  8
Layer1$C$L1
 62
     3
 10
-149.7493897093
 20
178.8860248718
 11
-148.8136596142
 21
180.0439073951
  0
LINE
  8
Layer1$C$L1
 62
     3
 10
-147.3407388853
 20
178.5185406692
 11
-146.7171244914
 21
178.5185406692
  0
LINE
  8
Layer1$C$L1
 62
     3
 10
-146.7171244914
 20
178.5185406692
 11
-144.7671244914
 21
180.4020960304
  0
LINE
  8
Layer1$C$L1
 62
     3
 10
-149.5171244914
 20
178.5185406692
 11
-151.4671244914
 21
180.4020960304
  0
LINE
  8
Layer1$C$L1
 62
     3
 10
-149.5171244914
 20
178.5185406692
 11
-148.8951085524
 21
178.5185406692
  0
LINE
  8
Layer1$C$L1
 62
     3
 10
-149.5171244914
 20
178.5185406692
 11
-151.1091782716
 21
178.8120195790
  0
LINE
  8
Layer1$C$L1
 62
     3
 10
-146.7171244914
 20
178.5185406692
 11
-145.1250707111
 21
178.8120195790
  0
LINE
  8
Layer1$C$L1
 62
     3
 10
-151.6671244914
 20
178.2444912292
 11
-144.5671244914
 21
178.2444912292
  0
LINE
  8
Layer1$C$L1
 62
     3
 10
-151.6671244914
 20
177.9563747930
 11
-151.6671244914
 21
187.4563747930
  0
LINE
  8
Layer1$C$L1
 62
     3
 10
-143.4671244914
 20
177.9563747930
 11
-144.5671244914
 21
177.9563747930
  0
LINE
  8
Layer1$C$L1
 62
     3
 10
-144.5671244914
 20
177.9563747930
 11
-144.5671244914
 21
188.5063747930
  0
LINE
  8
Layer1$C$L1
 62
     3
 10
-151.6671244914
 20
177.9563747930
 11
-152.7671244914
 21
177.9563747930
  0
LINE
  8
Layer1$C$L1
 62
     3
 10
-152.7671244914
 20
177.9563747930
 11
-152.7671244914
 21
186.9563747930
  0
LINE
  8
Layer1$C$L1
 62
     3
 10
-159.8671244914
 20
177.9563747930
 11
-159.8671244914
 21
186.9563747930
  0
LINE
  8
Layer1$C$L1
 62
     3
 10
-159.8671244914
 20
177.9563747930
 11
-160.9671244914
 21
177.9563747930
  0
POLYLINE
  8
Layer1$C$L1
 62
     3
 66
     1
 70
     1
  0
VERTEX
  8
Layer1$C$L1
 62
     3
 10
-147.9171244914
 20
181.4720184142
  0
VERTEX
  8
Layer1$C$L1
 62
     3
 10
-147.9323485849
 20
181.3980896521
  0
VERTEX
  8
Layer1$C$L1
 62
     3
 10
-147.9757031351
 20
181.3354158738
  0
VERTEX
  8
Layer1$C$L1
 62
     3
 10
-148.0405878049
 20
181.2935385941
  0
VERTEX
  8
Layer1$C$L1
 62
     3
 10
-148.1171244914
 20
181.2788332490
  0
VERTEX
  8
Layer1$C$L1
 62
     3
 10
-148.1936611778
 20
181.2935385941
  0
VERTEX
  8
Layer1$C$L1
 62
     3
 10
-148.2585458476
 20
181.3354158738
  0
VERTEX
  8
Layer1$C$L1
 62
     3
 10
-148.3019003979
 20
181.3980896521
  0
VERTEX
  8
Layer1$C$L1
 62
     3
 10
-148.3171244914
 20
181.4720184142
  0
VERTEX
  8
Layer1$C$L1
 62
     3
 10
-148.3019003979
 20
181.5459471763
  0
VERTEX
  8
Layer1$C$L1
 62
     3
 10
-148.2585458476
 20
181.6086209546
  0
VERTEX
  8
Layer1$C$L1
 62
     3
 10
-148.1936611778
 20
181.6504982344
  0
VERTEX
  8
Layer1$C$L1
 62
     3
 10
-148.1171244914
 20
181.6652035795
  0
VERTEX
  8
Layer1$C$L1
 62
     3
 10
-148.0405878049
 20
181.6504982344
  0
VERTEX
  8
Layer1$C$L1
 62
     3
 10
-147.9757031351
 20
181.6086209546
  0
VERTEX
  8
Layer1$C$L1
 62
     3
 10
-147.9323485849
 20
181.5459471763
  0
SEQEND
  8
Layer1$C$L1
 62
     3
  0
POLYLINE
  8
Layer1$C$L1
 62
     3
 66
     1
 70
     1
  0
VERTEX
  8
Layer1$C$L1
 62
     3
 10
-147.9171244914
 20
185.7520549264
  0
VERTEX
  8
Layer1$C$L1
 62
     3
 10
-147.9323485849
 20
185.6781261643
  0
VERTEX
  8
Layer1$C$L1
 62
     3
 10
-147.9757031351
 20
185.6154523860
  0
VERTEX
  8
Layer1$C$L1
 62
     3
 10
-148.0405878049
 20
185.5735751062
  0
VERTEX
  8
Layer1$C$L1
 62
     3
 10
-148.1171244914
 20
185.5588697611
  0
VERTEX
  8
Layer1$C$L1
 62
     3
 10
-148.1936611778
 20
185.5735751062
  0
VERTEX
  8
Layer1$C$L1
 62
     3
 10
-148.2585458476
 20
185.6154523860
  0
VERTEX
  8
Layer1$C$L1
 62
     3
 10
-148.3019003979
 20
185.6781261643
  0
VERTEX
  8
Layer1$C$L1
 62
     3
 10
-148.3171244914
 20
185.7520549264
  0
VERTEX
  8
Layer1$C$L1
 62
     3
 10
-148.3019003979
 20
185.8259836885
  0
VERTEX
  8
Layer1$C$L1
 62
     3
 10
-148.2585458476
 20
185.8886574668
  0
VERTEX
  8
Layer1$C$L1
 62
     3
 10
-148.1936611778
 20
185.9305347466
  0
VERTEX
  8
Layer1$C$L1
 62
     3
 10
-148.1171244914
 20
185.9452400917
  0
VERTEX
  8
Layer1$C$L1
 62
     3
 10
-148.0405878049
 20
185.9305347466
  0
VERTEX
  8
Layer1$C$L1
 62
     3
 10
-147.9757031351
 20
185.8886574668
  0
VERTEX
  8
Layer1$C$L1
 62
     3
 10
-147.9323485849
 20
185.8259836885
  0
SEQEND
  8
Layer1$C$L1
 62
     3
  0
POLYLINE
  8
Layer1$C$L1
 62
     3
 66
     1
  0
VERTEX
  8
Layer1$C$L1
 62
     3
 10
-146.1098299147
 20
188.3162980823
  0
VERTEX
  8
Layer1$C$L1
 62
     3
 10
-146.0622770300
 20
188.2764592556
  0
VERTEX
  8
Layer1$C$L1
 62
     3
 10
-146.0155713924
 20
188.2356960032
  0
VERTEX
  8
Layer1$C$L1
 62
     3
 10
-145.9697322594
 20
188.1940251322
  0
VERTEX
  8
Layer1$C$L1
 62
     3
 10
-145.9247785313
 20
188.1514638245
  0
VERTEX
  8
Layer1$C$L1
 62
     3
 10
-145.8807287433
 20
188.1080296285
  0
VERTEX
  8
Layer1$C$L1
 62
     3
 10
-145.8376010578
 20
188.0637404531
  0
VERTEX
  8
Layer1$C$L1
 62
     3
 10
-145.7954132569
 20
188.0186145592
  0
VERTEX
  8
Layer1$C$L1
 62
     3
 10
-145.7541827356
 20
187.9726705532
  0
SEQEND
  8
Layer1$C$L1
 62
     3
  0
POLYLINE
  8
Layer1$C$L1
 62
     3
 66
     1
  0
VERTEX
  8
Layer1$C$L1
 62
     3
 10
-145.7874404812
 20
187.8287029595
  0
VERTEX
  8
Layer1$C$L1
 62
     3
 10
-145.8209546486
 20
187.8649809150
  0
VERTEX
  8
Layer1$C$L1
 62
     3
 10
-145.8550742260
 20
187.9007284573
  0
VERTEX
  8
Layer1$C$L1
 62
     3
 10
-145.8897902175
 20
187.9359361612
  0
VERTEX
  8
Layer1$C$L1
 62
     3
 10
-145.9250934697
 20
187.9705947437
  0
VERTEX
  8
Layer1$C$L1
 62
     3
 10
-145.9609746746
 20
188.0046950668
  0
VERTEX
  8
Layer1$C$L1
 62
     3
 10
-145.9974243718
 20
188.0382281395
  0
VERTEX
  8
Layer1$C$L1
 62
     3
 10
-146.0344329508
 20
188.0711851205
  0
VERTEX
  8
Layer1$C$L1
 62
     3
 10
-146.0719906540
 20
188.1035573204
  0
SEQEND
  8
Layer1$C$L1
 62
     3
  0
POLYLINE
  8
Layer1$C$L1
 62
     3
 66
     1
  0
VERTEX
  8
Layer1$C$L1
 62
     3
 10
-146.4848592735
 20
187.8157560254
  0
VERTEX
  8
Layer1$C$L1
 62
     3
 10
-146.3727244415
 20
187.7384935113
  0
VERTEX
  8
Layer1$C$L1
 62
     3
 10
-146.2645028501
 20
187.6561889542
  0
VERTEX
  8
Layer1$C$L1
 62
     3
 10
-146.1604372744
 20
187.5690269893
  0
VERTEX
  8
Layer1$C$L1
 62
     3
 10
-146.0607611664
 20
187.4772031485
  0
VERTEX
  8
Layer1$C$L1
 62
     3
 10
-145.9656981312
 20
187.3809234215
  0
VERTEX
  8
Layer1$C$L1
 62
     3
 10
-145.8754614251
 20
187.2804037944
  0
VERTEX
  8
Layer1$C$L1
 62
     3
 10
-145.7902534777
 20
187.1758697642
  0
VERTEX
  8
Layer1$C$L1
 62
     3
 10
-145.7102654372
 20
187.0675558340
  0
SEQEND
  8
Layer1$C$L1
 62
     3
  0
POLYLINE
  8
Layer1$C$L1
 62
     3
 66
     1
  0
VERTEX
  8
Layer1$C$L1
 62
     3
 10
-149.1269242621
 20
186.7812303532
  0
VERTEX
  8
Layer1$C$L1
 62
     3
 10
-149.0535030880
 20
186.7085756694
  0
VERTEX
  8
Layer1$C$L1
 62
     3
 10
-148.9799347703
 20
186.6359999442
  0
VERTEX
  8
Layer1$C$L1
 62
     3
 10
-148.9062315980
 20
186.5635153007
  0
VERTEX
  8
Layer1$C$L1
 62
     3
 10
-148.8324058825
 20
186.4911338470
  0
VERTEX
  8
Layer1$C$L1
 62
     3
 10
-148.7584699558
 20
186.4188676735
  0
VERTEX
  8
Layer1$C$L1
 62
     3
 10
-148.6844361681
 20
186.3467288519
  0
VERTEX
  8
Layer1$C$L1
 62
     3
 10
-148.6103168864
 20
186.2747294323
  0
VERTEX
  8
Layer1$C$L1
 62
     3
 10
-148.5361244914
 20
186.2028814415
  0
SEQEND
  8
Layer1$C$L1
 62
     3
  0
POLYLINE
  8
Layer1$C$L1
 62
     3
 66
     1
  0
VERTEX
  8
Layer1$C$L1
 62
     3
 10
-147.6981244914
 20
186.2028814415
  0
VERTEX
  8
Layer1$C$L1
 62
     3
 10
-147.6239320964
 20
186.2747294323
  0
VERTEX
  8
Layer1$C$L1
 62
     3
 10
-147.5498128146
 20
186.3467288519
  0
VERTEX
  8
Layer1$C$L1
 62
     3
 10
-147.4757790270
 20
186.4188676735
  0
VERTEX
  8
Layer1$C$L1
 62
     3
 10
-147.4018431003
 20
186.4911338470
  0
VERTEX
  8
Layer1$C$L1
 62
     3
 10
-147.3280173847
 20
186.5635153007
  0
VERTEX
  8
Layer1$C$L1
 62
     3
 10
-147.2543142124
 20
186.6359999442
  0
VERTEX
  8
Layer1$C$L1
 62
     3
 10
-147.1807458947
 20
186.7085756694
  0
VERTEX
  8
Layer1$C$L1
 62
     3
 10
-147.1073247206
 20
186.7812303532
  0
SEQEND
  8
Layer1$C$L1
 62
     3
  0
POLYLINE
  8
Layer1$C$L1
 62
     3
 66
     1
  0
VERTEX
  8
Layer1$C$L1
 62
     3
 10
-149.7265667622
 20
186.2020201759
  0
VERTEX
  8
Layer1$C$L1
 62
     3
 10
-149.6672337640
 20
186.2878997982
  0
VERTEX
  8
Layer1$C$L1
 62
     3
 10
-149.6029948471
 20
186.3704206181
  0
VERTEX
  8
Layer1$C$L1
 62
     3
 10
-149.5340533203
 20
186.4493214666
  0
VERTEX
  8
Layer1$C$L1
 62
     3
 10
-149.4606273756
 20
186.5243526316
  0
VERTEX
  8
Layer1$C$L1
 62
     3
 10
-149.3829493978
 20
186.5952766479
  0
VERTEX
  8
Layer1$C$L1
 62
     3
 10
-149.3012652287
 20
186.6618690491
  0
VERTEX
  8
Layer1$C$L1
 62
     3
 10
-149.2158333895
 20
186.7239190780
  0
VERTEX
  8
Layer1$C$L1
 62
     3
 10
-149.1269242621
 20
186.7812303532
  0
SEQEND
  8
Layer1$C$L1
 62
     3
  0
POLYLINE
  8
Layer1$C$L1
 62
     3
 66
     1
  0
VERTEX
  8
Layer1$C$L1
 62
     3
 10
-148.5361244914
 20
184.1734792269
  0
VERTEX
  8
Layer1$C$L1
 62
     3
 10
-148.4838017840
 20
184.1901869171
  0
VERTEX
  8
Layer1$C$L1
 62
     3
 10
-148.4314590441
 20
184.2070371184
  0
VERTEX
  8
Layer1$C$L1
 62
     3
 10
-148.3790988166
 20
184.2240290114
  0
VERTEX
  8
Layer1$C$L1
 62
     3
 10
-148.3267236472
 20
184.2411617701
  0
VERTEX
  8
Layer1$C$L1
 62
     3
 10
-148.2743360827
 20
184.2584345614
  0
VERTEX
  8
Layer1$C$L1
 62
     3
 10
-148.2219386700
 20
184.2758465455
  0
VERTEX
  8
Layer1$C$L1
 62
     3
 10
-148.1695339569
 20
184.2933968757
  0
VERTEX
  8
Layer1$C$L1
 62
     3
 10
-148.1171244914
 20
184.3110846988
  0
SEQEND
  8
Layer1$C$L1
 62
     3
  0
POLYLINE
  8
Layer1$C$L1
 62
     3
 66
     1
  0
VERTEX
  8
Layer1$C$L1
 62
     3
 10
-148.1171244914
 20
186.0499809411
  0
VERTEX
  8
Layer1$C$L1
 62
     3
 10
-148.0647150258
 20
186.0688801369
  0
VERTEX
  8
Layer1$C$L1
 62
     3
 10
-148.0123103127
 20
186.0878421460
  0
VERTEX
  8
Layer1$C$L1
 62
     3
 10
-147.9599129001
 20
186.1068660464
  0
VERTEX
  8
Layer1$C$L1
 62
     3
 10
-147.9075253355
 20
186.1259509131
  0
VERTEX
  8
Layer1$C$L1
 62
     3
 10
-147.8551501662
 20
186.1450958183
  0
VERTEX
  8
Layer1$C$L1
 62
     3
 10
-147.8027899386
 20
186.1642998310
  0
VERTEX
  8
Layer1$C$L1
 62
     3
 10
-147.7504471987
 20
186.1835620176
  0
VERTEX
  8
Layer1$C$L1
 62
     3
 10
-147.6981244914
 20
186.2028814415
  0
SEQEND
  8
Layer1$C$L1
 62
     3
  0
POLYLINE
  8
Layer1$C$L1
 62
     3
 66
     1
  0
VERTEX
  8
Layer1$C$L1
 62
     3
 10
-148.5361244914
 20
186.2028814415
  0
VERTEX
  8
Layer1$C$L1
 62
     3
 10
-148.4838017840
 20
186.1835620176
  0
VERTEX
  8
Layer1$C$L1
 62
     3
 10
-148.4314590441
 20
186.1642998310
  0
VERTEX
  8
Layer1$C$L1
 62
     3
 10
-148.3790988166
 20
186.1450958183
  0
VERTEX
  8
Layer1$C$L1
 62
     3
 10
-148.3267236472
 20
186.1259509131
  0
VERTEX
  8
Layer1$C$L1
 62
     3
 10
-148.2743360827
 20
186.1068660464
  0
VERTEX
  8
Layer1$C$L1
 62
     3
 10
-148.2219386700
 20
186.0878421460
  0
VERTEX
  8
Layer1$C$L1
 62
     3
 10
-148.1695339569
 20
186.0688801369
  0
VERTEX
  8
Layer1$C$L1
 62
     3
 10
-148.1171244914
 20
186.0499809411
  0
SEQEND
  8
Layer1$C$L1
 62
     3
  0
POLYLINE
  8
Layer1$C$L1
 62
     3
 66
     1
  0
VERTEX
  8
Layer1$C$L1
 62
     3
 10
-149.1676203780
 20
185.5929032554
  0
VERTEX
  8
Layer1$C$L1
 62
     3
 10
-149.2382596376
 20
185.6681833114
  0
VERTEX
  8
Layer1$C$L1
 62
     3
 10
-149.3087020651
 20
185.7437342996
  0
VERTEX
  8
Layer1$C$L1
 62
     3
 10
-149.3789358935
 20
185.8195435999
  0
VERTEX
  8
Layer1$C$L1
 62
     3
 10
-149.4489493911
 20
185.8955985490
  0
VERTEX
  8
Layer1$C$L1
 62
     3
 10
-149.5187308626
 20
185.9718864425
  0
VERTEX
  8
Layer1$C$L1
 62
     3
 10
-149.5882686516
 20
186.0483945373
  0
VERTEX
  8
Layer1$C$L1
 62
     3
 10
-149.6575511425
 20
186.1251100533
  0
VERTEX
  8
Layer1$C$L1
 62
     3
 10
-149.7265667622
 20
186.2020201759
  0
SEQEND
  8
Layer1$C$L1
 62
     3
  0
POLYLINE
  8
Layer1$C$L1
 62
     3
 66
     1
  0
VERTEX
  8
Layer1$C$L1
 62
     3
 10
-147.0666286048
 20
185.5929032554
  0
VERTEX
  8
Layer1$C$L1
 62
     3
 10
-146.9959893451
 20
185.6681833114
  0
VERTEX
  8
Layer1$C$L1
 62
     3
 10
-146.9255469177
 20
185.7437342996
  0
VERTEX
  8
Layer1$C$L1
 62
     3
 10
-146.8553130892
 20
185.8195435999
  0
VERTEX
  8
Layer1$C$L1
 62
     3
 10
-146.7852995917
 20
185.8955985490
  0
VERTEX
  8
Layer1$C$L1
 62
     3
 10
-146.7155181202
 20
185.9718864425
  0
VERTEX
  8
Layer1$C$L1
 62
     3
 10
-146.6459803312
 20
186.0483945373
  0
VERTEX
  8
Layer1$C$L1
 62
     3
 10
-146.5766978403
 20
186.1251100533
  0
VERTEX
  8
Layer1$C$L1
 62
     3
 10
-146.5076822206
 20
186.2020201759
  0
SEQEND
  8
Layer1$C$L1
 62
     3
  0
POLYLINE
  8
Layer1$C$L1
 62
     3
 66
     1
  0
VERTEX
  8
Layer1$C$L1
 62
     3
 10
-146.5076822206
 20
179.9712003078
  0
VERTEX
  8
Layer1$C$L1
 62
     3
 10
-146.5670152187
 20
179.8853206855
  0
VERTEX
  8
Layer1$C$L1
 62
     3
 10
-146.6312541356
 20
179.8027998656
  0
VERTEX
  8
Layer1$C$L1
 62
     3
 10
-146.7001956624
 20
179.7238990171
  0
VERTEX
  8
Layer1$C$L1
 62
     3
 10
-146.7736216071
 20
179.6488678522
  0
VERTEX
  8
Layer1$C$L1
 62
     3
 10
-146.8512995850
 20
179.5779438359
  0
VERTEX
  8
Layer1$C$L1
 62
     3
 10
-146.9329837540
 20
179.5113514346
  0
VERTEX
  8
Layer1$C$L1
 62
     3
 10
-147.0184155932
 20
179.4493014058
  0
VERTEX
  8
Layer1$C$L1
 62
     3
 10
-147.1073247206
 20
179.3919901305
  0
SEQEND
  8
Layer1$C$L1
 62
     3
  0
POLYLINE
  8
Layer1$C$L1
 62
     3
 66
     1
  0
VERTEX
  8
Layer1$C$L1
 62
     3
 10
-149.0172434213
 20
185.1805328200
  0
VERTEX
  8
Layer1$C$L1
 62
     3
 10
-149.0361822559
 20
185.2317621626
  0
VERTEX
  8
Layer1$C$L1
 62
     3
 10
-149.0550824335
 20
185.2830870679
  0
VERTEX
  8
Layer1$C$L1
 62
     3
 10
-149.0739430351
 20
185.3345050401
  0
VERTEX
  8
Layer1$C$L1
 62
     3
 10
-149.0927631438
 20
185.3860135794
  0
VERTEX
  8
Layer1$C$L1
 62
     3
 10
-149.1115418444
 20
185.4376101814
  0
VERTEX
  8
Layer1$C$L1
 62
     3
 10
-149.1302782240
 20
185.4892923373
  0
VERTEX
  8
Layer1$C$L1
 62
     3
 10
-149.1489713715
 20
185.5410575343
  0
VERTEX
  8
Layer1$C$L1
 62
     3
 10
-149.1676203780
 20
185.5929032554
  0
SEQEND
  8
Layer1$C$L1
 62
     3
  0
POLYLINE
  8
Layer1$C$L1
 62
     3
 66
     1
  0
VERTEX
  8
Layer1$C$L1
 62
     3
 10
-147.2170055615
 20
185.1805328200
  0
VERTEX
  8
Layer1$C$L1
 62
     3
 10
-147.1980667269
 20
185.2317621626
  0
VERTEX
  8
Layer1$C$L1
 62
     3
 10
-147.1791665493
 20
185.2830870679
  0
VERTEX
  8
Layer1$C$L1
 62
     3
 10
-147.1603059476
 20
185.3345050401
  0
VERTEX
  8
Layer1$C$L1
 62
     3
 10
-147.1414858389
 20
185.3860135794
  0
VERTEX
  8
Layer1$C$L1
 62
     3
 10
-147.1227071383
 20
185.4376101814
  0
VERTEX
  8
Layer1$C$L1
 62
     3
 10
-147.1039707588
 20
185.4892923373
  0
VERTEX
  8
Layer1$C$L1
 62
     3
 10
-147.0852776113
 20
185.5410575343
  0
VERTEX
  8
Layer1$C$L1
 62
     3
 10
-147.0666286048
 20
185.5929032554
  0
SEQEND
  8
Layer1$C$L1
 62
     3
  0
POLYLINE
  8
Layer1$C$L1
 62
     3
 66
     1
  0
VERTEX
  8
Layer1$C$L1
 62
     3
 10
-147.0666286048
 20
184.7834574130
  0
VERTEX
  8
Layer1$C$L1
 62
     3
 10
-147.0852776113
 20
184.8326914005
  0
VERTEX
  8
Layer1$C$L1
 62
     3
 10
-147.1039707588
 20
184.8820446121
  0
VERTEX
  8
Layer1$C$L1
 62
     3
 10
-147.1227071383
 20
184.9315146483
  0
VERTEX
  8
Layer1$C$L1
 62
     3
 10
-147.1414858389
 20
184.9810991038
  0
VERTEX
  8
Layer1$C$L1
 62
     3
 10
-147.1603059476
 20
185.0307955676
  0
VERTEX
  8
Layer1$C$L1
 62
     3
 10
-147.1791665493
 20
185.0806016236
  0
VERTEX
  8
Layer1$C$L1
 62
     3
 10
-147.1980667269
 20
185.1305148500
  0
VERTEX
  8
Layer1$C$L1
 62
     3
 10
-147.2170055615
 20
185.1805328200
  0
SEQEND
  8
Layer1$C$L1
 62
     3
  0
POLYLINE
  8
Layer1$C$L1
 62
     3
 66
     1
  0
VERTEX
  8
Layer1$C$L1
 62
     3
 10
-149.0172434213
 20
185.1805328200
  0
VERTEX
  8
Layer1$C$L1
 62
     3
 10
-149.0361822559
 20
185.1305148500
  0
VERTEX
  8
Layer1$C$L1
 62
     3
 10
-149.0550824335
 20
185.0806016236
  0
VERTEX
  8
Layer1$C$L1
 62
     3
 10
-149.0739430351
 20
185.0307955676
  0
VERTEX
  8
Layer1$C$L1
 62
     3
 10
-149.0927631438
 20
184.9810991038
  0
VERTEX
  8
Layer1$C$L1
 62
     3
 10
-149.1115418444
 20
184.9315146483
  0
VERTEX
  8
Layer1$C$L1
 62
     3
 10
-149.1302782240
 20
184.8820446121
  0
VERTEX
  8
Layer1$C$L1
 62
     3
 10
-149.1489713715
 20
184.8326914005
  0
VERTEX
  8
Layer1$C$L1
 62
     3
 10
-149.1676203780
 20
184.7834574130
  0
SEQEND
  8
Layer1$C$L1
 62
     3
  0
POLYLINE
  8
Layer1$C$L1
 62
     3
 66
     1
  0
VERTEX
  8
Layer1$C$L1
 62
     3
 10
-147.0666286048
 20
181.3128667433
  0
VERTEX
  8
Layer1$C$L1
 62
     3
 10
-146.9959893451
 20
181.3881467992
  0
VERTEX
  8
Layer1$C$L1
 62
     3
 10
-146.9255469177
 20
181.4636977874
  0
VERTEX
  8
Layer1$C$L1
 62
     3
 10
-146.8553130892
 20
181.5395070877
  0
VERTEX
  8
Layer1$C$L1
 62
     3
 10
-146.7852995917
 20
181.6155620368
  0
VERTEX
  8
Layer1$C$L1
 62
     3
 10
-146.7155181202
 20
181.6918499303
  0
VERTEX
  8
Layer1$C$L1
 62
     3
 10
-146.6459803312
 20
181.7683580251
  0
VERTEX
  8
Layer1$C$L1
 62
     3
 10
-146.5766978403
 20
181.8450735411
  0
VERTEX
  8
Layer1$C$L1
 62
     3
 10
-146.5076822206
 20
181.9219836637
  0
SEQEND
  8
Layer1$C$L1
 62
     3
  0
POLYLINE
  8
Layer1$C$L1
 62
     3
 66
     1
  0
VERTEX
  8
Layer1$C$L1
 62
     3
 10
-157.3676203780
 20
183.9253747930
  0
VERTEX
  8
Layer1$C$L1
 62
     3
 10
-157.3489713715
 20
183.8730520856
  0
VERTEX
  8
Layer1$C$L1
 62
     3
 10
-157.3302782240
 20
183.8207093457
  0
VERTEX
  8
Layer1$C$L1
 62
     3
 10
-157.3115418444
 20
183.7683491182
  0
VERTEX
  8
Layer1$C$L1
 62
     3
 10
-157.2927631438
 20
183.7159739488
  0
VERTEX
  8
Layer1$C$L1
 62
     3
 10
-157.2739430351
 20
183.6635863843
  0
VERTEX
  8
Layer1$C$L1
 62
     3
 10
-157.2550824335
 20
183.6111889716
  0
VERTEX
  8
Layer1$C$L1
 62
     3
 10
-157.2361822559
 20
183.5587842586
  0
VERTEX
  8
Layer1$C$L1
 62
     3
 10
-157.2172434213
 20
183.5063747930
  0
SEQEND
  8
Layer1$C$L1
 62
     3
  0
POLYLINE
  8
Layer1$C$L1
 62
     3
 66
     1
  0
VERTEX
  8
Layer1$C$L1
 62
     3
 10
-149.0172434213
 20
180.9004963078
  0
VERTEX
  8
Layer1$C$L1
 62
     3
 10
-149.0361822559
 20
180.9517256505
  0
VERTEX
  8
Layer1$C$L1
 62
     3
 10
-149.0550824335
 20
181.0030505557
  0
VERTEX
  8
Layer1$C$L1
 62
     3
 10
-149.0739430351
 20
181.0544685280
  0
VERTEX
  8
Layer1$C$L1
 62
     3
 10
-149.0927631438
 20
181.1059770673
  0
VERTEX
  8
Layer1$C$L1
 62
     3
 10
-149.1115418444
 20
181.1575736692
  0
VERTEX
  8
Layer1$C$L1
 62
     3
 10
-149.1302782240
 20
181.2092558251
  0
VERTEX
  8
Layer1$C$L1
 62
     3
 10
-149.1489713715
 20
181.2610210221
  0
VERTEX
  8
Layer1$C$L1
 62
     3
 10
-149.1676203780
 20
181.3128667433
  0
SEQEND
  8
Layer1$C$L1
 62
     3
  0
POLYLINE
  8
Layer1$C$L1
 62
     3
 66
     1
  0
VERTEX
  8
Layer1$C$L1
 62
     3
 10
-156.7361244914
 20
184.5568706796
  0
VERTEX
  8
Layer1$C$L1
 62
     3
 10
-156.8103168864
 20
184.6275099392
  0
VERTEX
  8
Layer1$C$L1
 62
     3
 10
-156.8844361681
 20
184.6979523667
  0
VERTEX
  8
Layer1$C$L1
 62
     3
 10
-156.9584699558
 20
184.7681861951
  0
VERTEX
  8
Layer1$C$L1
 62
     3
 10
-157.0324058825
 20
184.8381996927
  0
VERTEX
  8
Layer1$C$L1
 62
     3
 10
-157.1062315980
 20
184.9079811642
  0
VERTEX
  8
Layer1$C$L1
 62
     3
 10
-157.1799347703
 20
184.9775189532
  0
VERTEX
  8
Layer1$C$L1
 62
     3
 10
-157.2535030880
 20
185.0468014441
  0
VERTEX
  8
Layer1$C$L1
 62
     3
 10
-157.3269242621
 20
185.1158170638
  0
SEQEND
  8
Layer1$C$L1
 62
     3
  0
POLYLINE
  8
Layer1$C$L1
 62
     3
 66
     1
  0
VERTEX
  8
Layer1$C$L1
 62
     3
 10
-155.3073247206
 20
185.1158170638
  0
VERTEX
  8
Layer1$C$L1
 62
     3
 10
-155.3807458947
 20
185.0468014441
  0
VERTEX
  8
Layer1$C$L1
 62
     3
 10
-155.4543142124
 20
184.9775189532
  0
VERTEX
  8
Layer1$C$L1
 62
     3
 10
-155.5280173847
 20
184.9079811642
  0
VERTEX
  8
Layer1$C$L1
 62
     3
 10
-155.6018431003
 20
184.8381996927
  0
VERTEX
  8
Layer1$C$L1
 62
     3
 10
-155.6757790270
 20
184.7681861951
  0
VERTEX
  8
Layer1$C$L1
 62
     3
 10
-155.7498128146
 20
184.6979523667
  0
VERTEX
  8
Layer1$C$L1
 62
     3
 10
-155.8239320964
 20
184.6275099392
  0
VERTEX
  8
Layer1$C$L1
 62
     3
 10
-155.8981244914
 20
184.5568706796
  0
SEQEND
  8
Layer1$C$L1
 62
     3
  0
POLYLINE
  8
Layer1$C$L1
 62
     3
 66
     1
  0
VERTEX
  8
Layer1$C$L1
 62
     3
 10
-156.3171244914
 20
184.4064937229
  0
VERTEX
  8
Layer1$C$L1
 62
     3
 10
-156.3695339569
 20
184.4254325575
  0
VERTEX
  8
Layer1$C$L1
 62
     3
 10
-156.4219386700
 20
184.4443327351
  0
VERTEX
  8
Layer1$C$L1
 62
     3
 10
-156.4743360827
 20
184.4631933367
  0
VERTEX
  8
Layer1$C$L1
 62
     3
 10
-156.5267236472
 20
184.4820134454
  0
VERTEX
  8
Layer1$C$L1
 62
     3
 10
-156.5790988166
 20
184.5007921460
  0
VERTEX
  8
Layer1$C$L1
 62
     3
 10
-156.6314590441
 20
184.5195285256
  0
VERTEX
  8
Layer1$C$L1
 62
     3
 10
-156.6838017840
 20
184.5382216731
  0
VERTEX
  8
Layer1$C$L1
 62
     3
 10
-156.7361244914
 20
184.5568706796
  0
SEQEND
  8
Layer1$C$L1
 62
     3
  0
POLYLINE
  8
Layer1$C$L1
 62
     3
 66
     1
  0
VERTEX
  8
Layer1$C$L1
 62
     3
 10
-155.8981244914
 20
184.5568706796
  0
VERTEX
  8
Layer1$C$L1
 62
     3
 10
-155.9504471987
 20
184.5382216731
  0
VERTEX
  8
Layer1$C$L1
 62
     3
 10
-156.0027899386
 20
184.5195285256
  0
VERTEX
  8
Layer1$C$L1
 62
     3
 10
-156.0551501662
 20
184.5007921460
  0
VERTEX
  8
Layer1$C$L1
 62
     3
 10
-156.1075253355
 20
184.4820134454
  0
VERTEX
  8
Layer1$C$L1
 62
     3
 10
-156.1599129001
 20
184.4631933367
  0
VERTEX
  8
Layer1$C$L1
 62
     3
 10
-156.2123103127
 20
184.4443327351
  0
VERTEX
  8
Layer1$C$L1
 62
     3
 10
-156.2647150258
 20
184.4254325575
  0
VERTEX
  8
Layer1$C$L1
 62
     3
 10
-156.3171244914
 20
184.4064937229
  0
SEQEND
  8
Layer1$C$L1
 62
     3
  0
POLYLINE
  8
Layer1$C$L1
 62
     3
 66
     1
  0
VERTEX
  8
Layer1$C$L1
 62
     3
 10
-148.5361244914
 20
181.9228449293
  0
VERTEX
  8
Layer1$C$L1
 62
     3
 10
-148.4838017840
 20
181.9035255055
  0
VERTEX
  8
Layer1$C$L1
 62
     3
 10
-148.4314590441
 20
181.8842633189
  0
VERTEX
  8
Layer1$C$L1
 62
     3
 10
-148.3790988166
 20
181.8650593061
  0
VERTEX
  8
Layer1$C$L1
 62
     3
 10
-148.3267236472
 20
181.8459144010
  0
VERTEX
  8
Layer1$C$L1
 62
     3
 10
-148.2743360827
 20
181.8268295342
  0
VERTEX
  8
Layer1$C$L1
 62
     3
 10
-148.2219386700
 20
181.8078056338
  0
VERTEX
  8
Layer1$C$L1
 62
     3
 10
-148.1695339569
 20
181.7888436247
  0
VERTEX
  8
Layer1$C$L1
 62
     3
 10
-148.1171244914
 20
181.7699444289
  0
SEQEND
  8
Layer1$C$L1
 62
     3
  0
POLYLINE
  8
Layer1$C$L1
 62
     3
 66
     1
  0
VERTEX
  8
Layer1$C$L1
 62
     3
 10
-149.1676203780
 20
184.7834574130
  0
VERTEX
  8
Layer1$C$L1
 62
     3
 10
-149.2382596376
 20
184.7154087681
  0
VERTEX
  8
Layer1$C$L1
 62
     3
 10
-149.3087020651
 20
184.6477722993
  0
VERTEX
  8
Layer1$C$L1
 62
     3
 10
-149.3789358935
 20
184.5805593047
  0
VERTEX
  8
Layer1$C$L1
 62
     3
 10
-149.4489493911
 20
184.5137810115
  0
VERTEX
  8
Layer1$C$L1
 62
     3
 10
-149.5187308626
 20
184.4474485745
  0
VERTEX
  8
Layer1$C$L1
 62
     3
 10
-149.5882686516
 20
184.3815730740
  0
VERTEX
  8
Layer1$C$L1
 62
     3
 10
-149.6575511425
 20
184.3161655139
  0
VERTEX
  8
Layer1$C$L1
 62
     3
 10
-149.7265667622
 20
184.2512368200
  0
SEQEND
  8
Layer1$C$L1
 62
     3
  0
POLYLINE
  8
Layer1$C$L1
 62
     3
 66
     1
  0
VERTEX
  8
Layer1$C$L1
 62
     3
 10
-146.5076822206
 20
184.2512368200
  0
VERTEX
  8
Layer1$C$L1
 62
     3
 10
-146.5766978403
 20
184.3161655139
  0
VERTEX
  8
Layer1$C$L1
 62
     3
 10
-146.6459803312
 20
184.3815730740
  0
VERTEX
  8
Layer1$C$L1
 62
     3
 10
-146.7155181202
 20
184.4474485745
  0
VERTEX
  8
Layer1$C$L1
 62
     3
 10
-146.7852995917
 20
184.5137810115
  0
VERTEX
  8
Layer1$C$L1
 62
     3
 10
-146.8553130892
 20
184.5805593047
  0
VERTEX
  8
Layer1$C$L1
 62
     3
 10
-146.9255469177
 20
184.6477722993
  0
VERTEX
  8
Layer1$C$L1
 62
     3
 10
-146.9959893451
 20
184.7154087681
  0
VERTEX
  8
Layer1$C$L1
 62
     3
 10
-147.0666286048
 20
184.7834574130
  0
SEQEND
  8
Layer1$C$L1
 62
     3
  0
POLYLINE
  8
Layer1$C$L1
 62
     3
 66
     1
  0
VERTEX
  8
Layer1$C$L1
 62
     3
 10
-155.4170055615
 20
183.5063747930
  0
VERTEX
  8
Layer1$C$L1
 62
     3
 10
-155.3980667269
 20
183.4539653274
  0
VERTEX
  8
Layer1$C$L1
 62
     3
 10
-155.3791665493
 20
183.4015606143
  0
VERTEX
  8
Layer1$C$L1
 62
     3
 10
-155.3603059476
 20
183.3491632017
  0
VERTEX
  8
Layer1$C$L1
 62
     3
 10
-155.3414858389
 20
183.2967756371
  0
VERTEX
  8
Layer1$C$L1
 62
     3
 10
-155.3227071383
 20
183.2444004678
  0
VERTEX
  8
Layer1$C$L1
 62
     3
 10
-155.3039707588
 20
183.1920402403
  0
VERTEX
  8
Layer1$C$L1
 62
     3
 10
-155.2852776113
 20
183.1396975003
  0
VERTEX
  8
Layer1$C$L1
 62
     3
 10
-155.2666286048
 20
183.0873747930
  0
SEQEND
  8
Layer1$C$L1
 62
     3
  0
POLYLINE
  8
Layer1$C$L1
 62
     3
 66
     1
  0
VERTEX
  8
Layer1$C$L1
 62
     3
 10
-148.1171244914
 20
184.3110846988
  0
VERTEX
  8
Layer1$C$L1
 62
     3
 10
-148.0647150258
 20
184.2933968757
  0
VERTEX
  8
Layer1$C$L1
 62
     3
 10
-148.0123103127
 20
184.2758465455
  0
VERTEX
  8
Layer1$C$L1
 62
     3
 10
-147.9599129001
 20
184.2584345614
  0
VERTEX
  8
Layer1$C$L1
 62
     3
 10
-147.9075253355
 20
184.2411617701
  0
VERTEX
  8
Layer1$C$L1
 62
     3
 10
-147.8551501662
 20
184.2240290114
  0
VERTEX
  8
Layer1$C$L1
 62
     3
 10
-147.8027899386
 20
184.2070371184
  0
VERTEX
  8
Layer1$C$L1
 62
     3
 10
-147.7504471987
 20
184.1901869171
  0
VERTEX
  8
Layer1$C$L1
 62
     3
 10
-147.6981244914
 20
184.1734792269
  0
SEQEND
  8
Layer1$C$L1
 62
     3
  0
POLYLINE
  8
Layer1$C$L1
 62
     3
 66
     1
  0
VERTEX
  8
Layer1$C$L1
 62
     3
 10
-149.7493897093
 20
178.8860248718
  0
VERTEX
  8
Layer1$C$L1
 62
     3
 10
-149.8615245412
 20
178.9632873859
  0
VERTEX
  8
Layer1$C$L1
 62
     3
 10
-149.9697461327
 20
179.0455919430
  0
VERTEX
  8
Layer1$C$L1
 62
     3
 10
-150.0738117084
 20
179.1327539079
  0
VERTEX
  8
Layer1$C$L1
 62
     3
 10
-150.1734878163
 20
179.2245777487
  0
VERTEX
  8
Layer1$C$L1
 62
     3
 10
-150.2685508515
 20
179.3208574757
  0
VERTEX
  8
Layer1$C$L1
 62
     3
 10
-150.3587875576
 20
179.4213771028
  0
VERTEX
  8
Layer1$C$L1
 62
     3
 10
-150.4439955051
 20
179.5259111330
  0
VERTEX
  8
Layer1$C$L1
 62
     3
 10
-150.5239835456
 20
179.6342250632
  0
SEQEND
  8
Layer1$C$L1
 62
     3
  0
POLYLINE
  8
Layer1$C$L1
 62
     3
 66
     1
  0
VERTEX
  8
Layer1$C$L1
 62
     3
 10
-157.9265667622
 20
184.5161745637
  0
VERTEX
  8
Layer1$C$L1
 62
     3
 10
-157.8575511425
 20
184.4427533896
  0
VERTEX
  8
Layer1$C$L1
 62
     3
 10
-157.7882686516
 20
184.3691850720
  0
VERTEX
  8
Layer1$C$L1
 62
     3
 10
-157.7187308626
 20
184.2954818996
  0
VERTEX
  8
Layer1$C$L1
 62
     3
 10
-157.6489493911
 20
184.2216561841
  0
VERTEX
  8
Layer1$C$L1
 62
     3
 10
-157.5789358935
 20
184.1477202574
  0
VERTEX
  8
Layer1$C$L1
 62
     3
 10
-157.5087020651
 20
184.0736864697
  0
VERTEX
  8
Layer1$C$L1
 62
     3
 10
-157.4382596376
 20
183.9995671880
  0
VERTEX
  8
Layer1$C$L1
 62
     3
 10
-157.3676203780
 20
183.9253747930
  0
SEQEND
  8
Layer1$C$L1
 62
     3
  0
POLYLINE
  8
Layer1$C$L1
 62
     3
 66
     1
  0
VERTEX
  8
Layer1$C$L1
 62
     3
 10
-155.2666286048
 20
183.9253747930
  0
VERTEX
  8
Layer1$C$L1
 62
     3
 10
-155.1959893451
 20
183.9995671880
  0
VERTEX
  8
Layer1$C$L1
 62
     3
 10
-155.1255469177
 20
184.0736864697
  0
VERTEX
  8
Layer1$C$L1
 62
     3
 10
-155.0553130892
 20
184.1477202574
  0
VERTEX
  8
Layer1$C$L1
 62
     3
 10
-154.9852995917
 20
184.2216561841
  0
VERTEX
  8
Layer1$C$L1
 62
     3
 10
-154.9155181202
 20
184.2954818996
  0
VERTEX
  8
Layer1$C$L1
 62
     3
 10
-154.8459803312
 20
184.3691850720
  0
VERTEX
  8
Layer1$C$L1
 62
     3
 10
-154.7766978403
 20
184.4427533896
  0
VERTEX
  8
Layer1$C$L1
 62
     3
 10
-154.7076822206
 20
184.5161745637
  0
SEQEND
  8
Layer1$C$L1
 62
     3
  0
POLYLINE
  8
Layer1$C$L1
 62
     3
 66
     1
  0
VERTEX
  8
Layer1$C$L1
 62
     3
 10
-148.5361244914
 20
179.8934427147
  0
VERTEX
  8
Layer1$C$L1
 62
     3
 10
-148.4838017840
 20
179.9101504049
  0
VERTEX
  8
Layer1$C$L1
 62
     3
 10
-148.4314590441
 20
179.9270006062
  0
VERTEX
  8
Layer1$C$L1
 62
     3
 10
-148.3790988166
 20
179.9439924993
  0
VERTEX
  8
Layer1$C$L1
 62
     3
 10
-148.3267236472
 20
179.9611252579
  0
VERTEX
  8
Layer1$C$L1
 62
     3
 10
-148.2743360827
 20
179.9783980492
  0
VERTEX
  8
Layer1$C$L1
 62
     3
 10
-148.2219386700
 20
179.9958100333
  0
VERTEX
  8
Layer1$C$L1
 62
     3
 10
-148.1695339569
 20
180.0133603635
  0
VERTEX
  8
Layer1$C$L1
 62
     3
 10
-148.1171244914
 20
180.0310481867
  0
SEQEND
  8
Layer1$C$L1
 62
     3
  0
POLYLINE
  8
Layer1$C$L1
 62
     3
 66
     1
  0
VERTEX
  8
Layer1$C$L1
 62
     3
 10
-147.6981244914
 20
184.1734792269
  0
VERTEX
  8
Layer1$C$L1
 62
     3
 10
-147.6239320964
 20
184.1088626473
  0
VERTEX
  8
Layer1$C$L1
 62
     3
 10
-147.5498128146
 20
184.0447777470
  0
VERTEX
  8
Layer1$C$L1
 62
     3
 10
-147.4757790270
 20
183.9812352310
  0
VERTEX
  8
Layer1$C$L1
 62
     3
 10
-147.4018431003
 20
183.9182457135
  0
VERTEX
  8
Layer1$C$L1
 62
     3
 10
-147.3280173847
 20
183.8558197163
  0
VERTEX
  8
Layer1$C$L1
 62
     3
 10
-147.2543142124
 20
183.7939676671
  0
VERTEX
  8
Layer1$C$L1
 62
     3
 10
-147.1807458947
 20
183.7326998978
  0
VERTEX
  8
Layer1$C$L1
 62
     3
 10
-147.1073247206
 20
183.6720266427
  0
SEQEND
  8
Layer1$C$L1
 62
     3
  0
POLYLINE
  8
Layer1$C$L1
 62
     3
 66
     1
  0
VERTEX
  8
Layer1$C$L1
 62
     3
 10
-146.5076822206
 20
184.2512368200
  0
VERTEX
  8
Layer1$C$L1
 62
     3
 10
-146.5670152187
 20
184.1653571977
  0
VERTEX
  8
Layer1$C$L1
 62
     3
 10
-146.6312541356
 20
184.0828363778
  0
VERTEX
  8
Layer1$C$L1
 62
     3
 10
-146.7001956624
 20
184.0039355293
  0
VERTEX
  8
Layer1$C$L1
 62
     3
 10
-146.7736216071
 20
183.9289043644
  0
VERTEX
  8
Layer1$C$L1
 62
     3
 10
-146.8512995850
 20
183.8579803481
  0
VERTEX
  8
Layer1$C$L1
 62
     3
 10
-146.9329837540
 20
183.7913879468
  0
VERTEX
  8
Layer1$C$L1
 62
     3
 10
-147.0184155932
 20
183.7293379179
  0
VERTEX
  8
Layer1$C$L1
 62
     3
 10
-147.1073247206
 20
183.6720266427
  0
SEQEND
  8
Layer1$C$L1
 62
     3
  0
POLYLINE
  8
Layer1$C$L1
 62
     3
 66
     1
  0
VERTEX
  8
Layer1$C$L1
 62
     3
 10
-149.1269242621
 20
183.6720266427
  0
VERTEX
  8
Layer1$C$L1
 62
     3
 10
-149.0535030880
 20
183.7326998978
  0
VERTEX
  8
Layer1$C$L1
 62
     3
 10
-148.9799347703
 20
183.7939676671
  0
VERTEX
  8
Layer1$C$L1
 62
     3
 10
-148.9062315980
 20
183.8558197163
  0
VERTEX
  8
Layer1$C$L1
 62
     3
 10
-148.8324058825
 20
183.9182457135
  0
VERTEX
  8
Layer1$C$L1
 62
     3
 10
-148.7584699558
 20
183.9812352310
  0
VERTEX
  8
Layer1$C$L1
 62
     3
 10
-148.6844361681
 20
184.0447777470
  0
VERTEX
  8
Layer1$C$L1
 62
     3
 10
-148.6103168864
 20
184.1088626473
  0
VERTEX
  8
Layer1$C$L1
 62
     3
 10
-148.5361244914
 20
184.1734792269
  0
SEQEND
  8
Layer1$C$L1
 62
     3
  0
POLYLINE
  8
Layer1$C$L1
 62
     3
 66
     1
  0
VERTEX
  8
Layer1$C$L1
 62
     3
 10
-149.1269242621
 20
179.3919901305
  0
VERTEX
  8
Layer1$C$L1
 62
     3
 10
-149.0535030880
 20
179.4526633857
  0
VERTEX
  8
Layer1$C$L1
 62
     3
 10
-148.9799347703
 20
179.5139311549
  0
VERTEX
  8
Layer1$C$L1
 62
     3
 10
-148.9062315980
 20
179.5757832041
  0
VERTEX
  8
Layer1$C$L1
 62
     3
 10
-148.8324058825
 20
179.6382092013
  0
VERTEX
  8
Layer1$C$L1
 62
     3
 10
-148.7584699558
 20
179.7011987188
  0
VERTEX
  8
Layer1$C$L1
 62
     3
 10
-148.6844361681
 20
179.7647412348
  0
VERTEX
  8
Layer1$C$L1
 62
     3
 10
-148.6103168864
 20
179.8288261351
  0
VERTEX
  8
Layer1$C$L1
 62
     3
 10
-148.5361244914
 20
179.8934427147
  0
SEQEND
  8
Layer1$C$L1
 62
     3
  0
POLYLINE
  8
Layer1$C$L1
 62
     3
 66
     1
  0
VERTEX
  8
Layer1$C$L1
 62
     3
 10
-146.5076822206
 20
179.9712003078
  0
VERTEX
  8
Layer1$C$L1
 62
     3
 10
-146.5766978403
 20
180.0361290017
  0
VERTEX
  8
Layer1$C$L1
 62
     3
 10
-146.6459803312
 20
180.1015365618
  0
VERTEX
  8
Layer1$C$L1
 62
     3
 10
-146.7155181202
 20
180.1674120623
  0
VERTEX
  8
Layer1$C$L1
 62
     3
 10
-146.7852995917
 20
180.2337444993
  0
VERTEX
  8
Layer1$C$L1
 62
     3
 10
-146.8553130892
 20
180.3005227925
  0
VERTEX
  8
Layer1$C$L1
 62
     3
 10
-146.9255469177
 20
180.3677357872
  0
VERTEX
  8
Layer1$C$L1
 62
     3
 10
-146.9959893451
 20
180.4353722560
  0
VERTEX
  8
Layer1$C$L1
 62
     3
 10
-147.0666286048
 20
180.5034209008
  0
SEQEND
  8
Layer1$C$L1
 62
     3
  0
POLYLINE
  8
Layer1$C$L1
 62
     3
 66
     1
  0
VERTEX
  8
Layer1$C$L1
 62
     3
 10
-155.4170055615
 20
183.5063747930
  0
VERTEX
  8
Layer1$C$L1
 62
     3
 10
-155.3980667269
 20
183.5587842586
  0
VERTEX
  8
Layer1$C$L1
 62
     3
 10
-155.3791665493
 20
183.6111889716
  0
VERTEX
  8
Layer1$C$L1
 62
     3
 10
-155.3603059476
 20
183.6635863843
  0
VERTEX
  8
Layer1$C$L1
 62
     3
 10
-155.3414858389
 20
183.7159739488
  0
VERTEX
  8
Layer1$C$L1
 62
     3
 10
-155.3227071383
 20
183.7683491182
  0
VERTEX
  8
Layer1$C$L1
 62
     3
 10
-155.3039707588
 20
183.8207093457
  0
VERTEX
  8
Layer1$C$L1
 62
     3
 10
-155.2852776113
 20
183.8730520856
  0
VERTEX
  8
Layer1$C$L1
 62
     3
 10
-155.2666286048
 20
183.9253747930
  0
SEQEND
  8
Layer1$C$L1
 62
     3
  0
POLYLINE
  8
Layer1$C$L1
 62
     3
 66
     1
  0
VERTEX
  8
Layer1$C$L1
 62
     3
 10
-149.7493897093
 20
183.1660613840
  0
VERTEX
  8
Layer1$C$L1
 62
     3
 10
-149.8615245412
 20
183.2433238981
  0
VERTEX
  8
Layer1$C$L1
 62
     3
 10
-149.9697461327
 20
183.3256284552
  0
VERTEX
  8
Layer1$C$L1
 62
     3
 10
-150.0738117084
 20
183.4127904200
  0
VERTEX
  8
Layer1$C$L1
 62
     3
 10
-150.1734878163
 20
183.5046142609
  0
VERTEX
  8
Layer1$C$L1
 62
     3
 10
-150.2685508515
 20
183.6008939878
  0
VERTEX
  8
Layer1$C$L1
 62
     3
 10
-150.3587875576
 20
183.7014136150
  0
VERTEX
  8
Layer1$C$L1
 62
     3
 10
-150.4439955051
 20
183.8059476451
  0
VERTEX
  8
Layer1$C$L1
 62
     3
 10
-150.5239835456
 20
183.9142615754
  0
SEQEND
  8
Layer1$C$L1
 62
     3
  0
POLYLINE
  8
Layer1$C$L1
 62
     3
 66
     1
  0
VERTEX
  8
Layer1$C$L1
 62
     3
 10
-147.6981244914
 20
179.8934427147
  0
VERTEX
  8
Layer1$C$L1
 62
     3
 10
-147.6239320964
 20
179.8288261351
  0
VERTEX
  8
Layer1$C$L1
 62
     3
 10
-147.5498128146
 20
179.7647412348
  0
VERTEX
  8
Layer1$C$L1
 62
     3
 10
-147.4757790270
 20
179.7011987188
  0
VERTEX
  8
Layer1$C$L1
 62
     3
 10
-147.4018431003
 20
179.6382092013
  0
VERTEX
  8
Layer1$C$L1
 62
     3
 10
-147.3280173847
 20
179.5757832041
  0
VERTEX
  8
Layer1$C$L1
 62
     3
 10
-147.2543142124
 20
179.5139311549
  0
VERTEX
  8
Layer1$C$L1
 62
     3
 10
-147.1807458947
 20
179.4526633857
  0
VERTEX
  8
Layer1$C$L1
 62
     3
 10
-147.1073247206
 20
179.3919901305
  0
SEQEND
  8
Layer1$C$L1
 62
     3
  0
POLYLINE
  8
Layer1$C$L1
 62
     3
 66
     1
  0
VERTEX
  8
Layer1$C$L1
 62
     3
 10
-156.3171244914
 20
182.6062558631
  0
VERTEX
  8
Layer1$C$L1
 62
     3
 10
-156.3695339569
 20
182.5873170285
  0
VERTEX
  8
Layer1$C$L1
 62
     3
 10
-156.4219386700
 20
182.5684168509
  0
VERTEX
  8
Layer1$C$L1
 62
     3
 10
-156.4743360827
 20
182.5495562492
  0
VERTEX
  8
Layer1$C$L1
 62
     3
 10
-156.5267236472
 20
182.5307361405
  0
VERTEX
  8
Layer1$C$L1
 62
     3
 10
-156.5790988166
 20
182.5119574399
  0
VERTEX
  8
Layer1$C$L1
 62
     3
 10
-156.6314590441
 20
182.4932210604
  0
VERTEX
  8
Layer1$C$L1
 62
     3
 10
-156.6838017840
 20
182.4745279129
  0
VERTEX
  8
Layer1$C$L1
 62
     3
 10
-156.7361244914
 20
182.4558789064
  0
SEQEND
  8
Layer1$C$L1
 62
     3
  0
POLYLINE
  8
Layer1$C$L1
 62
     3
 66
     1
  0
VERTEX
  8
Layer1$C$L1
 62
     3
 10
-149.1676203780
 20
181.3128667433
  0
VERTEX
  8
Layer1$C$L1
 62
     3
 10
-149.2382596376
 20
181.3881467992
  0
VERTEX
  8
Layer1$C$L1
 62
     3
 10
-149.3087020651
 20
181.4636977874
  0
VERTEX
  8
Layer1$C$L1
 62
     3
 10
-149.3789358935
 20
181.5395070877
  0
VERTEX
  8
Layer1$C$L1
 62
     3
 10
-149.4489493911
 20
181.6155620368
  0
VERTEX
  8
Layer1$C$L1
 62
     3
 10
-149.5187308626
 20
181.6918499303
  0
VERTEX
  8
Layer1$C$L1
 62
     3
 10
-149.5882686516
 20
181.7683580251
  0
VERTEX
  8
Layer1$C$L1
 62
     3
 10
-149.6575511425
 20
181.8450735411
  0
VERTEX
  8
Layer1$C$L1
 62
     3
 10
-149.7265667622
 20
181.9219836637
  0
SEQEND
  8
Layer1$C$L1
 62
     3
  0
POLYLINE
  8
Layer1$C$L1
 62
     3
 66
     1
  0
VERTEX
  8
Layer1$C$L1
 62
     3
 10
-157.2172434213
 20
183.5063747930
  0
VERTEX
  8
Layer1$C$L1
 62
     3
 10
-157.2361822559
 20
183.4539653274
  0
VERTEX
  8
Layer1$C$L1
 62
     3
 10
-157.2550824335
 20
183.4015606143
  0
VERTEX
  8
Layer1$C$L1
 62
     3
 10
-157.2739430351
 20
183.3491632017
  0
VERTEX
  8
Layer1$C$L1
 62
     3
 10
-157.2927631438
 20
183.2967756371
  0
VERTEX
  8
Layer1$C$L1
 62
     3
 10
-157.3115418444
 20
183.2444004678
  0
VERTEX
  8
Layer1$C$L1
 62
     3
 10
-157.3302782240
 20
183.1920402403
  0
VERTEX
  8
Layer1$C$L1
 62
     3
 10
-157.3489713715
 20
183.1396975003
  0
VERTEX
  8
Layer1$C$L1
 62
     3
 10
-157.3676203780
 20
183.0873747930
  0
SEQEND
  8
Layer1$C$L1
 62
     3
  0
POLYLINE
  8
Layer1$C$L1
 62
     3
 66
     1
  0
VERTEX
  8
Layer1$C$L1
 62
     3
 10
-149.1269242621
 20
182.5011938411
  0
VERTEX
  8
Layer1$C$L1
 62
     3
 10
-149.0535030880
 20
182.4285391572
  0
VERTEX
  8
Layer1$C$L1
 62
     3
 10
-148.9799347703
 20
182.3559634320
  0
VERTEX
  8
Layer1$C$L1
 62
     3
 10
-148.9062315980
 20
182.2834787886
  0
VERTEX
  8
Layer1$C$L1
 62
     3
 10
-148.8324058825
 20
182.2110973348
  0
VERTEX
  8
Layer1$C$L1
 62
     3
 10
-148.7584699558
 20
182.1388311614
  0
VERTEX
  8
Layer1$C$L1
 62
     3
 10
-148.6844361681
 20
182.0666923398
  0
VERTEX
  8
Layer1$C$L1
 62
     3
 10
-148.6103168864
 20
181.9946929201
  0
VERTEX
  8
Layer1$C$L1
 62
     3
 10
-148.5361244914
 20
181.9228449293
  0
SEQEND
  8
Layer1$C$L1
 62
     3
  0
POLYLINE
  8
Layer1$C$L1
 62
     3
 66
     1
  0
VERTEX
  8
Layer1$C$L1
 62
     3
 10
-147.6981244914
 20
181.9228449293
  0
VERTEX
  8
Layer1$C$L1
 62
     3
 10
-147.6239320964
 20
181.9946929201
  0
VERTEX
  8
Layer1$C$L1
 62
     3
 10
-147.5498128146
 20
182.0666923398
  0
VERTEX
  8
Layer1$C$L1
 62
     3
 10
-147.4757790270
 20
182.1388311614
  0
VERTEX
  8
Layer1$C$L1
 62
     3
 10
-147.4018431003
 20
182.2110973348
  0
VERTEX
  8
Layer1$C$L1
 62
     3
 10
-147.3280173847
 20
182.2834787886
  0
VERTEX
  8
Layer1$C$L1
 62
     3
 10
-147.2543142124
 20
182.3559634320
  0
VERTEX
  8
Layer1$C$L1
 62
     3
 10
-147.1807458947
 20
182.4285391572
  0
VERTEX
  8
Layer1$C$L1
 62
     3
 10
-147.1073247206
 20
182.5011938411
  0
SEQEND
  8
Layer1$C$L1
 62
     3
  0
POLYLINE
  8
Layer1$C$L1
 62
     3
 66
     1
  0
VERTEX
  8
Layer1$C$L1
 62
     3
 10
-149.7265667622
 20
181.9219836637
  0
VERTEX
  8
Layer1$C$L1
 62
     3
 10
-149.6672337640
 20
182.0078632861
  0
VERTEX
  8
Layer1$C$L1
 62
     3
 10
-149.6029948471
 20
182.0903841060
  0
VERTEX
  8
Layer1$C$L1
 62
     3
 10
-149.5340533203
 20
182.1692849544
  0
VERTEX
  8
Layer1$C$L1
 62
     3
 10
-149.4606273756
 20
182.2443161194
  0
VERTEX
  8
Layer1$C$L1
 62
     3
 10
-149.3829493978
 20
182.3152401357
  0
VERTEX
  8
Layer1$C$L1
 62
     3
 10
-149.3012652287
 20
182.3818325369
  0
VERTEX
  8
Layer1$C$L1
 62
     3
 10
-149.2158333895
 20
182.4438825658
  0
VERTEX
  8
Layer1$C$L1
 62
     3
 10
-149.1269242621
 20
182.5011938411
  0
SEQEND
  8
Layer1$C$L1
 62
     3
  0
POLYLINE
  8
Layer1$C$L1
 62
     3
 66
     1
  0
VERTEX
  8
Layer1$C$L1
 62
     3
 10
-148.1171244914
 20
180.0310481867
  0
VERTEX
  8
Layer1$C$L1
 62
     3
 10
-148.0647150258
 20
180.0133603635
  0
VERTEX
  8
Layer1$C$L1
 62
     3
 10
-148.0123103127
 20
179.9958100333
  0
VERTEX
  8
Layer1$C$L1
 62
     3
 10
-147.9599129001
 20
179.9783980492
  0
VERTEX
  8
Layer1$C$L1
 62
     3
 10
-147.9075253355
 20
179.9611252579
  0
VERTEX
  8
Layer1$C$L1
 62
     3
 10
-147.8551501662
 20
179.9439924993
  0
VERTEX
  8
Layer1$C$L1
 62
     3
 10
-147.8027899386
 20
179.9270006062
  0
VERTEX
  8
Layer1$C$L1
 62
     3
 10
-147.7504471987
 20
179.9101504049
  0
VERTEX
  8
Layer1$C$L1
 62
     3
 10
-147.6981244914
 20
179.8934427147
  0
SEQEND
  8
Layer1$C$L1
 62
     3
  0
POLYLINE
  8
Layer1$C$L1
 62
     3
 66
     1
  0
VERTEX
  8
Layer1$C$L1
 62
     3
 10
-147.2170055615
 20
180.9004963078
  0
VERTEX
  8
Layer1$C$L1
 62
     3
 10
-147.1980667269
 20
180.9517256505
  0
VERTEX
  8
Layer1$C$L1
 62
     3
 10
-147.1791665493
 20
181.0030505557
  0
VERTEX
  8
Layer1$C$L1
 62
     3
 10
-147.1603059476
 20
181.0544685280
  0
VERTEX
  8
Layer1$C$L1
 62
     3
 10
-147.1414858389
 20
181.1059770673
  0
VERTEX
  8
Layer1$C$L1
 62
     3
 10
-147.1227071383
 20
181.1575736692
  0
VERTEX
  8
Layer1$C$L1
 62
     3
 10
-147.1039707588
 20
181.2092558251
  0
VERTEX
  8
Layer1$C$L1
 62
     3
 10
-147.0852776113
 20
181.2610210221
  0
VERTEX
  8
Layer1$C$L1
 62
     3
 10
-147.0666286048
 20
181.3128667433
  0
SEQEND
  8
Layer1$C$L1
 62
     3
  0
POLYLINE
  8
Layer1$C$L1
 62
     3
 66
     1
  0
VERTEX
  8
Layer1$C$L1
 62
     3
 10
-157.3676203780
 20
183.0873747930
  0
VERTEX
  8
Layer1$C$L1
 62
     3
 10
-157.4382596376
 20
183.0131823980
  0
VERTEX
  8
Layer1$C$L1
 62
     3
 10
-157.5087020651
 20
182.9390631162
  0
VERTEX
  8
Layer1$C$L1
 62
     3
 10
-157.5789358935
 20
182.8650293286
  0
VERTEX
  8
Layer1$C$L1
 62
     3
 10
-157.6489493911
 20
182.7910934019
  0
VERTEX
  8
Layer1$C$L1
 62
     3
 10
-157.7187308626
 20
182.7172676863
  0
VERTEX
  8
Layer1$C$L1
 62
     3
 10
-157.7882686516
 20
182.6435645140
  0
VERTEX
  8
Layer1$C$L1
 62
     3
 10
-157.8575511425
 20
182.5699961963
  0
VERTEX
  8
Layer1$C$L1
 62
     3
 10
-157.9265667622
 20
182.4965750222
  0
SEQEND
  8
Layer1$C$L1
 62
     3
  0
POLYLINE
  8
Layer1$C$L1
 62
     3
 66
     1
  0
VERTEX
  8
Layer1$C$L1
 62
     3
 10
-155.2666286048
 20
183.0873747930
  0
VERTEX
  8
Layer1$C$L1
 62
     3
 10
-155.1959893451
 20
183.0131823980
  0
VERTEX
  8
Layer1$C$L1
 62
     3
 10
-155.1255469177
 20
182.9390631162
  0
VERTEX
  8
Layer1$C$L1
 62
     3
 10
-155.0553130892
 20
182.8650293286
  0
VERTEX
  8
Layer1$C$L1
 62
     3
 10
-154.9852995917
 20
182.7910934019
  0
VERTEX
  8
Layer1$C$L1
 62
     3
 10
-154.9155181202
 20
182.7172676863
  0
VERTEX
  8
Layer1$C$L1
 62
     3
 10
-154.8459803312
 20
182.6435645140
  0
VERTEX
  8
Layer1$C$L1
 62
     3
 10
-154.7766978403
 20
182.5699961963
  0
VERTEX
  8
Layer1$C$L1
 62
     3
 10
-154.7076822206
 20
182.4965750222
  0
SEQEND
  8
Layer1$C$L1
 62
     3
  0
POLYLINE
  8
Layer1$C$L1
 62
     3
 66
     1
  0
VERTEX
  8
Layer1$C$L1
 62
     3
 10
-148.1171244914
 20
181.7699444289
  0
VERTEX
  8
Layer1$C$L1
 62
     3
 10
-148.0647150258
 20
181.7888436247
  0
VERTEX
  8
Layer1$C$L1
 62
     3
 10
-148.0123103127
 20
181.8078056338
  0
VERTEX
  8
Layer1$C$L1
 62
     3
 10
-147.9599129001
 20
181.8268295342
  0
VERTEX
  8
Layer1$C$L1
 62
     3
 10
-147.9075253355
 20
181.8459144010
  0
VERTEX
  8
Layer1$C$L1
 62
     3
 10
-147.8551501662
 20
181.8650593061
  0
VERTEX
  8
Layer1$C$L1
 62
     3
 10
-147.8027899386
 20
181.8842633189
  0
VERTEX
  8
Layer1$C$L1
 62
     3
 10
-147.7504471987
 20
181.9035255055
  0
VERTEX
  8
Layer1$C$L1
 62
     3
 10
-147.6981244914
 20
181.9228449293
  0
SEQEND
  8
Layer1$C$L1
 62
     3
  0
POLYLINE
  8
Layer1$C$L1
 62
     3
 66
     1
  0
VERTEX
  8
Layer1$C$L1
 62
     3
 10
-155.8981244914
 20
182.4558789064
  0
VERTEX
  8
Layer1$C$L1
 62
     3
 10
-155.9504471987
 20
182.4745279129
  0
VERTEX
  8
Layer1$C$L1
 62
     3
 10
-156.0027899386
 20
182.4932210604
  0
VERTEX
  8
Layer1$C$L1
 62
     3
 10
-156.0551501662
 20
182.5119574399
  0
VERTEX
  8
Layer1$C$L1
 62
     3
 10
-156.1075253355
 20
182.5307361405
  0
VERTEX
  8
Layer1$C$L1
 62
     3
 10
-156.1599129001
 20
182.5495562492
  0
VERTEX
  8
Layer1$C$L1
 62
     3
 10
-156.2123103127
 20
182.5684168509
  0
VERTEX
  8
Layer1$C$L1
 62
     3
 10
-156.2647150258
 20
182.5873170285
  0
VERTEX
  8
Layer1$C$L1
 62
     3
 10
-156.3171244914
 20
182.6062558631
  0
SEQEND
  8
Layer1$C$L1
 62
     3
  0
POLYLINE
  8
Layer1$C$L1
 62
     3
 66
     1
  0
VERTEX
  8
Layer1$C$L1
 62
     3
 10
-156.7361244914
 20
182.4558789064
  0
VERTEX
  8
Layer1$C$L1
 62
     3
 10
-156.8103168864
 20
182.3852396467
  0
VERTEX
  8
Layer1$C$L1
 62
     3
 10
-156.8844361681
 20
182.3147972193
  0
VERTEX
  8
Layer1$C$L1
 62
     3
 10
-156.9584699558
 20
182.2445633908
  0
VERTEX
  8
Layer1$C$L1
 62
     3
 10
-157.0324058825
 20
182.1745498933
  0
VERTEX
  8
Layer1$C$L1
 62
     3
 10
-157.1062315980
 20
182.1047684218
  0
VERTEX
  8
Layer1$C$L1
 62
     3
 10
-157.1799347703
 20
182.0352306328
  0
VERTEX
  8
Layer1$C$L1
 62
     3
 10
-157.2535030880
 20
181.9659481419
  0
VERTEX
  8
Layer1$C$L1
 62
     3
 10
-157.3269242621
 20
181.8969325222
  0
SEQEND
  8
Layer1$C$L1
 62
     3
  0
POLYLINE
  8
Layer1$C$L1
 62
     3
 66
     1
  0
VERTEX
  8
Layer1$C$L1
 62
     3
 10
-149.0172434213
 20
180.9004963078
  0
VERTEX
  8
Layer1$C$L1
 62
     3
 10
-149.0361822559
 20
180.8504783378
  0
VERTEX
  8
Layer1$C$L1
 62
     3
 10
-149.0550824335
 20
180.8005651114
  0
VERTEX
  8
Layer1$C$L1
 62
     3
 10
-149.0739430351
 20
180.7507590555
  0
VERTEX
  8
Layer1$C$L1
 62
     3
 10
-149.0927631438
 20
180.7010625916
  0
VERTEX
  8
Layer1$C$L1
 62
     3
 10
-149.1115418444
 20
180.6514781362
  0
VERTEX
  8
Layer1$C$L1
 62
     3
 10
-149.1302782240
 20
180.6020081000
  0
VERTEX
  8
Layer1$C$L1
 62
     3
 10
-149.1489713715
 20
180.5526548883
  0
VERTEX
  8
Layer1$C$L1
 62
     3
 10
-149.1676203780
 20
180.5034209008
  0
SEQEND
  8
Layer1$C$L1
 62
     3
  0
POLYLINE
  8
Layer1$C$L1
 62
     3
 66
     1
  0
VERTEX
  8
Layer1$C$L1
 62
     3
 10
-147.0666286048
 20
180.5034209008
  0
VERTEX
  8
Layer1$C$L1
 62
     3
 10
-147.0852776113
 20
180.5526548883
  0
VERTEX
  8
Layer1$C$L1
 62
     3
 10
-147.1039707588
 20
180.6020081000
  0
VERTEX
  8
Layer1$C$L1
 62
     3
 10
-147.1227071383
 20
180.6514781362
  0
VERTEX
  8
Layer1$C$L1
 62
     3
 10
-147.1414858389
 20
180.7010625916
  0
VERTEX
  8
Layer1$C$L1
 62
     3
 10
-147.1603059476
 20
180.7507590555
  0
VERTEX
  8
Layer1$C$L1
 62
     3
 10
-147.1791665493
 20
180.8005651114
  0
VERTEX
  8
Layer1$C$L1
 62
     3
 10
-147.1980667269
 20
180.8504783378
  0
VERTEX
  8
Layer1$C$L1
 62
     3
 10
-147.2170055615
 20
180.9004963078
  0
SEQEND
  8
Layer1$C$L1
 62
     3
  0
POLYLINE
  8
Layer1$C$L1
 62
     3
 66
     1
  0
VERTEX
  8
Layer1$C$L1
 62
     3
 10
-149.1676203780
 20
180.5034209008
  0
VERTEX
  8
Layer1$C$L1
 62
     3
 10
-149.2382596376
 20
180.4353722560
  0
VERTEX
  8
Layer1$C$L1
 62
     3
 10
-149.3087020651
 20
180.3677357872
  0
VERTEX
  8
Layer1$C$L1
 62
     3
 10
-149.3789358935
 20
180.3005227925
  0
VERTEX
  8
Layer1$C$L1
 62
     3
 10
-149.4489493911
 20
180.2337444993
  0
VERTEX
  8
Layer1$C$L1
 62
     3
 10
-149.5187308626
 20
180.1674120623
  0
VERTEX
  8
Layer1$C$L1
 62
     3
 10
-149.5882686516
 20
180.1015365618
  0
VERTEX
  8
Layer1$C$L1
 62
     3
 10
-149.6575511425
 20
180.0361290017
  0
VERTEX
  8
Layer1$C$L1
 62
     3
 10
-149.7265667622
 20
179.9712003078
  0
SEQEND
  8
Layer1$C$L1
 62
     3
  0
POLYLINE
  8
Layer1$C$L1
 62
     3
 66
     1
  0
VERTEX
  8
Layer1$C$L1
 62
     3
 10
-155.3073247206
 20
181.8969325222
  0
VERTEX
  8
Layer1$C$L1
 62
     3
 10
-155.3807458947
 20
181.9659481419
  0
VERTEX
  8
Layer1$C$L1
 62
     3
 10
-155.4543142124
 20
182.0352306328
  0
VERTEX
  8
Layer1$C$L1
 62
     3
 10
-155.5280173847
 20
182.1047684218
  0
VERTEX
  8
Layer1$C$L1
 62
     3
 10
-155.6018431003
 20
182.1745498933
  0
VERTEX
  8
Layer1$C$L1
 62
     3
 10
-155.6757790270
 20
182.2445633908
  0
VERTEX
  8
Layer1$C$L1
 62
     3
 10
-155.7498128146
 20
182.3147972193
  0
VERTEX
  8
Layer1$C$L1
 62
     3
 10
-155.8239320964
 20
182.3852396467
  0
VERTEX
  8
Layer1$C$L1
 62
     3
 10
-155.8981244914
 20
182.4558789064
  0
SEQEND
  8
Layer1$C$L1
 62
     3
  0
POLYLINE
  8
Layer1$C$L1
 62
     3
 66
     1
  0
VERTEX
  8
Layer1$C$L1
 62
     3
 10
-146.6494403717
 20
183.0841430299
  0
VERTEX
  8
Layer1$C$L1
 62
     3
 10
-146.1741778692
 20
183.3915887866
  0
VERTEX
  8
Layer1$C$L1
 62
     3
 10
-145.6304046089
 20
184.0314947925
  0
VERTEX
  8
Layer1$C$L1
 62
     3
 10
-145.2990575315
 20
184.7965775031
  0
VERTEX
  8
Layer1$C$L1
 62
     3
 10
-145.2070905713
 20
185.6194782603
  0
VERTEX
  8
Layer1$C$L1
 62
     3
 10
-145.3592451868
 20
186.4298560554
  0
VERTEX
  8
Layer1$C$L1
 62
     3
 10
-145.7171944594
 20
187.1292166771
  0
VERTEX
  8
Layer1$C$L1
 62
     3
 10
-145.7711561261
 20
187.2035008469
  0
SEQEND
  8
Layer1$C$L1
 62
     3
  0
POLYLINE
  8
Layer1$C$L1
 62
     3
 66
     1
  0
VERTEX
  8
Layer1$C$L1
 62
     3
 10
-145.1250707111
 20
183.0920560912
  0
VERTEX
  8
Layer1$C$L1
 62
     3
 10
-145.0875917841
 20
183.1022252773
  0
VERTEX
  8
Layer1$C$L1
 62
     3
 10
-145.0523222448
 20
183.1183881603
  0
VERTEX
  8
Layer1$C$L1
 62
     3
 10
-145.0205567661
 20
183.1399514336
  0
VERTEX
  8
Layer1$C$L1
 62
     3
 10
-144.9934613938
 20
183.1661235535
  0
VERTEX
  8
Layer1$C$L1
 62
     3
 10
-144.9720307438
 20
183.1959437948
  0
VERTEX
  8
Layer1$C$L1
 62
     3
 10
-144.9570514915
 20
183.2283175173
  0
VERTEX
  8
Layer1$C$L1
 62
     3
 10
-144.9490734948
 20
183.2620563477
  0
SEQEND
  8
Layer1$C$L1
 62
     3
  0
POLYLINE
  8
Layer1$C$L1
 62
     3
 66
     1
  0
VERTEX
  8
Layer1$C$L1
 62
     3
 10
-151.2851754879
 20
183.2620563477
  0
VERTEX
  8
Layer1$C$L1
 62
     3
 10
-151.2771974912
 20
183.2283175173
  0
VERTEX
  8
Layer1$C$L1
 62
     3
 10
-151.2622182389
 20
183.1959437948
  0
VERTEX
  8
Layer1$C$L1
 62
     3
 10
-151.2407875890
 20
183.1661235535
  0
VERTEX
  8
Layer1$C$L1
 62
     3
 10
-151.2136922167
 20
183.1399514336
  0
VERTEX
  8
Layer1$C$L1
 62
     3
 10
-151.1819267379
 20
183.1183881603
  0
VERTEX
  8
Layer1$C$L1
 62
     3
 10
-151.1466571986
 20
183.1022252773
  0
VERTEX
  8
Layer1$C$L1
 62
     3
 10
-151.1091782716
 20
183.0920560912
  0
SEQEND
  8
Layer1$C$L1
 62
     3
  0
POLYLINE
  8
Layer1$C$L1
 62
     3
 66
     1
  0
VERTEX
  8
Layer1$C$L1
 62
     3
 10
-145.1250707111
 20
178.8120195790
  0
VERTEX
  8
Layer1$C$L1
 62
     3
 10
-145.0875917841
 20
178.8221887652
  0
VERTEX
  8
Layer1$C$L1
 62
     3
 10
-145.0523222448
 20
178.8383516481
  0
VERTEX
  8
Layer1$C$L1
 62
     3
 10
-145.0205567661
 20
178.8599149214
  0
VERTEX
  8
Layer1$C$L1
 62
     3
 10
-144.9934613938
 20
178.8860870413
  0
VERTEX
  8
Layer1$C$L1
 62
     3
 10
-144.9720307438
 20
178.9159072826
  0
VERTEX
  8
Layer1$C$L1
 62
     3
 10
-144.9570514915
 20
178.9482810051
  0
VERTEX
  8
Layer1$C$L1
 62
     3
 10
-144.9490734948
 20
178.9820198356
  0
SEQEND
  8
Layer1$C$L1
 62
     3
  0
POLYLINE
  8
Layer1$C$L1
 62
     3
 66
     1
  0
VERTEX
  8
Layer1$C$L1
 62
     3
 10
-151.2851754879
 20
178.9820198356
  0
VERTEX
  8
Layer1$C$L1
 62
     3
 10
-151.2771974912
 20
178.9482810051
  0
VERTEX
  8
Layer1$C$L1
 62
     3
 10
-151.2622182389
 20
178.9159072826
  0
VERTEX
  8
Layer1$C$L1
 62
     3
 10
-151.2407875890
 20
178.8860870413
  0
VERTEX
  8
Layer1$C$L1
 62
     3
 10
-151.2136922167
 20
178.8599149214
  0
VERTEX
  8
Layer1$C$L1
 62
     3
 10
-151.1819267379
 20
178.8383516481
  0
VERTEX
  8
Layer1$C$L1
 62
     3
 10
-151.1466571986
 20
178.8221887652
  0
VERTEX
  8
Layer1$C$L1
 62
     3
 10
-151.1091782716
 20
178.8120195790
  0
SEQEND
  8
Layer1$C$L1
 62
     3
  0
POLYLINE
  8
Layer1$C$L1
 62
     3
 66
     1
  0
VERTEX
  8
Layer1$C$L1
 62
     3
 10
-149.7206630122
 20
188.5063747930
  0
VERTEX
  8
Layer1$C$L1
 62
     3
 10
-149.8426751618
 20
188.4313330561
  0
VERTEX
  8
Layer1$C$L1
 62
     3
 10
-150.3091555131
 20
188.0610664922
  0
VERTEX
  8
Layer1$C$L1
 62
     3
 10
-150.6924836670
 20
187.6104810735
  0
VERTEX
  8
Layer1$C$L1
 62
     3
 10
-150.9781185074
 20
187.0966692441
  0
VERTEX
  8
Layer1$C$L1
 62
     3
 10
-151.1552248021
 20
186.5391218697
  0
VERTEX
  8
Layer1$C$L1
 62
     3
 10
-151.2170842259
 20
185.9589888743
  0
SEQEND
  8
Layer1$C$L1
 62
     3
  0
POLYLINE
  8
Layer1$C$L1
 62
     3
 66
     1
  0
VERTEX
  8
Layer1$C$L1
 62
     3
 10
-151.2084898798
 20
185.5393328740
  0
VERTEX
  8
Layer1$C$L1
 62
     3
 10
-151.1866387527
 20
186.1815757097
  0
VERTEX
  8
Layer1$C$L1
 62
     3
 10
-151.0234277849
 20
186.8045266892
  0
VERTEX
  8
Layer1$C$L1
 62
     3
 10
-150.7263733045
 20
187.3794971523
  0
VERTEX
  8
Layer1$C$L1
 62
     3
 10
-150.3091555131
 20
187.8800080779
  0
VERTEX
  8
Layer1$C$L1
 62
     3
 10
-149.7909884737
 20
188.2830095178
  0
VERTEX
  8
Layer1$C$L1
 62
     3
 10
-149.3587348668
 20
188.5063747930
  0
SEQEND
  8
Layer1$C$L1
 62
     3
  0
POLYLINE
  8
Layer1$C$L1
 62
     3
 66
     1
  0
VERTEX
  8
Layer1$C$L1
 62
     3
 10
-157.5252553495
 20
182.8098396701
  0
VERTEX
  8
Layer1$C$L1
 62
     3
 10
-157.5573057127
 20
182.8081426915
  0
VERTEX
  8
Layer1$C$L1
 62
     3
 10
-157.5984223428
 20
182.7918833664
  0
VERTEX
  8
Layer1$C$L1
 62
     3
 10
-157.6606331211
 20
182.7483035861
  0
VERTEX
  8
Layer1$C$L1
 62
     3
 10
-157.7264003266
 20
182.6909926268
  0
VERTEX
  8
Layer1$C$L1
 62
     3
 10
-157.8117635523
 20
182.6100212420
  0
VERTEX
  8
Layer1$C$L1
 62
     3
 10
-157.9265667622
 20
182.4965750222
  0
SEQEND
  8
Layer1$C$L1
 62
     3
  0
POLYLINE
  8
Layer1$C$L1
 62
     3
 66
     1
  0
VERTEX
  8
Layer1$C$L1
 62
     3
 10
-150.9527035182
 20
184.8165091838
  0
VERTEX
  8
Layer1$C$L1
 62
     3
 10
-150.9702940403
 20
184.8672062152
  0
VERTEX
  8
Layer1$C$L1
 62
     3
 10
-151.1171244914
 20
185.7626687020
  0
VERTEX
  8
Layer1$C$L1
 62
     3
 10
-150.9702940403
 20
186.6581311889
  0
VERTEX
  8
Layer1$C$L1
 62
     3
 10
-150.5441754745
 20
187.4659395685
  0
VERTEX
  8
Layer1$C$L1
 62
     3
 10
-149.8804802483
 20
188.1070199284
  0
VERTEX
  8
Layer1$C$L1
 62
     3
 10
-149.0823168682
 20
188.5063747930
  0
SEQEND
  8
Layer1$C$L1
 62
     3
  0
POLYLINE
  8
Layer1$C$L1
 62
     3
 66
     1
  0
VERTEX
  8
Layer1$C$L1
 62
     3
 10
-155.1089936332
 20
184.2029099158
  0
VERTEX
  8
Layer1$C$L1
 62
     3
 10
-155.0769432700
 20
184.2046068944
  0
VERTEX
  8
Layer1$C$L1
 62
     3
 10
-155.0358266399
 20
184.2208662196
  0
VERTEX
  8
Layer1$C$L1
 62
     3
 10
-154.9736158617
 20
184.2644459999
  0
VERTEX
  8
Layer1$C$L1
 62
     3
 10
-154.9078486562
 20
184.3217569591
  0
VERTEX
  8
Layer1$C$L1
 62
     3
 10
-154.8224854305
 20
184.4027283439
  0
VERTEX
  8
Layer1$C$L1
 62
     3
 10
-154.7076822206
 20
184.5161745637
  0
SEQEND
  8
Layer1$C$L1
 62
     3
  0
POLYLINE
  8
Layer1$C$L1
 62
     3
 66
     1
  0
VERTEX
  8
Layer1$C$L1
 62
     3
 10
-147.1620429181
 20
188.5096739866
  0
VERTEX
  8
Layer1$C$L1
 62
     3
 10
-146.3537687345
 20
188.1070199284
  0
VERTEX
  8
Layer1$C$L1
 62
     3
 10
-145.6900735082
 20
187.4659395685
  0
VERTEX
  8
Layer1$C$L1
 62
     3
 10
-145.2639549425
 20
186.6581311889
  0
VERTEX
  8
Layer1$C$L1
 62
     3
 10
-145.1171244914
 20
185.7626687020
  0
VERTEX
  8
Layer1$C$L1
 62
     3
 10
-145.2639549425
 20
184.8672062152
  0
VERTEX
  8
Layer1$C$L1
 62
     3
 10
-145.2815454645
 20
184.8165091838
  0
SEQEND
  8
Layer1$C$L1
 62
     3
  0
POLYLINE
  8
Layer1$C$L1
 62
     3
 66
     1
  0
VERTEX
  8
Layer1$C$L1
 62
     3
 10
-146.6494403717
 20
178.8041065177
  0
VERTEX
  8
Layer1$C$L1
 62
     3
 10
-146.1741778692
 20
179.1115522744
  0
VERTEX
  8
Layer1$C$L1
 62
     3
 10
-145.6304046089
 20
179.7514582803
  0
VERTEX
  8
Layer1$C$L1
 62
     3
 10
-145.2990575315
 20
180.5165409909
  0
VERTEX
  8
Layer1$C$L1
 62
     3
 10
-145.2070905713
 20
181.3394417482
  0
VERTEX
  8
Layer1$C$L1
 62
     3
 10
-145.3592451868
 20
182.1498195433
  0
VERTEX
  8
Layer1$C$L1
 62
     3
 10
-145.5510296866
 20
182.5245277414
  0
SEQEND
  8
Layer1$C$L1
 62
     3
  0
POLYLINE
  8
Layer1$C$L1
 62
     3
 66
     1
  0
VERTEX
  8
Layer1$C$L1
 62
     3
 10
-149.8139870482
 20
178.9182778413
  0
VERTEX
  8
Layer1$C$L1
 62
     3
 10
-149.3415226311
 20
178.6486027102
  0
VERTEX
  8
Layer1$C$L1
 62
     3
 10
-148.5372774980
 20
178.4142871532
  0
VERTEX
  8
Layer1$C$L1
 62
     3
 10
-147.6941336841
 20
178.4146934428
  0
VERTEX
  8
Layer1$C$L1
 62
     3
 10
-146.8829079836
 20
178.6530770840
  0
VERTEX
  8
Layer1$C$L1
 62
     3
 10
-146.6494403717
 20
178.8041065177
  0
SEQEND
  8
Layer1$C$L1
 62
     3
  0
POLYLINE
  8
Layer1$C$L1
 62
     3
 66
     1
  0
VERTEX
  8
Layer1$C$L1
 62
     3
 10
-149.8139870482
 20
183.1983143534
  0
VERTEX
  8
Layer1$C$L1
 62
     3
 10
-149.3415226311
 20
182.9286392223
  0
VERTEX
  8
Layer1$C$L1
 62
     3
 10
-148.5372774980
 20
182.6943236654
  0
VERTEX
  8
Layer1$C$L1
 62
     3
 10
-147.6941336841
 20
182.6947299550
  0
VERTEX
  8
Layer1$C$L1
 62
     3
 10
-146.8829079836
 20
182.9331135962
  0
VERTEX
  8
Layer1$C$L1
 62
     3
 10
-146.6494403717
 20
183.0841430299
  0
SEQEND
  8
Layer1$C$L1
 62
     3
  0
POLYLINE
  8
Layer1$C$L1
 62
     3
 66
     1
  0
VERTEX
  8
Layer1$C$L1
 62
     3
 10
-149.7495591308
 20
183.1655928515
  0
VERTEX
  8
Layer1$C$L1
 62
     3
 10
-149.7257031593
 20
183.1650510589
  0
VERTEX
  8
Layer1$C$L1
 62
     3
 10
-149.6169227004
 20
183.2494109991
  0
VERTEX
  8
Layer1$C$L1
 62
     3
 10
-149.4344939911
 20
183.4020306019
  0
VERTEX
  8
Layer1$C$L1
 62
     3
 10
-149.2711861950
 20
183.5443705980
  0
SEQEND
  8
Layer1$C$L1
 62
     3
  0
POLYLINE
  8
Layer1$C$L1
 62
     3
 66
     1
  0
VERTEX
  8
Layer1$C$L1
 62
     3
 10
-154.5616215611
 20
184.6604364966
  0
VERTEX
  8
Layer1$C$L1
 62
     3
 10
-154.3192330917
 20
184.8861807599
  0
VERTEX
  8
Layer1$C$L1
 62
     3
 10
-154.1122224210
 20
185.0499944913
  0
VERTEX
  8
Layer1$C$L1
 62
     3
 10
-153.9676303068
 20
185.1307427836
  0
VERTEX
  8
Layer1$C$L1
 62
     3
 10
-153.9107713094
 20
185.1388094324
  0
SEQEND
  8
Layer1$C$L1
 62
     3
  0
POLYLINE
  8
Layer1$C$L1
 62
     3
 66
     1
  0
VERTEX
  8
Layer1$C$L1
 62
     3
 10
-149.8726274216
 20
179.8452816996
  0
VERTEX
  8
Layer1$C$L1
 62
     3
 10
-150.1150158910
 20
179.6660746666
  0
VERTEX
  8
Layer1$C$L1
 62
     3
 10
-150.3220265617
 20
179.5727252087
  0
VERTEX
  8
Layer1$C$L1
 62
     3
 10
-150.4666186759
 20
179.5762963173
  0
VERTEX
  8
Layer1$C$L1
 62
     3
 10
-150.5234776733
 20
179.6331042469
  0
SEQEND
  8
Layer1$C$L1
 62
     3
  0
POLYLINE
  8
Layer1$C$L1
 62
     3
 66
     1
  0
VERTEX
  8
Layer1$C$L1
 62
     3
 10
-149.8726274216
 20
184.1253182117
  0
VERTEX
  8
Layer1$C$L1
 62
     3
 10
-150.1150158910
 20
183.9461111788
  0
VERTEX
  8
Layer1$C$L1
 62
     3
 10
-150.3220265617
 20
183.8527617209
  0
VERTEX
  8
Layer1$C$L1
 62
     3
 10
-150.4666186759
 20
183.8563328294
  0
VERTEX
  8
Layer1$C$L1
 62
     3
 10
-150.5234776733
 20
183.9131407591
  0
SEQEND
  8
Layer1$C$L1
 62
     3
  0
POLYLINE
  8
Layer1$C$L1
 62
     3
 66
     1
  0
VERTEX
  8
Layer1$C$L1
 62
     3
 10
-154.6846898519
 20
185.9127279749
  0
VERTEX
  8
Layer1$C$L1
 62
     3
 10
-154.7085458234
 20
185.8193643763
  0
VERTEX
  8
Layer1$C$L1
 62
     3
 10
-154.8173262824
 20
185.6507129139
  0
VERTEX
  8
Layer1$C$L1
 62
     3
 10
-154.9997549916
 20
185.4343502244
  0
VERTEX
  8
Layer1$C$L1
 62
     3
 10
-155.1630627877
 20
185.2618777232
  0
SEQEND
  8
Layer1$C$L1
 62
     3
  0
POLYLINE
  8
Layer1$C$L1
 62
     3
 66
     1
  0
VERTEX
  8
Layer1$C$L1
 62
     3
 10
-158.0726274216
 20
182.3523130893
  0
VERTEX
  8
Layer1$C$L1
 62
     3
 10
-158.3150158910
 20
182.1265688261
  0
VERTEX
  8
Layer1$C$L1
 62
     3
 10
-158.5220265617
 20
181.9627550946
  0
VERTEX
  8
Layer1$C$L1
 62
     3
 10
-158.6666186759
 20
181.8820068024
  0
VERTEX
  8
Layer1$C$L1
 62
     3
 10
-158.7234776733
 20
181.8739401535
  0
SEQEND
  8
Layer1$C$L1
 62
     3
  0
POLYLINE
  8
Layer1$C$L1
 62
     3
 66
     1
  0
VERTEX
  8
Layer1$C$L1
 62
     3
 10
-150.9527035182
 20
180.5364726716
  0
VERTEX
  8
Layer1$C$L1
 62
     3
 10
-150.9702940403
 20
180.5871697030
  0
VERTEX
  8
Layer1$C$L1
 62
     3
 10
-151.1171244914
 20
181.4826321899
  0
VERTEX
  8
Layer1$C$L1
 62
     3
 10
-150.9702940403
 20
182.3780946767
  0
VERTEX
  8
Layer1$C$L1
 62
     3
 10
-150.9165020899
 20
182.5245277414
  0
SEQEND
  8
Layer1$C$L1
 62
     3
  0
POLYLINE
  8
Layer1$C$L1
 62
     3
 66
     1
  0
VERTEX
  8
Layer1$C$L1
 62
     3
 10
-145.3177468929
 20
182.5245277414
  0
VERTEX
  8
Layer1$C$L1
 62
     3
 10
-145.2639549425
 20
182.3780946767
  0
VERTEX
  8
Layer1$C$L1
 62
     3
 10
-145.1171244914
 20
181.4826321899
  0
VERTEX
  8
Layer1$C$L1
 62
     3
 10
-145.2639549425
 20
180.5871697030
  0
VERTEX
  8
Layer1$C$L1
 62
     3
 10
-145.2815454645
 20
180.5364726716
  0
SEQEND
  8
Layer1$C$L1
 62
     3
  0
POLYLINE
  8
Layer1$C$L1
 62
     3
 66
     1
  0
VERTEX
  8
Layer1$C$L1
 62
     3
 10
-145.0257591030
 20
181.7059680179
  0
VERTEX
  8
Layer1$C$L1
 62
     3
 10
-145.0476102300
 20
181.0637251822
  0
VERTEX
  8
Layer1$C$L1
 62
     3
 10
-145.2108211979
 20
180.4407742027
  0
VERTEX
  8
Layer1$C$L1
 62
     3
 10
-145.5078756783
 20
179.8658037396
  0
VERTEX
  8
Layer1$C$L1
 62
     3
 10
-145.5460941256
 20
179.8096545540
  0
SEQEND
  8
Layer1$C$L1
 62
     3
  0
POLYLINE
  8
Layer1$C$L1
 62
     3
 66
     1
  0
VERTEX
  8
Layer1$C$L1
 62
     3
 10
-145.0257591030
 20
185.9860045301
  0
VERTEX
  8
Layer1$C$L1
 62
     3
 10
-145.0476102300
 20
185.3437616944
  0
VERTEX
  8
Layer1$C$L1
 62
     3
 10
-145.2108211979
 20
184.7208107149
  0
VERTEX
  8
Layer1$C$L1
 62
     3
 10
-145.5078756783
 20
184.1458402518
  0
VERTEX
  8
Layer1$C$L1
 62
     3
 10
-145.5460941256
 20
184.0896910662
  0
SEQEND
  8
Layer1$C$L1
 62
     3
  0
POLYLINE
  8
Layer1$C$L1
 62
     3
 66
     1
  0
VERTEX
  8
Layer1$C$L1
 62
     3
 10
-146.3616215611
 20
186.3547942212
  0
VERTEX
  8
Layer1$C$L1
 62
     3
 10
-146.1192330917
 20
186.6116916162
  0
VERTEX
  8
Layer1$C$L1
 62
     3
 10
-145.9122224210
 20
186.8348059861
  0
VERTEX
  8
Layer1$C$L1
 62
     3
 10
-145.7676303068
 20
186.9943708165
  0
VERTEX
  8
Layer1$C$L1
 62
     3
 10
-145.7107713094
 20
187.0667623151
  0
SEQEND
  8
Layer1$C$L1
 62
     3
  0
POLYLINE
  8
Layer1$C$L1
 62
     3
 66
     1
  0
VERTEX
  8
Layer1$C$L1
 62
     3
 10
-146.4846898519
 20
187.8143102227
  0
VERTEX
  8
Layer1$C$L1
 62
     3
 10
-146.5085458234
 20
187.6334038079
  0
VERTEX
  8
Layer1$C$L1
 62
     3
 10
-146.6173262824
 20
187.3919541417
  0
VERTEX
  8
Layer1$C$L1
 62
     3
 10
-146.7997549916
 20
187.1265931252
  0
VERTEX
  8
Layer1$C$L1
 62
     3
 10
-146.9630627877
 20
186.9357418349
  0
SEQEND
  8
Layer1$C$L1
 62
     3
  0
POLYLINE
  8
Layer1$C$L1
 62
     3
 66
     1
  0
VERTEX
  8
Layer1$C$L1
 62
     3
 10
-149.7495591308
 20
178.8855563393
  0
VERTEX
  8
Layer1$C$L1
 62
     3
 10
-149.7257031593
 20
178.8850145468
  0
VERTEX
  8
Layer1$C$L1
 62
     3
 10
-149.6169227004
 20
178.9693744869
  0
VERTEX
  8
Layer1$C$L1
 62
     3
 10
-149.4344939911
 20
179.1219940897
  0
VERTEX
  8
Layer1$C$L1
 62
     3
 10
-149.2711861950
 20
179.2643340858
  0
SEQEND
  8
Layer1$C$L1
 62
     3
  0
POLYLINE
  8
Layer1$C$L1
 62
     3
 66
     1
  0
VERTEX
  8
Layer1$C$L1
 62
     3
 10
-157.9495591308
 20
181.1000216110
  0
VERTEX
  8
Layer1$C$L1
 62
     3
 10
-157.9257031593
 20
181.1933852096
  0
VERTEX
  8
Layer1$C$L1
 62
     3
 10
-157.8169227004
 20
181.3620366721
  0
VERTEX
  8
Layer1$C$L1
 62
     3
 10
-157.6344939911
 20
181.5783993616
  0
VERTEX
  8
Layer1$C$L1
 62
     3
 10
-157.4711861950
 20
181.7508718628
  0
SEQEND
  8
Layer1$C$L1
 62
     3
  0
POLYLINE
  8
Layer1$C$L1
 62
     3
 66
     1
  0
VERTEX
  8
Layer1$C$L1
 62
     3
 10
-145.3686796400
 20
180.2928299316
  0
VERTEX
  8
Layer1$C$L1
 62
     3
 10
-145.7707930858
 20
179.5508527301
  0
VERTEX
  8
Layer1$C$L1
 62
     3
 10
-146.3995368157
 20
178.9435329233
  0
VERTEX
  8
Layer1$C$L1
 62
     3
 10
-146.6302597251
 20
178.7961416319
  0
SEQEND
  8
Layer1$C$L1
 62
     3
  0
POLYLINE
  8
Layer1$C$L1
 62
     3
 66
     1
  0
VERTEX
  8
Layer1$C$L1
 62
     3
 10
-145.3686796400
 20
184.5728664438
  0
VERTEX
  8
Layer1$C$L1
 62
     3
 10
-145.7707930858
 20
183.8308892422
  0
VERTEX
  8
Layer1$C$L1
 62
     3
 10
-146.3995368157
 20
183.2235694354
  0
VERTEX
  8
Layer1$C$L1
 62
     3
 10
-146.6302597251
 20
183.0761781441
  0
SEQEND
  8
Layer1$C$L1
 62
     3
  0
POLYLINE
  8
Layer1$C$L1
 62
     3
 66
     1
  0
VERTEX
  8
Layer1$C$L1
 62
     3
 10
-151.2084898798
 20
181.2592963618
  0
VERTEX
  8
Layer1$C$L1
 62
     3
 10
-151.1866387527
 20
181.9015391975
  0
VERTEX
  8
Layer1$C$L1
 62
     3
 10
-151.0234277849
 20
182.5244901770
  0
VERTEX
  8
Layer1$C$L1
 62
     3
 10
-151.0234133516
 20
182.5245277414
  0
SEQEND
  8
Layer1$C$L1
 62
     3
  0
LINE
  8
Layer1$C$L1
 62
     3
 10
-156.7361244914
 20
184.3884007227
 11
-156.8582618327
 21
184.5154314702
  0
LINE
  8
Layer1$C$L1
 62
     3
 10
-157.3261811686
 20
182.9652374516
 11
-157.1991504211
 21
183.0873747930
  0
CIRCLE
  8
Layer1$C$L1
 62
     3
 10
-69.3729472967
 20
181.4063747930
 40
0.8500000000
  0
ARC
  8
Layer1$C$L1
 62
     3
 10
-93.6382220321
 20
178.9563747930
 40
1.0000000000
 50
187.0000000000
 51
270.0000000000
  0
ARC
  8
Layer1$C$L1
 62
     3
 10
-71.6020476353
 20
178.4563747930
 40
0.5000000000
 50
270.0000000000
 51
344.3388578781
  0
ARC
  8
Layer1$C$L1
 62
     3
 10
-70.3795245308
 20
178.4563747930
 40
0.5000000000
 50
270.0000000000
 51
310.0000000000
  0
LINE
  8
Layer1$C$L1
 62
     3
 10
-65.0729989655
 20
182.2563747930
 11
-69.3729472967
 21
182.2563747930
  0
LINE
  8
Layer1$C$L1
 62
     3
 10
-70.8913967166
 20
179.1389817586
 11
-67.8014535896
 21
179.9669295242
  0
LINE
  8
Layer1$C$L1
 62
     3
 10
-94.6307681838
 20
178.8345054496
 11
-95.8060459581
 21
188.4063747930
  0
LINE
  8
Layer1$C$L1
 62
     3
 10
-71.1206101125
 20
178.3214010488
 11
-70.1913910855
 21
181.6358301580
  0
LINE
  8
Layer1$C$L1
 62
     3
 10
-70.0581307259
 20
178.0733525714
 11
-64.4771221692
 21
182.7563747930
  0
LINE
  8
Layer1$C$L1
 62
     3
 10
-93.6382220321
 20
177.9563747930
 11
-70.3795245308
 21
177.9563747930
  0
ARC
  8
Layer1$C$L1
  6
DASH
 62
     3
 10
-160.7671244914
 20
167.7563747930
 40
0.2000000000
 50
180.0000000000
 51
270.0000000000
  0
ARC
  8
Layer1$C$L1
  6
DASH
 62
     3
 10
-143.6671244914
 20
167.7563747930
 40
0.2000000000
 50
270.0000000000
 51
360.0000000000
  0
LINE
  8
Layer1$C$L1
  6
DASH
 62
     3
 10
-143.9671244914
 20
189.8669286127
 11
-160.4671244914
 21
189.8669286127
  0
LINE
  8
Layer1$C$L1
  6
DASH
 62
     3
 10
-143.6671244914
 20
167.5563747930
 11
-160.7671244914
 21
167.5563747930
  0
POLYLINE
  8
Layer1$C$L1
  6
DASH
 62
     3
 66
     1
  0
VERTEX
  8
Layer1$C$L1
  6
DASH
 62
     3
 10
-160.9671244914
 20
189.3706555369
  0
VERTEX
  8
Layer1$C$L1
  6
DASH
 62
     3
 10
-160.9575171316
 20
189.4674736110
  0
VERTEX
  8
Layer1$C$L1
  6
DASH
 62
     3
 10
-160.9290642576
 20
189.5605710209
  0
VERTEX
  8
Layer1$C$L1
  6
DASH
 62
     3
 10
-160.8828592975
 20
189.6463700852
  0
VERTEX
  8
Layer1$C$L1
  6
DASH
 62
     3
 10
-160.8206778820
 20
189.7215735941
  0
VERTEX
  8
Layer1$C$L1
  6
DASH
 62
     3
 10
-160.7449096079
 20
189.7832915188
  0
VERTEX
  8
Layer1$C$L1
  6
DASH
 62
     3
 10
-160.6584662076
 20
189.8291520741
  0
VERTEX
  8
Layer1$C$L1
  6
DASH
 62
     3
 10
-160.5646696524
 20
189.8573928647
  0
VERTEX
  8
Layer1$C$L1
  6
DASH
 62
     3
 10
-160.4671244914
 20
189.8669286127
  0
SEQEND
  8
Layer1$C$L1
  6
DASH
 62
     3
  0
POLYLINE
  8
Layer1$C$L1
  6
DASH
 62
     3
 66
     1
  0
VERTEX
  8
Layer1$C$L1
  6
DASH
 62
     3
 10
-143.9671244914
 20
189.8669286127
  0
VERTEX
  8
Layer1$C$L1
  6
DASH
 62
     3
 10
-143.8695793304
 20
189.8573928647
  0
VERTEX
  8
Layer1$C$L1
  6
DASH
 62
     3
 10
-143.7757827752
 20
189.8291520741
  0
VERTEX
  8
Layer1$C$L1
  6
DASH
 62
     3
 10
-143.6893393749
 20
189.7832915188
  0
VERTEX
  8
Layer1$C$L1
  6
DASH
 62
     3
 10
-143.6135711008
 20
189.7215735941
  0
VERTEX
  8
Layer1$C$L1
  6
DASH
 62
     3
 10
-143.5513896852
 20
189.6463700852
  0
VERTEX
  8
Layer1$C$L1
  6
DASH
 62
     3
 10
-143.5051847251
 20
189.5605710209
  0
VERTEX
  8
Layer1$C$L1
  6
DASH
 62
     3
 10
-143.4767318512
 20
189.4674736110
  0
VERTEX
  8
Layer1$C$L1
  6
DASH
 62
     3
 10
-143.4671244914
 20
189.3706555369
  0
SEQEND
  8
Layer1$C$L1
  6
DASH
 62
     3
  0
LINE
  8
Layer1$C$L1
  6
DASH
 62
     3
 10
-143.4671244914
 20
167.7563747930
 11
-143.4671244914
 21
169.0563747930
  0
ARC
  8
Layer1$C$L1
  6
DASH
 62
     3
 10
-96.4207178217
 20
189.3097208652
 40
0.5000000000
 50
97.0000000000
 51
187.0000000000
  0
ARC
  8
Layer1$C$L1
  6
DASH
 62
     3
 10
-69.3729472967
 20
181.4063747930
 40
0.7500000000
 50
90.0000000000
 51
164.2828032244
  0
ARC
  8
Layer1$C$L1
  6
DASH
 62
     3
 10
-93.6382220321
 20
178.9563747930
 40
1.0000000000
 50
187.0000000000
 51
270.0000000000
  0
ARC
  8
Layer1$C$L1
  6
DASH
 62
     3
 10
-93.3687724242
 20
168.5563747930
 40
1.0000000000
 50
187.0000000000
 51
270.0000000000
  0
LINE
  8
Layer1$C$L1
  6
DASH
 62
     3
 10
-96.4816524934
 20
189.8059939410
 11
-95.9853794176
 21
189.8669286127
  0
LINE
  8
Layer1$C$L1
  6
DASH
 62
     3
 10
-69.3729472967
 20
182.1563747930
 11
-64.6229472967
 21
182.1563747930
  0
LINE
  8
Layer1$C$L1
  6
DASH
 62
     3
 10
-94.6307681838
 20
178.8345054496
 11
-95.9853794176
 21
189.8669286127
  0
LINE
  8
Layer1$C$L1
  6
DASH
 62
     3
 10
-71.1229472967
 20
177.9563747930
 11
-70.0949051604
 21
181.6095418253
  0
LINE
  8
Layer1$C$L1
  6
DASH
 62
     3
 10
-93.6382220321
 20
177.9563747930
 11
-64.6229472967
 21
177.9563747930
  0
LINE
  8
Layer1$C$L1
  6
DASH
 62
     3
 10
-94.3613185759
 20
168.4345054496
 11
-96.9169908975
 21
189.2487861934
  0
LINE
  8
Layer1$C$L1
  6
DASH
 62
     3
 10
-64.6229472967
 20
167.5563747930
 11
-64.6229472967
 21
182.1563747930
  0
LINE
  8
Layer1$C$L1
  6
DASH
 62
     3
 10
-64.6229472967
 20
167.5563747930
 11
-93.3687724242
 21
167.5563747930
  0
ARC
  8
Layer1$C$L1
 62
     3
 10
-154.6171244914
 20
175.9563751309
 40
3.2000000000
 50
54.6812270970
 51
398.6821797018
  0
INSERT
  8
Layer8$C$L8
 62
     5
 66
     1
  2
Cadra_attr_1
 10
0.000000
 20
0.000000
  0
ATTRIB
  8
Layer8$C$L8
 62
     5
 10
-46.747117
 20
18.500000
 40
0.156000
  1
  
  2
20
 70
    11
  0
SEQEND
  8
Layer8$C$L8
 62
     5
  0
ENDSEC
  0
EOF
