  0
SECTION
  2
HEADER
  9
$ACADVER
  1
AC1004
  9
$ANGBASE
 50
0.0000000000
  9
$ANGDIR
 70
     0
  9
$ATTDIA
 70
     0
  9
$ATTMODE
 70
     1
  9
$ATTREQ
 70
     1
  9
$AUNITS
 70
     0
  9
$AUPREC
 70
     0
  9
$AXISMODE
 70
     0
  9
$AXISUNIT
 10
0.0000000000
 20
0.0000000000
  9
$BLIPMODE
 70
     1
  9
$CECOLOR
 62
   256
  9
$CELTYPE
  6
BYLAYER
  9
$CHAMFERA
 40
0.0000000000
  9
$CHAMFERB
 40
0.0000000000
  9
$CLAYER
  8
0
  9
$COORDS
 70
     0
  9
$DIMALT
 70
     0
  9
$DIMALTD
 70
     2
  9
$DIMALTF
 40
25.4000000000
  9
$DIMAPOST
  1

  9
$DIMASO
 70
     1
  9
$DIMASZ
 40
1.9727878460
  9
$DIMBLK
  1

  9
$DIMBLK1
  1

  9
$DIMBLK2
  1

  9
$DIMCEN
 40
9.0000000000E-02
  9
$DIMDLE
 40
0.0000000000
  9
$DIMDLI
 40
0.3800000000
  9
$DIMEXE
 40
3.8099999428
  9
$DIMEXO
 40
2.5399999619
  9
$DIMLFAC
 40
1.0000000000
  9
$DIMLIM
 70
     0
  9
$DIMPOST
  1

  9
$DIMRND
 40
0.0000000000
  9
$DIMSCALE
 40
1.0000000000
  9
$DIMSE1
 70
     0
  9
$DIMSE2
 70
     0
  9
$DIMSHO
 70
     0
  9
$DIMTAD
 70
     0
  9
$DIMTIH
 70
     0
  9
$DIMTM
 40
0.0000000000
  9
$DIMTOH
 70
     1
  9
$DIMTOL
 70
     0
  9
$DIMTP
 40
0.0000000000
  9
$DIMTSZ
 40
0.0000000000
  9
$DIMTXT
 40
2.9999940395
  9
$DIMZIN
 70
     0
  9
$DRAGMODE
 70
     1
  9
$ELEVATION
 40
0.0000000000
  9
$EXTMAX
 10
3.1750000000
 20
249.4313781738
 30
0.0000000000
  9
$EXTMIN
 10
-167.1421173096
 20
-3.1750000000
 30
0.0000000000
  9
$FASTZOOM
 70
     1
  9
$FILLETRAD
 40
6.2500000000E-02
  9
$FILLMODE
 70
     1
  9
$GRIDMODE
 70
     0
  9
$GRIDUNIT
 10
0.0000000000
 20
0.0000000000
  9
$INSBASE
 10
0.0000000000
 20
0.0000000000
 30
0.0000000000
  9
$LIMCHECK
 70
     0
  9
$LIMMAX
 10
3.1750000000
 20
249.4313781738
  9
$LIMMIN
 10
-167.1421173096
 20
-3.1750000000
  9
$LTSCALE
 40
1.0000000000
  9
$LUNITS
 70
     2
  9
$LUPREC
 70
     3
  9
$MEASUREMENT
 70
     0
  9
$MENU
  1
ACAD
  9
$MIRRTEXT
 70
     0
  9
$ORTHOMODE
 70
     0
  9
$OSMODE
 70
     0
  9
$PDMODE
 70
     0
  9
$PDSIZE
 40
0.0000000000
  9
$PLINEWID
 40
0.0000000000
  9
$PROXYGRAPHICS
 70
     0
  9
$QTEXTMODE
 70
     0
  9
$REGENMODE
 70
     1
  9
$SKETCHINC
 40
0.1000000000
  9
$SKPOLY
 70
     0
  9
$SNAPANG
 50
0.0000000000
  9
$SNAPBASE
 10
0.0000000000
 20
0.0000000000
  9
$SNAPISOPAIR
 70
     0
  9
$SNAPMODE
 70
     0
  9
$SNAPSTYLE
 70
     0
  9
$SNAPUNIT
 10
1.0000000000
 20
1.0000000000
  9
$SPLFRAME
 70
     0
  9
$SPLINESEGS
 70
     8
  9
$TDCREATE
 40
2454365.4524768565
  9
$TDINDWG
 40
0.0000000000
  9
$TDUPDATE
 40
2454365.4524768565
  9
$TDUSRTIMER
 40
0.0000000000
  9
$TEXTSIZE
 40
2.9999940395
  9
$TEXTSTYLE
  7
STANDARD
  9
$THICKNESS
 40
0.0000000000
  9
$TRACEWID
 40
5.0000000000E-02
  9
$USERI1
 70
     0
  9
$USERI2
 70
     0
  9
$USERI3
 70
     0
  9
$USERI4
 70
     0
  9
$USERI5
 70
     0
  9
$USERR1
 40
0.0000000000
  9
$USERR2
 40
0.0000000000
  9
$USERR3
 40
0.0000000000
  9
$USERR4
 40
0.0000000000
  9
$USERR5
 40
0.0000000000
  9
$USRTIMER
 70
     1
  9
$VIEWCTR
 10
-81.9835586548
 20
123.1281890869
  9
$VIEWDIR
 10
0.0000000000
 20
0.0000000000
 30
1.0000000000
  9
$VIEWSIZE
 40
252.6063781738
  0
ENDSEC
  0
SECTION
  2
TABLES
  0
TABLE
  2
LTYPE
 70
     3
  0
LTYPE
  2
SOLID
  3
Solid
 70
    64
 72
    65
 73
     0
 40
0.0000000000
  0
LTYPE
  2
DASH
  3
Dash
 70
    64
 72
    65
 73
     2
 40
2.0000000000
 49
1.0000000000
 49
-1.0000000000
  0
LTYPE
  2
CENTER
  3
Center
 70
    64
 72
    65
 73
     4
 40
9.1000000238
 49
6.5000000000
 49
-0.8000000119
 49
1.0000000000
 49
-0.8000000119
  0
ENDTAB
  0
TABLE
  2
LAYER
 70
     3
  0
LAYER
  2
Layer1$C$L1
 70
     0
  6
SOLID
 62
     3
  0
LAYER
  2
Layer6$C$L6
 70
     0
  6
SOLID
 62
    31
  0
LAYER
  2
Layer8$C$L8
 70
     0
  6
SOLID
 62
     7
  0
ENDTAB
  0
TABLE
  2
STYLE
 70
     1
  0
STYLE
  2
STANDARD
  3
txt
  4

 40
0.0000000000
 41
1.0000000000
 42
2.9999940395
 50
0.0000000000
 70
     0
 71
     0
  0
ENDTAB
  0
ENDSEC
  0
SECTION
  2
BLOCKS
  0
BLOCK
  8
Layer6$C$L6
  2
*X0
 70
     1
 10
0.0000000000
 20
0.0000000000
  0
ENDBLK
  8
Layer6$C$L6
  0
BLOCK
  8
Layer8$C$L8
  2
Cadra_attr_0
 70
     2
 10
0.0000000000
 20
0.0000000000
  0
TEXT
  8
Layer8$C$L8
 10
-65.7394228102
 20
29.6715747800
 40
4.1671714783
  1
NC1V-1100
 41
0.8232750373
 72
     5
 11
-38.2935967766
 21
29.6715747800
  0
TEXT
  8
Layer8$C$L8
 10
-65.7394228102
 20
23.4208175626
 40
4.1671714783
  1
NC1V-1100F
 41
0.8144566824
 72
     5
 11
-35.1935968964
 21
23.4208175626
  0
ATTDEF
  8
Layer8$C$L8
 10
-50.466511
 20
28.629782
 40
0.156000
  1
ìL>ÄK
  3

  2
10
 70
    11
  0
ENDBLK
  8
Layer8$C$L8
  0
BLOCK
  8
Layer8$C$L8
  2
Cadra_attr_1
 70
     2
 10
0.000000
 20
0.000000
  0
TEXT
  8
Layer8$C$L8
 62
     5
 10
-66.0872999535
 20
16.0000000000
 40
5.0000000000
  1
MA4-C00270
 41
0.8595637381
 72
     5
 11
-27.4069317370
 21
16.0000000000
  0
ATTDEF
  8
Layer8$C$L8
 62
     5
 10
-46.747117
 20
18.500000
 40
0.156000
  1
  
  3

  2
20
 70
    11
  0
ENDBLK
  8
Layer8$C$L8
  0
ENDSEC
  0
SECTION
  2
ENTITIES
  0
INSERT
  8
Layer8$C$L8
 66
     1
  2
Cadra_attr_0
 10
0.000000
 20
0.000000
  0
ATTRIB
  8
Layer8$C$L8
 10
-50.466511
 20
28.629782
 40
0.156000
  1
ìL>ÄK
  2
10
 70
    11
  0
SEQEND
  8
Layer8$C$L8
  0
LINE
  8
Layer1$C$L1
 62
     3
 10
-149.0279005144
 20
199.2598939676
 11
-149.0279005144
 21
202.2598939676
  0
LINE
  8
Layer1$C$L1
 62
     3
 10
-149.0279005144
 20
199.2598939676
 11
-148.5279005144
 21
199.2598939676
  0
LINE
  8
Layer1$C$L1
 62
     3
 10
-148.5279005144
 20
199.2598939676
 11
-148.5279005144
 21
202.2598939676
  0
LINE
  8
Layer1$C$L1
 62
     3
 10
-149.0279005144
 20
202.2598939676
 11
-148.5279005144
 21
202.2598939676
  0
INSERT
  8
Layer6$C$L6
  2
*X0
 10
0.000000
 20
0.000000
  0
POLYLINE
  8
Layer1$C$L1
 66
     1
 70
     1
  0
VERTEX
  8
Layer1$C$L1
 10
-149.0279005144
 20
202.2598939676
  0
VERTEX
  8
Layer1$C$L1
 10
-148.5279005144
 20
202.2598939676
  0
VERTEX
  8
Layer1$C$L1
 10
-148.5279005144
 20
199.2598939676
  0
VERTEX
  8
Layer1$C$L1
 10
-149.0279005144
 20
199.2598939676
  0
SEQEND
  8
Layer1$C$L1
  0
LINE
  8
Layer1$C$L1
  6
CENTER
 62
     3
 10
-108.1664779351
 20
203.9063751309
 11
-27.4261416624
 21
203.9063751309
  0
ARC
  8
Layer1$C$L1
  6
DASH
 62
     3
 10
-33.6671214396
 20
189.4063827603
 40
2.0000000000
 50
89.9999273724
 51
179.9999640278
  0
LINE
  8
Layer1$C$L1
  6
DASH
 62
     3
 10
-33.9671092326
 20
190.4063827603
 11
-28.1671214396
 21
190.4063827603
  0
ARC
  8
Layer1$C$L1
  6
DASH
 62
     3
 10
-33.6671214396
 20
218.4063827603
 40
2.0000000000
 50
203.4374641641
 51
270.0000179861
  0
LINE
  8
Layer1$C$L1
  6
DASH
 62
     3
 10
-28.1671214396
 20
190.4063827603
 11
-28.1671214396
 21
217.4063827603
  0
LINE
  8
Layer1$C$L1
  6
DASH
 62
     3
 10
-29.8671183879
 20
191.4063827603
 11
-29.8671183879
 21
216.4063827603
  0
LINE
  8
Layer1$C$L1
  6
DASH
 62
     3
 10
-33.6671214396
 20
191.4063827603
 11
-29.8671183879
 21
191.4063827603
  0
LINE
  8
Layer1$C$L1
  6
DASH
 62
     3
 10
-33.6671214396
 20
216.4063827603
 11
-29.8671183879
 21
216.4063827603
  0
LINE
  8
Layer1$C$L1
  6
DASH
 62
     3
 10
-33.9671092326
 20
217.4063827603
 11
-28.1671214396
 21
217.4063827603
  0
LINE
  8
Layer1$C$L1
  6
DASH
 62
     3
 10
-34.6671214396
 20
219.4063827603
 11
-34.6671214396
 21
221.4563751309
  0
LINE
  8
Layer1$C$L1
  6
DASH
 62
     3
 10
-33.9671092326
 20
217.4063827603
 11
-33.9671092326
 21
217.9063827603
  0
LINE
  8
Layer1$C$L1
  6
DASH
 62
     3
 10
-34.6671324505
 20
219.4063550097
 11
-33.9671278550
 21
217.9063467972
  0
LINE
  8
Layer1$C$L1
  6
DASH
 62
     3
 10
-34.6671214396
 20
188.4063827603
 11
-34.6671214396
 21
187.9897084643
  0
LINE
  8
Layer1$C$L1
  6
DASH
 62
     3
 10
-34.6671613181
 20
188.4064194768
 11
-33.9671535654
 21
189.9064263080
  0
LINE
  8
Layer1$C$L1
  6
DASH
 62
     3
 10
-33.9671092326
 20
190.4063827603
 11
-33.9671092326
 21
189.9063827603
  0
LINE
  8
Layer1$C$L1
  6
CENTER
 62
     3
 10
-146.2171244914
 20
171.2063598722
 11
-146.2171244914
 21
165.2063598722
  0
LINE
  8
Layer1$C$L1
  6
CENTER
 62
     3
 10
-143.7171244914
 20
168.2063751309
 11
-149.7171244914
 21
168.2063751309
  0
LINE
  8
Layer1$C$L1
  6
CENTER
 62
     3
 10
-154.6171244914
 20
178.9563598722
 11
-154.6171244914
 21
172.9563598722
  0
LINE
  8
Layer1$C$L1
  6
CENTER
 62
     3
 10
-158.2171244914
 20
242.6063598722
 11
-158.2171244914
 21
236.6063598722
  0
LINE
  8
Layer1$C$L1
  6
CENTER
 62
     3
 10
-155.7171244914
 20
239.6063751309
 11
-161.7171244914
 21
239.6063751309
  0
LINE
  8
Layer1$C$L1
  6
CENTER
 62
     3
 10
-149.8171244914
 20
234.8563598722
 11
-149.8171244914
 21
228.8563598722
  0
ARC
  8
Layer1$C$L1
 62
     3
 10
-77.7671214396
 20
238.1563751309
 40
2.0000000000
 50
90.0000000000
 51
180.0000000000
  0
CIRCLE
  8
Layer1$C$L1
 62
     3
 10
-35.6671214396
 20
228.9563751309
 40
1.1000000000
  0
CIRCLE
  8
Layer1$C$L1
 62
     3
 10
-35.6671214396
 20
228.9563751309
 40
2.2500000000
  0
ARC
  8
Layer1$C$L1
 62
     3
 10
-93.6812511962
 20
225.4563751309
 40
1.0000000000
 50
90.0000000000
 51
171.1201796396
  0
CIRCLE
  8
Layer1$C$L1
 62
     3
 10
-81.9671214396
 20
222.4563751309
 40
1.1000000000
  0
CIRCLE
  8
Layer1$C$L1
 62
     3
 10
-81.9671214396
 20
222.4563751309
 40
2.2500000000
  0
ARC
  8
Layer1$C$L1
 62
     3
 10
-36.5671214396
 20
218.3563751309
 40
1.3000000000
 50
313.8130614604
 51
374.6219744214
  0
ARC
  8
Layer1$C$L1
 62
     3
 10
-93.7671214396
 20
203.4563751309
 40
0.3000000000
 50
289.3037542760
 51
337.7140257111
  0
ARC
  8
Layer1$C$L1
 62
     3
 10
53.5328785610
 20
202.4563751310
 40
149.6000000007
 50
183.4073852670
 51
184.0554087313
  0
ARC
  8
Layer1$C$L1
 62
     3
 10
-88.4671214396
 20
202.4563751309
 40
5.1000000000
 50
168.6922705659
 51
191.3077294341
  0
ARC
  8
Layer1$C$L1
 62
     3
 10
-88.4671214396
 20
202.4563751309
 40
5.2500000000
 50
168.8053514548
 51
191.1946485452
  0
ARC
  8
Layer1$C$L1
 62
     3
 10
-88.4671214396
 20
202.4563751309
 40
9.3000000000
 50
250.4569979860
 51
508.3970533255
  0
ARC
  8
Layer1$C$L1
 62
     3
 10
-88.4671214396
 20
202.4563751309
 40
9.0000000000
 50
248.3615607713
 51
594.7525819799
  0
ARC
  8
Layer1$C$L1
 62
     3
 10
-88.4671214396
 20
202.4563751309
 40
9.3000000000
 50
211.6029466745
 51
232.6571447653
  0
ARC
  8
Layer1$C$L1
 62
     3
 10
53.5328785604
 20
202.4563751309
 40
150.0000000000
 50
171.1201796396
 51
178.3812799915
  0
ARC
  8
Layer1$C$L1
 62
     3
 10
53.5328785602
 20
202.4563751309
 40
149.9999999998
 50
181.6187200085
 51
185.3362185881
  0
CIRCLE
  8
Layer1$C$L1
 62
     3
 10
-93.6671214396
 20
192.8563751309
 40
1.1000000000
  0
ARC
  8
Layer1$C$L1
 62
     3
 10
-93.6671214396
 20
192.8563751309
 40
2.2500000000
 50
205.8173698561
 51
521.6454241422
  0
CIRCLE
  8
Layer1$C$L1
 62
     3
 10
-41.6671214396
 20
189.1563751309
 40
1.1000000000
  0
CIRCLE
  8
Layer1$C$L1
 62
     3
 10
-41.6671214396
 20
189.1563751309
 40
2.2500000000
  0
ARC
  8
Layer1$C$L1
 62
     3
 10
-32.4671214396
 20
185.1563751309
 40
1.0000000000
 50
0.0000000000
 51
90.0000000000
  0
ARC
  8
Layer1$C$L1
 62
     3
 10
-94.1784733705
 20
183.3563751309
 40
1.0000000000
 50
187.0000000000
 51
270.0000000000
  0
ARC
  8
Layer1$C$L1
 62
     3
 10
-62.4671214396
 20
169.6563751309
 40
2.0000000000
 50
180.0000000000
 51
270.0000000000
  0
LINE
  8
Layer1$C$L1
 62
     3
 10
-31.4671214396
 20
243.2563751309
 11
-36.4671214396
 21
243.2563751309
  0
LINE
  8
Layer1$C$L1
 62
     3
 10
-35.3671214396
 20
242.2563751309
 11
-32.8671214396
 21
242.2563751309
  0
LINE
  8
Layer1$C$L1
 62
     3
 10
-35.3671214396
 20
240.8563751309
 11
-32.8671214396
 21
240.8563751309
  0
LINE
  8
Layer1$C$L1
 62
     3
 10
-32.8671214396
 20
240.1563751309
 11
-32.8671214396
 21
242.2563751309
  0
LINE
  8
Layer1$C$L1
 62
     3
 10
-35.3671214396
 20
240.1563751309
 11
-35.3671214396
 21
242.2563751309
  0
LINE
  8
Layer1$C$L1
 62
     3
 10
-77.7671214396
 20
240.1563751309
 11
-31.4671214396
 21
240.1563751309
  0
LINE
  8
Layer1$C$L1
 62
     3
 10
-44.4671214396
 20
238.0071817925
 11
-79.7671214396
 21
238.0071817925
  0
LINE
  8
Layer1$C$L1
 62
     3
 10
-44.4671214396
 20
236.6998037595
 11
-44.4671214396
 21
240.1563751309
  0
LINE
  8
Layer1$C$L1
 62
     3
 10
-36.4671214396
 20
236.6998037595
 11
-44.4671214396
 21
236.6998037595
  0
LINE
  8
Layer1$C$L1
 62
     3
 10
-36.4671214396
 20
236.6998037595
 11
-36.4671214396
 21
243.2563751309
  0
LINE
  8
Layer1$C$L1
 62
     3
 10
-79.7671214396
 20
226.4563751309
 11
-79.7671214396
 21
238.1563751309
  0
LINE
  8
Layer1$C$L1
 62
     3
 10
-93.6812511962
 20
226.4563751309
 11
-79.7671214396
 21
226.4563751309
  0
LINE
  8
Layer1$C$L1
 62
     3
 10
-31.4671214396
 20
221.4563751309
 11
-31.4671214396
 21
243.2563751309
  0
LINE
  8
Layer1$C$L1
 62
     3
 10
-35.6671214396
 20
221.4563751309
 11
-34.5671214396
 21
221.4563751309
  0
LINE
  8
Layer1$C$L1
 62
     3
 10
-35.6671214396
 20
220.0563751309
 11
-35.6671214396
 21
221.4563751309
  0
LINE
  8
Layer1$C$L1
 62
     3
 10
-33.4671214396
 20
219.4563751309
 11
-31.4671214396
 21
221.4563751309
  0
LINE
  8
Layer1$C$L1
 62
     3
 10
-34.1671214396
 20
219.4563751309
 11
-33.4671214396
 21
219.4563751309
  0
LINE
  8
Layer1$C$L1
 62
     3
 10
-34.1671214396
 20
219.4563751309
 11
-34.5671214396
 21
221.4563751309
  0
LINE
  8
Layer1$C$L1
 62
     3
 10
-35.3092252882
 20
218.6845477567
 11
-35.6671214396
 21
220.0563751309
  0
LINE
  8
Layer1$C$L1
 62
     3
 10
-93.4681213396
 20
203.4563751309
 11
-97.3412411143
 21
203.9563751309
  0
LINE
  8
Layer1$C$L1
 62
     3
 10
-93.6932576797
 20
202.9563751309
 11
-93.5425524558
 21
202.9563751309
  0
LINE
  8
Layer1$C$L1
 62
     3
 10
-97.3412411143
 20
200.9563751309
 11
-93.4681213396
 21
201.4563751309
  0
LINE
  8
Layer1$C$L1
 62
     3
 10
-93.4946965795
 20
189.5945188516
 11
-93.4771214396
 21
189.5945188516
  0
LINE
  8
Layer1$C$L1
 62
     3
 10
-93.5671214396
 20
189.5751126688
 11
-84.7771964204
 21
191.9303659792
  0
LINE
  8
Layer1$C$L1
 62
     3
 10
-93.4771214396
 20
189.4445188516
 11
-84.8873166211
 21
191.7461501159
  0
LINE
  8
Layer1$C$L1
 62
     3
 10
-93.4771214396
 20
189.3563751309
 11
-93.5671214396
 21
189.3563751309
  0
LINE
  8
Layer1$C$L1
 62
     3
 10
-93.5671214396
 20
189.1092383876
 11
-93.5671214396
 21
189.5751126688
  0
LINE
  8
Layer1$C$L1
 62
     3
 10
-93.4771214396
 20
189.0304083794
 11
-93.4771214396
 21
189.5945188516
  0
LINE
  8
Layer1$C$L1
 62
     3
 10
-94.4771214396
 20
188.7624591870
 11
-94.4771214396
 21
188.8654046225
  0
LINE
  8
Layer1$C$L1
 62
     3
 10
-34.4671214396
 20
188.6563751309
 11
-33.3671214396
 21
188.6563751309
  0
LINE
  8
Layer1$C$L1
 62
     3
 10
-95.8170377436
 20
188.5063751309
 11
-93.5671214396
 21
189.1092383876
  0
LINE
  8
Layer1$C$L1
 62
     3
 10
-95.8060452286
 20
188.4063751309
 11
-93.4771214396
 21
189.0304083794
  0
LINE
  8
Layer1$C$L1
 62
     3
 10
-95.8035212191
 20
188.3624153994
 11
-95.8170377436
 21
188.5063751309
  0
LINE
  8
Layer1$C$L1
 62
     3
 10
-95.7874576392
 20
188.2549913636
 11
-95.8035212191
 21
188.3624153994
  0
LINE
  8
Layer1$C$L1
 62
     3
 10
-71.7238421291
 20
187.4563751309
 11
-65.5671214396
 21
187.4563751309
  0
LINE
  8
Layer1$C$L1
 62
     3
 10
-71.5196644489
 20
187.3563751309
 11
-65.6771214396
 21
187.3563751309
  0
LINE
  8
Layer1$C$L1
 62
     3
 10
-35.0671214396
 20
186.6563751309
 11
-34.4671214396
 21
188.6563751309
  0
LINE
  8
Layer1$C$L1
 62
     3
 10
-35.6671214396
 20
186.6563751309
 11
-35.0671214396
 21
186.6563751309
  0
LINE
  8
Layer1$C$L1
 62
     3
 10
-31.4671214396
 20
186.3563751309
 11
-33.3671214396
 21
188.6563751309
  0
LINE
  8
Layer1$C$L1
 62
     3
 10
-35.6671214396
 20
186.1563751309
 11
-35.6671214396
 21
217.4182919790
  0
LINE
  8
Layer1$C$L1
 62
     3
 10
-32.4671214396
 20
186.1563751309
 11
-35.6671214396
 21
186.1563751309
  0
LINE
  8
Layer1$C$L1
 62
     3
 10
-82.7842897731
 20
184.4927371168
 11
-84.7771964204
 21
191.9303659792
  0
LINE
  8
Layer1$C$L1
 62
     3
 10
-82.7842897731
 20
184.4927371168
 11
-71.7238421291
 21
187.4563751309
  0
LINE
  8
Layer1$C$L1
 62
     3
 10
-82.8944099738
 20
184.3085212534
 11
-84.8873166211
 21
191.7461501159
  0
LINE
  8
Layer1$C$L1
 62
     3
 10
-82.8944099738
 20
184.3085212534
 11
-71.5196644489
 21
187.3563751309
  0
LINE
  8
Layer1$C$L1
 62
     3
 10
-95.1710195222
 20
183.2345057875
 11
-95.8060452286
 21
188.4063751309
  0
LINE
  8
Layer1$C$L1
 62
     3
 10
-64.4671214396
 20
182.8563751309
 11
-65.5671214396
 21
182.8563751309
  0
LINE
  8
Layer1$C$L1
 62
     3
 10
-65.5671214396
 20
182.8563751309
 11
-65.5671214396
 21
187.4563751309
  0
LINE
  8
Layer1$C$L1
 62
     3
 10
-65.6771214396
 20
182.7563751309
 11
-65.6771214396
 21
187.3563751309
  0
LINE
  8
Layer1$C$L1
 62
     3
 10
-64.4771214396
 20
182.7563751309
 11
-64.4771214396
 21
182.8563751309
  0
LINE
  8
Layer1$C$L1
 62
     3
 10
-65.6771214396
 20
182.7563751309
 11
-64.6771214396
 21
182.7563751309
  0
LINE
  8
Layer1$C$L1
 62
     3
 10
-64.6771214396
 20
182.5885552047
 11
-64.6771214396
 21
182.7563751309
  0
LINE
  8
Layer1$C$L1
 62
     3
 10
-64.9538228767
 20
182.3563751309
 11
-64.4771214396
 21
182.7563751309
  0
LINE
  8
Layer1$C$L1
 62
     3
 10
-64.9538228767
 20
182.3563751309
 11
-94.1784733705
 21
182.3563751309
  0
LINE
  8
Layer1$C$L1
 62
     3
 10
-36.4671214396
 20
181.3563751309
 11
-64.4671214396
 21
181.3563751309
  0
LINE
  8
Layer1$C$L1
 62
     3
 10
-36.4671214396
 20
179.8563751309
 11
-64.4671214396
 21
179.8563751309
  0
LINE
  8
Layer1$C$L1
 62
     3
 10
-36.4671214396
 20
178.3563751309
 11
-64.4671214396
 21
178.3563751309
  0
LINE
  8
Layer1$C$L1
 62
     3
 10
-36.4671214396
 20
173.5563751309
 11
-64.4671214396
 21
173.5563751309
  0
LINE
  8
Layer1$C$L1
 62
     3
 10
-36.4671214396
 20
172.0563751309
 11
-64.4671214396
 21
172.0563751309
  0
LINE
  8
Layer1$C$L1
 62
     3
 10
-42.4671214396
 20
169.7055684694
 11
-64.4671214396
 21
169.7055684694
  0
LINE
  8
Layer1$C$L1
 62
     3
 10
-42.4671214396
 20
169.7055684694
 11
-42.4671214396
 21
172.0563751309
  0
LINE
  8
Layer1$C$L1
 62
     3
 10
-64.4671214396
 20
169.6563751309
 11
-64.4671214396
 21
182.8563751309
  0
LINE
  8
Layer1$C$L1
 62
     3
 10
-31.4671214396
 20
169.0563751309
 11
-36.4671214396
 21
169.0563751309
  0
LINE
  8
Layer1$C$L1
 62
     3
 10
-41.4671214396
 20
167.6563751309
 11
-41.4671214396
 21
172.0563751309
  0
LINE
  8
Layer1$C$L1
 62
     3
 10
-36.4671214396
 20
167.6563751309
 11
-62.4671214396
 21
167.6563751309
  0
LINE
  8
Layer1$C$L1
 62
     3
 10
-31.4671214396
 20
167.2563751309
 11
-36.4671214396
 21
167.2563751309
  0
LINE
  8
Layer1$C$L1
 62
     3
 10
-36.4671214396
 20
164.4563751309
 11
-36.4671214396
 21
181.3563751309
  0
LINE
  8
Layer1$C$L1
 62
     3
 10
-31.4671214396
 20
164.4563751309
 11
-31.4671214396
 21
186.3563751309
  0
LINE
  8
Layer1$C$L1
 62
     3
 10
-31.4671214396
 20
164.4563751309
 11
-36.4671214396
 21
164.4563751309
  0
POLYLINE
  8
Layer1$C$L1
 62
     3
 66
     1
  0
VERTEX
  8
Layer1$C$L1
 62
     3
 10
-42.4671214396
 20
169.7055684694
  0
VERTEX
  8
Layer1$C$L1
 62
     3
 10
-42.2410643616
 20
169.0548793545
  0
VERTEX
  8
Layer1$C$L1
 62
     3
 10
-42.1392234280
 20
168.3605826955
  0
VERTEX
  8
Layer1$C$L1
 62
     3
 10
-42.1665413347
 20
167.6563751309
  0
SEQEND
  8
Layer1$C$L1
 62
     3
  0
ARC
  8
Layer1$C$L1
 62
     3
 10
-140.6671244914
 20
239.5563751309
 40
3.2000000000
 50
169.1930771251
 51
208.9550243719
  0
ARC
  8
Layer1$C$L1
 62
     3
 10
-158.1671244914
 20
239.5563751309
 40
2.3000000000
 50
90.0000000000
 51
156.9643158941
  0
ARC
  8
Layer1$C$L1
 62
     3
 10
-158.1671244914
 20
239.5563751309
 40
3.2000000000
 50
331.0449756281
 51
370.8069228749
  0
ARC
  8
Layer1$C$L1
 62
     3
 10
-157.2671244914
 20
239.5563751309
 40
2.3000000000
 50
270.0000000000
 51
450.0000000000
  0
ARC
  8
Layer1$C$L1
 62
     3
 10
-158.1671244914
 20
239.5563751309
 40
2.3000000000
 50
203.0356841059
 51
270.0000000000
  0
ARC
  8
Layer1$C$L1
 62
     3
 10
-157.7171244914
 20
231.8563751309
 40
2.4000000000
 50
90.0000000000
 51
270.0000000000
  0
CIRCLE
  8
Layer1$C$L1
 62
     3
 10
-149.8171244914
 20
231.8563751309
 40
3.2000000000
  0
ARC
  8
Layer1$C$L1
 62
     3
 10
-158.5671244914
 20
215.7563751309
 40
0.5000000000
 50
90.0000000000
 51
180.0000000000
  0
ARC
  8
Layer1$C$L1
 62
     3
 10
-145.8671244914
 20
215.7563751309
 40
0.5000000000
 50
1.2213329977E-12
 51
90.0000000000
  0
ARC
  8
Layer1$C$L1
 62
     3
 10
-160.7671244914
 20
182.5563751309
 40
0.2000000000
 50
180.0000000000
 51
270.0000000000
  0
ARC
  8
Layer1$C$L1
 62
     3
 10
-143.6671244914
 20
182.5563751309
 40
0.2000000000
 50
270.0000000000
 51
360.0000000000
  0
CIRCLE
  8
Layer1$C$L1
 62
     3
 10
-154.6171244914
 20
175.9563751309
 40
3.2000000000
  0
ARC
  8
Layer1$C$L1
 62
     3
 10
-146.7171244914
 20
175.9563751309
 40
2.4000000000
 50
270.0000000000
 51
450.0000000000
  0
ARC
  8
Layer1$C$L1
 62
     3
 10
-146.2671244914
 20
168.1563751309
 40
3.2000000000
 50
151.0449756281
 51
188.9892993452
  0
ARC
  8
Layer1$C$L1
 62
     3
 10
-146.2671244914
 20
168.1563751309
 40
2.3000000000
 50
23.0356841059
 51
336.9643158941
  0
ARC
  8
Layer1$C$L1
 62
     3
 10
-163.7671244914
 20
168.1563751309
 40
3.2000000001
 50
351.0107006557
 51
388.9550243718
  0
ARC
  8
Layer1$C$L1
 62
     3
 10
-155.0671244914
 20
167.6563751309
 40
2.0000000000
 50
180.0000000000
 51
360.0000000000
  0
ARC
  8
Layer1$C$L1
 62
     3
 10
-151.7671244914
 20
165.6563751309
 40
1.0000000000
 50
270.0000000000
 51
360.0000000000
  0
ARC
  8
Layer1$C$L1
 62
     3
 10
-158.3671244914
 20
165.6563751309
 40
1.0000000000
 50
180.0000000000
 51
270.0000000000
  0
LINE
  8
Layer1$C$L1
 62
     3
 10
-151.4671244914
 20
243.2563751309
 11
-160.9671244914
 21
243.2563751309
  0
LINE
  8
Layer1$C$L1
 62
     3
 10
-158.1671244914
 20
241.8563751309
 11
-157.2671244914
 21
241.8563751309
  0
LINE
  8
Layer1$C$L1
 62
     3
 10
-160.2837255402
 20
240.4563751309
 11
-160.9671244914
 21
240.4563751309
  0
LINE
  8
Layer1$C$L1
 62
     3
 10
-160.9671244914
 20
240.4563751309
 11
-160.9671244914
 21
243.2563751309
  0
LINE
  8
Layer1$C$L1
 62
     3
 10
-151.4671244914
 20
240.1563751309
 11
-151.4671244914
 21
243.2563751309
  0
LINE
  8
Layer1$C$L1
 62
     3
 10
-143.4671244914
 20
240.1563751309
 11
-155.0238777623
 21
240.1563751309
  0
LINE
  8
Layer1$C$L1
 62
     3
 10
-160.9671244914
 20
238.6563751309
 11
-160.2837255402
 21
238.6563751309
  0
LINE
  8
Layer1$C$L1
 62
     3
 10
-143.4671244914
 20
238.2329127032
 11
-143.4671244914
 21
240.1563751309
  0
LINE
  8
Layer1$C$L1
 62
     3
 10
-157.2671244914
 20
237.2563751309
 11
-158.1671244914
 21
237.2563751309
  0
LINE
  8
Layer1$C$L1
 62
     3
 10
-157.2171244914
 20
235.7563751309
 11
-155.3671244914
 21
235.7563751309
  0
LINE
  8
Layer1$C$L1
 62
     3
 10
-155.3671244914
 20
235.7563751309
 11
-155.3671244914
 21
238.0071817925
  0
LINE
  8
Layer1$C$L1
 62
     3
 10
-149.8171244914
 20
235.0563751309
 11
-149.8171244914
 21
240.1563751309
  0
LINE
  8
Layer1$C$L1
 62
     3
 10
-157.7171244914
 20
234.2563751309
 11
-157.2171244914
 21
234.2563751309
  0
LINE
  8
Layer1$C$L1
 62
     3
 10
-157.2171244914
 20
234.2563751309
 11
-157.2171244914
 21
235.7563751309
  0
LINE
  8
Layer1$C$L1
 62
     3
 10
-160.9671244914
 20
232.8755587194
 11
-159.8899716588
 21
232.8755587194
  0
LINE
  8
Layer1$C$L1
 62
     3
 10
-157.2171244914
 20
229.4563751309
 11
-157.7171244914
 21
229.4563751309
  0
LINE
  8
Layer1$C$L1
 62
     3
 10
-157.2171244914
 20
227.9563751309
 11
-157.2171244914
 21
229.4563751309
  0
LINE
  8
Layer1$C$L1
 62
     3
 10
-155.3671244914
 20
227.9563751309
 11
-157.2171244914
 21
227.9563751309
  0
LINE
  8
Layer1$C$L1
 62
     3
 10
-151.4671244914
 20
226.5563751309
 11
-149.8171244914
 21
226.5563751309
  0
LINE
  8
Layer1$C$L1
 62
     3
 10
-155.3671244914
 20
226.4563751309
 11
-155.3671244914
 21
235.7563751309
  0
LINE
  8
Layer1$C$L1
 62
     3
 10
-149.8171244914
 20
226.4563751309
 11
-149.8171244914
 21
228.6563751309
  0
LINE
  8
Layer1$C$L1
 62
     3
 10
-160.9671244914
 20
226.4563751309
 11
-143.4671244914
 21
226.4563751309
  0
LINE
  8
Layer1$C$L1
 62
     3
 10
-151.4671244914
 20
216.2563751309
 11
-151.4671244914
 21
226.5563751309
  0
LINE
  8
Layer1$C$L1
 62
     3
 10
-159.0671244914
 20
216.2563751309
 11
-145.3671244914
 21
216.2563751309
  0
LINE
  8
Layer1$C$L1
 62
     3
 10
-148.4671244914
 20
214.7563751309
 11
-146.9671244914
 21
214.7563751309
  0
LINE
  8
Layer1$C$L1
 62
     3
 10
-154.4671244914
 20
214.7563751309
 11
-152.9671244914
 21
214.7563751309
  0
LINE
  8
Layer1$C$L1
 62
     3
 10
-151.4671244914
 20
214.7563751309
 11
-149.9671244914
 21
214.7563751309
  0
LINE
  8
Layer1$C$L1
 62
     3
 10
-157.4671244914
 20
214.7563751309
 11
-155.9671244914
 21
214.7563751309
  0
LINE
  8
Layer1$C$L1
 62
     3
 10
-148.4671244914
 20
213.2563751309
 11
-148.4671244914
 21
214.7563751309
  0
LINE
  8
Layer1$C$L1
 62
     3
 10
-155.9671244914
 20
213.2563751309
 11
-155.9671244914
 21
214.7563751309
  0
LINE
  8
Layer1$C$L1
 62
     3
 10
-151.4671244914
 20
213.2563751309
 11
-151.4671244914
 21
214.7563751309
  0
LINE
  8
Layer1$C$L1
 62
     3
 10
-157.4671244914
 20
213.2563751309
 11
-157.4671244914
 21
214.7563751309
  0
LINE
  8
Layer1$C$L1
 62
     3
 10
-149.9671244914
 20
213.2563751309
 11
-151.4671244914
 21
213.2563751309
  0
LINE
  8
Layer1$C$L1
 62
     3
 10
-152.9671244914
 20
213.2563751309
 11
-154.4671244914
 21
213.2563751309
  0
LINE
  8
Layer1$C$L1
 62
     3
 10
-149.9671244914
 20
213.2563751309
 11
-149.9671244914
 21
214.7563751309
  0
LINE
  8
Layer1$C$L1
 62
     3
 10
-155.9671244914
 20
213.2563751309
 11
-157.4671244914
 21
213.2563751309
  0
LINE
  8
Layer1$C$L1
 62
     3
 10
-152.9671244914
 20
213.2563751309
 11
-152.9671244914
 21
214.7563751309
  0
LINE
  8
Layer1$C$L1
 62
     3
 10
-154.4671244914
 20
213.2563751309
 11
-154.4671244914
 21
214.7563751309
  0
LINE
  8
Layer1$C$L1
 62
     3
 10
-146.9671244914
 20
213.2563751309
 11
-146.9671244914
 21
214.7563751309
  0
LINE
  8
Layer1$C$L1
 62
     3
 10
-146.9671244914
 20
213.2563751309
 11
-148.4671244914
 21
213.2563751309
  0
LINE
  8
Layer1$C$L1
 62
     3
 10
-159.3671244914
 20
211.8430678392
 11
-159.0671244914
 21
211.8430678392
  0
LINE
  8
Layer1$C$L1
 62
     3
 10
-145.3671244914
 20
211.8430678392
 11
-145.0671244914
 21
211.8430678392
  0
LINE
  8
Layer1$C$L1
 62
     3
 10
-151.4671244914
 20
211.7563751309
 11
-149.9671244914
 21
211.7563751309
  0
LINE
  8
Layer1$C$L1
 62
     3
 10
-157.4671244914
 20
211.7563751309
 11
-155.9671244914
 21
211.7563751309
  0
LINE
  8
Layer1$C$L1
 62
     3
 10
-148.4671244914
 20
211.7563751309
 11
-146.9671244914
 21
211.7563751309
  0
LINE
  8
Layer1$C$L1
 62
     3
 10
-154.4671244914
 20
211.7563751309
 11
-152.9671244914
 21
211.7563751309
  0
LINE
  8
Layer1$C$L1
 62
     3
 10
-149.9671244914
 20
210.2563751309
 11
-149.9671244914
 21
211.7563751309
  0
LINE
  8
Layer1$C$L1
 62
     3
 10
-152.9671244914
 20
210.2563751309
 11
-152.9671244914
 21
211.7563751309
  0
LINE
  8
Layer1$C$L1
 62
     3
 10
-157.4671244914
 20
210.2563751309
 11
-155.9671244914
 21
210.2563751309
  0
LINE
  8
Layer1$C$L1
 62
     3
 10
-157.4671244914
 20
210.2563751309
 11
-157.4671244914
 21
211.7563751309
  0
LINE
  8
Layer1$C$L1
 62
     3
 10
-148.4671244914
 20
210.2563751309
 11
-148.4671244914
 21
211.7563751309
  0
LINE
  8
Layer1$C$L1
 62
     3
 10
-151.4671244914
 20
210.2563751309
 11
-149.9671244914
 21
210.2563751309
  0
LINE
  8
Layer1$C$L1
 62
     3
 10
-151.4671244914
 20
210.2563751309
 11
-151.4671244914
 21
211.7563751309
  0
LINE
  8
Layer1$C$L1
 62
     3
 10
-148.4671244914
 20
210.2563751309
 11
-146.9671244914
 21
210.2563751309
  0
LINE
  8
Layer1$C$L1
 62
     3
 10
-154.4671244914
 20
210.2563751309
 11
-152.9671244914
 21
210.2563751309
  0
LINE
  8
Layer1$C$L1
 62
     3
 10
-155.9671244914
 20
210.2563751309
 11
-155.9671244914
 21
211.7563751309
  0
LINE
  8
Layer1$C$L1
 62
     3
 10
-146.9671244914
 20
210.2563751309
 11
-146.9671244914
 21
211.7563751309
  0
LINE
  8
Layer1$C$L1
 62
     3
 10
-154.4671244914
 20
210.2563751309
 11
-154.4671244914
 21
211.7563751309
  0
LINE
  8
Layer1$C$L1
 62
     3
 10
-145.0671244914
 20
210.1316601419
 11
-145.3671244914
 21
210.1316601419
  0
LINE
  8
Layer1$C$L1
 62
     3
 10
-159.0671244914
 20
210.1316601419
 11
-159.3671244914
 21
210.1316601419
  0
LINE
  8
Layer1$C$L1
 62
     3
 10
-157.2671244914
 20
208.8563751309
 11
-145.8671244914
 21
208.8563751309
  0
LINE
  8
Layer1$C$L1
 62
     3
 10
-158.5671244914
 20
208.8563751309
 11
-157.2671244914
 21
208.8563751309
  0
LINE
  8
Layer1$C$L1
 62
     3
 10
-145.3671244914
 20
208.2599320204
 11
-145.3671244914
 21
216.2563751309
  0
LINE
  8
Layer1$C$L1
 62
     3
 10
-145.3671244914
 20
208.2599320204
 11
-147.1671244914
 21
208.2599320204
  0
LINE
  8
Layer1$C$L1
 62
     3
 10
-159.0671244914
 20
208.2599320204
 11
-159.0671244914
 21
216.2563751309
  0
LINE
  8
Layer1$C$L1
 62
     3
 10
-157.2671244914
 20
208.2599320204
 11
-159.0671244914
 21
208.2599320204
  0
LINE
  8
Layer1$C$L1
 62
     3
 10
-143.4671244914
 20
207.3298514236
 11
-143.7671244914
 21
207.3298514236
  0
LINE
  8
Layer1$C$L1
 62
     3
 10
-160.6671244914
 20
207.3298514236
 11
-160.9671244914
 21
207.3298514236
  0
LINE
  8
Layer1$C$L1
 62
     3
 10
-160.6671244914
 20
206.6936104749
 11
-160.6671244914
 21
207.3298514236
  0
LINE
  8
Layer1$C$L1
 62
     3
 10
-145.0671244914
 20
206.6936104749
 11
-145.0671244914
 21
226.4563751309
  0
LINE
  8
Layer1$C$L1
 62
     3
 10
-159.3671244914
 20
206.6936104749
 11
-160.6671244914
 21
206.6936104749
  0
LINE
  8
Layer1$C$L1
 62
     3
 10
-143.7671244914
 20
206.6936104749
 11
-145.0671244914
 21
206.6936104749
  0
LINE
  8
Layer1$C$L1
 62
     3
 10
-143.7671244914
 20
206.6936104749
 11
-143.7671244914
 21
207.3298514236
  0
LINE
  8
Layer1$C$L1
 62
     3
 10
-159.3671244914
 20
206.6936104749
 11
-159.3671244914
 21
226.4563751309
  0
LINE
  8
Layer1$C$L1
 62
     3
 10
-157.4671244914
 20
205.4563751309
 11
-157.2671244914
 21
205.4563751309
  0
LINE
  8
Layer1$C$L1
 62
     3
 10
-147.1671244914
 20
205.4563751309
 11
-146.9671244914
 21
205.4563751309
  0
LINE
  8
Layer1$C$L1
 62
     3
 10
-157.2671244914
 20
205.2563751309
 11
-157.3671244914
 21
205.2563751309
  0
LINE
  8
Layer1$C$L1
 62
     3
 10
-147.0671244914
 20
205.2563751309
 11
-147.1671244914
 21
205.2563751309
  0
LINE
  8
Layer1$C$L1
 62
     3
 10
-157.2671244914
 20
204.4563751309
 11
-157.3671244914
 21
204.4563751309
  0
LINE
  8
Layer1$C$L1
 62
     3
 10
-147.0671244914
 20
204.4563751309
 11
-147.1671244914
 21
204.4563751309
  0
LINE
  8
Layer1$C$L1
 62
     3
 10
-160.9671244914
 20
203.9563751309
 11
-158.2671244914
 21
203.9563751309
  0
LINE
  8
Layer1$C$L1
 62
     3
 10
-146.1671244914
 20
203.9563751309
 11
-143.4671244914
 21
203.9563751309
  0
LINE
  8
Layer1$C$L1
 62
     3
 10
-146.1671244914
 20
203.4756244564
 11
-145.0671244914
 21
203.4756244564
  0
LINE
  8
Layer1$C$L1
 62
     3
 10
-159.3671244914
 20
203.4756244564
 11
-158.2671244914
 21
203.4756244564
  0
LINE
  8
Layer1$C$L1
 62
     3
 10
-143.4671244914
 20
203.4563751309
 11
-145.0671244914
 21
203.4563751309
  0
LINE
  8
Layer1$C$L1
 62
     3
 10
-159.3671244914
 20
203.4563751309
 11
-160.9671244914
 21
203.4563751309
  0
LINE
  8
Layer1$C$L1
 62
     3
 10
-143.4671244914
 20
201.4563751309
 11
-145.0671244914
 21
201.4563751309
  0
LINE
  8
Layer1$C$L1
 62
     3
 10
-159.3671244914
 20
201.4563751309
 11
-160.9671244914
 21
201.4563751309
  0
LINE
  8
Layer1$C$L1
 62
     3
 10
-145.0671244914
 20
201.4371258054
 11
-146.1671244914
 21
201.4371258054
  0
LINE
  8
Layer1$C$L1
 62
     3
 10
-145.0671244914
 20
201.4371258054
 11
-145.0671244914
 21
203.4756244564
  0
LINE
  8
Layer1$C$L1
 62
     3
 10
-145.1671244914
 20
201.4371258054
 11
-145.1671244914
 21
203.4756244564
  0
LINE
  8
Layer1$C$L1
 62
     3
 10
-159.2671244914
 20
201.4371258054
 11
-159.2671244914
 21
203.4756244564
  0
LINE
  8
Layer1$C$L1
 62
     3
 10
-158.2671244914
 20
201.4371258054
 11
-159.3671244914
 21
201.4371258054
  0
LINE
  8
Layer1$C$L1
 62
     3
 10
-159.3671244914
 20
201.4371258054
 11
-159.3671244914
 21
203.4756244564
  0
LINE
  8
Layer1$C$L1
 62
     3
 10
-158.2671244914
 20
200.9563751309
 11
-158.2671244914
 21
203.9563751309
  0
LINE
  8
Layer1$C$L1
 62
     3
 10
-146.1671244914
 20
200.9563751309
 11
-146.1671244914
 21
203.9563751309
  0
LINE
  8
Layer1$C$L1
 62
     3
 10
-160.9671244914
 20
200.9563751309
 11
-158.2671244914
 21
200.9563751309
  0
LINE
  8
Layer1$C$L1
 62
     3
 10
-146.1671244914
 20
200.9563751309
 11
-143.4671244914
 21
200.9563751309
  0
LINE
  8
Layer1$C$L1
 62
     3
 10
-157.3671244914
 20
200.4563751309
 11
-157.3671244914
 21
205.2563751309
  0
LINE
  8
Layer1$C$L1
 62
     3
 10
-157.2671244914
 20
200.4563751309
 11
-157.3671244914
 21
200.4563751309
  0
LINE
  8
Layer1$C$L1
 62
     3
 10
-147.0671244914
 20
200.4563751309
 11
-147.0671244914
 21
205.2563751309
  0
LINE
  8
Layer1$C$L1
 62
     3
 10
-147.0671244914
 20
200.4563751309
 11
-147.1671244914
 21
200.4563751309
  0
LINE
  8
Layer1$C$L1
 62
     3
 10
-157.2671244914
 20
198.4563751309
 11
-157.4671244914
 21
198.4563751309
  0
LINE
  8
Layer1$C$L1
 62
     3
 10
-146.9671244914
 20
198.4563751309
 11
-147.1671244914
 21
198.4563751309
  0
LINE
  8
Layer1$C$L1
 62
     3
 10
-143.7671244914
 20
198.2191397869
 11
-146.9671244914
 21
198.2191397869
  0
LINE
  8
Layer1$C$L1
 62
     3
 10
-157.4671244914
 20
198.2191397869
 11
-160.6671244914
 21
198.2191397869
  0
LINE
  8
Layer1$C$L1
 62
     3
 10
-157.3671244914
 20
198.1262481120
 11
-157.4671244914
 21
198.1262481120
  0
LINE
  8
Layer1$C$L1
 62
     3
 10
-146.9671244914
 20
198.1262481120
 11
-147.0671244914
 21
198.1262481120
  0
LINE
  8
Layer1$C$L1
 62
     3
 10
-143.4671244914
 20
197.5828988383
 11
-143.7671244914
 21
197.5828988383
  0
LINE
  8
Layer1$C$L1
 62
     3
 10
-143.7671244914
 20
197.5828988383
 11
-143.7671244914
 21
198.2191397869
  0
LINE
  8
Layer1$C$L1
 62
     3
 10
-160.6671244914
 20
197.5828988383
 11
-160.9671244914
 21
197.5828988383
  0
LINE
  8
Layer1$C$L1
 62
     3
 10
-160.6671244914
 20
197.5828988383
 11
-160.6671244914
 21
198.2191397869
  0
LINE
  8
Layer1$C$L1
 62
     3
 10
-157.3671244914
 20
197.4563751309
 11
-157.4671244914
 21
197.4563751309
  0
LINE
  8
Layer1$C$L1
 62
     3
 10
-157.3671244914
 20
197.2645630438
 11
-157.4671244914
 21
197.2645630438
  0
LINE
  8
Layer1$C$L1
 62
     3
 10
-157.4671244914
 20
196.9563751309
 11
-157.4671244914
 21
208.2599320204
  0
LINE
  8
Layer1$C$L1
 62
     3
 10
-146.9671244914
 20
196.9563751309
 11
-146.9671244914
 21
208.2599320204
  0
LINE
  8
Layer1$C$L1
 62
     3
 10
-157.3671244914
 20
196.9563751309
 11
-157.3671244914
 21
198.4563751309
  0
LINE
  8
Layer1$C$L1
 62
     3
 10
-157.4671244914
 20
196.9563751309
 11
-146.9671244914
 21
196.9563751309
  0
LINE
  8
Layer1$C$L1
 62
     3
 10
-147.1671244914
 20
196.9563751309
 11
-147.1671244914
 21
208.8563751309
  0
LINE
  8
Layer1$C$L1
 62
     3
 10
-157.2671244914
 20
196.9563751309
 11
-157.2671244914
 21
208.8563751309
  0
LINE
  8
Layer1$C$L1
 62
     3
 10
-147.0671244914
 20
196.9563751309
 11
-147.0671244914
 21
198.4563751309
  0
LINE
  8
Layer1$C$L1
 62
     3
 10
-151.4671244914
 20
188.5063751309
 11
-143.4671244914
 21
188.5063751309
  0
LINE
  8
Layer1$C$L1
 62
     3
 10
-143.6671244914
 20
188.4063751309
 11
-151.0171244914
 21
188.4063751309
  0
LINE
  8
Layer1$C$L1
 62
     3
 10
-151.4671244914
 20
187.4563751309
 11
-151.4671244914
 21
196.9563751309
  0
LINE
  8
Layer1$C$L1
 62
     3
 10
-160.9671244914
 20
187.4563751309
 11
-151.4671244914
 21
187.4563751309
  0
LINE
  8
Layer1$C$L1
 62
     3
 10
-158.7171244914
 20
187.3563751309
 11
-158.7171244914
 21
187.4563751309
  0
LINE
  8
Layer1$C$L1
 62
     3
 10
-160.4671244914
 20
187.3563751309
 11
-160.4671244914
 21
187.4563751309
  0
LINE
  8
Layer1$C$L1
 62
     3
 10
-157.8671244914
 20
187.3563751309
 11
-157.8671244914
 21
187.4563751309
  0
LINE
  8
Layer1$C$L1
 62
     3
 10
-157.2171244914
 20
187.3563751309
 11
-157.2171244914
 21
187.4563751309
  0
LINE
  8
Layer1$C$L1
 62
     3
 10
-151.0171244914
 20
187.3563751309
 11
-151.0171244914
 21
188.5063751309
  0
LINE
  8
Layer1$C$L1
 62
     3
 10
-157.3671244914
 20
187.3563751309
 11
-157.3671244914
 21
187.4563751309
  0
LINE
  8
Layer1$C$L1
 62
     3
 10
-154.6337336861
 20
187.3563751309
 11
-154.9097068949
 21
187.4563751309
  0
LINE
  8
Layer1$C$L1
 62
     3
 10
-160.9671244914
 20
187.3563751309
 11
-151.0171244914
 21
187.3563751309
  0
LINE
  8
Layer1$C$L1
 62
     3
 10
-160.7671244914
 20
182.3563751309
 11
-143.6671244914
 21
182.3563751309
  0
LINE
  8
Layer1$C$L1
 62
     3
 10
-143.4671244914
 20
181.3563751309
 11
-149.0671244914
 21
181.3563751309
  0
LINE
  8
Layer1$C$L1
 62
     3
 10
-149.0671244914
 20
179.8563751309
 11
-149.0671244914
 21
181.3563751309
  0
LINE
  8
Layer1$C$L1
 62
     3
 10
-147.2171244914
 20
179.8563751309
 11
-149.0671244914
 21
179.8563751309
  0
LINE
  8
Layer1$C$L1
 62
     3
 10
-154.6171244914
 20
179.1563751309
 11
-154.6171244914
 21
182.3563751309
  0
LINE
  8
Layer1$C$L1
 62
     3
 10
-147.2171244914
 20
178.3563751309
 11
-146.7171244914
 21
178.3563751309
  0
LINE
  8
Layer1$C$L1
 62
     3
 10
-147.2171244914
 20
178.3563751309
 11
-147.2171244914
 21
179.8563751309
  0
LINE
  8
Layer1$C$L1
 62
     3
 10
-146.7171244914
 20
173.5563751309
 11
-147.2171244914
 21
173.5563751309
  0
LINE
  8
Layer1$C$L1
 62
     3
 10
-147.2171244914
 20
172.0563751309
 11
-149.0671244914
 21
172.0563751309
  0
LINE
  8
Layer1$C$L1
 62
     3
 10
-147.2171244914
 20
172.0563751309
 11
-147.2171244914
 21
173.5563751309
  0
LINE
  8
Layer1$C$L1
 62
     3
 10
-160.9671244914
 20
169.7055684694
 11
-160.9671244914
 21
238.6563751309
  0
LINE
  8
Layer1$C$L1
 62
     3
 10
-149.0671244914
 20
169.7055684694
 11
-149.0671244914
 21
179.8563751309
  0
LINE
  8
Layer1$C$L1
 62
     3
 10
-143.4671244914
 20
169.0563751309
 11
-143.4671244914
 21
238.0071817925
  0
LINE
  8
Layer1$C$L1
 62
     3
 10
-143.4671244914
 20
169.0563751309
 11
-144.1505234425
 21
169.0563751309
  0
LINE
  8
Layer1$C$L1
 62
     3
 10
-160.9671244914
 20
167.6563751309
 11
-160.9671244914
 21
169.5257957872
  0
LINE
  8
Layer1$C$L1
 62
     3
 10
-149.4278206172
 20
167.6563751309
 11
-160.9671244914
 21
167.6563751309
  0
LINE
  8
Layer1$C$L1
 62
     3
 10
-154.6171244914
 20
167.6563751309
 11
-154.6171244914
 21
172.7563751309
  0
LINE
  8
Layer1$C$L1
 62
     3
 10
-144.1505234425
 20
167.2563751309
 11
-143.4671244914
 21
167.2563751309
  0
LINE
  8
Layer1$C$L1
 62
     3
 10
-159.3671244914
 20
165.6563751309
 11
-159.3671244914
 21
167.6563751309
  0
LINE
  8
Layer1$C$L1
 62
     3
 10
-150.7671244914
 20
165.6563751309
 11
-150.7671244914
 21
167.6563751309
  0
LINE
  8
Layer1$C$L1
 62
     3
 10
-158.3671244914
 20
164.6563751309
 11
-151.7671244914
 21
164.6563751309
  0
LINE
  8
Layer1$C$L1
 62
     3
 10
-150.6671244914
 20
164.4563751309
 11
-143.4671244914
 21
164.4563751309
  0
LINE
  8
Layer1$C$L1
 62
     3
 10
-143.4671244914
 20
164.4563751309
 11
-143.4671244914
 21
167.2563751309
  0
LINE
  8
Layer1$C$L1
 62
     3
 10
-150.6671244914
 20
164.4563751309
 11
-150.6671244914
 21
167.6563751309
  0
POLYLINE
  8
Layer1$C$L1
 62
     3
 66
     1
  0
VERTEX
  8
Layer1$C$L1
 62
     3
 10
-143.6671244914
 20
188.4063751309
  0
VERTEX
  8
Layer1$C$L1
 62
     3
 10
-143.6281064270
 20
188.4073795328
  0
VERTEX
  8
Layer1$C$L1
 62
     3
 10
-143.5905878049
 20
188.4103541397
  0
VERTEX
  8
Layer1$C$L1
 62
     3
 10
-143.5560104448
 20
188.4151846393
  0
VERTEX
  8
Layer1$C$L1
 62
     3
 10
-143.5257031351
 20
188.4216853981
  0
VERTEX
  8
Layer1$C$L1
 62
     3
 10
-143.5008305689
 20
188.4296065955
  0
VERTEX
  8
Layer1$C$L1
 62
     3
 10
-143.4823485849
 20
188.4386438246
  0
VERTEX
  8
Layer1$C$L1
 62
     3
 10
-143.4709674353
 20
188.4484497895
  0
VERTEX
  8
Layer1$C$L1
 62
     3
 10
-143.4671244914
 20
188.4586476525
  0
SEQEND
  8
Layer1$C$L1
 62
     3
  0
POLYLINE
  8
Layer1$C$L1
 62
     3
 66
     1
  0
VERTEX
  8
Layer1$C$L1
 62
     3
 10
-158.5671244914
 20
208.8563751309
  0
VERTEX
  8
Layer1$C$L1
 62
     3
 10
-158.6306929002
 20
208.8524803117
  0
VERTEX
  8
Layer1$C$L1
 62
     3
 10
-158.7527192822
 20
208.8220820394
  0
VERTEX
  8
Layer1$C$L1
 62
     3
 10
-158.8598017682
 20
208.7655319205
  0
VERTEX
  8
Layer1$C$L1
 62
     3
 10
-158.9792479106
 20
208.6480565005
  0
VERTEX
  8
Layer1$C$L1
 62
     3
 10
-159.0584263632
 20
208.4651023118
  0
VERTEX
  8
Layer1$C$L1
 62
     3
 10
-159.0671244914
 20
208.3757378863
  0
SEQEND
  8
Layer1$C$L1
 62
     3
  0
POLYLINE
  8
Layer1$C$L1
 62
     3
 66
     1
  0
VERTEX
  8
Layer1$C$L1
 62
     3
 10
-145.3671244914
 20
208.3757378863
  0
VERTEX
  8
Layer1$C$L1
 62
     3
 10
-145.3784580306
 20
208.4776065021
  0
VERTEX
  8
Layer1$C$L1
 62
     3
 10
-145.4824238925
 20
208.6829094289
  0
VERTEX
  8
Layer1$C$L1
 62
     3
 10
-145.5998165991
 20
208.7820110295
  0
VERTEX
  8
Layer1$C$L1
 62
     3
 10
-145.7254473376
 20
208.8367030273
  0
VERTEX
  8
Layer1$C$L1
 62
     3
 10
-145.8671244914
 20
208.8563751309
  0
SEQEND
  8
Layer1$C$L1
 62
     3
  0
LINE
  8
Layer1$C$L1
 62
     3
 10
-152.9603729681
 20
232.4563659757
 11
-151.1671305949
 21
232.4563659757
  0
LINE
  8
Layer1$C$L1
 62
     3
 10
-152.9603700554
 20
231.2563690274
 11
-151.1671305949
 21
231.2563690274
  0
LINE
  8
Layer1$C$L1
 62
     3
 10
-149.2171183879
 20
229.4063781827
 11
-149.2171183879
 21
230.5063690274
  0
LINE
  8
Layer1$C$L1
 62
     3
 10
-150.4171305949
 20
229.4063781827
 11
-150.4171305949
 21
230.5063690274
  0
LINE
  8
Layer1$C$L1
 62
     3
 10
-150.4171305949
 20
234.3063720792
 11
-149.2171183879
 21
234.3063720792
  0
LINE
  8
Layer1$C$L1
 62
     3
 10
-150.4171305949
 20
229.4063781827
 11
-149.2171183879
 21
229.4063781827
  0
LINE
  8
Layer1$C$L1
 62
     3
 10
-152.2671214396
 20
231.2563690274
 11
-152.2671214396
 21
232.4563659757
  0
LINE
  8
Layer1$C$L1
 62
     3
 10
-147.3671275431
 20
231.2563690274
 11
-147.3671275431
 21
232.4563659757
  0
LINE
  8
Layer1$C$L1
 62
     3
 10
-150.4171305949
 20
233.2063659757
 11
-150.4171305949
 21
234.3063720792
  0
LINE
  8
Layer1$C$L1
 62
     3
 10
-148.4671183879
 20
231.2563690274
 11
-146.6738789274
 21
231.2563690274
  0
LINE
  8
Layer1$C$L1
 62
     3
 10
-148.4671183879
 20
232.4563659757
 11
-146.6738760147
 21
232.4563659757
  0
LINE
  8
Layer1$C$L1
 62
     3
 10
-149.2171183879
 20
233.2063659757
 11
-149.2171183879
 21
234.3063720792
  0
ARC
  8
Layer1$C$L1
 62
     3
 10
-151.1671305949
 20
230.5063690274
 40
0.7500000000
 50
0.0000000000
 51
89.9999820139
  0
ARC
  8
Layer1$C$L1
 62
     3
 10
-148.4671183879
 20
230.5063690274
 40
0.7500000000
 50
89.9999820139
 51
179.9999640278
  0
ARC
  8
Layer1$C$L1
 62
     3
 10
-148.4671183879
 20
233.2063659757
 40
0.7500000000
 50
179.9999640278
 51
269.9999460417
  0
ARC
  8
Layer1$C$L1
 62
     3
 10
-151.1671305949
 20
233.2063659757
 40
0.7500000000
 50
270.0000179861
 51
360.0000000000
  0
LINE
  8
Layer1$C$L1
 62
     3
 10
-157.7603729681
 20
176.5563659757
 11
-155.9671305949
 21
176.5563659757
  0
LINE
  8
Layer1$C$L1
 62
     3
 10
-157.7603700554
 20
175.3563690274
 11
-155.9671305949
 21
175.3563690274
  0
LINE
  8
Layer1$C$L1
 62
     3
 10
-154.0171183879
 20
173.5063781827
 11
-154.0171183879
 21
174.6063690274
  0
LINE
  8
Layer1$C$L1
 62
     3
 10
-155.2171305949
 20
173.5063781827
 11
-155.2171305949
 21
174.6063690274
  0
LINE
  8
Layer1$C$L1
 62
     3
 10
-155.2171305949
 20
178.4063720792
 11
-154.0171183879
 21
178.4063720792
  0
LINE
  8
Layer1$C$L1
 62
     3
 10
-155.2171305949
 20
173.5063781827
 11
-154.0171183879
 21
173.5063781827
  0
LINE
  8
Layer1$C$L1
 62
     3
 10
-157.0671214396
 20
175.3563690274
 11
-157.0671214396
 21
176.5563659757
  0
LINE
  8
Layer1$C$L1
 62
     3
 10
-152.1671275431
 20
175.3563690274
 11
-152.1671275431
 21
176.5563659757
  0
LINE
  8
Layer1$C$L1
 62
     3
 10
-155.2171305949
 20
177.3063659757
 11
-155.2171305949
 21
178.4063720792
  0
LINE
  8
Layer1$C$L1
 62
     3
 10
-153.2671183879
 20
175.3563690274
 11
-151.4738789274
 21
175.3563690274
  0
LINE
  8
Layer1$C$L1
 62
     3
 10
-153.2671183879
 20
176.5563659757
 11
-151.4738760147
 21
176.5563659757
  0
LINE
  8
Layer1$C$L1
 62
     3
 10
-154.0171183879
 20
177.3063659757
 11
-154.0171183879
 21
178.4063720792
  0
ARC
  8
Layer1$C$L1
 62
     3
 10
-155.9671305949
 20
174.6063690274
 40
0.7500000000
 50
0.0000000000
 51
89.9999820139
  0
ARC
  8
Layer1$C$L1
 62
     3
 10
-153.2671183879
 20
174.6063690274
 40
0.7500000000
 50
89.9999820139
 51
179.9999640278
  0
ARC
  8
Layer1$C$L1
 62
     3
 10
-153.2671183879
 20
177.3063659757
 40
0.7500000000
 50
179.9999640278
 51
269.9999460417
  0
ARC
  8
Layer1$C$L1
 62
     3
 10
-155.9671305949
 20
177.3063659757
 40
0.7500000000
 50
270.0000179861
 51
360.0000000000
  0
ARC
  8
Layer1$C$L1
  6
DASH
 62
     3
 10
-28.4553290020
 20
331.1520805521
 40
147.0000000000
 50
239.6132805004
 51
241.6907010522
  0
ARC
  8
Layer1$C$L1
  6
DASH
 62
     3
 10
-28.4553290023
 20
331.1520805516
 40
149.9999999994
 50
239.7910745217
 51
243.0735247323
  0
ARC
  8
Layer1$C$L1
  6
DASH
 62
     3
 10
-88.4671221692
 20
202.4563747930
 40
9.3000000000
 50
188.9565134760
 51
206.3883584935
  0
ARC
  8
Layer1$C$L1
  6
DASH
 62
     3
 10
-103.8278845431
 20
201.6954551087
 40
0.2000000000
 50
155.0000000000
 51
239.7910745218
  0
ARC
  8
Layer1$C$L1
  6
DASH
 62
     3
 10
-98.6415320774
 20
200.8528215449
 40
1.0000000000
 50
8.9565134760
 51
61.6907010522
  0
LINE
  8
Layer1$C$L1
  6
DASH
 62
     3
 10
-102.8989633605
 20
204.1607733301
 11
-102.8129019850
 21
204.3453325453
  0
LINE
  8
Layer1$C$L1
  6
DASH
 62
     3
 10
-102.8118076177
 20
203.1645786320
 11
-102.8989633605
 21
204.1607733301
  0
LINE
  8
Layer1$C$L1
  6
DASH
 62
     3
 10
-103.3869608948
 20
203.1142592404
 11
-102.8118076177
 21
203.1645786320
  0
LINE
  8
Layer1$C$L1
  6
DASH
 62
     3
 10
-103.2998051521
 20
202.1180645423
 11
-103.3869608948
 21
203.1142592404
  0
LINE
  8
Layer1$C$L1
  6
DASH
 62
     3
 10
-103.8749584292
 20
202.0677451508
 11
-103.2998051521
 21
202.1180645423
  0
LINE
  8
Layer1$C$L1
  6
DASH
 62
     3
 10
-104.0091461005
 20
201.7799787611
 11
-103.8749584292
 21
202.0677451508
  0
LINE
  8
Layer1$C$L1
  6
DASH
 62
     3
 10
-97.2192357481
 20
200.3586360337
 11
-97.5630816093
 21
200.5189739920
  0
LINE
  8
Layer1$C$L1
  6
DASH
 62
     3
 10
-97.5907103356
 20
198.0344669623
 11
-96.7980815494
 21
198.3229602474
  0
LINE
  8
Layer1$C$L1
  6
CENTER
 62
     3
 10
-163.9671244914
 20
203.9063751309
 11
-140.4671244914
 21
203.9063751309
  0
LINE
  8
Layer1$C$L1
  6
CENTER
 62
     3
 10
-152.2171244914
 20
161.4563751309
 11
-152.2171244914
 21
246.2563751309
  0
LINE
  8
Layer1$C$L1
  6
CENTER
 62
     3
 10
-145.6171244914
 20
231.8563751309
 11
-154.0171244914
 21
231.8563751309
  0
LINE
  8
Layer1$C$L1
  6
CENTER
 62
     3
 10
-150.4171244914
 20
175.9563751309
 11
-158.8171244914
 21
175.9563751309
  0
TEXT
  8
Layer8$C$L8
 62
     3
 10
-157.0059837934
 20
199.0806015835
 40
3.7500000000
  1
éném
 41
0.6693333333
 72
     5
 11
-149.4759837934
 21
199.0806015835
  0
LINE
  8
Layer1$C$L1
 62
     3
 10
-80.4671214396
 20
235.7563751309
 11
-79.7671214396
 21
235.7563751309
  0
LINE
  8
Layer1$C$L1
 62
     3
 10
-80.4671214396
 20
227.9563751309
 11
-79.7671214396
 21
227.9563751309
  0
LINE
  8
Layer1$C$L1
 62
     3
 10
-65.1671214396
 20
179.8563751309
 11
-64.4671214396
 21
179.8563751309
  0
LINE
  8
Layer1$C$L1
 62
     3
 10
-65.1671214396
 20
172.0563751309
 11
-64.4671214396
 21
172.0563751309
  0
LINE
  8
Layer1$C$L1
 62
     3
 10
-80.4671214396
 20
227.9563751309
 11
-80.4671214396
 21
235.7563751309
  0
LINE
  8
Layer1$C$L1
 62
     3
 10
-65.1671214396
 20
172.0563751309
 11
-65.1671214396
 21
179.8563751309
  0
INSERT
  8
Layer8$C$L8
 62
     5
 66
     1
  2
Cadra_attr_1
 10
0.000000
 20
0.000000
  0
ATTRIB
  8
Layer8$C$L8
 62
     5
 10
-46.747117
 20
18.500000
 40
0.156000
  1
  
  2
20
 70
    11
  0
SEQEND
  8
Layer8$C$L8
 62
     5
  0
ENDSEC
  0
EOF
