  0
SECTION
  2
HEADER
  9
$ACADVER
  1
AC1015
  9
$ACADMAINTVER
 70
    13
  9
$DWGCODEPAGE
  3
ANSI_932
  9
$INSBASE
 10
0.0
 20
0.0
 30
0.0
  9
$EXTMIN
 10
-0.019077874378695
 20
-0.0006527889781864
 30
-0.0000000000112498
  9
$EXTMAX
 10
210.0061355985624
 20
297.0045818445993
 30
0.0000000000002956
  9
$LIMMIN
 10
-191.9676483154
 20
-3.174999999999998
  9
$LIMMAX
 10
3.174999999999998
 20
291.2585876465
  9
$ORTHOMODE
 70
     0
  9
$REGENMODE
 70
     1
  9
$FILLMODE
 70
     1
  9
$QTEXTMODE
 70
     0
  9
$MIRRTEXT
 70
     0
  9
$LTSCALE
 40
1.0
  9
$ATTMODE
 70
     1
  9
$TEXTSIZE
 40
2.999994039499997
  9
$TRACEWID
 40
0.05
  9
$TEXTSTYLE
  7
STANDARD
  9
$CLAYER
  8
0
  9
$CELTYPE
  6
ByLayer
  9
$CECOLOR
 62
   256
  9
$CELTSCALE
 40
1.0
  9
$DISPSILH
 70
     0
  9
$DIMSCALE
 40
1.0
  9
$DIMASZ
 40
1.9727878465
  9
$DIMEXO
 40
2.539999961899999
  9
$DIMDLI
 40
0.38
  9
$DIMRND
 40
0.0
  9
$DIMDLE
 40
0.0
  9
$DIMEXE
 40
3.809999942799997
  9
$DIMTP
 40
0.0
  9
$DIMTM
 40
0.0
  9
$DIMTXT
 40
2.999994039499997
  9
$DIMCEN
 40
0.09
  9
$DIMTSZ
 40
0.0
  9
$DIMTOL
 70
     0
  9
$DIMLIM
 70
     0
  9
$DIMTIH
 70
     0
  9
$DIMTOH
 70
     1
  9
$DIMSE1
 70
     0
  9
$DIMSE2
 70
     0
  9
$DIMTAD
 70
     0
  9
$DIMZIN
 70
     0
  9
$DIMBLK
  1

  9
$DIMASO
 70
     1
  9
$DIMSHO
 70
     0
  9
$DIMPOST
  1

  9
$DIMAPOST
  1

  9
$DIMALT
 70
     0
  9
$DIMALTD
 70
     2
  9
$DIMALTF
 40
25.4
  9
$DIMLFAC
 40
1.0
  9
$DIMTOFL
 70
     0
  9
$DIMTVP
 40
0.0
  9
$DIMTIX
 70
     0
  9
$DIMSOXD
 70
     0
  9
$DIMSAH
 70
     0
  9
$DIMBLK1
  1

  9
$DIMBLK2
  1

  9
$DIMSTYLE
  2
Standard
  9
$DIMCLRD
 70
     0
  9
$DIMCLRE
 70
     0
  9
$DIMCLRT
 70
     0
  9
$DIMTFAC
 40
1.0
  9
$DIMGAP
 40
0.09
  9
$DIMJUST
 70
     0
  9
$DIMSD1
 70
     0
  9
$DIMSD2
 70
     0
  9
$DIMTOLJ
 70
     1
  9
$DIMTZIN
 70
     0
  9
$DIMALTZ
 70
     0
  9
$DIMALTTZ
 70
     0
  9
$DIMUPT
 70
     0
  9
$DIMDEC
 70
     4
  9
$DIMTDEC
 70
     4
  9
$DIMALTU
 70
     2
  9
$DIMALTTD
 70
     2
  9
$DIMTXSTY
  7
STANDARD
  9
$DIMAUNIT
 70
     0
  9
$DIMADEC
 70
     0
  9
$DIMALTRND
 40
0.0
  9
$DIMAZIN
 70
     0
  9
$DIMDSEP
 70
    46
  9
$DIMATFIT
 70
     3
  9
$DIMFRAC
 70
     0
  9
$DIMLDRBLK
  1

  9
$DIMLUNIT
 70
     2
  9
$DIMLWD
 70
    -2
  9
$DIMLWE
 70
    -2
  9
$DIMTMOVE
 70
     0
  9
$LUNITS
 70
     2
  9
$LUPREC
 70
     3
  9
$SKETCHINC
 40
0.1
  9
$FILLETRAD
 40
0.0625
  9
$AUNITS
 70
     0
  9
$AUPREC
 70
     0
  9
$MENU
  1
ACAD
  9
$ELEVATION
 40
0.0
  9
$PELEVATION
 40
0.0
  9
$THICKNESS
 40
0.0
  9
$LIMCHECK
 70
     0
  9
$CHAMFERA
 40
0.0
  9
$CHAMFERB
 40
0.0
  9
$CHAMFERC
 40
0.0
  9
$CHAMFERD
 40
0.0
  9
$SKPOLY
 70
     0
  9
$TDCREATE
 40
2452391.496562500
  9
$TDUCREATE
 40
2452391.121562500
  9
$TDUPDATE
 40
2453353.468377268
  9
$TDUUPDATE
 40
2453353.093377268
  9
$TDINDWG
 40
0.0051218750
  9
$TDUSRTIMER
 40
0.0051218750
  9
$USRTIMER
 70
     1
  9
$ANGBASE
 50
0.0
  9
$ANGDIR
 70
     0
  9
$PDMODE
 70
     0
  9
$PDSIZE
 40
0.0
  9
$PLINEWID
 40
0.0
  9
$SPLFRAME
 70
     0
  9
$SPLINETYPE
 70
     6
  9
$SPLINESEGS
 70
     8
  9
$HANDSEED
  5
566
  9
$SURFTAB1
 70
     6
  9
$SURFTAB2
 70
     6
  9
$SURFTYPE
 70
     6
  9
$SURFU
 70
     6
  9
$SURFV
 70
     6
  9
$UCSBASE
  2

  9
$UCSNAME
  2

  9
$UCSORG
 10
0.0
 20
0.0
 30
0.0
  9
$UCSXDIR
 10
1.0
 20
0.0
 30
0.0
  9
$UCSYDIR
 10
0.0
 20
1.0
 30
0.0
  9
$UCSORTHOREF
  2

  9
$UCSORTHOVIEW
 70
     0
  9
$UCSORGTOP
 10
0.0
 20
0.0
 30
0.0
  9
$UCSORGBOTTOM
 10
0.0
 20
0.0
 30
0.0
  9
$UCSORGLEFT
 10
0.0
 20
0.0
 30
0.0
  9
$UCSORGRIGHT
 10
0.0
 20
0.0
 30
0.0
  9
$UCSORGFRONT
 10
0.0
 20
0.0
 30
0.0
  9
$UCSORGBACK
 10
0.0
 20
0.0
 30
0.0
  9
$PUCSBASE
  2

  9
$PUCSNAME
  2

  9
$PUCSORG
 10
0.0
 20
0.0
 30
0.0
  9
$PUCSXDIR
 10
1.0
 20
0.0
 30
0.0
  9
$PUCSYDIR
 10
0.0
 20
1.0
 30
0.0
  9
$PUCSORTHOREF
  2

  9
$PUCSORTHOVIEW
 70
     0
  9
$PUCSORGTOP
 10
0.0
 20
0.0
 30
0.0
  9
$PUCSORGBOTTOM
 10
0.0
 20
0.0
 30
0.0
  9
$PUCSORGLEFT
 10
0.0
 20
0.0
 30
0.0
  9
$PUCSORGRIGHT
 10
0.0
 20
0.0
 30
0.0
  9
$PUCSORGFRONT
 10
0.0
 20
0.0
 30
0.0
  9
$PUCSORGBACK
 10
0.0
 20
0.0
 30
0.0
  9
$USERI1
 70
     8
  9
$USERI2
 70
     0
  9
$USERI3
 70
     0
  9
$USERI4
 70
     0
  9
$USERI5
 70
     0
  9
$USERR1
 40
0.0
  9
$USERR2
 40
0.0
  9
$USERR3
 40
0.0
  9
$USERR4
 40
0.0
  9
$USERR5
 40
0.0
  9
$WORLDVIEW
 70
     1
  9
$SHADEDGE
 70
     3
  9
$SHADEDIF
 70
    70
  9
$TILEMODE
 70
     1
  9
$MAXACTVP
 70
    64
  9
$PINSBASE
 10
0.0
 20
0.0
 30
0.0
  9
$PLIMCHECK
 70
     0
  9
$PEXTMIN
 10
1.000000000000000E+20
 20
1.000000000000000E+20
 30
1.000000000000000E+20
  9
$PEXTMAX
 10
-1.000000000000000E+20
 20
-1.000000000000000E+20
 30
-1.000000000000000E+20
  9
$PLIMMIN
 10
0.0
 20
0.0
  9
$PLIMMAX
 10
12.0
 20
9.0
  9
$UNITMODE
 70
     0
  9
$VISRETAIN
 70
     1
  9
$PLINEGEN
 70
     0
  9
$PSLTSCALE
 70
     1
  9
$TREEDEPTH
 70
  3020
  9
$CMLSTYLE
  2
Standard
  9
$CMLJUST
 70
     0
  9
$CMLSCALE
 40
1.0
  9
$PROXYGRAPHICS
 70
     1
  9
$MEASUREMENT
 70
     0
  9
$CELWEIGHT
370
    -1
  9
$ENDCAPS
280
     0
  9
$JOINSTYLE
280
     0
  9
$LWDISPLAY
290
     0
  9
$INSUNITS
 70
     0
  9
$HYPERLINKBASE
  1

  9
$STYLESHEET
  1

  9
$XEDIT
290
     1
  9
$CEPSNTYPE
380
     0
  9
$PSTYLEMODE
290
     1
  9
$FINGERPRINTGUID
  2
{603791D1-6540-4E50-97A9-539FA91E49E0}
  9
$VERSIONGUID
  2
{99778E2A-D352-4A1B-AD5B-957D0248D1FC}
  9
$EXTNAMES
290
     1
  9
$PSVPSCALE
 40
0.0
  9
$OLESTARTUP
290
     0
  0
ENDSEC
  0
SECTION
  2
CLASSES
  0
CLASS
  1
ACDBDICTIONARYWDFLT
  2
AcDbDictionaryWithDefault
  3
AutoCAD 2000
 90
        0
280
     0
281
     0
  0
CLASS
  1
ACDBPLACEHOLDER
  2
AcDbPlaceHolder
  3
AutoCAD 2000
 90
        0
280
     0
281
     0
  0
CLASS
  1
LAYOUT
  2
AcDbLayout
  3
AutoCAD 2000
 90
        0
280
     0
281
     0
  0
CLASS
  1
DICTIONARYVAR
  2
AcDbDictionaryVar
  3
AutoCAD 2000
 90
        0
280
     0
281
     0
  0
ENDSEC
  0
SECTION
  2
TABLES
  0
TABLE
  2
VPORT
  5
19
330
0
100
AcDbSymbolTable
 70
     2
  0
VPORT
  5
565
330
19
100
AcDbSymbolTableRecord
100
AcDbViewportTableRecord
  2
*Active
 70
     0
 10
0.0
 20
0.0
 11
1.0
 21
1.0
 12
104.9935288620919
 22
148.5019645278105
 13
0.0
 23
0.0
 14
1.0
 24
1.0
 15
0.0
 25
0.0
 16
0.0
 26
0.0
 36
1.0
 17
0.0
 27
0.0
 37
0.0
 40
301.3410774749436
 41
2.407317073170731
 42
50.0
 43
0.0
 44
0.0
 50
0.0
 51
0.0
 71
     0
 72
   100
 73
     1
 74
     1
 75
     0
 76
     0
 77
     0
 78
     0
281
     0
 65
     1
110
0.0
120
0.0
130
0.0
111
1.0
121
0.0
131
0.0
112
0.0
122
1.0
132
0.0
 79
     0
146
0.0
  0
ENDTAB
  0
TABLE
  2
LTYPE
  5
14
330
0
100
AcDbSymbolTable
 70
     2
  0
LTYPE
  5
15
330
14
100
AcDbSymbolTableRecord
100
AcDbLinetypeTableRecord
  2
ByBlock
 70
     0
  3

 72
    65
 73
     0
 40
0.0
  0
LTYPE
  5
16
330
14
100
AcDbSymbolTableRecord
100
AcDbLinetypeTableRecord
  2
ByLayer
 70
     0
  3

 72
    65
 73
     0
 40
0.0
  0
LTYPE
  5
8
330
14
100
AcDbSymbolTableRecord
100
AcDbLinetypeTableRecord
  2
Continuous
 70
     0
  3
Solid line
 72
    65
 73
     0
 40
0.0
  0
LTYPE
  5
46
330
14
100
AcDbSymbolTableRecord
100
AcDbLinetypeTableRecord
  2
CENTER
 70
     0
  3
Center
 72
    65
 73
     4
 40
9.100006759199999
 49
6.5000119209
 74
     0
 49
-0.7999984026000001
 74
     0
 49
0.9999980329999999
 74
     0
 49
-0.7999984026000001
 74
     0
  0
ENDTAB
  0
TABLE
  2
LAYER
  5
10
330
0
100
AcDbSymbolTable
 70
     1
  0
LAYER
  5
4
330
10
100
AcDbSymbolTableRecord
100
AcDbLayerTableRecord
  2
0
 70
     0
 62
     7
  6
Continuous
370
    -3
390
5
  0
ENDTAB
  0
TABLE
  2
STYLE
  5
11
330
0
100
AcDbSymbolTable
 70
     1
  0
STYLE
  5
12
330
11
100
AcDbSymbolTableRecord
100
AcDbTextStyleTableRecord
  2
STANDARD
 70
     0
 40
0.0
 41
1.0
 50
0.0
 71
     0
 42
2.999994039499997
  3
romans.shx
  4
bigfont.shx
  0
ENDTAB
  0
TABLE
  2
VIEW
  5
17
330
0
100
AcDbSymbolTable
 70
     0
  0
ENDTAB
  0
TABLE
  2
UCS
  5
18
330
0
100
AcDbSymbolTable
 70
     0
  0
ENDTAB
  0
TABLE
  2
APPID
  5
1B
330
0
100
AcDbSymbolTable
 70
     1
  0
APPID
  5
1C
330
1B
100
AcDbSymbolTableRecord
100
AcDbRegAppTableRecord
  2
ACAD
 70
     0
  0
ENDTAB
  0
TABLE
  2
DIMSTYLE
  5
1D
330
0
100
AcDbSymbolTable
 70
     1
100
AcDbDimStyleTable
 71
     0
  0
DIMSTYLE
105
23
330
1D
100
AcDbSymbolTableRecord
100
AcDbDimStyleTableRecord
  2
Standard
 70
     0
340
12
  0
ENDTAB
  0
TABLE
  2
BLOCK_RECORD
  5
1
330
0
100
AcDbSymbolTable
 70
     0
  0
BLOCK_RECORD
  5
2
330
1
100
AcDbSymbolTableRecord
100
AcDbBlockTableRecord
  2
*Model_Space
340
A
  0
BLOCK_RECORD
  5
C
330
1
100
AcDbSymbolTableRecord
100
AcDbBlockTableRecord
  2
*Paper_Space
340
F
  0
ENDTAB
  0
ENDSEC
  0
SECTION
  2
BLOCKS
  0
BLOCK
  5
3
330
2
100
AcDbEntity
  8
0
100
AcDbBlockBegin
  2
*Model_Space
 70
     2
 10
0.0
 20
0.0
 30
0.0
  3
*Model_Space
  1

  0
ENDBLK
  5
9
330
2
100
AcDbEntity
  8
0
100
AcDbBlockEnd
  0
BLOCK
  5
D
330
C
100
AcDbEntity
 67
     1
  8
0
100
AcDbBlockBegin
  2
*Paper_Space
 70
     0
 10
0.0
 20
0.0
 30
0.0
  3
*Paper_Space
  1

  0
ENDBLK
  5
E
330
C
100
AcDbEntity
 67
     1
  8
0
100
AcDbBlockEnd
  0
ENDSEC
  0
SECTION
  2
ENTITIES
  0
LINE
  5
24
330
2
100
AcDbEntity
  8
0
 62
     3
100
AcDbLine
 10
89.68108241729998
 20
230.0999999999999
 30
0.0
 11
98.18058381729999
 21
230.0999999999999
 31
0.0
  0
LINE
  5
25
330
2
100
AcDbEntity
  8
0
 62
     3
100
AcDbLine
 10
98.18058381729999
 20
214.9999465941999
 30
0.0
 11
89.68355165179998
 21
214.9999465941999
 31
0.0
  0
LINE
  5
26
330
2
100
AcDbEntity
  8
0
 62
     3
100
AcDbLine
 10
98.18058381729999
 20
215.4999465941999
 30
0.0
 11
89.68336091689998
 21
215.4999465941999
 31
0.0
  0
LINE
  5
27
330
2
100
AcDbEntity
  8
0
 62
     3
100
AcDbLine
 10
98.18058381729999
 20
229.5999999999999
 30
0.0
 11
89.68108241729998
 21
229.5999999999999
 31
0.0
  0
LINE
  5
28
330
2
100
AcDbEntity
  8
0
 62
     3
100
AcDbLine
 10
98.18058381729999
 20
221.9999465941999
 30
0.0
 11
89.68355165179998
 21
221.9999465941999
 31
0.0
  0
LINE
  5
29
330
2
100
AcDbEntity
  8
0
 62
     3
100
AcDbLine
 10
98.18058381729999
 20
222.4999465941999
 30
0.0
 11
89.68336091689998
 21
222.4999465941999
 31
0.0
  0
LINE
  5
2A
330
2
100
AcDbEntity
  8
0
 62
     3
100
AcDbLine
 10
98.18058381729999
 20
208.4999465941999
 30
0.0
 11
89.68336091689998
 21
208.4999465941999
 31
0.0
  0
LINE
  5
2B
330
2
100
AcDbEntity
  8
0
 62
     3
100
AcDbLine
 10
98.18058381729999
 20
207.9999465941999
 30
0.0
 11
89.68355165179998
 21
207.9999465941999
 31
0.0
  0
LINE
  5
2C
330
2
100
AcDbEntity
  8
0
 62
     3
100
AcDbLine
 10
89.68108241729998
 20
202.8999999999999
 30
0.0
 11
98.18058381729999
 21
202.8999999999999
 31
0.0
  0
LINE
  5
2D
330
2
100
AcDbEntity
  8
0
 62
     3
100
AcDbLine
 10
98.18058381729999
 20
203.3999999999999
 30
0.0
 11
89.68108241729998
 21
203.3999999999999
 31
0.0
  0
LINE
  5
2E
330
2
100
AcDbEntity
  8
0
 62
     3
100
AcDbLine
 10
92.18069393749999
 20
178.6999348336999
 30
0.0
 11
90.78069393749997
 21
178.6999348336999
 31
0.0
  0
LINE
  5
2F
330
2
100
AcDbEntity
  8
0
 62
     3
100
AcDbLine
 10
92.18069393749999
 20
177.4999359781
 30
0.0
 11
90.78069393749997
 21
177.4999359781
 31
0.0
  0
LINE
  5
30
330
2
100
AcDbEntity
  8
0
 62
     3
100
AcDbLine
 10
92.18070839759993
 20
171.4999761580999
 30
0.0
 11
90.78070839759998
 21
171.4999761580999
 31
0.0
  0
LINE
  5
31
330
2
100
AcDbEntity
  8
0
 62
     3
100
AcDbLine
 10
92.18070839759993
 20
172.6999750136999
 30
0.0
 11
90.78070839759998
 21
172.6999750136999
 31
0.0
  0
LINE
  5
32
330
2
100
AcDbEntity
  8
0
 62
     3
100
AcDbLine
 10
92.18058839500001
 20
167.900024414
 30
0.0
 11
90.78058686909999
 21
167.900024414
 31
0.0
  0
LINE
  5
33
330
2
100
AcDbEntity
  8
0
 62
     3
100
AcDbLine
 10
92.18058839500001
 20
169.1000976561999
 30
0.0
 11
90.78058686909999
 21
169.1000976561999
 31
0.0
  0
ARC
  5
34
330
2
100
AcDbEntity
  8
0
 62
     3
100
AcDbCircle
 10
90.78058686909999
 20
168.5
 30
0.0
 40
0.5999999046
100
AcDbArc
 50
90.00001730280001
 51
270.0000359722
  0
LINE
  5
35
330
2
100
AcDbEntity
  8
0
 62
     3
100
AcDbLine
 10
98.180588395
 20
176.7000732422
 30
0.0
 11
89.68058839499999
 21
176.7000732422
 31
0.0
  0
LINE
  5
36
330
2
100
AcDbEntity
  8
0
 62
     3
100
AcDbLine
 10
97.48059144670001
 20
179.4999999999999
 30
0.0
 11
89.68058839499999
 21
179.4999999999999
 31
0.0
  0
LINE
  5
37
330
2
100
AcDbEntity
  8
0
 62
     3
100
AcDbLine
 10
98.180588395
 20
170.7000732422
 30
0.0
 11
89.68353334129998
 21
170.7000732422
 31
0.0
  0
LINE
  5
38
330
2
100
AcDbEntity
  8
0
 62
     3
100
AcDbLine
 10
98.180588395
 20
173.5001220702999
 30
0.0
 11
89.68353334129998
 21
173.5001220702999
 31
0.0
  0
LINE
  5
39
330
2
100
AcDbEntity
  8
0
 62
     3
100
AcDbLine
 10
97.4805838173
 20
179.5001220702999
 30
0.0
 11
89.68353334129998
 21
179.5001220702999
 31
0.0
  0
LINE
  5
3A
330
2
100
AcDbEntity
  8
0
 62
     3
100
AcDbLine
 10
98.180588395
 20
176.7000732422
 30
0.0
 11
89.68353334129998
 21
176.7000732422
 31
0.0
  0
LINE
  5
3B
330
2
100
AcDbEntity
  8
0
 62
     3
100
AcDbLine
 10
98.180588395
 20
169.900024414
 30
0.0
 11
89.68058839499999
 21
169.900024414
 31
0.0
  0
LINE
  5
3C
330
2
100
AcDbEntity
  8
0
 62
     3
100
AcDbLine
 10
92.1805868691
 20
166.700097084
 30
0.0
 11
90.78058686909999
 21
166.700097084
 31
0.0
  0
LINE
  5
3D
330
2
100
AcDbEntity
  8
0
 62
     3
100
AcDbLine
 10
92.1805868691
 20
165.5000982283999
 30
0.0
 11
90.78058686909999
 21
165.5000982283999
 31
0.0
  0
LINE
  5
3E
330
2
100
AcDbEntity
  8
0
 62
     3
100
AcDbLine
 10
92.18058839500001
 20
159.4999999999999
 30
0.0
 11
90.78058686909999
 21
159.4999999999999
 31
0.0
  0
LINE
  5
3F
330
2
100
AcDbEntity
  8
0
 62
     3
100
AcDbLine
 10
92.18058839500001
 20
158.3000488280999
 30
0.0
 11
90.78058686909999
 21
158.3000488280999
 31
0.0
  0
ARC
  5
40
330
2
100
AcDbEntity
  8
0
 62
     3
100
AcDbCircle
 10
90.78058686909999
 20
158.900024414
 30
0.0
 40
0.5999999046
100
AcDbArc
 50
90.00001730280001
 51
270.0000359722
  0
LINE
  5
41
330
2
100
AcDbEntity
  8
0
 62
     3
100
AcDbLine
 10
97.4805838173
 20
164.7001953124999
 30
0.0
 11
89.68353334129998
 21
164.7001953124999
 31
0.0
  0
LINE
  5
42
330
2
100
AcDbEntity
  8
0
 62
     3
100
AcDbLine
 10
98.180588395
 20
167.0999755859
 30
0.0
 11
89.68058839499999
 21
167.0999755859
 31
0.0
  0
LINE
  5
43
330
2
100
AcDbEntity
  8
0
 62
     3
100
AcDbLine
 10
98.180588395
 20
160.3000488280999
 30
0.0
 11
89.68058839499999
 21
160.3000488280999
 31
0.0
  0
LINE
  5
44
330
2
100
AcDbEntity
  8
0
 62
     3
100
AcDbLine
 10
97.48059144670001
 20
157.5
 30
0.0
 11
89.68058839499999
 21
157.5
 31
0.0
  0
LINE
  5
45
330
2
100
AcDbEntity
  8
0
  6
CENTER
 62
     3
100
AcDbLine
 10
93.877761105
 20
178.1000369550999
 30
0.0
 11
88.03660239819997
 21
178.1000369550999
 31
0.0
  0
LINE
  5
47
330
2
100
AcDbEntity
  8
0
  6
CENTER
 62
     3
100
AcDbLine
 10
93.877761105
 20
166.1001714855999
 30
0.0
 11
88.03660239819997
 21
166.1001714855999
 31
0.0
  0
LINE
  5
48
330
2
100
AcDbEntity
  8
0
  6
CENTER
 62
     3
100
AcDbLine
 10
93.877761105
 20
172.1002382096999
 30
0.0
 11
88.03660239819997
 21
172.1002382096999
 31
0.0
  0
LINE
  5
49
330
2
100
AcDbEntity
  8
0
  6
CENTER
 62
     3
100
AcDbLine
 10
93.877761105
 20
158.9000931992998
 30
0.0
 11
88.03660239819997
 21
158.9000931992998
 31
0.0
  0
LINE
  5
4A
330
2
100
AcDbEntity
  8
0
  6
CENTER
 62
     3
100
AcDbLine
 10
86.23473764629999
 20
216.5
 30
0.0
 11
151.7082572173999
 21
216.5
 31
0.0
  0
LINE
  5
4B
330
2
100
AcDbEntity
  8
0
  6
CENTER
 62
     3
100
AcDbLine
 10
152.496777386
 20
168.5
 30
0.0
 11
86.6784037697
 21
168.5
 31
0.0
  0
LINE
  5
4D
330
2
100
AcDbEntity
  8
0
 62
     3
100
AcDbLine
 10
59.90728274939996
 20
181.0
 30
0.0
 11
59.90728274939996
 21
156.0
 31
0.0
  0
LINE
  5
4E
330
2
100
AcDbEntity
  8
0
 62
     3
100
AcDbLine
 10
58.90719119659999
 20
179.0
 30
0.0
 11
58.90719119659999
 21
158.0
 31
0.0
  0
LINE
  5
4F
330
2
100
AcDbEntity
  8
0
 62
     3
100
AcDbLine
 10
56.50719119659999
 20
179.0
 30
0.0
 11
56.50719119659999
 21
158.0
 31
0.0
  0
LINE
  5
50
330
2
100
AcDbEntity
  8
0
 62
     3
100
AcDbLine
 10
58.90728274939997
 20
179.4999999999999
 30
0.0
 11
58.90728274939997
 21
157.5
 31
0.0
  0
LINE
  5
51
330
2
100
AcDbEntity
  8
0
 62
     3
100
AcDbLine
 10
56.50728122349996
 20
158.0
 30
0.0
 11
56.50728122349996
 21
179.0
 31
0.0
  0
LINE
  5
52
330
2
100
AcDbEntity
  8
0
 62
     3
100
AcDbLine
 10
27.90728274939997
 20
156.0
 30
0.0
 11
27.90728274939997
 21
181.0
 31
0.0
  0
LINE
  5
53
330
2
100
AcDbEntity
  8
0
 62
     3
100
AcDbLine
 10
31.30737430209999
 20
179.0
 30
0.0
 11
31.30737430209999
 21
158.0
 31
0.0
  0
LINE
  5
54
330
2
100
AcDbEntity
  8
0
 62
     3
100
AcDbLine
 10
28.9073743021
 20
179.0
 30
0.0
 11
28.9073743021
 21
158.0
 31
0.0
  0
LINE
  5
55
330
2
100
AcDbEntity
  8
0
  6
CENTER
 62
     3
100
AcDbLine
 10
43.90728274939997
 20
182.4990914547
 30
0.0
 11
43.90728274939997
 21
154.1177340648
 31
0.0
  0
LINE
  5
56
330
2
100
AcDbEntity
  8
0
 62
     3
100
AcDbLine
 10
28.9073743021
 20
179.4999999999999
 30
0.0
 11
28.9073743021
 21
157.5
 31
0.0
  0
LINE
  5
57
330
2
100
AcDbEntity
  8
0
 62
     3
100
AcDbLine
 10
31.30728427529996
 20
158.0
 30
0.0
 11
31.30728427529996
 21
179.0
 31
0.0
  0
LINE
  5
58
330
2
100
AcDbEntity
  8
0
 62
     3
100
AcDbLine
 10
32.35617353319998
 20
156.0
 30
0.0
 11
55.45839196559999
 21
156.0
 31
0.0
  0
LINE
  5
59
330
2
100
AcDbEntity
  8
0
 62
     3
100
AcDbLine
 10
56.50728122349996
 20
158.0
 30
0.0
 11
31.30728427529996
 21
158.0
 31
0.0
  0
LINE
  5
5A
330
2
100
AcDbEntity
  8
0
 62
     3
100
AcDbLine
 10
30.80737430210001
 20
158.0
 30
0.0
 11
57.00719119659999
 21
158.0
 31
0.0
  0
LINE
  5
5B
330
2
100
AcDbEntity
  8
0
 62
     3
100
AcDbLine
 10
29.40737430210001
 20
157.0
 30
0.0
 11
58.40728274939997
 21
157.0
 31
0.0
  0
LINE
  5
5C
330
2
100
AcDbEntity
  8
0
 62
     3
100
AcDbLine
 10
33.60728732699996
 20
162.6999893187999
 30
0.0
 11
31.60728732699999
 21
162.6999893187999
 31
0.0
  0
LINE
  5
5D
330
2
100
AcDbEntity
  8
0
 62
     3
100
AcDbLine
 10
33.60728732699996
 20
160.2999954222999
 30
0.0
 11
31.60728732699999
 21
160.2999954222999
 31
0.0
  0
LINE
  5
5E
330
2
100
AcDbEntity
  8
0
 62
     3
100
AcDbLine
 10
32.14507608409997
 20
155.5958824151
 30
0.0
 11
32.14887626719999
 21
155.5962654970999
 31
0.0
  0
LINE
  5
5F
330
2
100
AcDbEntity
  8
0
 62
     3
100
AcDbLine
 10
30.80737430210001
 20
157.5
 30
0.0
 11
30.80737430210001
 21
160.3
 31
0.0
  0
LINE
  5
60
330
2
100
AcDbEntity
  8
0
 62
     3
100
AcDbLine
 10
30.70737430209998
 20
158.0
 30
0.0
 11
30.80737430210001
 21
157.5
 31
0.0
  0
LINE
  5
61
330
2
100
AcDbEntity
  8
0
 62
     3
100
AcDbLine
 10
30.30737430210001
 20
157.5
 30
0.0
 11
30.4073743021
 21
158.0
 31
0.0
  0
LINE
  5
62
330
2
100
AcDbEntity
  8
0
 62
     3
100
AcDbLine
 10
30.30737430210001
 20
157.5
 30
0.0
 11
30.30737430210001
 21
160.3
 31
0.0
  0
LINE
  5
63
330
2
100
AcDbEntity
  8
0
 62
     3
100
AcDbLine
 10
30.30737430210001
 20
157.5
 30
0.0
 11
30.80737430210001
 21
157.5
 31
0.0
  0
ARC
  5
64
330
2
100
AcDbEntity
  8
0
 62
     3
100
AcDbCircle
 10
29.40737430210001
 20
157.5
 30
0.0
 40
0.5
100
AcDbArc
 50
179.9999820138999
 51
269.9999640277999
  0
ARC
  5
65
330
2
100
AcDbEntity
  8
0
 62
     3
100
AcDbCircle
 10
29.45645864539997
 20
156.8632637882999
 30
0.0
 40
0.2728421830999999
100
AcDbArc
 50
142.6133645942
 51
162.6225711105
  0
LINE
  5
66
330
2
100
AcDbEntity
  8
0
 62
     3
100
AcDbLine
 10
32.13579685589996
 20
155.5961560399
 30
0.0
 11
32.14071124079998
 21
155.5958458872
 31
0.0
  0
LINE
  5
67
330
2
100
AcDbEntity
  8
0
 62
     3
100
AcDbLine
 10
32.14071124079998
 20
155.5958458872
 30
0.0
 11
32.14507608409997
 21
155.5958824151
 31
0.0
  0
LINE
  5
68
330
2
100
AcDbEntity
  8
0
 62
     3
100
AcDbLine
 10
29.47984258189999
 20
155.8445587077999
 30
0.0
 11
29.49336309319996
 21
155.8424919565998
 31
0.0
  0
LINE
  5
69
330
2
100
AcDbEntity
  8
0
 62
     3
100
AcDbLine
 10
27.90728274939997
 20
156.0
 30
0.0
 11
29.14812747229996
 21
156.0
 31
0.0
  0
LINE
  5
6A
330
2
100
AcDbEntity
  8
0
 62
     3
100
AcDbLine
 10
29.00569697429998
 20
156.1170877054999
 30
0.0
 11
29.00739425049996
 21
156.1079034857
 31
0.0
  0
LINE
  5
6B
330
2
100
AcDbEntity
  8
0
 62
     3
100
AcDbLine
 10
29.00739425049996
 20
156.1079034857
 30
0.0
 11
29.01582690639997
 21
156.0955119405998
 31
0.0
  0
LINE
  5
6C
330
2
100
AcDbEntity
  8
0
 62
     3
100
AcDbLine
 10
29.01582690639997
 20
156.0955119405998
 30
0.0
 11
29.03067087979996
 21
156.0803892704
 31
0.0
  0
LINE
  5
6D
330
2
100
AcDbEntity
  8
0
 62
     3
100
AcDbLine
 10
29.03067087979996
 20
156.0803892704
 30
0.0
 11
29.05135572519998
 21
156.0631166309
 31
0.0
  0
LINE
  5
6E
330
2
100
AcDbEntity
  8
0
 62
     3
100
AcDbLine
 10
29.05135572519998
 20
156.0631166309
 30
0.0
 11
29.07708653559998
 21
156.0443577997999
 31
0.0
  0
LINE
  5
6F
330
2
100
AcDbEntity
  8
0
 62
     3
100
AcDbLine
 10
29.07708653559998
 20
156.0443577997999
 30
0.0
 11
29.10687449019997
 21
156.0248336685
 31
0.0
  0
LINE
  5
70
330
2
100
AcDbEntity
  8
0
 62
     3
100
AcDbLine
 10
29.10687449019997
 20
156.0248336685
 30
0.0
 11
29.13957485479997
 21
156.0052945384
 31
0.0
  0
LINE
  5
71
330
2
100
AcDbEntity
  8
0
 62
     3
100
AcDbLine
 10
29.13957485479997
 20
156.0052945384
 30
0.0
 11
29.17393097269999
 21
155.9864912874999
 31
0.0
  0
LINE
  5
72
330
2
100
AcDbEntity
  8
0
 62
     3
100
AcDbLine
 10
29.33089078399998
 20
155.9043192977
 30
0.0
 11
29.35522689329999
 21
155.8919800605
 31
0.0
  0
LINE
  5
73
330
2
100
AcDbEntity
  8
0
 62
     3
100
AcDbLine
 10
29.35522689329999
 20
155.8919800605
 30
0.0
 11
29.37926845549995
 21
155.8805899785999
 31
0.0
  0
LINE
  5
74
330
2
100
AcDbEntity
  8
0
 62
     3
100
AcDbLine
 10
29.37926845549995
 20
155.8805899785999
 30
0.0
 11
29.40256173079998
 21
155.8703640184
 31
0.0
  0
LINE
  5
75
330
2
100
AcDbEntity
  8
0
 62
     3
100
AcDbLine
 10
29.40256173079998
 20
155.8703640184
 30
0.0
 11
29.42466710199997
 21
155.8614951759
 31
0.0
  0
LINE
  5
76
330
2
100
AcDbEntity
  8
0
 62
     3
100
AcDbLine
 10
29.42466710199997
 20
155.8614951759
 30
0.0
 11
29.44516737129998
 21
155.8541508342
 31
0.0
  0
LINE
  5
77
330
2
100
AcDbEntity
  8
0
 62
     3
100
AcDbLine
 10
29.17393097269999
 20
155.9864912874999
 30
0.0
 11
29.33089078399998
 21
155.9043192977
 31
0.0
  0
LINE
  5
78
330
2
100
AcDbEntity
  8
0
 62
     3
100
AcDbLine
 10
29.44516737129998
 20
155.8541508342
 30
0.0
 11
29.46367563429999
 21
155.8484696038999
 31
0.0
  0
LINE
  5
79
330
2
100
AcDbEntity
  8
0
 62
     3
100
AcDbLine
 10
29.46367563429999
 20
155.8484696038999
 30
0.0
 11
29.47984258189999
 21
155.8445587077999
 31
0.0
  0
LINE
  5
7A
330
2
100
AcDbEntity
  8
0
 62
     3
100
AcDbLine
 10
29.49336309319996
 20
155.8424919565998
 30
0.0
 11
32.13579685589996
 21
155.5961560399
 31
0.0
  0
LINE
  5
7B
330
2
100
AcDbEntity
  8
0
 62
     3
100
AcDbLine
 10
29.19606950919998
 20
156.9447521594999
 30
0.0
 11
29.00569697429998
 21
156.1170877054999
 31
0.0
  0
LINE
  5
7C
330
2
100
AcDbEntity
  8
0
 62
     3
100
AcDbLine
 10
31.60728732699999
 20
160.2999954222999
 30
0.0
 11
31.60728732699999
 21
162.6999893187999
 31
0.0
  0
LINE
  5
7D
330
2
100
AcDbEntity
  8
0
 62
     3
100
AcDbLine
 10
30.80737430210001
 20
158.0
 30
0.0
 11
31.30737430209999
 21
158.0
 31
0.0
  0
LINE
  5
7E
330
2
100
AcDbEntity
  8
0
 62
     3
100
AcDbLine
 10
30.70737430209998
 20
158.0
 30
0.0
 11
30.70737430209998
 21
159.8
 31
0.0
  0
LINE
  5
7F
330
2
100
AcDbEntity
  8
0
 62
     3
100
AcDbLine
 10
30.70737430209998
 20
159.8
 30
0.0
 11
30.80737430210001
 21
160.3
 31
0.0
  0
LINE
  5
80
330
2
100
AcDbEntity
  8
0
 62
     3
100
AcDbLine
 10
30.4073743021
 20
159.8
 30
0.0
 11
30.70737430209998
 21
159.8
 31
0.0
  0
LINE
  5
81
330
2
100
AcDbEntity
  8
0
 62
     3
100
AcDbLine
 10
30.4073743021
 20
158.0
 30
0.0
 11
30.4073743021
 21
159.8
 31
0.0
  0
LINE
  5
82
330
2
100
AcDbEntity
  8
0
 62
     3
100
AcDbLine
 10
30.4073743021
 20
158.0
 30
0.0
 11
30.70737430209998
 21
158.0
 31
0.0
  0
LINE
  5
83
330
2
100
AcDbEntity
  8
0
 62
     3
100
AcDbLine
 10
30.30737430210001
 20
160.3
 30
0.0
 11
30.4073743021
 21
159.8
 31
0.0
  0
LINE
  5
84
330
2
100
AcDbEntity
  8
0
 62
     3
100
AcDbLine
 10
30.30737430210001
 20
160.3
 30
0.0
 11
30.80737430210001
 21
160.3
 31
0.0
  0
LINE
  5
85
330
2
100
AcDbEntity
  8
0
 62
     3
100
AcDbLine
 10
28.9073743021
 20
158.0
 30
0.0
 11
30.30737430210001
 21
158.0
 31
0.0
  0
LINE
  5
86
330
2
100
AcDbEntity
  8
0
 62
     3
100
AcDbLine
 10
28.9073743021
 20
158.0
 30
0.0
 11
30.30737430210001
 21
158.0
 31
0.0
  0
LINE
  5
87
330
2
100
AcDbEntity
  8
0
 62
     3
100
AcDbLine
 10
32.48704891209998
 20
157.0
 30
0.0
 11
32.41985646429998
 21
156.707873824
 31
0.0
  0
LINE
  5
88
330
2
100
AcDbEntity
  8
0
 62
     3
100
AcDbLine
 10
32.38114046729995
 20
157.0
 30
0.0
 11
32.23430060969997
 21
156.3615984013999
 31
0.0
  0
LINE
  5
89
330
2
100
AcDbEntity
  8
0
 62
     3
100
AcDbLine
 10
32.41985646429998
 20
156.707873824
 30
0.0
 11
32.23430060969997
 21
156.3615984013999
 31
0.0
  0
LINE
  5
8A
330
2
100
AcDbEntity
  8
0
 62
     3
100
AcDbLine
 10
32.41985646429998
 20
156.707873824
 30
0.0
 11
32.50397346349998
 21
156.642575615
 31
0.0
  0
LINE
  5
8B
330
2
100
AcDbEntity
  8
0
 62
     3
100
AcDbLine
 10
32.50397346349998
 20
156.642575615
 30
0.0
 11
32.31841760889997
 21
156.2963001923999
 31
0.0
  0
LINE
  5
8C
330
2
100
AcDbEntity
  8
0
 62
     3
100
AcDbLine
 10
32.23430060969997
 20
156.3615984013999
 30
0.0
 11
32.31841760889997
 21
156.2963001923999
 31
0.0
  0
LINE
  5
8D
330
2
100
AcDbEntity
  8
0
 62
     3
100
AcDbLine
 10
32.14887626719999
 20
155.5962654970999
 30
0.0
 11
32.15209862729996
 21
155.5969938062999
 31
0.0
  0
LINE
  5
8E
330
2
100
AcDbEntity
  8
0
 62
     3
100
AcDbLine
 10
32.15209862729996
 20
155.5969938062999
 30
0.0
 11
32.15473200319996
 21
155.5980648201
 31
0.0
  0
LINE
  5
8F
330
2
100
AcDbEntity
  8
0
 62
     3
100
AcDbLine
 10
32.15473200319996
 20
155.5980648201
 30
0.0
 11
32.15676727359996
 21
155.5994748288
 31
0.0
  0
LINE
  5
90
330
2
100
AcDbEntity
  8
0
 62
     3
100
AcDbLine
 10
32.15676727359996
 20
155.5994748288
 30
0.0
 11
32.15819738899998
 21
155.6012189484999
 31
0.0
  0
LINE
  5
91
330
2
100
AcDbEntity
  8
0
 62
     3
100
AcDbLine
 10
32.15819738899998
 20
155.6012189484999
 30
0.0
 11
32.15901739579999
 21
155.6032911380999
 31
0.0
  0
LINE
  5
92
330
2
100
AcDbEntity
  8
0
 62
     3
100
AcDbLine
 10
32.34457325039997
 20
155.9495665606999
 30
0.0
 11
32.15833912279999
 21
155.6014709479998
 31
0.0
  0
LINE
  5
93
330
2
100
AcDbEntity
  8
0
 62
     3
100
AcDbLine
 10
32.50397346349998
 20
156.642575615
 30
0.0
 11
32.34457325039997
 21
155.9495665606999
 31
0.0
  0
LINE
  5
94
330
2
100
AcDbEntity
  8
0
 62
     3
100
AcDbLine
 10
32.31841760889997
 20
156.2963001923999
 30
0.0
 11
32.15901739579999
 21
155.6032911380999
 31
0.0
  0
LINE
  5
95
330
2
100
AcDbEntity
  8
0
 62
     3
100
AcDbLine
 10
33.60728732699996
 20
160.2999954222999
 30
0.0
 11
33.60728732699996
 21
162.6999893187999
 31
0.0
  0
LINE
  5
96
330
2
100
AcDbEntity
  8
0
 62
     3
100
AcDbLine
 10
54.20727817169997
 20
160.2999954222999
 30
0.0
 11
56.20727817169997
 21
160.2999954222999
 31
0.0
  0
LINE
  5
97
330
2
100
AcDbEntity
  8
0
 62
     3
100
AcDbLine
 10
54.20727817169997
 20
162.6999893187999
 30
0.0
 11
56.20727817169997
 21
162.6999893187999
 31
0.0
  0
LINE
  5
98
330
2
100
AcDbEntity
  8
0
 62
     3
100
AcDbLine
 10
58.32120240560001
 20
155.8424919565998
 30
0.0
 11
55.67876864289999
 21
155.5961560399
 31
0.0
  0
LINE
  5
99
330
2
100
AcDbEntity
  8
0
 62
     3
100
AcDbLine
 10
55.58026488899997
 20
156.3615984013999
 30
0.0
 11
55.49614788989998
 21
156.2963001923999
 31
0.0
  0
LINE
  5
9A
330
2
100
AcDbEntity
  8
0
 62
     3
100
AcDbLine
 10
55.31059203529998
 20
156.642575615
 30
0.0
 11
55.49614788989998
 21
156.2963001923999
 31
0.0
  0
LINE
  5
9B
330
2
100
AcDbEntity
  8
0
 62
     3
100
AcDbLine
 10
55.39470903439997
 20
156.707873824
 30
0.0
 11
55.31059203529998
 21
156.642575615
 31
0.0
  0
LINE
  5
9C
330
2
100
AcDbEntity
  8
0
 62
     3
100
AcDbLine
 10
55.39470903439997
 20
156.707873824
 30
0.0
 11
55.58026488899997
 21
156.3615984013999
 31
0.0
  0
LINE
  5
9D
330
2
100
AcDbEntity
  8
0
 62
     3
100
AcDbLine
 10
55.43342503149998
 20
157.0
 30
0.0
 11
55.58026488899997
 21
156.3615984013999
 31
0.0
  0
LINE
  5
9E
330
2
100
AcDbEntity
  8
0
 62
     3
100
AcDbLine
 10
55.32751658659996
 20
157.0
 30
0.0
 11
55.39470903439997
 21
156.707873824
 31
0.0
  0
LINE
  5
9F
330
2
100
AcDbEntity
  8
0
 62
     3
100
AcDbLine
 10
55.67876864289999
 20
155.5961560399
 30
0.0
 11
55.67385425789999
 21
155.5958458872
 31
0.0
  0
LINE
  5
A0
330
2
100
AcDbEntity
  8
0
 62
     3
100
AcDbLine
 10
55.67385425789999
 20
155.5958458872
 30
0.0
 11
55.66948941459997
 21
155.5958824151
 31
0.0
  0
LINE
  5
A1
330
2
100
AcDbEntity
  8
0
 62
     3
100
AcDbLine
 10
55.66948941459997
 20
155.5958824151
 30
0.0
 11
55.6656892316
 21
155.5962654970999
 31
0.0
  0
LINE
  5
A2
330
2
100
AcDbEntity
  8
0
 62
     3
100
AcDbLine
 10
55.6656892316
 20
155.5962654970999
 30
0.0
 11
55.66246687149998
 21
155.5969938062999
 31
0.0
  0
LINE
  5
A3
330
2
100
AcDbEntity
  8
0
 62
     3
100
AcDbLine
 10
55.66246687149998
 20
155.5969938062999
 30
0.0
 11
55.65983349559999
 21
155.5980648201
 31
0.0
  0
LINE
  5
A4
330
2
100
AcDbEntity
  8
0
 62
     3
100
AcDbLine
 10
55.65983349559999
 20
155.5980648201
 30
0.0
 11
55.65779822519997
 21
155.5994748288
 31
0.0
  0
LINE
  5
A5
330
2
100
AcDbEntity
  8
0
 62
     3
100
AcDbLine
 10
55.65779822519997
 20
155.5994748288
 30
0.0
 11
55.6563681098
 21
155.6012189484999
 31
0.0
  0
LINE
  5
A6
330
2
100
AcDbEntity
  8
0
 62
     3
100
AcDbLine
 10
55.6563681098
 20
155.6012189484999
 30
0.0
 11
55.65554810289999
 21
155.6032911380999
 31
0.0
  0
LINE
  5
A7
330
2
100
AcDbEntity
  8
0
 62
     3
100
AcDbLine
 10
55.4699922483
 20
155.9495665606999
 30
0.0
 11
55.65622637599997
 21
155.6014709479998
 31
0.0
  0
LINE
  5
A8
330
2
100
AcDbEntity
  8
0
 62
     3
100
AcDbLine
 10
55.31059203529998
 20
156.642575615
 30
0.0
 11
55.4699922483
 21
155.9495665606999
 31
0.0
  0
LINE
  5
A9
330
2
100
AcDbEntity
  8
0
 62
     3
100
AcDbLine
 10
55.49614788989998
 20
156.2963001923999
 30
0.0
 11
55.65554810289999
 21
155.6032911380999
 31
0.0
  0
LINE
  5
AA
330
2
100
AcDbEntity
  8
0
 62
     3
100
AcDbLine
 10
54.20727817169997
 20
160.2999954222999
 30
0.0
 11
54.20727817169997
 21
162.6999893187999
 31
0.0
  0
LINE
  5
AB
330
2
100
AcDbEntity
  8
0
 62
     3
100
AcDbLine
 10
57.50719119659999
 20
157.5
 30
0.0
 11
57.50719119659999
 21
160.3
 31
0.0
  0
LINE
  5
AC
330
2
100
AcDbEntity
  8
0
 62
     3
100
AcDbLine
 10
57.50719119659999
 20
157.5
 30
0.0
 11
57.40719119659999
 21
158.0
 31
0.0
  0
LINE
  5
AD
330
2
100
AcDbEntity
  8
0
 62
     3
100
AcDbLine
 10
57.10719119659998
 20
158.0
 30
0.0
 11
57.00719119659999
 21
157.5
 31
0.0
  0
LINE
  5
AE
330
2
100
AcDbEntity
  8
0
 62
     3
100
AcDbLine
 10
57.00719119659999
 20
157.5
 30
0.0
 11
57.00719119659999
 21
160.3
 31
0.0
  0
ARC
  5
AF
330
2
100
AcDbEntity
  8
0
 62
     3
100
AcDbCircle
 10
58.40728274939997
 20
157.5
 30
0.0
 40
0.5
100
AcDbArc
 50
269.9999640277999
 51
0.0000006831999766
  0
ARC
  5
B0
330
2
100
AcDbEntity
  8
0
 62
     3
100
AcDbCircle
 10
58.35810685340002
 20
156.8632637882999
 30
0.0
 40
0.2728421830999999
100
AcDbArc
 50
17.37742888949999
 51
37.3866354058
  0
LINE
  5
B1
330
2
100
AcDbEntity
  8
0
 62
     3
100
AcDbLine
 10
58.66643802649995
 20
156.0
 30
0.0
 11
59.90728274939996
 21
156.0
 31
0.0
  0
LINE
  5
B2
330
2
100
AcDbEntity
  8
0
 62
     3
100
AcDbLine
 10
58.80886852439997
 20
156.1170877054999
 30
0.0
 11
58.80717124829999
 21
156.1079034857
 31
0.0
  0
LINE
  5
B3
330
2
100
AcDbEntity
  8
0
 62
     3
100
AcDbLine
 10
58.80717124829999
 20
156.1079034857
 30
0.0
 11
58.79873859229999
 21
156.0955119405998
 31
0.0
  0
LINE
  5
B4
330
2
100
AcDbEntity
  8
0
 62
     3
100
AcDbLine
 10
58.79873859229999
 20
156.0955119405998
 30
0.0
 11
58.78389461889995
 21
156.0803892704
 31
0.0
  0
LINE
  5
B5
330
2
100
AcDbEntity
  8
0
 62
     3
100
AcDbLine
 10
58.78389461889995
 20
156.0803892704
 30
0.0
 11
58.76320977349997
 21
156.0631166309
 31
0.0
  0
LINE
  5
B6
330
2
100
AcDbEntity
  8
0
 62
     3
100
AcDbLine
 10
58.76320977349997
 20
156.0631166309
 30
0.0
 11
58.73747896319997
 21
156.0443577997999
 31
0.0
  0
LINE
  5
B7
330
2
100
AcDbEntity
  8
0
 62
     3
100
AcDbLine
 10
58.73747896319997
 20
156.0443577997999
 30
0.0
 11
58.70769100849996
 21
156.0248336685
 31
0.0
  0
LINE
  5
B8
330
2
100
AcDbEntity
  8
0
 62
     3
100
AcDbLine
 10
58.70769100849996
 20
156.0248336685
 30
0.0
 11
58.67499064389996
 21
156.0052945384
 31
0.0
  0
LINE
  5
B9
330
2
100
AcDbEntity
  8
0
 62
     3
100
AcDbLine
 10
58.67499064389996
 20
156.0052945384
 30
0.0
 11
58.64063452609997
 21
155.9864912874999
 31
0.0
  0
LINE
  5
BA
330
2
100
AcDbEntity
  8
0
 62
     3
100
AcDbLine
 10
58.48367471479996
 20
155.9043192977
 30
0.0
 11
58.45933860539997
 21
155.8919800605
 31
0.0
  0
LINE
  5
BB
330
2
100
AcDbEntity
  8
0
 62
     3
100
AcDbLine
 10
58.45933860539997
 20
155.8919800605
 30
0.0
 11
58.43529704329998
 21
155.8805899785999
 31
0.0
  0
LINE
  5
BC
330
2
100
AcDbEntity
  8
0
 62
     3
100
AcDbLine
 10
58.43529704329998
 20
155.8805899785999
 30
0.0
 11
58.41200376789998
 21
155.8703640184
 31
0.0
  0
LINE
  5
BD
330
2
100
AcDbEntity
  8
0
 62
     3
100
AcDbLine
 10
58.41200376789998
 20
155.8703640184
 30
0.0
 11
58.38989839679996
 21
155.8614951759
 31
0.0
  0
LINE
  5
BE
330
2
100
AcDbEntity
  8
0
 62
     3
100
AcDbLine
 10
58.38989839679996
 20
155.8614951759
 30
0.0
 11
58.36939812739998
 21
155.8541508342
 31
0.0
  0
LINE
  5
BF
330
2
100
AcDbEntity
  8
0
 62
     3
100
AcDbLine
 10
58.36939812739998
 20
155.8541508342
 30
0.0
 11
58.35088986439996
 21
155.8484696038999
 31
0.0
  0
LINE
  5
C0
330
2
100
AcDbEntity
  8
0
 62
     3
100
AcDbLine
 10
58.35088986439996
 20
155.8484696038999
 30
0.0
 11
58.33472291679999
 21
155.8445587077999
 31
0.0
  0
LINE
  5
C1
330
2
100
AcDbEntity
  8
0
 62
     3
100
AcDbLine
 10
58.33472291679999
 20
155.8445587077999
 30
0.0
 11
58.32120240560001
 21
155.8424919565998
 31
0.0
  0
LINE
  5
C2
330
2
100
AcDbEntity
  8
0
 62
     3
100
AcDbLine
 10
58.64063452609997
 20
155.9864912874999
 30
0.0
 11
58.48367471479996
 21
155.9043192977
 31
0.0
  0
LINE
  5
C3
330
2
100
AcDbEntity
  8
0
 62
     3
100
AcDbLine
 10
58.61849598959998
 20
156.9447521594999
 30
0.0
 11
58.80886852439997
 21
156.1170877054999
 31
0.0
  0
LINE
  5
C4
330
2
100
AcDbEntity
  8
0
 62
     3
100
AcDbLine
 10
57.50719119659999
 20
157.5
 30
0.0
 11
57.00719119659999
 21
157.5
 31
0.0
  0
LINE
  5
C5
330
2
100
AcDbEntity
  8
0
 62
     3
100
AcDbLine
 10
57.50719119659999
 20
160.3
 30
0.0
 11
57.00719119659999
 21
160.3
 31
0.0
  0
LINE
  5
C6
330
2
100
AcDbEntity
  8
0
 62
     3
100
AcDbLine
 10
57.50719119659999
 20
160.3
 30
0.0
 11
57.40719119659999
 21
159.8
 31
0.0
  0
LINE
  5
C7
330
2
100
AcDbEntity
  8
0
 62
     3
100
AcDbLine
 10
57.40719119659999
 20
158.0
 30
0.0
 11
57.10719119659998
 21
158.0
 31
0.0
  0
LINE
  5
C8
330
2
100
AcDbEntity
  8
0
 62
     3
100
AcDbLine
 10
57.40719119659999
 20
158.0
 30
0.0
 11
57.40719119659999
 21
159.8
 31
0.0
  0
LINE
  5
C9
330
2
100
AcDbEntity
  8
0
 62
     3
100
AcDbLine
 10
57.40719119659999
 20
159.8
 30
0.0
 11
57.10719119659998
 21
159.8
 31
0.0
  0
LINE
  5
CA
330
2
100
AcDbEntity
  8
0
 62
     3
100
AcDbLine
 10
57.10719119659998
 20
159.8
 30
0.0
 11
57.00719119659999
 21
160.3
 31
0.0
  0
LINE
  5
CB
330
2
100
AcDbEntity
  8
0
 62
     3
100
AcDbLine
 10
57.10719119659998
 20
158.0
 30
0.0
 11
57.10719119659998
 21
159.8
 31
0.0
  0
LINE
  5
CC
330
2
100
AcDbEntity
  8
0
 62
     3
100
AcDbLine
 10
57.00719119659999
 20
158.0
 30
0.0
 11
56.50719119659999
 21
158.0
 31
0.0
  0
LINE
  5
CD
330
2
100
AcDbEntity
  8
0
 62
     3
100
AcDbLine
 10
56.20727817169997
 20
160.2999954222999
 30
0.0
 11
56.20727817169997
 21
162.6999893187999
 31
0.0
  0
LINE
  5
CE
330
2
100
AcDbEntity
  8
0
 62
     3
100
AcDbLine
 10
57.50719119659999
 20
158.0
 30
0.0
 11
58.90728274939997
 21
158.0
 31
0.0
  0
LINE
  5
CF
330
2
100
AcDbEntity
  8
0
 62
     3
100
AcDbLine
 10
58.90719119659999
 20
158.0
 30
0.0
 11
57.50719119659999
 21
158.0
 31
0.0
  0
LINE
  5
D0
330
2
100
AcDbEntity
  8
0
 62
     3
100
AcDbLine
 10
89.68052114309998
 20
157.5000543478999
 30
0.0
 11
89.18057456029995
 21
158.0000009727999
 31
0.0
  0
LINE
  5
D1
330
2
100
AcDbEntity
  8
0
 62
     3
100
AcDbLine
 10
89.68058839499999
 20
157.5
 30
0.0
 11
89.68058839499999
 21
160.3000488280999
 31
0.0
  0
LINE
  5
D2
330
2
100
AcDbEntity
  8
0
 62
     3
100
AcDbLine
 10
89.1805476621
 20
159.8000234598
 30
0.0
 11
89.68054823509998
 21
160.3000239905999
 31
0.0
  0
LINE
  5
D3
330
2
100
AcDbEntity
  8
0
 62
     3
100
AcDbLine
 10
89.18058839499998
 20
158.0
 30
0.0
 11
89.18058839499998
 21
159.8000488280999
 31
0.0
  0
LINE
  5
D4
330
2
100
AcDbEntity
  8
0
 62
     3
100
AcDbLine
 10
41.10728427529998
 20
179.0000045775999
 30
0.0
 11
44.90728427529997
 21
179.0000045775999
 31
0.0
  0
LINE
  5
D5
330
2
100
AcDbEntity
  8
0
 62
     3
100
AcDbLine
 10
32.35617353319998
 20
181.0
 30
0.0
 11
55.45839196559999
 21
181.0
 31
0.0
  0
LINE
  5
D6
330
2
100
AcDbEntity
  8
0
 62
     3
100
AcDbLine
 10
38.40728427529997
 20
179.0
 30
0.0
 11
44.90728732699998
 21
179.0
 31
0.0
  0
LINE
  5
D7
330
2
100
AcDbEntity
  8
0
 62
     3
100
AcDbLine
 10
44.90728732699998
 20
179.0
 30
0.0
 11
38.40728427529997
 21
179.0
 31
0.0
  0
LINE
  5
D8
330
2
100
AcDbEntity
  8
0
 62
     3
100
AcDbLine
 10
29.40737430210001
 20
180.0
 30
0.0
 11
58.40728274939997
 21
180.0
 31
0.0
  0
LINE
  5
D9
330
2
100
AcDbEntity
  8
0
 62
     3
100
AcDbLine
 10
41.10728427529998
 20
165.2000045776
 30
0.0
 11
44.90728427529997
 21
165.2000045776
 31
0.0
  0
LINE
  5
DA
330
2
100
AcDbEntity
  8
0
 62
     3
100
AcDbLine
 10
39.30728427529999
 20
165.2000045776
 30
0.0
 11
44.90728732699998
 21
165.2000045776
 31
0.0
  0
LINE
  5
DB
330
2
100
AcDbEntity
  8
0
  6
CENTER
 62
     3
100
AcDbLine
 10
26.07203667609997
 20
168.5
 30
0.0
 11
61.95184760789999
 21
168.5
 31
0.0
  0
LINE
  5
DC
330
2
100
AcDbEntity
  8
0
 62
     3
100
AcDbLine
 10
33.60728732699996
 20
174.3000030516999
 30
0.0
 11
33.60728732699996
 21
176.7000045775999
 31
0.0
  0
LINE
  5
DD
330
2
100
AcDbEntity
  8
0
 62
     3
100
AcDbLine
 10
31.60728732699999
 20
174.3000030516999
 30
0.0
 11
31.60728732699999
 21
176.7000045775999
 31
0.0
  0
LINE
  5
DE
330
2
100
AcDbEntity
  8
0
 62
     3
100
AcDbLine
 10
41.10728732699999
 20
165.2000045776
 30
0.0
 11
41.10728732699999
 21
178.6999969482
 31
0.0
  0
LINE
  5
DF
330
2
100
AcDbEntity
  8
0
 62
     3
100
AcDbLine
 10
41.10728427529998
 20
165.2000045776
 30
0.0
 11
41.10728427529998
 21
179.0000045775999
 31
0.0
  0
LINE
  5
E0
330
2
100
AcDbEntity
  8
0
 62
     3
100
AcDbLine
 10
39.30728427529999
 20
165.2000045776
 30
0.0
 11
39.30728427529999
 21
179.0000045775999
 31
0.0
  0
LINE
  5
E1
330
2
100
AcDbEntity
  8
0
 62
     3
100
AcDbLine
 10
34.1072842753
 20
165.2000045776
 30
0.0
 11
34.1072842753
 21
179.0000045775999
 31
0.0
  0
LINE
  5
E2
330
2
100
AcDbEntity
  8
0
 62
     3
100
AcDbLine
 10
39.30728427529999
 20
165.2000045776
 30
0.0
 11
39.30728427529999
 21
178.1999969482
 31
0.0
  0
LINE
  5
E3
330
2
100
AcDbEntity
  8
0
 62
     3
100
AcDbLine
 10
34.10728732699999
 20
165.2000045776
 30
0.0
 11
34.10728732699999
 21
178.6999969482
 31
0.0
  0
LINE
  5
E4
330
2
100
AcDbEntity
  8
0
 62
     3
100
AcDbLine
 10
33.60728732699996
 20
174.3000030516999
 30
0.0
 11
31.60728732699999
 21
174.3000030516999
 31
0.0
  0
LINE
  5
E5
330
2
100
AcDbEntity
  8
0
 62
     3
100
AcDbLine
 10
33.60728732699996
 20
169.6999969482
 30
0.0
 11
31.60728732699999
 21
169.6999969482
 31
0.0
  0
LINE
  5
E6
330
2
100
AcDbEntity
  8
0
 62
     3
100
AcDbLine
 10
33.60728732699996
 20
167.2999954222999
 30
0.0
 11
31.60728732699999
 21
167.2999954222999
 31
0.0
  0
LINE
  5
E7
330
2
100
AcDbEntity
  8
0
 62
     3
100
AcDbLine
 10
30.70737430209998
 20
169.4
 30
0.0
 11
30.80737430210001
 21
169.9
 31
0.0
  0
LINE
  5
E8
330
2
100
AcDbEntity
  8
0
 62
     3
100
AcDbLine
 10
30.4073743021
 20
169.4
 30
0.0
 11
30.70737430209998
 21
169.4
 31
0.0
  0
LINE
  5
E9
330
2
100
AcDbEntity
  8
0
 62
     3
100
AcDbLine
 10
30.30737430210001
 20
169.9
 30
0.0
 11
30.4073743021
 21
169.4
 31
0.0
  0
LINE
  5
EA
330
2
100
AcDbEntity
  8
0
 62
     3
100
AcDbLine
 10
30.30737430210001
 20
169.9
 30
0.0
 11
30.80737430210001
 21
169.9
 31
0.0
  0
LINE
  5
EB
330
2
100
AcDbEntity
  8
0
 62
     3
100
AcDbLine
 10
30.4073743021
 20
167.5999999999999
 30
0.0
 11
30.70737430209998
 21
167.5999999999999
 31
0.0
  0
LINE
  5
EC
330
2
100
AcDbEntity
  8
0
 62
     3
100
AcDbLine
 10
30.30737430210001
 20
167.1
 30
0.0
 11
30.80737430210001
 21
167.1
 31
0.0
  0
LINE
  5
ED
330
2
100
AcDbEntity
  8
0
 62
     3
100
AcDbLine
 10
30.70737430209998
 20
167.5999999999999
 30
0.0
 11
30.80737430210001
 21
167.1
 31
0.0
  0
LINE
  5
EE
330
2
100
AcDbEntity
  8
0
 62
     3
100
AcDbLine
 10
30.30737430210001
 20
167.1
 30
0.0
 11
30.4073743021
 21
167.5999999999999
 31
0.0
  0
LINE
  5
EF
330
2
100
AcDbEntity
  8
0
 62
     3
100
AcDbLine
 10
30.70737430209998
 20
167.5999999999999
 30
0.0
 11
30.70737430209998
 21
169.4
 31
0.0
  0
LINE
  5
F0
330
2
100
AcDbEntity
  8
0
 62
     3
100
AcDbLine
 10
30.4073743021
 20
167.5999999999999
 30
0.0
 11
30.4073743021
 21
169.4
 31
0.0
  0
LINE
  5
F1
330
2
100
AcDbEntity
  8
0
 62
     3
100
AcDbLine
 10
30.80737430210001
 20
167.1
 30
0.0
 11
30.80737430210001
 21
169.9
 31
0.0
  0
LINE
  5
F2
330
2
100
AcDbEntity
  8
0
 62
     3
100
AcDbLine
 10
30.30737430210001
 20
167.1
 30
0.0
 11
30.30737430210001
 21
169.9
 31
0.0
  0
LINE
  5
F3
330
2
100
AcDbEntity
  8
0
 62
     3
100
AcDbLine
 10
31.60728732699999
 20
167.2999954222999
 30
0.0
 11
31.60728732699999
 21
169.6999969482
 31
0.0
  0
LINE
  5
F4
330
2
100
AcDbEntity
  8
0
 62
     3
100
AcDbLine
 10
37.90728427529998
 20
167.5000045776
 30
0.0
 11
38.40728427529997
 21
167.5000045776
 31
0.0
  0
LINE
  5
F5
330
2
100
AcDbEntity
  8
0
 62
     3
100
AcDbLine
 10
37.96867655569997
 20
165.1999999999999
 30
0.0
 11
38.34589199479992
 21
165.1999999999999
 31
0.0
  0
LINE
  5
F6
330
2
100
AcDbEntity
  8
0
 62
     3
100
AcDbLine
 10
37.96867655569997
 20
167.0
 30
0.0
 11
38.34589199479992
 21
167.0
 31
0.0
  0
LINE
  5
F7
330
2
100
AcDbEntity
  8
0
 62
     3
100
AcDbLine
 10
37.90728427529998
 20
164.7000045776
 30
0.0
 11
38.40728427529997
 21
164.7000045776
 31
0.0
  0
LINE
  5
F8
330
2
100
AcDbEntity
  8
0
 62
     3
100
AcDbLine
 10
37.90728427529998
 20
164.7
 30
0.0
 11
37.96867655569997
 21
165.1999999999999
 31
0.0
  0
LINE
  5
F9
330
2
100
AcDbEntity
  8
0
 62
     3
100
AcDbLine
 10
37.96867655569997
 20
165.1999999999999
 30
0.0
 11
37.96867655569997
 21
167.0
 31
0.0
  0
LINE
  5
FA
330
2
100
AcDbEntity
  8
0
 62
     3
100
AcDbLine
 10
37.90728427529998
 20
167.5
 30
0.0
 11
37.96867655569997
 21
167.0
 31
0.0
  0
LINE
  5
FB
330
2
100
AcDbEntity
  8
0
 62
     3
100
AcDbLine
 10
37.90728427529998
 20
167.5000045776
 30
0.0
 11
37.90728427529998
 21
164.7000045776
 31
0.0
  0
LINE
  5
FC
330
2
100
AcDbEntity
  8
0
 62
     3
100
AcDbLine
 10
34.1072842753
 20
165.2000045776
 30
0.0
 11
37.90728427529998
 21
165.2000045776
 31
0.0
  0
LINE
  5
FD
330
2
100
AcDbEntity
  8
0
 62
     3
100
AcDbLine
 10
34.10728732699999
 20
165.2000045776
 30
0.0
 11
37.90728427529998
 21
165.2000045776
 31
0.0
  0
LINE
  5
FE
330
2
100
AcDbEntity
  8
0
 62
     3
100
AcDbLine
 10
33.60728732699996
 20
167.2999954222999
 30
0.0
 11
33.60728732699996
 21
169.6999969482
 31
0.0
  0
LINE
  5
FF
330
2
100
AcDbEntity
  8
0
 62
     3
100
AcDbLine
 10
41.10728732699999
 20
166.9999923705999
 30
0.0
 11
39.30728427529999
 21
166.9999923705999
 31
0.0
  0
LINE
  5
100
330
2
100
AcDbEntity
  8
0
 62
     3
100
AcDbLine
 10
38.34589199479992
 20
165.1999999999999
 30
0.0
 11
38.40728427529997
 21
164.7
 31
0.0
  0
LINE
  5
101
330
2
100
AcDbEntity
  8
0
 62
     3
100
AcDbLine
 10
38.34589199479992
 20
165.1999999999999
 30
0.0
 11
38.34589199479992
 21
167.0
 31
0.0
  0
LINE
  5
102
330
2
100
AcDbEntity
  8
0
 62
     3
100
AcDbLine
 10
38.34589199479992
 20
167.0
 30
0.0
 11
38.40728427529997
 21
167.5
 31
0.0
  0
LINE
  5
103
330
2
100
AcDbEntity
  8
0
 62
     3
100
AcDbLine
 10
38.40728427529997
 20
167.5000045776
 30
0.0
 11
38.40728427529997
 21
164.7000045776
 31
0.0
  0
LINE
  5
104
330
2
100
AcDbEntity
  8
0
 62
     3
100
AcDbLine
 10
38.40728427529997
 20
165.2000045776
 30
0.0
 11
39.30728427529999
 21
165.2000045776
 31
0.0
  0
LINE
  5
105
330
2
100
AcDbEntity
  8
0
 62
     3
100
AcDbLine
 10
38.40728427529997
 20
165.2000045776
 30
0.0
 11
39.30728427529999
 21
165.2000045776
 31
0.0
  0
LINE
  5
106
330
2
100
AcDbEntity
  8
0
 62
     3
100
AcDbLine
 10
37.90728427529998
 20
173.5000045775999
 30
0.0
 11
38.40728427529997
 21
173.5000045775999
 31
0.0
  0
LINE
  5
107
330
2
100
AcDbEntity
  8
0
 62
     3
100
AcDbLine
 10
37.96867655569997
 20
173.0
 30
0.0
 11
38.34589199479992
 21
173.0
 31
0.0
  0
LINE
  5
108
330
2
100
AcDbEntity
  8
0
 62
     3
100
AcDbLine
 10
37.96867655569997
 20
171.1999999999999
 30
0.0
 11
38.34589199479992
 21
171.1999999999999
 31
0.0
  0
LINE
  5
109
330
2
100
AcDbEntity
  8
0
 62
     3
100
AcDbLine
 10
37.90728427529998
 20
170.7000045775999
 30
0.0
 11
38.40728427529997
 21
170.7000045775999
 31
0.0
  0
LINE
  5
10A
330
2
100
AcDbEntity
  8
0
 62
     3
100
AcDbLine
 10
37.90728427529998
 20
170.6999999999999
 30
0.0
 11
37.96867655569997
 21
171.1999999999999
 31
0.0
  0
LINE
  5
10B
330
2
100
AcDbEntity
  8
0
 62
     3
100
AcDbLine
 10
37.96867655569997
 20
171.1999999999999
 30
0.0
 11
37.96867655569997
 21
173.0
 31
0.0
  0
LINE
  5
10C
330
2
100
AcDbEntity
  8
0
 62
     3
100
AcDbLine
 10
37.90728427529998
 20
173.5
 30
0.0
 11
37.96867655569997
 21
173.0
 31
0.0
  0
LINE
  5
10D
330
2
100
AcDbEntity
  8
0
 62
     3
100
AcDbLine
 10
37.90728427529998
 20
173.5000045775999
 30
0.0
 11
37.90728427529998
 21
170.7000045775999
 31
0.0
  0
LINE
  5
10E
330
2
100
AcDbEntity
  8
0
 62
     3
100
AcDbLine
 10
41.10728732699999
 20
173.0
 30
0.0
 11
39.30728427529999
 21
173.0
 31
0.0
  0
LINE
  5
10F
330
2
100
AcDbEntity
  8
0
 62
     3
100
AcDbLine
 10
41.10728732699999
 20
171.200012207
 30
0.0
 11
39.30728427529999
 21
171.200012207
 31
0.0
  0
LINE
  5
110
330
2
100
AcDbEntity
  8
0
 62
     3
100
AcDbLine
 10
38.34589199479992
 20
171.1999999999999
 30
0.0
 11
38.34589199479992
 21
173.0
 31
0.0
  0
LINE
  5
111
330
2
100
AcDbEntity
  8
0
 62
     3
100
AcDbLine
 10
38.34589199479992
 20
171.1999999999999
 30
0.0
 11
38.40728427529997
 21
170.6999999999999
 31
0.0
  0
LINE
  5
112
330
2
100
AcDbEntity
  8
0
 62
     3
100
AcDbLine
 10
38.34589199479992
 20
173.0
 30
0.0
 11
38.40728427529997
 21
173.5
 31
0.0
  0
LINE
  5
113
330
2
100
AcDbEntity
  8
0
 62
     3
100
AcDbLine
 10
38.40728427529997
 20
173.5000045775999
 30
0.0
 11
38.40728427529997
 21
170.7000045775999
 31
0.0
  0
LINE
  5
114
330
2
100
AcDbEntity
  8
0
 62
     3
100
AcDbLine
 10
32.14507608409997
 20
181.4041175847999
 30
0.0
 11
32.14887626719999
 21
181.4037345027999
 31
0.0
  0
LINE
  5
115
330
2
100
AcDbEntity
  8
0
 62
     3
100
AcDbLine
 10
33.60728732699996
 20
176.7000045775999
 30
0.0
 11
31.60728732699999
 21
176.7000045775999
 31
0.0
  0
LINE
  5
116
330
2
100
AcDbEntity
  8
0
 62
     3
100
AcDbLine
 10
37.90728427529998
 20
179.0
 30
0.0
 11
31.30728427529996
 21
179.0
 31
0.0
  0
LINE
  5
117
330
2
100
AcDbEntity
  8
0
 62
     3
100
AcDbLine
 10
30.80737430210001
 20
179.0
 30
0.0
 11
37.90728427529998
 21
179.0
 31
0.0
  0
LINE
  5
118
330
2
100
AcDbEntity
  8
0
 62
     3
100
AcDbLine
 10
32.13579685589996
 20
181.4038439599999
 30
0.0
 11
32.14071124079998
 21
181.4041541126998
 31
0.0
  0
LINE
  5
119
330
2
100
AcDbEntity
  8
0
 62
     3
100
AcDbLine
 10
32.14071124079998
 20
181.4041541126998
 30
0.0
 11
32.14507608409997
 21
181.4041175847999
 31
0.0
  0
LINE
  5
11A
330
2
100
AcDbEntity
  8
0
 62
     3
100
AcDbLine
 10
30.30737430210001
 20
179.4999999999999
 30
0.0
 11
30.80737430210001
 21
179.4999999999999
 31
0.0
  0
LINE
  5
11B
330
2
100
AcDbEntity
  8
0
 62
     3
100
AcDbLine
 10
29.47984258189999
 20
181.1554412921998
 30
0.0
 11
29.49336309319996
 21
181.1575080434
 31
0.0
  0
LINE
  5
11C
330
2
100
AcDbEntity
  8
0
 62
     3
100
AcDbLine
 10
27.90728274939997
 20
181.0
 30
0.0
 11
29.14812747229996
 21
181.0
 31
0.0
  0
ARC
  5
11D
330
2
100
AcDbEntity
  8
0
 62
     3
100
AcDbCircle
 10
29.40737430210001
 20
179.4999999999999
 30
0.0
 40
0.5
100
AcDbArc
 50
90.0
 51
179.9999820138999
  0
LINE
  5
11E
330
2
100
AcDbEntity
  8
0
 62
     3
100
AcDbLine
 10
29.33089078399998
 20
181.0956807022
 30
0.0
 11
29.35522689329999
 21
181.1080199393999
 31
0.0
  0
LINE
  5
11F
330
2
100
AcDbEntity
  8
0
 62
     3
100
AcDbLine
 10
29.35522689329999
 20
181.1080199393999
 30
0.0
 11
29.37926845549995
 21
181.1194100214
 31
0.0
  0
LINE
  5
120
330
2
100
AcDbEntity
  8
0
 62
     3
100
AcDbLine
 10
29.37926845549995
 20
181.1194100214
 30
0.0
 11
29.40256173079998
 21
181.1296359815999
 31
0.0
  0
LINE
  5
121
330
2
100
AcDbEntity
  8
0
 62
     3
100
AcDbLine
 10
29.40256173079998
 20
181.1296359815999
 30
0.0
 11
29.42466710199997
 21
181.138504824
 31
0.0
  0
LINE
  5
122
330
2
100
AcDbEntity
  8
0
 62
     3
100
AcDbLine
 10
29.42466710199997
 20
181.138504824
 30
0.0
 11
29.44516737129998
 21
181.1458491658
 31
0.0
  0
LINE
  5
123
330
2
100
AcDbEntity
  8
0
 62
     3
100
AcDbLine
 10
29.00569697429998
 20
180.8829122945
 30
0.0
 11
29.00739425049996
 21
180.8920965143
 31
0.0
  0
LINE
  5
124
330
2
100
AcDbEntity
  8
0
 62
     3
100
AcDbLine
 10
29.00739425049996
 20
180.8920965143
 30
0.0
 11
29.01582690639997
 21
180.9044880593
 31
0.0
  0
LINE
  5
125
330
2
100
AcDbEntity
  8
0
 62
     3
100
AcDbLine
 10
29.01582690639997
 20
180.9044880593
 30
0.0
 11
29.03067087979996
 21
180.9196107294998
 31
0.0
  0
LINE
  5
126
330
2
100
AcDbEntity
  8
0
 62
     3
100
AcDbLine
 10
29.03067087979996
 20
180.9196107294998
 30
0.0
 11
29.05135572519998
 21
180.9368833691
 31
0.0
  0
LINE
  5
127
330
2
100
AcDbEntity
  8
0
 62
     3
100
AcDbLine
 10
29.05135572519998
 20
180.9368833691
 30
0.0
 11
29.07708653559998
 21
180.9556422001998
 31
0.0
  0
LINE
  5
128
330
2
100
AcDbEntity
  8
0
 62
     3
100
AcDbLine
 10
29.07708653559998
 20
180.9556422001998
 30
0.0
 11
29.10687449019997
 21
180.9751663315
 31
0.0
  0
LINE
  5
129
330
2
100
AcDbEntity
  8
0
 62
     3
100
AcDbLine
 10
29.10687449019997
 20
180.9751663315
 30
0.0
 11
29.13957485479997
 21
180.9947054614999
 31
0.0
  0
LINE
  5
12A
330
2
100
AcDbEntity
  8
0
 62
     3
100
AcDbLine
 10
29.13957485479997
 20
180.9947054614999
 30
0.0
 11
29.17393097269999
 21
181.0135087124999
 31
0.0
  0
ARC
  5
12B
330
2
100
AcDbEntity
  8
0
 62
     3
100
AcDbCircle
 10
29.45645864539997
 20
180.1367362116
 30
0.0
 40
0.2728421830999999
100
AcDbArc
 50
197.3774288895
 51
217.3866354058
  0
LINE
  5
12C
330
2
100
AcDbEntity
  8
0
 62
     3
100
AcDbLine
 10
29.17393097269999
 20
181.0135087124999
 30
0.0
 11
29.33089078399998
 21
181.0956807022
 31
0.0
  0
LINE
  5
12D
330
2
100
AcDbEntity
  8
0
 62
     3
100
AcDbLine
 10
29.19606950919998
 20
180.0552478404
 30
0.0
 11
29.00569697429998
 21
180.8829122945
 31
0.0
  0
LINE
  5
12E
330
2
100
AcDbEntity
  8
0
 62
     3
100
AcDbLine
 10
29.44516737129998
 20
181.1458491658
 30
0.0
 11
29.46367563429999
 21
181.151530396
 31
0.0
  0
LINE
  5
12F
330
2
100
AcDbEntity
  8
0
 62
     3
100
AcDbLine
 10
29.46367563429999
 20
181.151530396
 30
0.0
 11
29.47984258189999
 21
181.1554412921998
 31
0.0
  0
LINE
  5
130
330
2
100
AcDbEntity
  8
0
 62
     3
100
AcDbLine
 10
29.49336309319996
 20
181.1575080434
 30
0.0
 11
32.13579685589996
 21
181.4038439599999
 31
0.0
  0
LINE
  5
131
330
2
100
AcDbEntity
  8
0
 62
     3
100
AcDbLine
 10
30.4073743021
 20
179.0
 30
0.0
 11
30.70737430209998
 21
179.0
 31
0.0
  0
LINE
  5
132
330
2
100
AcDbEntity
  8
0
 62
     3
100
AcDbLine
 10
30.80737430210001
 20
179.0
 30
0.0
 11
31.30737430209999
 21
179.0
 31
0.0
  0
LINE
  5
133
330
2
100
AcDbEntity
  8
0
 62
     3
100
AcDbLine
 10
30.70737430209998
 20
177.2
 30
0.0
 11
30.80737430210001
 21
176.6999999999999
 31
0.0
  0
LINE
  5
134
330
2
100
AcDbEntity
  8
0
 62
     3
100
AcDbLine
 10
30.4073743021
 20
177.2
 30
0.0
 11
30.70737430209998
 21
177.2
 31
0.0
  0
LINE
  5
135
330
2
100
AcDbEntity
  8
0
 62
     3
100
AcDbLine
 10
30.30737430210001
 20
176.6999999999999
 30
0.0
 11
30.80737430210001
 21
176.6999999999999
 31
0.0
  0
LINE
  5
136
330
2
100
AcDbEntity
  8
0
 62
     3
100
AcDbLine
 10
30.30737430210001
 20
176.6999999999999
 30
0.0
 11
30.4073743021
 21
177.2
 31
0.0
  0
LINE
  5
137
330
2
100
AcDbEntity
  8
0
 62
     3
100
AcDbLine
 10
30.70737430209998
 20
177.2
 30
0.0
 11
30.70737430209998
 21
179.0
 31
0.0
  0
LINE
  5
138
330
2
100
AcDbEntity
  8
0
 62
     3
100
AcDbLine
 10
30.4073743021
 20
177.2
 30
0.0
 11
30.4073743021
 21
179.0
 31
0.0
  0
LINE
  5
139
330
2
100
AcDbEntity
  8
0
 62
     3
100
AcDbLine
 10
28.9073743021
 20
179.0
 30
0.0
 11
30.30737430210001
 21
179.0
 31
0.0
  0
LINE
  5
13A
330
2
100
AcDbEntity
  8
0
 62
     3
100
AcDbLine
 10
28.9073743021
 20
179.0
 30
0.0
 11
30.30737430210001
 21
179.0
 31
0.0
  0
LINE
  5
13B
330
2
100
AcDbEntity
  8
0
 62
     3
100
AcDbLine
 10
30.70737430209998
 20
179.0
 30
0.0
 11
30.80737430210001
 21
179.4999999999999
 31
0.0
  0
LINE
  5
13C
330
2
100
AcDbEntity
  8
0
 62
     3
100
AcDbLine
 10
30.30737430210001
 20
179.4999999999999
 30
0.0
 11
30.4073743021
 21
179.0
 31
0.0
  0
LINE
  5
13D
330
2
100
AcDbEntity
  8
0
 62
     3
100
AcDbLine
 10
30.80737430210001
 20
176.6999999999999
 30
0.0
 11
30.80737430210001
 21
179.4999999999999
 31
0.0
  0
LINE
  5
13E
330
2
100
AcDbEntity
  8
0
 62
     3
100
AcDbLine
 10
30.30737430210001
 20
176.6999999999999
 30
0.0
 11
30.30737430210001
 21
179.4999999999999
 31
0.0
  0
LINE
  5
13F
330
2
100
AcDbEntity
  8
0
 62
     3
100
AcDbLine
 10
37.90728427529998
 20
179.5000045775998
 30
0.0
 11
38.40728427529997
 21
179.5000045775998
 31
0.0
  0
LINE
  5
140
330
2
100
AcDbEntity
  8
0
 62
     3
100
AcDbLine
 10
37.96867655569997
 20
179.0
 30
0.0
 11
38.34589199479992
 21
179.0
 31
0.0
  0
LINE
  5
141
330
2
100
AcDbEntity
  8
0
 62
     3
100
AcDbLine
 10
37.96867655569997
 20
177.2
 30
0.0
 11
38.34589199479992
 21
177.2
 31
0.0
  0
LINE
  5
142
330
2
100
AcDbEntity
  8
0
 62
     3
100
AcDbLine
 10
37.90728427529998
 20
176.7000045775999
 30
0.0
 11
38.40728427529997
 21
176.7000045775999
 31
0.0
  0
LINE
  5
143
330
2
100
AcDbEntity
  8
0
 62
     3
100
AcDbLine
 10
37.90728427529998
 20
176.6999999999999
 30
0.0
 11
37.96867655569997
 21
177.2
 31
0.0
  0
LINE
  5
144
330
2
100
AcDbEntity
  8
0
 62
     3
100
AcDbLine
 10
37.96867655569997
 20
177.2
 30
0.0
 11
37.96867655569997
 21
179.0
 31
0.0
  0
LINE
  5
145
330
2
100
AcDbEntity
  8
0
 62
     3
100
AcDbLine
 10
37.90728427529998
 20
179.4999999999999
 30
0.0
 11
37.96867655569997
 21
179.0
 31
0.0
  0
LINE
  5
146
330
2
100
AcDbEntity
  8
0
 62
     3
100
AcDbLine
 10
37.90728427529998
 20
179.5000045775998
 30
0.0
 11
37.90728427529998
 21
176.7000045775999
 31
0.0
  0
LINE
  5
147
330
2
100
AcDbEntity
  8
0
 62
     3
100
AcDbLine
 10
32.14887626719999
 20
181.4037345027999
 30
0.0
 11
32.15209862729996
 21
181.4030061935998
 31
0.0
  0
LINE
  5
148
330
2
100
AcDbEntity
  8
0
 62
     3
100
AcDbLine
 10
32.15209862729996
 20
181.4030061935998
 30
0.0
 11
32.15473200319996
 21
181.4019351798
 31
0.0
  0
LINE
  5
149
330
2
100
AcDbEntity
  8
0
 62
     3
100
AcDbLine
 10
32.15473200319996
 20
181.4019351798
 30
0.0
 11
32.15676727359996
 21
181.4005251712
 31
0.0
  0
LINE
  5
14A
330
2
100
AcDbEntity
  8
0
 62
     3
100
AcDbLine
 10
32.15676727359996
 20
181.4005251712
 30
0.0
 11
32.15819738899998
 21
181.3987810515
 31
0.0
  0
LINE
  5
14B
330
2
100
AcDbEntity
  8
0
 62
     3
100
AcDbLine
 10
32.15819738899998
 20
181.3987810515
 30
0.0
 11
32.15901739579999
 21
181.3967088618999
 31
0.0
  0
LINE
  5
14C
330
2
100
AcDbEntity
  8
0
 62
     3
100
AcDbLine
 10
32.34457325039997
 20
181.0504334392
 30
0.0
 11
32.15833912279999
 21
181.398529052
 31
0.0
  0
LINE
  5
14D
330
2
100
AcDbEntity
  8
0
 62
     3
100
AcDbLine
 10
32.31841760889997
 20
180.7036998075999
 30
0.0
 11
32.15901739579999
 21
181.3967088618999
 31
0.0
  0
LINE
  5
14E
330
2
100
AcDbEntity
  8
0
 62
     3
100
AcDbLine
 10
32.23430060969997
 20
180.6384015985998
 30
0.0
 11
32.31841760889997
 21
180.7036998075999
 31
0.0
  0
LINE
  5
14F
330
2
100
AcDbEntity
  8
0
 62
     3
100
AcDbLine
 10
32.50397346349998
 20
180.3574243849999
 30
0.0
 11
32.34457325039997
 21
181.0504334392
 31
0.0
  0
LINE
  5
150
330
2
100
AcDbEntity
  8
0
 62
     3
100
AcDbLine
 10
32.50397346349998
 20
180.3574243849999
 30
0.0
 11
32.31841760889997
 21
180.7036998075999
 31
0.0
  0
LINE
  5
151
330
2
100
AcDbEntity
  8
0
 62
     3
100
AcDbLine
 10
32.41985646429998
 20
180.2921261758999
 30
0.0
 11
32.50397346349998
 21
180.3574243849999
 31
0.0
  0
LINE
  5
152
330
2
100
AcDbEntity
  8
0
 62
     3
100
AcDbLine
 10
32.41985646429998
 20
180.2921261758999
 30
0.0
 11
32.23430060969997
 21
180.6384015985998
 31
0.0
  0
LINE
  5
153
330
2
100
AcDbEntity
  8
0
 62
     3
100
AcDbLine
 10
32.38114046729995
 20
180.0
 30
0.0
 11
32.23430060969997
 21
180.6384015985998
 31
0.0
  0
LINE
  5
154
330
2
100
AcDbEntity
  8
0
 62
     3
100
AcDbLine
 10
32.48704891209998
 20
180.0
 30
0.0
 11
32.41985646429998
 21
180.2921261758999
 31
0.0
  0
LINE
  5
155
330
2
100
AcDbEntity
  8
0
 62
     3
100
AcDbLine
 10
33.80729523739997
 20
179.0000050278
 30
0.0
 11
34.10729447689996
 21
178.7000057629999
 31
0.0
  0
LINE
  5
156
330
2
100
AcDbEntity
  8
0
 62
     3
100
AcDbLine
 10
34.1072842753
 20
179.0000045775999
 30
0.0
 11
37.90728427529998
 21
179.0000045775999
 31
0.0
  0
LINE
  5
157
330
2
100
AcDbEntity
  8
0
 62
     3
100
AcDbLine
 10
39.60728386989998
 20
178.5000081547999
 30
0.0
 11
39.30727923559999
 21
178.2000034952
 31
0.0
  0
LINE
  5
158
330
2
100
AcDbEntity
  8
0
 62
     3
100
AcDbLine
 10
39.60728732699999
 20
178.5
 30
0.0
 11
39.60728732699999
 21
179.0
 31
0.0
  0
LINE
  5
159
330
2
100
AcDbEntity
  8
0
 62
     3
100
AcDbLine
 10
41.10728732699999
 20
178.5
 30
0.0
 11
39.60728732699999
 21
178.5
 31
0.0
  0
LINE
  5
15A
330
2
100
AcDbEntity
  8
0
 62
     3
100
AcDbLine
 10
41.10728732699999
 20
176.700012207
 30
0.0
 11
39.30728427529999
 21
176.700012207
 31
0.0
  0
LINE
  5
15B
330
2
100
AcDbEntity
  8
0
 62
     3
100
AcDbLine
 10
40.80725980519996
 20
178.9999723639998
 30
0.0
 11
41.10725904469997
 21
178.6999730991999
 31
0.0
  0
LINE
  5
15C
330
2
100
AcDbEntity
  8
0
 62
     3
100
AcDbLine
 10
38.34589199479992
 20
177.2
 30
0.0
 11
38.40728427529997
 21
176.6999999999999
 31
0.0
  0
LINE
  5
15D
330
2
100
AcDbEntity
  8
0
 62
     3
100
AcDbLine
 10
38.34589199479992
 20
177.2
 30
0.0
 11
38.34589199479992
 21
179.0
 31
0.0
  0
LINE
  5
15E
330
2
100
AcDbEntity
  8
0
 62
     3
100
AcDbLine
 10
38.40728427529997
 20
179.0000045775999
 30
0.0
 11
39.30728427529999
 21
179.0000045775999
 31
0.0
  0
LINE
  5
15F
330
2
100
AcDbEntity
  8
0
 62
     3
100
AcDbLine
 10
38.34589199479992
 20
179.0
 30
0.0
 11
38.40728427529997
 21
179.4999999999999
 31
0.0
  0
LINE
  5
160
330
2
100
AcDbEntity
  8
0
 62
     3
100
AcDbLine
 10
38.40728427529997
 20
179.5000045775998
 30
0.0
 11
38.40728427529997
 21
176.7000045775999
 31
0.0
  0
LINE
  5
161
330
2
100
AcDbEntity
  8
0
 62
     3
100
AcDbLine
 10
56.20727817169997
 20
174.3000030516999
 30
0.0
 11
56.20727817169997
 21
176.7000045775999
 31
0.0
  0
LINE
  5
162
330
2
100
AcDbEntity
  8
0
 62
     3
100
AcDbLine
 10
54.20727817169997
 20
174.3000030516999
 30
0.0
 11
54.20727817169997
 21
176.7000045775999
 31
0.0
  0
LINE
  5
163
330
2
100
AcDbEntity
  8
0
 62
     3
100
AcDbLine
 10
53.30728427529995
 20
165.2000045776
 30
0.0
 11
53.30728427529995
 21
179.0000045775999
 31
0.0
  0
LINE
  5
164
330
2
100
AcDbEntity
  8
0
 62
     3
100
AcDbLine
 10
53.30728427529995
 20
165.2000045776
 30
0.0
 11
53.30728427529995
 21
178.1999969482
 31
0.0
  0
LINE
  5
165
330
2
100
AcDbEntity
  8
0
 62
     3
100
AcDbLine
 10
48.10728427529998
 20
165.2000045776
 30
0.0
 11
48.10728427529998
 21
179.0000045775999
 31
0.0
  0
LINE
  5
166
330
2
100
AcDbEntity
  8
0
 62
     3
100
AcDbLine
 10
48.10728732699999
 20
165.2000045776
 30
0.0
 11
48.10728732699999
 21
178.6999969482
 31
0.0
  0
LINE
  5
167
330
2
100
AcDbEntity
  8
0
 62
     3
100
AcDbLine
 10
46.30728427529995
 20
165.2000045776
 30
0.0
 11
46.30728427529995
 21
178.1999969482
 31
0.0
  0
LINE
  5
168
330
2
100
AcDbEntity
  8
0
 62
     3
100
AcDbLine
 10
46.30728427529995
 20
165.2000045776
 30
0.0
 11
46.30728427529995
 21
179.0000045775999
 31
0.0
  0
LINE
  5
169
330
2
100
AcDbEntity
  8
0
 62
     3
100
AcDbLine
 10
54.20727817169997
 20
169.6999969482
 30
0.0
 11
56.20727817169997
 21
169.6999969482
 31
0.0
  0
LINE
  5
16A
330
2
100
AcDbEntity
  8
0
 62
     3
100
AcDbLine
 10
54.20727817169997
 20
174.3000030516999
 30
0.0
 11
56.20727817169997
 21
174.3000030516999
 31
0.0
  0
LINE
  5
16B
330
2
100
AcDbEntity
  8
0
 62
     3
100
AcDbLine
 10
54.20727817169997
 20
167.2999954222999
 30
0.0
 11
56.20727817169997
 21
167.2999954222999
 31
0.0
  0
LINE
  5
16C
330
2
100
AcDbEntity
  8
0
 62
     3
100
AcDbLine
 10
48.10728427529998
 20
165.2000045776
 30
0.0
 11
51.90728427529998
 21
165.2000045776
 31
0.0
  0
LINE
  5
16D
330
2
100
AcDbEntity
  8
0
 62
     3
100
AcDbLine
 10
45.40728732699998
 20
165.2000045776
 30
0.0
 11
51.90728427529998
 21
165.2000045776
 31
0.0
  0
LINE
  5
16E
330
2
100
AcDbEntity
  8
0
 62
     3
100
AcDbLine
 10
44.90728427529997
 20
167.5000045776
 30
0.0
 11
45.40728427529997
 21
167.5000045776
 31
0.0
  0
LINE
  5
16F
330
2
100
AcDbEntity
  8
0
 62
     3
100
AcDbLine
 10
45.34589199479998
 20
165.2000045776
 30
0.0
 11
45.34589199479998
 21
167.0000045775998
 31
0.0
  0
LINE
  5
170
330
2
100
AcDbEntity
  8
0
 62
     3
100
AcDbLine
 10
45.34589199479998
 20
165.2000045776
 30
0.0
 11
45.40728427529997
 21
164.7000045776
 31
0.0
  0
LINE
  5
171
330
2
100
AcDbEntity
  8
0
 62
     3
100
AcDbLine
 10
44.9686765557
 20
167.0000045775998
 30
0.0
 11
45.34589199479998
 21
167.0000045775998
 31
0.0
  0
LINE
  5
172
330
2
100
AcDbEntity
  8
0
 62
     3
100
AcDbLine
 10
44.9686765557
 20
165.2000045776
 30
0.0
 11
45.34589199479998
 21
165.2000045776
 31
0.0
  0
LINE
  5
173
330
2
100
AcDbEntity
  8
0
 62
     3
100
AcDbLine
 10
44.9686765557
 20
165.2000045776
 30
0.0
 11
44.9686765557
 21
167.0000045775998
 31
0.0
  0
LINE
  5
174
330
2
100
AcDbEntity
  8
0
 62
     3
100
AcDbLine
 10
44.90728427529997
 20
164.7000045776
 30
0.0
 11
44.9686765557
 21
165.2000045776
 31
0.0
  0
LINE
  5
175
330
2
100
AcDbEntity
  8
0
 62
     3
100
AcDbLine
 10
44.90728427529997
 20
164.7000045776
 30
0.0
 11
45.40728427529997
 21
164.7000045776
 31
0.0
  0
LINE
  5
176
330
2
100
AcDbEntity
  8
0
 62
     3
100
AcDbLine
 10
45.40728427529997
 20
165.2000045776
 30
0.0
 11
46.30728427529995
 21
165.2000045776
 31
0.0
  0
LINE
  5
177
330
2
100
AcDbEntity
  8
0
 62
     3
100
AcDbLine
 10
45.34589199479998
 20
167.0000045775998
 30
0.0
 11
45.40728427529997
 21
167.5000045776
 31
0.0
  0
LINE
  5
178
330
2
100
AcDbEntity
  8
0
 62
     3
100
AcDbLine
 10
44.90728427529997
 20
167.5000045776
 30
0.0
 11
44.9686765557
 21
167.0000045775998
 31
0.0
  0
LINE
  5
179
330
2
100
AcDbEntity
  8
0
 62
     3
100
AcDbLine
 10
44.90728427529997
 20
167.5000045776
 30
0.0
 11
44.90728427529997
 21
164.7000045776
 31
0.0
  0
LINE
  5
17A
330
2
100
AcDbEntity
  8
0
 62
     3
100
AcDbLine
 10
45.40728427529997
 20
167.5000045776
 30
0.0
 11
45.40728427529997
 21
164.7000045776
 31
0.0
  0
LINE
  5
17B
330
2
100
AcDbEntity
  8
0
 62
     3
100
AcDbLine
 10
48.10728732699999
 20
166.9999923705999
 30
0.0
 11
46.30728427529995
 21
166.9999923705999
 31
0.0
  0
LINE
  5
17C
330
2
100
AcDbEntity
  8
0
 62
     3
100
AcDbLine
 10
55.10728732699996
 20
165.1999969482
 30
0.0
 11
55.10728732699996
 21
166.9999923705999
 31
0.0
  0
LINE
  5
17D
330
2
100
AcDbEntity
  8
0
 62
     3
100
AcDbLine
 10
52.34589199479998
 20
165.2000045776
 30
0.0
 11
52.40728427529997
 21
164.7000045776
 31
0.0
  0
LINE
  5
17E
330
2
100
AcDbEntity
  8
0
 62
     3
100
AcDbLine
 10
52.34589199479998
 20
165.2000045776
 30
0.0
 11
52.34589199479998
 21
167.0000045775998
 31
0.0
  0
LINE
  5
17F
330
2
100
AcDbEntity
  8
0
 62
     3
100
AcDbLine
 10
52.40728427529997
 20
165.2000045776
 30
0.0
 11
53.30728427529995
 21
165.2000045776
 31
0.0
  0
LINE
  5
180
330
2
100
AcDbEntity
  8
0
 62
     3
100
AcDbLine
 10
52.34589199479998
 20
167.0000045775998
 30
0.0
 11
52.40728427529997
 21
167.5000045776
 31
0.0
  0
LINE
  5
181
330
2
100
AcDbEntity
  8
0
 62
     3
100
AcDbLine
 10
52.40728427529997
 20
167.5000045776
 30
0.0
 11
52.40728427529997
 21
164.7000045776
 31
0.0
  0
LINE
  5
182
330
2
100
AcDbEntity
  8
0
 62
     3
100
AcDbLine
 10
51.90728427529998
 20
164.7000045776
 30
0.0
 11
51.9686765557
 21
165.2000045776
 31
0.0
  0
LINE
  5
183
330
2
100
AcDbEntity
  8
0
 62
     3
100
AcDbLine
 10
51.9686765557
 20
165.2000045776
 30
0.0
 11
51.9686765557
 21
167.0000045775998
 31
0.0
  0
LINE
  5
184
330
2
100
AcDbEntity
  8
0
 62
     3
100
AcDbLine
 10
51.90728427529998
 20
167.5000045776
 30
0.0
 11
51.9686765557
 21
167.0000045775998
 31
0.0
  0
LINE
  5
185
330
2
100
AcDbEntity
  8
0
 62
     3
100
AcDbLine
 10
51.90728427529998
 20
167.5000045776
 30
0.0
 11
51.90728427529998
 21
164.7000045776
 31
0.0
  0
LINE
  5
186
330
2
100
AcDbEntity
  8
0
 62
     3
100
AcDbLine
 10
51.9686765557
 20
165.2000045776
 30
0.0
 11
52.34589199479998
 21
165.2000045776
 31
0.0
  0
LINE
  5
187
330
2
100
AcDbEntity
  8
0
 62
     3
100
AcDbLine
 10
51.9686765557
 20
167.0000045775998
 30
0.0
 11
52.34589199479998
 21
167.0000045775998
 31
0.0
  0
LINE
  5
188
330
2
100
AcDbEntity
  8
0
 62
     3
100
AcDbLine
 10
51.90728427529998
 20
167.5000045776
 30
0.0
 11
52.40728427529997
 21
167.5000045776
 31
0.0
  0
LINE
  5
189
330
2
100
AcDbEntity
  8
0
 62
     3
100
AcDbLine
 10
51.90728427529998
 20
164.7000045776
 30
0.0
 11
52.40728427529997
 21
164.7000045776
 31
0.0
  0
LINE
  5
18A
330
2
100
AcDbEntity
  8
0
 62
     3
100
AcDbLine
 10
55.10728732699996
 20
165.2000045776
 30
0.0
 11
52.40728427529997
 21
165.2000045776
 31
0.0
  0
LINE
  5
18B
330
2
100
AcDbEntity
  8
0
 62
     3
100
AcDbLine
 10
55.10728732699996
 20
166.9999923705999
 30
0.0
 11
53.30728427529995
 21
166.9999923705999
 31
0.0
  0
LINE
  5
18C
330
2
100
AcDbEntity
  8
0
 62
     3
100
AcDbLine
 10
54.20727817169997
 20
167.2999954222999
 30
0.0
 11
54.20727817169997
 21
169.6999969482
 31
0.0
  0
LINE
  5
18D
330
2
100
AcDbEntity
  8
0
 62
     3
100
AcDbLine
 10
44.90728427529997
 20
173.5000045775999
 30
0.0
 11
45.40728427529997
 21
173.5000045775999
 31
0.0
  0
LINE
  5
18E
330
2
100
AcDbEntity
  8
0
 62
     3
100
AcDbLine
 10
45.34589199479998
 20
171.2000045776
 30
0.0
 11
45.40728427529997
 21
170.7000045775999
 31
0.0
  0
LINE
  5
18F
330
2
100
AcDbEntity
  8
0
 62
     3
100
AcDbLine
 10
45.34589199479998
 20
171.2000045776
 30
0.0
 11
45.34589199479998
 21
173.0000045775999
 31
0.0
  0
LINE
  5
190
330
2
100
AcDbEntity
  8
0
 62
     3
100
AcDbLine
 10
44.9686765557
 20
171.2000045776
 30
0.0
 11
44.9686765557
 21
173.0000045775999
 31
0.0
  0
LINE
  5
191
330
2
100
AcDbEntity
  8
0
 62
     3
100
AcDbLine
 10
44.9686765557
 20
171.2000045776
 30
0.0
 11
45.34589199479998
 21
171.2000045776
 31
0.0
  0
LINE
  5
192
330
2
100
AcDbEntity
  8
0
 62
     3
100
AcDbLine
 10
44.9686765557
 20
173.0000045775999
 30
0.0
 11
45.34589199479998
 21
173.0000045775999
 31
0.0
  0
LINE
  5
193
330
2
100
AcDbEntity
  8
0
 62
     3
100
AcDbLine
 10
44.90728427529997
 20
170.7000045775999
 30
0.0
 11
44.9686765557
 21
171.2000045776
 31
0.0
  0
LINE
  5
194
330
2
100
AcDbEntity
  8
0
 62
     3
100
AcDbLine
 10
44.90728427529997
 20
170.7000045775999
 30
0.0
 11
45.40728427529997
 21
170.7000045775999
 31
0.0
  0
LINE
  5
195
330
2
100
AcDbEntity
  8
0
 62
     3
100
AcDbLine
 10
45.34589199479998
 20
173.0000045775999
 30
0.0
 11
45.40728427529997
 21
173.5000045775999
 31
0.0
  0
LINE
  5
196
330
2
100
AcDbEntity
  8
0
 62
     3
100
AcDbLine
 10
44.90728427529997
 20
173.5000045775999
 30
0.0
 11
44.9686765557
 21
173.0000045775999
 31
0.0
  0
LINE
  5
197
330
2
100
AcDbEntity
  8
0
 62
     3
100
AcDbLine
 10
44.90728427529997
 20
173.5000045775999
 30
0.0
 11
44.90728427529997
 21
170.7000045775999
 31
0.0
  0
LINE
  5
198
330
2
100
AcDbEntity
  8
0
 62
     3
100
AcDbLine
 10
45.40728427529997
 20
173.5000045775999
 30
0.0
 11
45.40728427529997
 21
170.7000045775999
 31
0.0
  0
LINE
  5
199
330
2
100
AcDbEntity
  8
0
 62
     3
100
AcDbLine
 10
48.10728732699999
 20
173.0
 30
0.0
 11
46.30728427529995
 21
173.0
 31
0.0
  0
LINE
  5
19A
330
2
100
AcDbEntity
  8
0
 62
     3
100
AcDbLine
 10
48.10728732699999
 20
171.200012207
 30
0.0
 11
46.30728427529995
 21
171.200012207
 31
0.0
  0
LINE
  5
19B
330
2
100
AcDbEntity
  8
0
 62
     3
100
AcDbLine
 10
55.10728732699996
 20
171.2000045776
 30
0.0
 11
55.10728732699996
 21
173.0
 31
0.0
  0
LINE
  5
19C
330
2
100
AcDbEntity
  8
0
 62
     3
100
AcDbLine
 10
51.90728427529998
 20
173.5000045775999
 30
0.0
 11
52.40728427529997
 21
173.5000045775999
 31
0.0
  0
LINE
  5
19D
330
2
100
AcDbEntity
  8
0
 62
     3
100
AcDbLine
 10
52.34589199479998
 20
171.2000045776
 30
0.0
 11
52.34589199479998
 21
173.0000045775999
 31
0.0
  0
LINE
  5
19E
330
2
100
AcDbEntity
  8
0
 62
     3
100
AcDbLine
 10
52.34589199479998
 20
171.2000045776
 30
0.0
 11
52.40728427529997
 21
170.7000045775999
 31
0.0
  0
LINE
  5
19F
330
2
100
AcDbEntity
  8
0
 62
     3
100
AcDbLine
 10
51.90728427529998
 20
170.7000045775999
 30
0.0
 11
51.9686765557
 21
171.2000045776
 31
0.0
  0
LINE
  5
1A0
330
2
100
AcDbEntity
  8
0
 62
     3
100
AcDbLine
 10
51.9686765557
 20
171.2000045776
 30
0.0
 11
51.9686765557
 21
173.0000045775999
 31
0.0
  0
LINE
  5
1A1
330
2
100
AcDbEntity
  8
0
 62
     3
100
AcDbLine
 10
51.9686765557
 20
173.0000045775999
 30
0.0
 11
52.34589199479998
 21
173.0000045775999
 31
0.0
  0
LINE
  5
1A2
330
2
100
AcDbEntity
  8
0
 62
     3
100
AcDbLine
 10
51.9686765557
 20
171.2000045776
 30
0.0
 11
52.34589199479998
 21
171.2000045776
 31
0.0
  0
LINE
  5
1A3
330
2
100
AcDbEntity
  8
0
 62
     3
100
AcDbLine
 10
51.90728427529998
 20
170.7000045775999
 30
0.0
 11
52.40728427529997
 21
170.7000045775999
 31
0.0
  0
LINE
  5
1A4
330
2
100
AcDbEntity
  8
0
 62
     3
100
AcDbLine
 10
51.90728427529998
 20
173.5000045775999
 30
0.0
 11
51.9686765557
 21
173.0000045775999
 31
0.0
  0
LINE
  5
1A5
330
2
100
AcDbEntity
  8
0
 62
     3
100
AcDbLine
 10
52.34589199479998
 20
173.0000045775999
 30
0.0
 11
52.40728427529997
 21
173.5000045775999
 31
0.0
  0
LINE
  5
1A6
330
2
100
AcDbEntity
  8
0
 62
     3
100
AcDbLine
 10
51.90728427529998
 20
173.5000045775999
 30
0.0
 11
51.90728427529998
 21
170.7000045775999
 31
0.0
  0
LINE
  5
1A7
330
2
100
AcDbEntity
  8
0
 62
     3
100
AcDbLine
 10
52.40728427529997
 20
173.5000045775999
 30
0.0
 11
52.40728427529997
 21
170.7000045775999
 31
0.0
  0
LINE
  5
1A8
330
2
100
AcDbEntity
  8
0
 62
     3
100
AcDbLine
 10
55.10728732699996
 20
171.200012207
 30
0.0
 11
53.30728427529995
 21
171.200012207
 31
0.0
  0
LINE
  5
1A9
330
2
100
AcDbEntity
  8
0
 62
     3
100
AcDbLine
 10
55.10728732699996
 20
173.0
 30
0.0
 11
53.30728427529995
 21
173.0
 31
0.0
  0
LINE
  5
1AA
330
2
100
AcDbEntity
  8
0
 62
     3
100
AcDbLine
 10
57.50719119659999
 20
169.9
 30
0.0
 11
57.00719119659999
 21
169.9
 31
0.0
  0
LINE
  5
1AB
330
2
100
AcDbEntity
  8
0
 62
     3
100
AcDbLine
 10
57.50719119659999
 20
169.9
 30
0.0
 11
57.40719119659999
 21
169.4
 31
0.0
  0
LINE
  5
1AC
330
2
100
AcDbEntity
  8
0
 62
     3
100
AcDbLine
 10
57.40719119659999
 20
169.4
 30
0.0
 11
57.10719119659998
 21
169.4
 31
0.0
  0
LINE
  5
1AD
330
2
100
AcDbEntity
  8
0
 62
     3
100
AcDbLine
 10
57.10719119659998
 20
169.4
 30
0.0
 11
57.00719119659999
 21
169.9
 31
0.0
  0
LINE
  5
1AE
330
2
100
AcDbEntity
  8
0
 62
     3
100
AcDbLine
 10
57.40719119659999
 20
167.5999999999999
 30
0.0
 11
57.10719119659998
 21
167.5999999999999
 31
0.0
  0
LINE
  5
1AF
330
2
100
AcDbEntity
  8
0
 62
     3
100
AcDbLine
 10
57.50719119659999
 20
167.1
 30
0.0
 11
57.00719119659999
 21
167.1
 31
0.0
  0
LINE
  5
1B0
330
2
100
AcDbEntity
  8
0
 62
     3
100
AcDbLine
 10
57.50719119659999
 20
167.1
 30
0.0
 11
57.40719119659999
 21
167.5999999999999
 31
0.0
  0
LINE
  5
1B1
330
2
100
AcDbEntity
  8
0
 62
     3
100
AcDbLine
 10
57.10719119659998
 20
167.5999999999999
 30
0.0
 11
57.00719119659999
 21
167.1
 31
0.0
  0
LINE
  5
1B2
330
2
100
AcDbEntity
  8
0
 62
     3
100
AcDbLine
 10
57.40719119659999
 20
167.5999999999999
 30
0.0
 11
57.40719119659999
 21
169.4
 31
0.0
  0
LINE
  5
1B3
330
2
100
AcDbEntity
  8
0
 62
     3
100
AcDbLine
 10
57.10719119659998
 20
167.5999999999999
 30
0.0
 11
57.10719119659998
 21
169.4
 31
0.0
  0
LINE
  5
1B4
330
2
100
AcDbEntity
  8
0
 62
     3
100
AcDbLine
 10
57.50719119659999
 20
167.1
 30
0.0
 11
57.50719119659999
 21
169.9
 31
0.0
  0
LINE
  5
1B5
330
2
100
AcDbEntity
  8
0
 62
     3
100
AcDbLine
 10
57.00719119659999
 20
167.1
 30
0.0
 11
57.00719119659999
 21
169.9
 31
0.0
  0
LINE
  5
1B6
330
2
100
AcDbEntity
  8
0
 62
     3
100
AcDbLine
 10
56.20727817169997
 20
167.2999954222999
 30
0.0
 11
56.20727817169997
 21
169.6999969482
 31
0.0
  0
LINE
  5
1B7
330
2
100
AcDbEntity
  8
0
 62
     3
100
AcDbLine
 10
54.20727817169997
 20
176.7000045775999
 30
0.0
 11
56.20727817169997
 21
176.7000045775999
 31
0.0
  0
LINE
  5
1B8
330
2
100
AcDbEntity
  8
0
 62
     3
100
AcDbLine
 10
56.50728122349996
 20
179.0
 30
0.0
 11
52.40728427529997
 21
179.0
 31
0.0
  0
LINE
  5
1B9
330
2
100
AcDbEntity
  8
0
 62
     3
100
AcDbLine
 10
58.32120240560001
 20
181.1575080434
 30
0.0
 11
55.67876864289999
 21
181.4038439599999
 31
0.0
  0
LINE
  5
1BA
330
2
100
AcDbEntity
  8
0
 62
     3
100
AcDbLine
 10
51.90728427529998
 20
179.0
 30
0.0
 11
45.40728732699998
 21
179.0
 31
0.0
  0
LINE
  5
1BB
330
2
100
AcDbEntity
  8
0
 62
     3
100
AcDbLine
 10
48.10728427529998
 20
179.0000045775999
 30
0.0
 11
51.90728427529998
 21
179.0000045775999
 31
0.0
  0
LINE
  5
1BC
330
2
100
AcDbEntity
  8
0
 62
     3
100
AcDbLine
 10
45.40728732699998
 20
179.0
 30
0.0
 11
51.90728427529998
 21
179.0
 31
0.0
  0
LINE
  5
1BD
330
2
100
AcDbEntity
  8
0
 62
     3
100
AcDbLine
 10
44.90728427529997
 20
179.5000045775998
 30
0.0
 11
45.40728427529997
 21
179.5000045775998
 31
0.0
  0
LINE
  5
1BE
330
2
100
AcDbEntity
  8
0
 62
     3
100
AcDbLine
 10
47.80722976779998
 20
178.9999450949999
 30
0.0
 11
48.10722900729999
 21
178.6999458300999
 31
0.0
  0
LINE
  5
1BF
330
2
100
AcDbEntity
  8
0
 62
     3
100
AcDbLine
 10
44.9686765557
 20
179.0000045775999
 30
0.0
 11
45.34589199479998
 21
179.0000045775999
 31
0.0
  0
LINE
  5
1C0
330
2
100
AcDbEntity
  8
0
 62
     3
100
AcDbLine
 10
45.40728427529997
 20
179.0000045775999
 30
0.0
 11
46.30728427529995
 21
179.0000045775999
 31
0.0
  0
LINE
  5
1C1
330
2
100
AcDbEntity
  8
0
 62
     3
100
AcDbLine
 10
45.34589199479998
 20
177.2000045775999
 30
0.0
 11
45.40728427529997
 21
176.7000045775999
 31
0.0
  0
LINE
  5
1C2
330
2
100
AcDbEntity
  8
0
 62
     3
100
AcDbLine
 10
44.9686765557
 20
177.2000045775999
 30
0.0
 11
45.34589199479998
 21
177.2000045775999
 31
0.0
  0
LINE
  5
1C3
330
2
100
AcDbEntity
  8
0
 62
     3
100
AcDbLine
 10
44.90728427529997
 20
176.7000045775999
 30
0.0
 11
44.9686765557
 21
177.2000045775999
 31
0.0
  0
LINE
  5
1C4
330
2
100
AcDbEntity
  8
0
 62
     3
100
AcDbLine
 10
44.90728427529997
 20
176.7000045775999
 30
0.0
 11
45.40728427529997
 21
176.7000045775999
 31
0.0
  0
LINE
  5
1C5
330
2
100
AcDbEntity
  8
0
 62
     3
100
AcDbLine
 10
46.60727001689997
 20
178.4999868706
 30
0.0
 11
46.30723301379997
 21
178.1999498422
 31
0.0
  0
LINE
  5
1C6
330
2
100
AcDbEntity
  8
0
 62
     3
100
AcDbLine
 10
45.34589199479998
 20
177.2000045775999
 30
0.0
 11
45.34589199479998
 21
179.0000045775999
 31
0.0
  0
LINE
  5
1C7
330
2
100
AcDbEntity
  8
0
 62
     3
100
AcDbLine
 10
44.9686765557
 20
177.2000045775999
 30
0.0
 11
44.9686765557
 21
179.0000045775999
 31
0.0
  0
LINE
  5
1C8
330
2
100
AcDbEntity
  8
0
 62
     3
100
AcDbLine
 10
46.60728732699999
 20
178.5
 30
0.0
 11
46.60728732699999
 21
179.0
 31
0.0
  0
LINE
  5
1C9
330
2
100
AcDbEntity
  8
0
 62
     3
100
AcDbLine
 10
48.10728732699999
 20
178.5
 30
0.0
 11
46.60728732699999
 21
178.5
 31
0.0
  0
LINE
  5
1CA
330
2
100
AcDbEntity
  8
0
 62
     3
100
AcDbLine
 10
48.10728732699999
 20
176.700012207
 30
0.0
 11
46.30728427529995
 21
176.700012207
 31
0.0
  0
LINE
  5
1CB
330
2
100
AcDbEntity
  8
0
 62
     3
100
AcDbLine
 10
45.34589199479998
 20
179.0000045775999
 30
0.0
 11
45.40728427529997
 21
179.5000045775998
 31
0.0
  0
LINE
  5
1CC
330
2
100
AcDbEntity
  8
0
 62
     3
100
AcDbLine
 10
44.90728427529997
 20
179.5000045775998
 30
0.0
 11
44.9686765557
 21
179.0000045775999
 31
0.0
  0
LINE
  5
1CD
330
2
100
AcDbEntity
  8
0
 62
     3
100
AcDbLine
 10
45.40728427529997
 20
179.5000045775998
 30
0.0
 11
45.40728427529997
 21
176.7000045775999
 31
0.0
  0
LINE
  5
1CE
330
2
100
AcDbEntity
  8
0
 62
     3
100
AcDbLine
 10
44.90728427529997
 20
179.5000045775998
 30
0.0
 11
44.90728427529997
 21
176.7000045775999
 31
0.0
  0
LINE
  5
1CF
330
2
100
AcDbEntity
  8
0
 62
     3
100
AcDbLine
 10
55.4699922483
 20
181.0504334392
 30
0.0
 11
55.65622637599997
 21
181.398529052
 31
0.0
  0
LINE
  5
1D0
330
2
100
AcDbEntity
  8
0
 62
     3
100
AcDbLine
 10
55.49614788989998
 20
180.7036998075999
 30
0.0
 11
55.65554810289999
 21
181.3967088618999
 31
0.0
  0
LINE
  5
1D1
330
2
100
AcDbEntity
  8
0
 62
     3
100
AcDbLine
 10
55.58026488899997
 20
180.6384015985998
 30
0.0
 11
55.49614788989998
 21
180.7036998075999
 31
0.0
  0
LINE
  5
1D2
330
2
100
AcDbEntity
  8
0
 62
     3
100
AcDbLine
 10
55.31059203529998
 20
180.3574243849999
 30
0.0
 11
55.4699922483
 21
181.0504334392
 31
0.0
  0
LINE
  5
1D3
330
2
100
AcDbEntity
  8
0
 62
     3
100
AcDbLine
 10
55.31059203529998
 20
180.3574243849999
 30
0.0
 11
55.49614788989998
 21
180.7036998075999
 31
0.0
  0
LINE
  5
1D4
330
2
100
AcDbEntity
  8
0
 62
     3
100
AcDbLine
 10
55.39470903439997
 20
180.2921261758999
 30
0.0
 11
55.31059203529998
 21
180.3574243849999
 31
0.0
  0
LINE
  5
1D5
330
2
100
AcDbEntity
  8
0
 62
     3
100
AcDbLine
 10
55.39470903439997
 20
180.2921261758999
 30
0.0
 11
55.58026488899997
 21
180.6384015985998
 31
0.0
  0
LINE
  5
1D6
330
2
100
AcDbEntity
  8
0
 62
     3
100
AcDbLine
 10
55.43342503149998
 20
180.0
 30
0.0
 11
55.58026488899997
 21
180.6384015985998
 31
0.0
  0
LINE
  5
1D7
330
2
100
AcDbEntity
  8
0
 62
     3
100
AcDbLine
 10
55.32751658659996
 20
180.0
 30
0.0
 11
55.39470903439997
 21
180.2921261758999
 31
0.0
  0
LINE
  5
1D8
330
2
100
AcDbEntity
  8
0
 62
     3
100
AcDbLine
 10
55.67876864289999
 20
181.4038439599999
 30
0.0
 11
55.67385425789999
 21
181.4041541126998
 31
0.0
  0
LINE
  5
1D9
330
2
100
AcDbEntity
  8
0
 62
     3
100
AcDbLine
 10
55.67385425789999
 20
181.4041541126998
 30
0.0
 11
55.66948941459997
 21
181.4041175847999
 31
0.0
  0
LINE
  5
1DA
330
2
100
AcDbEntity
  8
0
 62
     3
100
AcDbLine
 10
55.66948941459997
 20
181.4041175847999
 30
0.0
 11
55.6656892316
 21
181.4037345027999
 31
0.0
  0
LINE
  5
1DB
330
2
100
AcDbEntity
  8
0
 62
     3
100
AcDbLine
 10
55.6656892316
 20
181.4037345027999
 30
0.0
 11
55.66246687149998
 21
181.4030061935998
 31
0.0
  0
LINE
  5
1DC
330
2
100
AcDbEntity
  8
0
 62
     3
100
AcDbLine
 10
55.66246687149998
 20
181.4030061935998
 30
0.0
 11
55.65983349559999
 21
181.4019351798
 31
0.0
  0
LINE
  5
1DD
330
2
100
AcDbEntity
  8
0
 62
     3
100
AcDbLine
 10
55.65983349559999
 20
181.4019351798
 30
0.0
 11
55.65779822519997
 21
181.4005251712
 31
0.0
  0
LINE
  5
1DE
330
2
100
AcDbEntity
  8
0
 62
     3
100
AcDbLine
 10
55.65779822519997
 20
181.4005251712
 30
0.0
 11
55.6563681098
 21
181.3987810515
 31
0.0
  0
LINE
  5
1DF
330
2
100
AcDbEntity
  8
0
 62
     3
100
AcDbLine
 10
55.6563681098
 20
181.3987810515
 30
0.0
 11
55.65554810289999
 21
181.3967088618999
 31
0.0
  0
LINE
  5
1E0
330
2
100
AcDbEntity
  8
0
 62
     3
100
AcDbLine
 10
51.90728427529998
 20
179.5000045775998
 30
0.0
 11
52.40728427529997
 21
179.5000045775998
 31
0.0
  0
LINE
  5
1E1
330
2
100
AcDbEntity
  8
0
 62
     3
100
AcDbLine
 10
55.10728732699996
 20
176.7000045775999
 30
0.0
 11
55.10728732699996
 21
178.5
 31
0.0
  0
LINE
  5
1E2
330
2
100
AcDbEntity
  8
0
 62
     3
100
AcDbLine
 10
52.40728427529997
 20
179.0000045775999
 30
0.0
 11
53.30728427529995
 21
179.0000045775999
 31
0.0
  0
LINE
  5
1E3
330
2
100
AcDbEntity
  8
0
 62
     3
100
AcDbLine
 10
52.34589199479998
 20
177.2000045775999
 30
0.0
 11
52.40728427529997
 21
176.7000045775999
 31
0.0
  0
LINE
  5
1E4
330
2
100
AcDbEntity
  8
0
 62
     3
100
AcDbLine
 10
53.60723997949998
 20
178.4999601916999
 30
0.0
 11
53.30720297639999
 21
178.1999231633
 31
0.0
  0
LINE
  5
1E5
330
2
100
AcDbEntity
  8
0
 62
     3
100
AcDbLine
 10
52.34589199479998
 20
177.2000045775999
 30
0.0
 11
52.34589199479998
 21
179.0000045775999
 31
0.0
  0
LINE
  5
1E6
330
2
100
AcDbEntity
  8
0
 62
     3
100
AcDbLine
 10
53.607287327
 20
178.5
 30
0.0
 11
53.607287327
 21
179.0
 31
0.0
  0
LINE
  5
1E7
330
2
100
AcDbEntity
  8
0
 62
     3
100
AcDbLine
 10
51.90728427529998
 20
176.7000045775999
 30
0.0
 11
51.9686765557
 21
177.2000045775999
 31
0.0
  0
LINE
  5
1E8
330
2
100
AcDbEntity
  8
0
 62
     3
100
AcDbLine
 10
51.9686765557
 20
177.2000045775999
 30
0.0
 11
51.9686765557
 21
179.0000045775999
 31
0.0
  0
LINE
  5
1E9
330
2
100
AcDbEntity
  8
0
 62
     3
100
AcDbLine
 10
51.9686765557
 20
177.2000045775999
 30
0.0
 11
52.34589199479998
 21
177.2000045775999
 31
0.0
  0
LINE
  5
1EA
330
2
100
AcDbEntity
  8
0
 62
     3
100
AcDbLine
 10
51.9686765557
 20
179.0000045775999
 30
0.0
 11
52.34589199479998
 21
179.0000045775999
 31
0.0
  0
LINE
  5
1EB
330
2
100
AcDbEntity
  8
0
 62
     3
100
AcDbLine
 10
51.90728427529998
 20
176.7000045775999
 30
0.0
 11
52.40728427529997
 21
176.7000045775999
 31
0.0
  0
LINE
  5
1EC
330
2
100
AcDbEntity
  8
0
 62
     3
100
AcDbLine
 10
55.10728732699996
 20
178.5
 30
0.0
 11
53.60727978779997
 21
178.5
 31
0.0
  0
LINE
  5
1ED
330
2
100
AcDbEntity
  8
0
 62
     3
100
AcDbLine
 10
54.50728122349996
 20
176.700012207
 30
0.0
 11
53.30728427529995
 21
176.700012207
 31
0.0
  0
LINE
  5
1EE
330
2
100
AcDbEntity
  8
0
 62
     3
100
AcDbLine
 10
52.34589199479998
 20
179.0000045775999
 30
0.0
 11
52.40728427529997
 21
179.5000045775998
 31
0.0
  0
LINE
  5
1EF
330
2
100
AcDbEntity
  8
0
 62
     3
100
AcDbLine
 10
52.40728427529997
 20
179.5000045775998
 30
0.0
 11
52.40728427529997
 21
176.7000045775999
 31
0.0
  0
LINE
  5
1F0
330
2
100
AcDbEntity
  8
0
 62
     3
100
AcDbLine
 10
51.90728427529998
 20
179.5000045775998
 30
0.0
 11
51.9686765557
 21
179.0000045775999
 31
0.0
  0
LINE
  5
1F1
330
2
100
AcDbEntity
  8
0
 62
     3
100
AcDbLine
 10
51.90728427529998
 20
179.5000045775998
 30
0.0
 11
51.90728427529998
 21
176.7000045775999
 31
0.0
  0
LINE
  5
1F2
330
2
100
AcDbEntity
  8
0
 62
     3
100
AcDbLine
 10
58.66531679619999
 20
181.0
 30
0.0
 11
59.90728274939996
 21
181.0
 31
0.0
  0
ARC
  5
1F3
330
2
100
AcDbEntity
  8
0
 62
     3
100
AcDbCircle
 10
58.40728274939997
 20
179.4999999999999
 30
0.0
 40
0.5
100
AcDbArc
 50
0.000017986089343
 51
90.0
  0
ARC
  5
1F4
330
2
100
AcDbEntity
  8
0
 62
     3
100
AcDbCircle
 10
58.35810685340002
 20
180.1367362116
 30
0.0
 40
0.2728421830999999
100
AcDbArc
 50
322.6133645941998
 51
342.6225711105
  0
LINE
  5
1F5
330
2
100
AcDbEntity
  8
0
 62
     3
100
AcDbLine
 10
58.64063452609997
 20
181.0135087124999
 30
0.0
 11
58.48367471479996
 21
181.0956807022
 31
0.0
  0
LINE
  5
1F6
330
2
100
AcDbEntity
  8
0
 62
     3
100
AcDbLine
 10
58.61849598959998
 20
180.0552478404
 30
0.0
 11
58.80886852439997
 21
180.8829122945
 31
0.0
  0
LINE
  5
1F7
330
2
100
AcDbEntity
  8
0
 62
     3
100
AcDbLine
 10
58.80886852439997
 20
180.8829122945
 30
0.0
 11
58.80717124829999
 21
180.8920965143
 31
0.0
  0
LINE
  5
1F8
330
2
100
AcDbEntity
  8
0
 62
     3
100
AcDbLine
 10
58.80717124829999
 20
180.8920965143
 30
0.0
 11
58.79873859229999
 21
180.9044880593
 31
0.0
  0
LINE
  5
1F9
330
2
100
AcDbEntity
  8
0
 62
     3
100
AcDbLine
 10
58.79873859229999
 20
180.9044880593
 30
0.0
 11
58.78389461889995
 21
180.9196107294998
 31
0.0
  0
LINE
  5
1FA
330
2
100
AcDbEntity
  8
0
 62
     3
100
AcDbLine
 10
58.78389461889995
 20
180.9196107294998
 30
0.0
 11
58.76320977349997
 21
180.9368833691
 31
0.0
  0
LINE
  5
1FB
330
2
100
AcDbEntity
  8
0
 62
     3
100
AcDbLine
 10
58.76320977349997
 20
180.9368833691
 30
0.0
 11
58.73747896319997
 21
180.9556422001998
 31
0.0
  0
LINE
  5
1FC
330
2
100
AcDbEntity
  8
0
 62
     3
100
AcDbLine
 10
58.73747896319997
 20
180.9556422001998
 30
0.0
 11
58.70769100849996
 21
180.9751663315
 31
0.0
  0
LINE
  5
1FD
330
2
100
AcDbEntity
  8
0
 62
     3
100
AcDbLine
 10
58.70769100849996
 20
180.9751663315
 30
0.0
 11
58.67499064389996
 21
180.9947054614999
 31
0.0
  0
LINE
  5
1FE
330
2
100
AcDbEntity
  8
0
 62
     3
100
AcDbLine
 10
58.67499064389996
 20
180.9947054614999
 30
0.0
 11
58.64063452609997
 21
181.0135087124999
 31
0.0
  0
LINE
  5
1FF
330
2
100
AcDbEntity
  8
0
 62
     3
100
AcDbLine
 10
58.48367471479996
 20
181.0956807022
 30
0.0
 11
58.45933860539997
 21
181.1080199393999
 31
0.0
  0
LINE
  5
200
330
2
100
AcDbEntity
  8
0
 62
     3
100
AcDbLine
 10
58.45933860539997
 20
181.1080199393999
 30
0.0
 11
58.43529704329998
 21
181.1194100214
 31
0.0
  0
LINE
  5
201
330
2
100
AcDbEntity
  8
0
 62
     3
100
AcDbLine
 10
58.43529704329998
 20
181.1194100214
 30
0.0
 11
58.41200376789998
 21
181.1296359815999
 31
0.0
  0
LINE
  5
202
330
2
100
AcDbEntity
  8
0
 62
     3
100
AcDbLine
 10
58.41200376789998
 20
181.1296359815999
 30
0.0
 11
58.38989839679996
 21
181.138504824
 31
0.0
  0
LINE
  5
203
330
2
100
AcDbEntity
  8
0
 62
     3
100
AcDbLine
 10
58.38989839679996
 20
181.138504824
 30
0.0
 11
58.36939812739998
 21
181.1458491658
 31
0.0
  0
LINE
  5
204
330
2
100
AcDbEntity
  8
0
 62
     3
100
AcDbLine
 10
58.36939812739998
 20
181.1458491658
 30
0.0
 11
58.35088986439996
 21
181.151530396
 31
0.0
  0
LINE
  5
205
330
2
100
AcDbEntity
  8
0
 62
     3
100
AcDbLine
 10
58.35088986439996
 20
181.151530396
 30
0.0
 11
58.33472291679999
 21
181.1554412921998
 31
0.0
  0
LINE
  5
206
330
2
100
AcDbEntity
  8
0
 62
     3
100
AcDbLine
 10
58.33472291679999
 20
181.1554412921998
 30
0.0
 11
58.32120240560001
 21
181.1575080434
 31
0.0
  0
LINE
  5
207
330
2
100
AcDbEntity
  8
0
 62
     3
100
AcDbLine
 10
57.50719119659999
 20
179.4999999999999
 30
0.0
 11
57.00719119659999
 21
179.4999999999999
 31
0.0
  0
LINE
  5
208
330
2
100
AcDbEntity
  8
0
 62
     3
100
AcDbLine
 10
57.00719119659999
 20
179.0
 30
0.0
 11
56.50719119659999
 21
179.0
 31
0.0
  0
LINE
  5
209
330
2
100
AcDbEntity
  8
0
 62
     3
100
AcDbLine
 10
57.40719119659999
 20
179.0
 30
0.0
 11
57.10719119659998
 21
179.0
 31
0.0
  0
LINE
  5
20A
330
2
100
AcDbEntity
  8
0
 62
     3
100
AcDbLine
 10
57.50719119659999
 20
176.6999999999999
 30
0.0
 11
57.40719119659999
 21
177.2
 31
0.0
  0
LINE
  5
20B
330
2
100
AcDbEntity
  8
0
 62
     3
100
AcDbLine
 10
57.50719119659999
 20
176.6999999999999
 30
0.0
 11
57.00719119659999
 21
176.6999999999999
 31
0.0
  0
LINE
  5
20C
330
2
100
AcDbEntity
  8
0
 62
     3
100
AcDbLine
 10
57.40719119659999
 20
177.2
 30
0.0
 11
57.10719119659998
 21
177.2
 31
0.0
  0
LINE
  5
20D
330
2
100
AcDbEntity
  8
0
 62
     3
100
AcDbLine
 10
57.10719119659998
 20
177.2
 30
0.0
 11
57.00719119659999
 21
176.6999999999999
 31
0.0
  0
LINE
  5
20E
330
2
100
AcDbEntity
  8
0
 62
     3
100
AcDbLine
 10
57.40719119659999
 20
177.2
 30
0.0
 11
57.40719119659999
 21
179.0
 31
0.0
  0
LINE
  5
20F
330
2
100
AcDbEntity
  8
0
 62
     3
100
AcDbLine
 10
57.10719119659998
 20
177.2
 30
0.0
 11
57.10719119659998
 21
179.0
 31
0.0
  0
LINE
  5
210
330
2
100
AcDbEntity
  8
0
 62
     3
100
AcDbLine
 10
57.50719119659999
 20
179.4999999999999
 30
0.0
 11
57.40719119659999
 21
179.0
 31
0.0
  0
LINE
  5
211
330
2
100
AcDbEntity
  8
0
 62
     3
100
AcDbLine
 10
57.10719119659998
 20
179.0
 30
0.0
 11
57.00719119659999
 21
179.4999999999999
 31
0.0
  0
LINE
  5
212
330
2
100
AcDbEntity
  8
0
 62
     3
100
AcDbLine
 10
57.50719119659999
 20
176.6999999999999
 30
0.0
 11
57.50719119659999
 21
179.4999999999999
 31
0.0
  0
LINE
  5
213
330
2
100
AcDbEntity
  8
0
 62
     3
100
AcDbLine
 10
57.00719119659999
 20
176.6999999999999
 30
0.0
 11
57.00719119659999
 21
179.4999999999999
 31
0.0
  0
LINE
  5
214
330
2
100
AcDbEntity
  8
0
 62
     3
100
AcDbLine
 10
58.90719119659999
 20
179.0
 30
0.0
 11
57.50719119659999
 21
179.0
 31
0.0
  0
LINE
  5
215
330
2
100
AcDbEntity
  8
0
 62
     3
100
AcDbLine
 10
89.68057272439997
 20
169.9000158460999
 30
0.0
 11
89.18057219359999
 21
169.4000152731998
 31
0.0
  0
LINE
  5
216
330
2
100
AcDbEntity
  8
0
 62
     3
100
AcDbLine
 10
89.18054975239998
 20
167.0001038362
 30
0.0
 11
89.48051813849998
 21
167.3000739163999
 31
0.0
  0
LINE
  5
217
330
2
100
AcDbEntity
  8
0
 62
     3
100
AcDbLine
 10
89.18057289509997
 20
165.2000686527999
 30
0.0
 11
89.68052095290001
 21
164.700123545
 31
0.0
  0
LINE
  5
218
330
2
100
AcDbEntity
  8
0
 62
     3
100
AcDbLine
 10
89.18058839499998
 20
167.0001220702999
 30
0.0
 11
89.18058839499998
 21
165.2000732422
 31
0.0
  0
LINE
  5
219
330
2
100
AcDbEntity
  8
0
 62
     3
100
AcDbLine
 10
89.68353334129998
 20
167.0999755859
 30
0.0
 11
89.68353334129998
 21
164.7000732422
 31
0.0
  0
LINE
  5
21A
330
2
100
AcDbEntity
  8
0
 62
     3
100
AcDbLine
 10
89.18051292669998
 20
167.6000791029999
 30
0.0
 11
89.68061648589999
 21
167.0999755859
 31
0.0
  0
ARC
  5
21B
330
2
100
AcDbEntity
  8
0
 62
     3
100
AcDbCircle
 10
90.78058686909999
 20
166.1000976562
 30
0.0
 40
0.5999994278000002
100
AcDbArc
 50
90.0
 51
270.0
  0
LINE
  5
21C
330
2
100
AcDbEntity
  8
0
 62
     3
100
AcDbLine
 10
89.18058839499998
 20
167.6000976562
 30
0.0
 11
89.18058839499998
 21
169.4000244139998
 31
0.0
  0
LINE
  5
21D
330
2
100
AcDbEntity
  8
0
 62
     3
100
AcDbLine
 10
89.68058839499999
 20
167.0999755859
 30
0.0
 11
89.68058839499999
 21
169.900024414
 31
0.0
  0
LINE
  5
21E
330
2
100
AcDbEntity
  8
0
 62
     3
100
AcDbLine
 10
89.18053900889999
 20
171.2001019963
 30
0.0
 11
89.68048706679999
 21
170.7001568883999
 31
0.0
  0
LINE
  5
21F
330
2
100
AcDbEntity
  8
0
 62
     3
100
AcDbLine
 10
89.18058839499998
 20
173.0001220702999
 30
0.0
 11
89.18058839499998
 21
171.2000732422
 31
0.0
  0
ARC
  5
220
330
2
100
AcDbEntity
  8
0
 62
     3
100
AcDbCircle
 10
90.78070839759998
 20
172.0999755859
 30
0.0
 40
0.5999994278000002
100
AcDbArc
 50
90.0
 51
270.0
  0
LINE
  5
221
330
2
100
AcDbEntity
  8
0
 62
     3
100
AcDbLine
 10
89.18051123009998
 20
173.0001320376999
 30
0.0
 11
89.68051037009997
 21
173.5001340015
 31
0.0
  0
LINE
  5
222
330
2
100
AcDbEntity
  8
0
 62
     3
100
AcDbLine
 10
89.68353334129998
 20
173.5001220702999
 30
0.0
 11
89.68353334129998
 21
170.7000732422
 31
0.0
  0
LINE
  5
223
330
2
100
AcDbEntity
  8
0
 62
     3
100
AcDbLine
 10
89.18052331170001
 20
177.2000659618
 30
0.0
 11
89.68055625339998
 21
176.7000330622
 31
0.0
  0
LINE
  5
224
330
2
100
AcDbEntity
  8
0
 62
     3
100
AcDbLine
 10
89.18049972799998
 20
177.2001299449
 30
0.0
 11
89.68053410279997
 21
176.7000985206
 31
0.0
  0
LINE
  5
225
330
2
100
AcDbEntity
  8
0
 62
     3
100
AcDbLine
 10
89.18058839499998
 20
179.0
 30
0.0
 11
89.18058839499998
 21
177.2000732422
 31
0.0
  0
LINE
  5
226
330
2
100
AcDbEntity
  8
0
 62
     3
100
AcDbLine
 10
89.18058839499998
 20
179.0001220703
 30
0.0
 11
89.18058839499998
 21
177.2000732422
 31
0.0
  0
ARC
  5
227
330
2
100
AcDbEntity
  8
0
 62
     3
100
AcDbCircle
 10
90.78069393749997
 20
178.0999354059
 30
0.0
 40
0.5999994278000002
100
AcDbArc
 50
90.0
 51
270.0
  0
LINE
  5
228
330
2
100
AcDbEntity
  8
0
 62
     3
100
AcDbLine
 10
89.68058850419998
 20
179.5000080997
 30
0.0
 11
89.18058797339998
 21
179.0000075268
 31
0.0
  0
LINE
  5
229
330
2
100
AcDbEntity
  8
0
 62
     3
100
AcDbLine
 10
89.18055902479997
 20
179.0000739227999
 30
0.0
 11
89.68055816479997
 21
179.5000758866
 31
0.0
  0
LINE
  5
22A
330
2
100
AcDbEntity
  8
0
 62
     3
100
AcDbLine
 10
89.68058839499999
 20
179.4999999999999
 30
0.0
 11
89.68058839499999
 21
176.7000732422
 31
0.0
  0
LINE
  5
22B
330
2
100
AcDbEntity
  8
0
 62
     3
100
AcDbLine
 10
89.68353334129998
 20
179.5001220702999
 30
0.0
 11
89.68353334129998
 21
176.7000732422
 31
0.0
  0
LINE
  5
22C
330
2
100
AcDbEntity
  8
0
 62
     3
100
AcDbLine
 10
89.68352113419998
 20
202.8999999999999
 30
0.0
 11
89.68352113419998
 21
203.3999999999999
 31
0.0
  0
LINE
  5
22D
330
2
100
AcDbEntity
  8
0
 62
     3
100
AcDbLine
 10
89.18108241729997
 20
203.3
 30
0.0
 11
89.68108241729998
 21
203.3999999999999
 31
0.0
  0
LINE
  5
22E
330
2
100
AcDbEntity
  8
0
 62
     3
100
AcDbLine
 10
89.18108241729997
 20
203.0
 30
0.0
 11
89.18108241729997
 21
203.3
 31
0.0
  0
LINE
  5
22F
330
2
100
AcDbEntity
  8
0
 62
     3
100
AcDbLine
 10
89.68108241729998
 20
202.8999999999999
 30
0.0
 11
89.18108241729997
 21
203.0
 31
0.0
  0
LINE
  5
230
330
2
100
AcDbEntity
  8
0
 62
     3
100
AcDbLine
 10
89.68359575379997
 20
208.0002835770998
 30
0.0
 11
89.18359889559997
 21
208.1503314512
 31
0.0
  0
LINE
  5
231
330
2
100
AcDbEntity
  8
0
 62
     3
100
AcDbLine
 10
89.18335893729997
 20
208.3504448256999
 30
0.0
 11
89.68335344779999
 21
208.5003943215
 31
0.0
  0
LINE
  5
232
330
2
100
AcDbEntity
  8
0
 62
     3
100
AcDbLine
 10
89.68352113419998
 20
207.9999465941999
 30
0.0
 11
89.68352113419998
 21
208.4999465941999
 31
0.0
  0
LINE
  5
233
330
2
100
AcDbEntity
  8
0
 62
     3
100
AcDbLine
 10
89.18352113419997
 20
208.1500473021999
 30
0.0
 11
89.18352113419997
 21
208.3500442505
 31
0.0
  0
LINE
  5
234
330
2
100
AcDbEntity
  8
0
 62
     3
100
AcDbLine
 10
89.18352113419997
 20
215.1500473022
 30
0.0
 11
89.18352113419997
 21
215.3500442504999
 31
0.0
  0
LINE
  5
235
330
2
100
AcDbEntity
  8
0
 62
     3
100
AcDbLine
 10
89.68352113419998
 20
214.9999465941999
 30
0.0
 11
89.68352113419998
 21
215.4999465941999
 31
0.0
  0
LINE
  5
236
330
2
100
AcDbEntity
  8
0
 62
     3
100
AcDbLine
 10
89.18335893729997
 20
215.3504448257
 30
0.0
 11
89.68335344779999
 21
215.5003943215
 31
0.0
  0
LINE
  5
237
330
2
100
AcDbEntity
  8
0
 62
     3
100
AcDbLine
 10
89.68359575379997
 20
215.0002835771
 30
0.0
 11
89.18359889559997
 21
215.1503314511999
 31
0.0
  0
LINE
  5
238
330
2
100
AcDbEntity
  8
0
 62
     3
100
AcDbLine
 10
89.18352113419997
 20
222.1500473022
 30
0.0
 11
89.18352113419997
 21
222.3500442504998
 31
0.0
  0
LINE
  5
239
330
2
100
AcDbEntity
  8
0
 62
     3
100
AcDbLine
 10
89.68352113419998
 20
221.9999465941999
 30
0.0
 11
89.68352113419998
 21
222.4999465941999
 31
0.0
  0
LINE
  5
23A
330
2
100
AcDbEntity
  8
0
 62
     3
100
AcDbLine
 10
89.18335893729997
 20
222.3504448257
 30
0.0
 11
89.68335344779999
 21
222.5003943214999
 31
0.0
  0
LINE
  5
23B
330
2
100
AcDbEntity
  8
0
 62
     3
100
AcDbLine
 10
89.68359575379997
 20
222.0002835770999
 30
0.0
 11
89.18359889559997
 21
222.1503314512
 31
0.0
  0
LINE
  5
23C
330
2
100
AcDbEntity
  8
0
 62
     3
100
AcDbLine
 10
89.68352113419998
 20
230.0999999999999
 30
0.0
 11
89.68352113419998
 21
229.5999999999999
 31
0.0
  0
LINE
  5
23D
330
2
100
AcDbEntity
  8
0
 62
     3
100
AcDbLine
 10
89.18108241729997
 20
229.7
 30
0.0
 11
89.68108241729998
 21
229.5999999999999
 31
0.0
  0
LINE
  5
23E
330
2
100
AcDbEntity
  8
0
 62
     3
100
AcDbLine
 10
89.18108241729997
 20
230.0
 30
0.0
 11
89.18108241729997
 21
229.7
 31
0.0
  0
LINE
  5
23F
330
2
100
AcDbEntity
  8
0
 62
     3
100
AcDbLine
 10
89.68108241729998
 20
230.0999999999999
 30
0.0
 11
89.18108241729997
 21
230.0
 31
0.0
  0
LINE
  5
240
330
2
100
AcDbEntity
  8
0
 62
     3
100
AcDbLine
 10
191.2655974247999
 20
178.0999999999999
 30
0.0
 11
191.2655974247999
 21
158.9
 31
0.0
  0
LINE
  5
241
330
2
100
AcDbEntity
  8
0
 62
     3
100
AcDbLine
 10
189.5655974247999
 20
160.0999999999999
 30
0.0
 11
189.5655974247999
 21
176.9
 31
0.0
  0
LINE
  5
242
330
2
100
AcDbEntity
  8
0
 62
     3
100
AcDbLine
 10
191.0655974247999
 20
159.1
 30
0.0
 11
191.0655974247999
 21
177.9
 31
0.0
  0
LINE
  5
243
330
2
100
AcDbEntity
  8
0
 62
     3
100
AcDbLine
 10
191.9655348636996
 20
179.4999542236
 30
0.0
 11
191.9655348636996
 21
157.5
 31
0.0
  0
LINE
  5
244
330
2
100
AcDbEntity
  8
0
 62
     3
100
AcDbLine
 10
191.5655958988999
 20
179.6999511718999
 30
0.0
 11
191.5655958988999
 21
157.3000488281
 31
0.0
  0
LINE
  5
245
330
2
100
AcDbEntity
  8
0
 62
     3
100
AcDbLine
 10
193.6655974247999
 20
180.9999542236
 30
0.0
 11
193.6655974247999
 21
156.0
 31
0.0
  0
LINE
  5
246
330
2
100
AcDbEntity
  8
0
  6
CENTER
 62
     3
100
AcDbLine
 10
177.6655974247999
 20
152.3090318812
 30
0.0
 11
177.6655974247999
 21
183.4728978609
 31
0.0
  0
LINE
  5
247
330
2
100
AcDbEntity
  8
0
 62
     3
100
AcDbLine
 10
165.7655974247998
 20
160.0999999999999
 30
0.0
 11
165.7655974247998
 21
176.9
 31
0.0
  0
LINE
  5
248
330
2
100
AcDbEntity
  8
0
 62
     3
100
AcDbLine
 10
164.0655974248
 20
158.9
 30
0.0
 11
164.0655974248
 21
178.0999999999999
 31
0.0
  0
LINE
  5
249
330
2
100
AcDbEntity
  8
0
 62
     3
100
AcDbLine
 10
163.8655974248
 20
158.6999999999999
 30
0.0
 11
163.8655974248
 21
178.3
 31
0.0
  0
LINE
  5
24A
330
2
100
AcDbEntity
  8
0
 62
     3
100
AcDbLine
 10
164.2655974247998
 20
159.1
 30
0.0
 11
164.2655974247998
 21
177.9
 31
0.0
  0
LINE
  5
24B
330
2
100
AcDbEntity
  8
0
 62
     3
100
AcDbLine
 10
163.3656599857999
 20
179.4999542236
 30
0.0
 11
163.3656599857999
 21
157.5
 31
0.0
  0
LINE
  5
24C
330
2
100
AcDbEntity
  8
0
 62
     3
100
AcDbLine
 10
163.7656599857999
 20
179.6999511718999
 30
0.0
 11
163.7656599857999
 21
157.3000488281
 31
0.0
  0
LINE
  5
24D
330
2
100
AcDbEntity
  8
0
 62
     3
100
AcDbLine
 10
161.6656355716999
 20
180.9999542236
 30
0.0
 11
161.6656355716999
 21
156.0
 31
0.0
  0
LINE
  5
24E
330
2
100
AcDbEntity
  8
0
 62
     3
100
AcDbLine
 10
129.7805914467
 20
162.5
 30
0.0
 11
129.7805914467
 21
165.0999999999999
 31
0.0
  0
LINE
  5
24F
330
2
100
AcDbEntity
  8
0
 62
     3
100
AcDbLine
 10
129.8805914466997
 20
162.3
 30
0.0
 11
129.8805914466997
 21
165.0999999999999
 31
0.0
  0
LINE
  5
250
330
2
100
AcDbEntity
  8
0
 62
     3
100
AcDbLine
 10
127.6805914466999
 20
165.0999999999999
 30
0.0
 11
127.6805914466999
 21
162.5
 31
0.0
  0
LINE
  5
251
330
2
100
AcDbEntity
  8
0
 62
     3
100
AcDbLine
 10
127.4805914466996
 20
162.3
 30
0.0
 11
127.4805914466996
 21
165.0999999999999
 31
0.0
  0
LINE
  5
252
330
2
100
AcDbEntity
  8
0
 62
     3
100
AcDbLine
 10
131.6805914466999
 20
161.8
 30
0.0
 11
131.6805914466999
 21
175.1999999999999
 31
0.0
  0
LINE
  5
253
330
2
100
AcDbEntity
  8
0
 62
     3
100
AcDbLine
 10
143.1805914466998
 20
156.0
 30
0.0
 11
143.1805914466998
 21
181.0
 31
0.0
  0
LINE
  5
254
330
2
100
AcDbEntity
  8
0
 62
     3
100
AcDbLine
 10
126.1805914466999
 20
180.0
 30
0.0
 11
126.1805914466999
 21
157.0
 31
0.0
  0
LINE
  5
255
330
2
100
AcDbEntity
  8
0
 62
     3
100
AcDbLine
 10
131.5805914467
 20
157.0999999999999
 30
0.0
 11
131.5805914467
 21
179.9
 31
0.0
  0
LINE
  5
256
330
2
100
AcDbEntity
  8
0
 62
     3
100
AcDbLine
 10
126.1805914466999
 20
157.0999999999999
 30
0.0
 11
126.1805914466999
 21
179.9
 31
0.0
  0
LINE
  5
257
330
2
100
AcDbEntity
  8
0
 62
     3
100
AcDbLine
 10
148.9805914466999
 20
158.5615985891999
 30
0.0
 11
148.9805914466999
 21
178.4384471872
 31
0.0
  0
LINE
  5
258
330
2
100
AcDbEntity
  8
0
 62
     3
100
AcDbLine
 10
149.1805914466999
 20
158.5615985891999
 30
0.0
 11
149.1805914466999
 21
178.4384471872
 31
0.0
  0
LINE
  5
259
330
2
100
AcDbEntity
  8
0
 62
     3
100
AcDbLine
 10
101.1805883949999
 20
174.1999999999999
 30
0.0
 11
101.1805883949999
 21
162.8
 31
0.0
  0
LINE
  5
25A
330
2
100
AcDbEntity
  8
0
 62
     3
100
AcDbLine
 10
101.1805883949999
 20
174.0
 30
0.0
 11
101.1805883949999
 21
163.0
 31
0.0
  0
LINE
  5
25B
330
2
100
AcDbEntity
  8
0
 62
     3
100
AcDbLine
 10
98.180588395
 20
179.0
 30
0.0
 11
98.180588395
 21
158.0
 31
0.0
  0
LINE
  5
25C
330
2
100
AcDbEntity
  8
0
 62
     3
100
AcDbLine
 10
116.6805883949999
 20
180.0
 30
0.0
 11
116.6805883949999
 21
157.0
 31
0.0
  0
LINE
  5
25D
330
2
100
AcDbEntity
  8
0
 62
     3
100
AcDbLine
 10
116.6805883949999
 20
157.0
 30
0.0
 11
116.6805883949999
 21
180.0
 31
0.0
  0
LINE
  5
25E
330
2
100
AcDbEntity
  8
0
 62
     3
100
AcDbLine
 10
165.7655974247998
 20
160.0999999999999
 30
0.0
 11
189.5655974247999
 21
160.0999999999999
 31
0.0
  0
LINE
  5
25F
330
2
100
AcDbEntity
  8
0
 62
     3
100
AcDbLine
 10
164.0655974248
 20
158.9
 30
0.0
 11
191.2655974247999
 21
158.9
 31
0.0
  0
LINE
  5
260
330
2
100
AcDbEntity
  8
0
 62
     3
100
AcDbLine
 10
163.8655974248
 20
158.6999999999999
 30
0.0
 11
191.4655974248
 21
158.6999999999999
 31
0.0
  0
LINE
  5
261
330
2
100
AcDbEntity
  8
0
 62
     3
100
AcDbLine
 10
164.2655974247998
 20
159.1
 30
0.0
 11
191.0655974247999
 21
159.1
 31
0.0
  0
LINE
  5
262
330
2
100
AcDbEntity
  8
0
 62
     3
100
AcDbLine
 10
163.7656599857999
 20
157.3000488281
 30
0.0
 11
191.5655958988999
 21
157.3000488281
 31
0.0
  0
LINE
  5
263
330
2
100
AcDbEntity
  8
0
 62
     3
100
AcDbLine
 10
161.6656355716999
 20
156.0
 30
0.0
 11
193.6655974247999
 21
156.0
 31
0.0
  0
TEXT
  5
264
330
2
100
AcDbEntity
  8
0
 62
     5
100
AcDbText
 10
145.0
 20
10.0
 30
0.0
 40
5.0
  1
ＭＡ４－Ｍ０００２３Ｂ
 41
0.8443967743953098
 72
     5
 11
199.0413935612998
 21
10.0
 31
0.0
100
AcDbText
  0
LINE
  5
265
330
2
100
AcDbEntity
  8
0
 62
     3
100
AcDbLine
 10
139.6805914466999
 20
163.0
 30
0.0
 11
137.4805914466999
 21
160.8
 31
0.0
  0
LINE
  5
266
330
2
100
AcDbEntity
  8
0
 62
     3
100
AcDbLine
 10
143.1805914466998
 20
157.5
 30
0.0
 11
136.4250522381998
 21
157.5
 31
0.0
  0
LINE
  5
267
330
2
100
AcDbEntity
  8
0
 62
     3
100
AcDbLine
 10
142.6226343635998
 20
156.4680440051
 30
0.0
 11
138.3444888116999
 21
157.2885603627
 31
0.0
  0
LINE
  5
268
330
2
100
AcDbEntity
  8
0
 62
     3
100
AcDbLine
 10
142.5473857323999
 20
156.1284553301
 30
0.0
 11
138.2692401803999
 21
156.9489716876
 31
0.0
  0
LINE
  5
269
330
2
100
AcDbEntity
  8
0
 62
     3
100
AcDbLine
 10
137.2260593590999
 20
155.4986020915
 30
0.0
 11
142.6084693091999
 21
155.8370075553999
 31
0.0
  0
LINE
  5
26A
330
2
100
AcDbEntity
  8
0
 62
     3
100
AcDbLine
 10
116.6805883949999
 20
157.0
 30
0.0
 11
98.180588395
 21
157.0
 31
0.0
  0
LINE
  5
26B
330
2
100
AcDbEntity
  8
0
 62
     3
100
AcDbLine
 10
97.48059144670001
 20
157.5
 30
0.0
 11
97.48059144670001
 21
158.3000488280999
 31
0.0
  0
LINE
  5
26C
330
2
100
AcDbEntity
  8
0
 62
     3
100
AcDbLine
 10
98.180588395
 20
162.8
 30
0.0
 11
98.180588395
 21
157.0
 31
0.0
  0
ARC
  5
26D
330
2
100
AcDbEntity
  8
0
 62
     3
100
AcDbCircle
 10
92.18058839500001
 20
158.900024414
 30
0.0
 40
0.5999999046
100
AcDbArc
 50
270.0000359722
 51
90.0
  0
LINE
  5
26E
330
2
100
AcDbEntity
  8
0
 62
     3
100
AcDbLine
 10
98.180588395
 20
158.3000488280999
 30
0.0
 11
97.48059144670001
 21
158.3000488280999
 31
0.0
  0
LINE
  5
26F
330
2
100
AcDbEntity
  8
0
 62
     3
100
AcDbLine
 10
101.1805883949999
 20
162.8
 30
0.0
 11
98.180588395
 21
162.8
 31
0.0
  0
LINE
  5
270
330
2
100
AcDbEntity
  8
0
 62
     3
100
AcDbLine
 10
101.1805883949999
 20
163.0
 30
0.0
 11
98.180588395
 21
163.0
 31
0.0
  0
LINE
  5
271
330
2
100
AcDbEntity
  8
0
 62
     3
100
AcDbLine
 10
126.1805914466999
 20
157.0999999999999
 30
0.0
 11
136.4422195273999
 21
157.0999999999999
 31
0.0
  0
LINE
  5
272
330
2
100
AcDbEntity
  8
0
 62
     3
100
AcDbLine
 10
126.1805914466999
 20
157.0
 30
0.0
 11
116.6805883949999
 21
157.0
 31
0.0
  0
LINE
  5
273
330
2
100
AcDbEntity
  8
0
 62
     3
100
AcDbLine
 10
133.4607838875999
 20
156.2601404347
 30
0.0
 11
129.8692401803999
 21
156.9489716876
 31
0.0
  0
LINE
  5
274
330
2
100
AcDbEntity
  8
0
 62
     3
100
AcDbLine
 10
131.5805914467
 20
157.5
 30
0.0
 11
136.4422195273999
 21
157.5
 31
0.0
  0
LINE
  5
275
330
2
100
AcDbEntity
  8
0
 62
     3
100
AcDbLine
 10
127.8805914466999
 20
157.0
 30
0.0
 11
127.8805914466999
 21
157.0999999999999
 31
0.0
  0
LINE
  5
276
330
2
100
AcDbEntity
  8
0
 62
     3
100
AcDbLine
 10
127.6805914466999
 20
157.0999999999999
 30
0.0
 11
127.6805914466999
 21
157.0
 31
0.0
  0
LINE
  5
277
330
2
100
AcDbEntity
  8
0
 62
     3
100
AcDbLine
 10
129.5444821214998
 20
157.0
 30
0.0
 11
127.6805914466999
 21
157.0
 31
0.0
  0
ARC
  5
278
330
2
100
AcDbEntity
  8
0
 62
     3
100
AcDbCircle
 10
128.3143303658997
 20
148.112041178
 30
0.0
 40
8.9726855157
100
AcDbArc
 50
80.02062310779999
 51
89.31672200079999
  0
LINE
  5
279
330
2
100
AcDbEntity
  8
0
 62
     3
100
AcDbLine
 10
137.4805914466999
 20
157.5
 30
0.0
 11
137.4805914466999
 21
157.4366082464
 31
0.0
  0
ARC
  5
27A
330
2
100
AcDbEntity
  8
0
 62
     3
100
AcDbCircle
 10
136.4250522381998
 20
148.6827110301
 30
0.0
 40
8.8173056822
100
AcDbArc
 50
77.4266262655
 51
89.8884450795
  0
ARC
  5
27B
330
2
100
AcDbEntity
  8
0
 62
     3
100
AcDbCircle
 10
136.4269215397999
 20
145.7885000475999
 30
0.0
 40
11.3115102971
100
AcDbArc
 50
80.6264127462
 51
89.9225116392
  0
ARC
  5
27C
330
2
100
AcDbEntity
  8
0
 62
     3
100
AcDbCircle
 10
137.2062413701996
 20
155.8613855426
 30
0.0
 40
0.3633243525
100
AcDbArc
 50
258.8473415569
 51
273.1268230077
  0
LINE
  5
27D
330
2
100
AcDbEntity
  8
0
 62
     3
100
AcDbLine
 10
133.5538455572
 20
156.1919463627
 30
0.0
 11
133.4607838875999
 21
156.2601404347
 31
0.0
  0
LINE
  5
27E
330
2
100
AcDbEntity
  8
0
 62
     3
100
AcDbLine
 10
137.1359658097
 20
155.5049224579999
 30
0.0
 11
133.5538455572
 21
156.1919463627
 31
0.0
  0
LINE
  5
27F
330
2
100
AcDbEntity
  8
0
 62
     3
100
AcDbLine
 10
137.4805914466999
 20
160.8
 30
0.0
 11
132.6805914466999
 21
160.8
 31
0.0
  0
ARC
  5
280
330
2
100
AcDbEntity
  8
0
 62
     3
100
AcDbCircle
 10
132.6805914466999
 20
161.8
 30
0.0
 40
1.0
100
AcDbArc
 50
180.0
 51
270.0
  0
ARC
  5
281
330
2
100
AcDbEntity
  8
0
 62
     3
100
AcDbCircle
 10
129.5805914466999
 20
162.5
 30
0.0
 40
0.2
100
AcDbArc
 50
270.0
 51
0.0
  0
ARC
  5
282
330
2
100
AcDbEntity
  8
0
 62
     3
100
AcDbCircle
 10
129.6805914466997
 20
162.3
 30
0.0
 40
0.2
100
AcDbArc
 50
270.0
 51
0.0
  0
ARC
  5
283
330
2
100
AcDbEntity
  8
0
 62
     3
100
AcDbCircle
 10
127.8805914466999
 20
162.5
 30
0.0
 40
0.2
100
AcDbArc
 50
180.0
 51
270.0
  0
ARC
  5
284
330
2
100
AcDbEntity
  8
0
 62
     3
100
AcDbCircle
 10
127.6805914466999
 20
162.3
 30
0.0
 40
0.2
100
AcDbArc
 50
180.0
 51
270.0
  0
LINE
  5
285
330
2
100
AcDbEntity
  8
0
 62
     3
100
AcDbLine
 10
129.5805914466999
 20
162.3
 30
0.0
 11
127.8805914466999
 21
162.3
 31
0.0
  0
LINE
  5
286
330
2
100
AcDbEntity
  8
0
 62
     3
100
AcDbLine
 10
129.6805914466997
 20
162.0999999999999
 30
0.0
 11
127.6805914466999
 21
162.0999999999999
 31
0.0
  0
LINE
  5
287
330
2
100
AcDbEntity
  8
0
 62
     3
100
AcDbLine
 10
161.9656355716998
 20
157.0
 30
0.0
 11
162.8656599858
 21
157.0
 31
0.0
  0
ARC
  5
288
330
2
100
AcDbEntity
  8
0
 62
     3
100
AcDbCircle
 10
147.1805914466998
 20
158.5615985891999
 30
0.0
 40
2.0
100
AcDbArc
 50
284.0362434679
 51
0.0
  0
ARC
  5
289
330
2
100
AcDbEntity
  8
0
 62
     3
100
AcDbCircle
 10
147.1805914466998
 20
158.5615985891999
 30
0.0
 40
1.8
100
AcDbArc
 50
284.0362434679
 51
0.0
  0
LINE
  5
28A
330
2
100
AcDbEntity
  8
0
 62
     3
100
AcDbLine
 10
145.1805914466999
 20
156.0000457763
 30
0.0
 11
143.1805914466998
 21
156.0000457763
 31
0.0
  0
LINE
  5
28B
330
2
100
AcDbEntity
  8
0
 62
     3
100
AcDbLine
 10
147.6171555717999
 20
156.8153420888999
 30
0.0
 11
144.3559703215998
 21
156.0000457763
 31
0.0
  0
LINE
  5
28C
330
2
100
AcDbEntity
  8
0
 62
     3
100
AcDbLine
 10
142.6226343635998
 20
156.4680440051
 30
0.0
 11
142.6607125322999
 21
156.458806146
 31
0.0
  0
LINE
  5
28D
330
2
100
AcDbEntity
  8
0
 62
     3
100
AcDbLine
 10
142.6607125322999
 20
156.458806146
 30
0.0
 11
142.6969412154998
 21
156.4461278540998
 31
0.0
  0
LINE
  5
28E
330
2
100
AcDbEntity
  8
0
 62
     3
100
AcDbLine
 10
142.6969412154998
 20
156.4461278540998
 30
0.0
 11
142.7299281654998
 21
156.430496349
 31
0.0
  0
LINE
  5
28F
330
2
100
AcDbEntity
  8
0
 62
     3
100
AcDbLine
 10
142.7299281654998
 20
156.430496349
 30
0.0
 11
142.7584057121
 21
156.4125123408
 31
0.0
  0
LINE
  5
290
330
2
100
AcDbEntity
  8
0
 62
     3
100
AcDbLine
 10
142.7584057121
 20
156.4125123408
 30
0.0
 11
142.7812794792999
 21
156.3928669446999
 31
0.0
  0
LINE
  5
291
330
2
100
AcDbEntity
  8
0
 62
     3
100
AcDbLine
 10
142.7812794792999
 20
156.3928669446999
 30
0.0
 11
142.7976704408998
 21
156.3723151224
 31
0.0
  0
LINE
  5
292
330
2
100
AcDbEntity
  8
0
 62
     3
100
AcDbLine
 10
142.7976704408998
 20
156.3723151224
 30
0.0
 11
142.8069487015
 21
156.3516466687999
 31
0.0
  0
LINE
  5
293
330
2
100
AcDbEntity
  8
0
 62
     3
100
AcDbLine
 10
142.8069487015
 20
156.3516466687999
 30
0.0
 11
142.8087577027999
 21
156.3316558609999
 31
0.0
  0
LINE
  5
294
330
2
100
AcDbEntity
  8
0
 62
     3
100
AcDbLine
 10
142.7998449630998
 20
156.2440561098
 30
0.0
 11
142.8087577027999
 21
156.3316558609999
 31
0.0
  0
LINE
  5
295
330
2
100
AcDbEntity
  8
0
 62
     3
100
AcDbLine
 10
142.7335090716
 20
155.992067186
 30
0.0
 11
142.7317000702999
 21
156.0120579937
 31
0.0
  0
LINE
  5
296
330
2
100
AcDbEntity
  8
0
 62
     3
100
AcDbLine
 10
142.7317000702999
 20
156.0120579937
 30
0.0
 11
142.7224218095999
 21
156.0327264473
 31
0.0
  0
LINE
  5
297
330
2
100
AcDbEntity
  8
0
 62
     3
100
AcDbLine
 10
142.7224218095999
 20
156.0327264473
 30
0.0
 11
142.7060308479999
 21
156.0532782697
 31
0.0
  0
LINE
  5
298
330
2
100
AcDbEntity
  8
0
 62
     3
100
AcDbLine
 10
142.7060308479999
 20
156.0532782697
 30
0.0
 11
142.6831570809
 21
156.0729236657
 31
0.0
  0
LINE
  5
299
330
2
100
AcDbEntity
  8
0
 62
     3
100
AcDbLine
 10
142.6831570809
 20
156.0729236657
 30
0.0
 11
142.6546795342999
 21
156.0909076739999
 31
0.0
  0
LINE
  5
29A
330
2
100
AcDbEntity
  8
0
 62
     3
100
AcDbLine
 10
142.6546795342999
 20
156.0909076739999
 30
0.0
 11
142.6216925842999
 21
156.106539179
 31
0.0
  0
LINE
  5
29B
330
2
100
AcDbEntity
  8
0
 62
     3
100
AcDbLine
 10
142.6216925842999
 20
156.106539179
 30
0.0
 11
142.5854639009999
 21
156.1192174709
 31
0.0
  0
LINE
  5
29C
330
2
100
AcDbEntity
  8
0
 62
     3
100
AcDbLine
 10
142.5854639009999
 20
156.1192174709
 30
0.0
 11
142.5473857323999
 21
156.1284553301
 31
0.0
  0
LINE
  5
29D
330
2
100
AcDbEntity
  8
0
 62
     3
100
AcDbLine
 10
142.6084693091999
 20
155.8370075553999
 30
0.0
 11
142.6322989105998
 21
155.8395449065999
 31
0.0
  0
LINE
  5
29E
330
2
100
AcDbEntity
  8
0
 62
     3
100
AcDbLine
 10
142.6322989105998
 20
155.8395449065999
 30
0.0
 11
142.6541680732998
 21
155.8440176386
 31
0.0
  0
LINE
  5
29F
330
2
100
AcDbEntity
  8
0
 62
     3
100
AcDbLine
 10
142.6541680732998
 20
155.8440176386
 30
0.0
 11
142.6736640576999
 21
155.8503413370999
 31
0.0
  0
LINE
  5
2A0
330
2
100
AcDbEntity
  8
0
 62
     3
100
AcDbLine
 10
142.6736640576999
 20
155.8503413370999
 30
0.0
 11
142.6904189132999
 21
155.8583966539998
 31
0.0
  0
LINE
  5
2A1
330
2
100
AcDbEntity
  8
0
 62
     3
100
AcDbLine
 10
142.6904189132999
 20
155.8583966539998
 30
0.0
 11
142.7041164233999
 21
155.8680315601
 31
0.0
  0
LINE
  5
2A2
330
2
100
AcDbEntity
  8
0
 62
     3
100
AcDbLine
 10
142.7041164233999
 20
155.8680315601
 30
0.0
 11
142.7144980729998
 21
155.8790642145
 31
0.0
  0
LINE
  5
2A3
330
2
100
AcDbEntity
  8
0
 62
     3
100
AcDbLine
 10
142.7144980729998
 20
155.8790642145
 30
0.0
 11
142.7213679276998
 21
155.8912863964
 31
0.0
  0
LINE
  5
2A4
330
2
100
AcDbEntity
  8
0
 62
     3
100
AcDbLine
 10
142.7213679276998
 20
155.8912863964
 30
0.0
 11
142.7245963318999
 21
155.9044674347999
 31
0.0
  0
LINE
  5
2A5
330
2
100
AcDbEntity
  8
0
 62
     3
100
AcDbLine
 10
142.7245963318999
 20
155.9044674347999
 30
0.0
 11
142.7335090716
 21
155.992067186
 31
0.0
  0
LINE
  5
2A6
330
2
100
AcDbEntity
  8
0
 62
     3
100
AcDbLine
 10
142.5473857323999
 20
156.1284553301
 30
0.0
 11
142.6226343635998
 21
156.4680440051
 31
0.0
  0
LINE
  5
2A7
330
2
100
AcDbEntity
  8
0
 62
     3
100
AcDbLine
 10
142.7236879950999
 20
155.8988237585
 30
0.0
 11
142.7998449630998
 21
156.2440561098
 31
0.0
  0
LINE
  5
2A8
330
2
100
AcDbEntity
  8
0
 62
     3
100
AcDbLine
 10
139.6805914466999
 20
157.5
 30
0.0
 11
139.6805914466999
 21
157.0323058584
 31
0.0
  0
LINE
  5
2A9
330
2
100
AcDbEntity
  8
0
 62
     3
100
AcDbLine
 10
143.1805914466998
 20
157.0
 30
0.0
 11
139.8490331399999
 21
157.0
 31
0.0
  0
LINE
  5
2AA
330
2
100
AcDbEntity
  8
0
 62
     3
100
AcDbLine
 10
147.6656626967999
 20
156.6213135888999
 30
0.0
 11
145.1805914466999
 21
156.0000457763
 31
0.0
  0
LINE
  5
2AB
330
2
100
AcDbEntity
  8
0
 62
     3
100
AcDbLine
 10
143.1805914466998
 20
163.0
 30
0.0
 11
139.6805914466999
 21
163.0
 31
0.0
  0
LINE
  5
2AC
330
2
100
AcDbEntity
  8
0
 62
     3
100
AcDbLine
 10
166.1144882085999
 20
156.0
 30
0.0
 11
166.1028879257998
 21
155.9495665606999
 31
0.0
  0
LINE
  5
2AD
330
2
100
AcDbEntity
  8
0
 62
     3
100
AcDbLine
 10
165.8941115311999
 20
155.5961560399
 30
0.0
 11
165.8990259161999
 21
155.5958458872
 31
0.0
  0
LINE
  5
2AE
330
2
100
AcDbEntity
  8
0
 62
     3
100
AcDbLine
 10
165.8990259161999
 20
155.5958458872
 30
0.0
 11
165.9033907594999
 21
155.5958824151
 31
0.0
  0
LINE
  5
2AF
330
2
100
AcDbEntity
  8
0
 62
     3
100
AcDbLine
 10
165.9033907594999
 20
155.5958824151
 30
0.0
 11
165.9071909425998
 21
155.5962654970999
 31
0.0
  0
LINE
  5
2B0
330
2
100
AcDbEntity
  8
0
 62
     3
100
AcDbLine
 10
165.9071909425998
 20
155.5962654970999
 30
0.0
 11
165.9104133027
 21
155.5969938062999
 31
0.0
  0
LINE
  5
2B1
330
2
100
AcDbEntity
  8
0
 62
     3
100
AcDbLine
 10
165.9104133027
 20
155.5969938062999
 30
0.0
 11
165.9130466785998
 21
155.5980648201
 31
0.0
  0
LINE
  5
2B2
330
2
100
AcDbEntity
  8
0
 62
     3
100
AcDbLine
 10
165.9130466785998
 20
155.5980648201
 30
0.0
 11
165.9150819489999
 21
155.5994748288
 31
0.0
  0
LINE
  5
2B3
330
2
100
AcDbEntity
  8
0
 62
     3
100
AcDbLine
 10
165.9150819489999
 20
155.5994748288
 30
0.0
 11
165.9165120643999
 21
155.6012189484999
 31
0.0
  0
LINE
  5
2B4
330
2
100
AcDbEntity
  8
0
 62
     3
100
AcDbLine
 10
165.9165120643999
 20
155.6012189484999
 30
0.0
 11
165.9173320711999
 21
155.6032911380999
 31
0.0
  0
LINE
  5
2B5
330
2
100
AcDbEntity
  8
0
 62
     3
100
AcDbLine
 10
166.1028879257998
 20
155.9495665606999
 30
0.0
 11
165.9166537980999
 21
155.6014709479998
 31
0.0
  0
LINE
  5
2B6
330
2
100
AcDbEntity
  8
0
 62
     3
100
AcDbLine
 10
163.8916641091999
 20
156.4999999999999
 30
0.0
 11
163.8916641091999
 21
157.3000488281
 31
0.0
  0
ARC
  5
2B7
330
2
100
AcDbEntity
  8
0
 62
     3
100
AcDbCircle
 10
162.8656599858
 20
157.5
 30
0.0
 40
0.5
100
AcDbArc
 50
270.0
 51
0.0
  0
LINE
  5
2B8
330
2
100
AcDbEntity
  8
0
 62
     3
100
AcDbLine
 10
163.0892054593999
 20
155.9043192977
 30
0.0
 11
163.1135415686999
 21
155.8919800605
 31
0.0
  0
LINE
  5
2B9
330
2
100
AcDbEntity
  8
0
 62
     3
100
AcDbLine
 10
163.1135415686999
 20
155.8919800605
 30
0.0
 11
163.1375831309
 21
155.8805899785999
 31
0.0
  0
LINE
  5
2BA
330
2
100
AcDbEntity
  8
0
 62
     3
100
AcDbLine
 10
163.1375831309
 20
155.8805899785999
 30
0.0
 11
163.1608764061999
 21
155.8703640184
 31
0.0
  0
LINE
  5
2BB
330
2
100
AcDbEntity
  8
0
 62
     3
100
AcDbLine
 10
163.1608764061999
 20
155.8703640184
 30
0.0
 11
163.1829817773999
 21
155.8614951759
 31
0.0
  0
LINE
  5
2BC
330
2
100
AcDbEntity
  8
0
 62
     3
100
AcDbLine
 10
163.1829817773999
 20
155.8614951759
 30
0.0
 11
163.2034820466999
 21
155.8541508342
 31
0.0
  0
LINE
  5
2BD
330
2
100
AcDbEntity
  8
0
 62
     3
100
AcDbLine
 10
163.2034820466999
 20
155.8541508342
 30
0.0
 11
163.2219903096999
 21
155.8484696038999
 31
0.0
  0
LINE
  5
2BE
330
2
100
AcDbEntity
  8
0
 62
     3
100
AcDbLine
 10
163.2219903096999
 20
155.8484696038999
 30
0.0
 11
163.2381572572996
 21
155.8445587077999
 31
0.0
  0
LINE
  5
2BF
330
2
100
AcDbEntity
  8
0
 62
     3
100
AcDbLine
 10
163.2381572572996
 20
155.8445587077999
 30
0.0
 11
163.2516777684999
 21
155.8424919565998
 31
0.0
  0
LINE
  5
2C0
330
2
100
AcDbEntity
  8
0
 62
     3
100
AcDbLine
 10
162.9322456479999
 20
155.9864912874999
 30
0.0
 11
163.0892054593999
 21
155.9043192977
 31
0.0
  0
ARC
  5
2C1
330
2
100
AcDbEntity
  8
0
 62
     3
100
AcDbCircle
 10
163.3916641091999
 20
156.4999999999999
 30
0.0
 40
0.5
100
AcDbArc
 50
270.0
 51
0.0
  0
LINE
  5
2C2
330
2
100
AcDbEntity
  8
0
 62
     3
100
AcDbLine
 10
163.2516777684999
 20
155.8424919565998
 30
0.0
 11
165.8941115311999
 21
155.5961560399
 31
0.0
  0
LINE
  5
2C3
330
2
100
AcDbEntity
  8
0
 62
     3
100
AcDbLine
 10
163.8655974248
 20
158.6999999999999
 30
0.0
 11
164.0655974248
 21
158.9
 31
0.0
  0
LINE
  5
2C4
330
2
100
AcDbEntity
  8
0
 62
     3
100
AcDbLine
 10
164.2655974247998
 20
159.1
 30
0.0
 11
165.7655974247998
 21
160.0999999999999
 31
0.0
  0
LINE
  5
2C5
330
2
100
AcDbEntity
  8
0
 62
     3
100
AcDbLine
 10
192.0795170809999
 20
155.8424919565998
 30
0.0
 11
189.4370833182998
 21
155.5961560399
 31
0.0
  0
ARC
  5
2C6
330
2
100
AcDbEntity
  8
0
 62
     3
100
AcDbCircle
 10
191.9395917754999
 20
156.4999999999999
 30
0.0
 40
0.5
100
AcDbArc
 50
180.0
 51
270.0
  0
LINE
  5
2C7
330
2
100
AcDbEntity
  8
0
 62
     3
100
AcDbLine
 10
191.4395917754999
 20
156.4999999999999
 30
0.0
 11
191.4395917754999
 21
157.3000488281
 31
0.0
  0
LINE
  5
2C8
330
2
100
AcDbEntity
  8
0
 62
     3
100
AcDbLine
 10
189.2167066409999
 20
156.0
 30
0.0
 11
189.2283069236999
 21
155.9495665606999
 31
0.0
  0
LINE
  5
2C9
330
2
100
AcDbEntity
  8
0
 62
     3
100
AcDbLine
 10
189.4370833182998
 20
155.5961560399
 30
0.0
 11
189.4321689332999
 21
155.5958458872
 31
0.0
  0
LINE
  5
2CA
330
2
100
AcDbEntity
  8
0
 62
     3
100
AcDbLine
 10
189.4321689332999
 20
155.5958458872
 30
0.0
 11
189.4278040899999
 21
155.5958824151
 31
0.0
  0
LINE
  5
2CB
330
2
100
AcDbEntity
  8
0
 62
     3
100
AcDbLine
 10
189.4278040899999
 20
155.5958824151
 30
0.0
 11
189.4240039069998
 21
155.5962654970999
 31
0.0
  0
LINE
  5
2CC
330
2
100
AcDbEntity
  8
0
 62
     3
100
AcDbLine
 10
189.4240039069998
 20
155.5962654970999
 30
0.0
 11
189.4207815468
 21
155.5969938062999
 31
0.0
  0
LINE
  5
2CD
330
2
100
AcDbEntity
  8
0
 62
     3
100
AcDbLine
 10
189.4207815468
 20
155.5969938062999
 30
0.0
 11
189.4181481709999
 21
155.5980648201
 31
0.0
  0
LINE
  5
2CE
330
2
100
AcDbEntity
  8
0
 62
     3
100
AcDbLine
 10
189.4181481709999
 20
155.5980648201
 30
0.0
 11
189.4161129004999
 21
155.5994748288
 31
0.0
  0
LINE
  5
2CF
330
2
100
AcDbEntity
  8
0
 62
     3
100
AcDbLine
 10
189.4161129004999
 20
155.5994748288
 30
0.0
 11
189.4146827851996
 21
155.6012189484999
 31
0.0
  0
LINE
  5
2D0
330
2
100
AcDbEntity
  8
0
 62
     3
100
AcDbLine
 10
189.4146827851996
 20
155.6012189484999
 30
0.0
 11
189.4138627782999
 21
155.6032911380999
 31
0.0
  0
LINE
  5
2D1
330
2
100
AcDbEntity
  8
0
 62
     3
100
AcDbLine
 10
189.2283069236999
 20
155.9495665606999
 30
0.0
 11
189.4145410513999
 21
155.6014709479998
 31
0.0
  0
ARC
  5
2D2
330
2
100
AcDbEntity
  8
0
 62
     3
100
AcDbCircle
 10
192.4655348636999
 20
157.5
 30
0.0
 40
0.5
100
AcDbArc
 50
180.0
 51
270.0
  0
LINE
  5
2D3
330
2
100
AcDbEntity
  8
0
 62
     3
100
AcDbLine
 10
193.3655592777999
 20
157.0
 30
0.0
 11
192.4655348636999
 21
157.0
 31
0.0
  0
LINE
  5
2D4
330
2
100
AcDbEntity
  8
0
 62
     3
100
AcDbLine
 10
192.2419893900999
 20
155.9043192977
 30
0.0
 11
192.2176532808
 21
155.8919800605
 31
0.0
  0
LINE
  5
2D5
330
2
100
AcDbEntity
  8
0
 62
     3
100
AcDbLine
 10
192.2176532808
 20
155.8919800605
 30
0.0
 11
192.1936117185999
 21
155.8805899785999
 31
0.0
  0
LINE
  5
2D6
330
2
100
AcDbEntity
  8
0
 62
     3
100
AcDbLine
 10
192.1936117185999
 20
155.8805899785999
 30
0.0
 11
192.1703184432999
 21
155.8703640184
 31
0.0
  0
LINE
  5
2D7
330
2
100
AcDbEntity
  8
0
 62
     3
100
AcDbLine
 10
192.1703184432999
 20
155.8703640184
 30
0.0
 11
192.1482130720999
 21
155.8614951759
 31
0.0
  0
LINE
  5
2D8
330
2
100
AcDbEntity
  8
0
 62
     3
100
AcDbLine
 10
192.1482130720999
 20
155.8614951759
 30
0.0
 11
192.1277128027999
 21
155.8541508342
 31
0.0
  0
LINE
  5
2D9
330
2
100
AcDbEntity
  8
0
 62
     3
100
AcDbLine
 10
192.1277128027999
 20
155.8541508342
 30
0.0
 11
192.1092045397999
 21
155.8484696038999
 31
0.0
  0
LINE
  5
2DA
330
2
100
AcDbEntity
  8
0
 62
     3
100
AcDbLine
 10
192.1092045397999
 20
155.8484696038999
 30
0.0
 11
192.0930375921998
 21
155.8445587077999
 31
0.0
  0
LINE
  5
2DB
330
2
100
AcDbEntity
  8
0
 62
     3
100
AcDbLine
 10
192.0930375921998
 20
155.8445587077999
 30
0.0
 11
192.0795170809999
 21
155.8424919565998
 31
0.0
  0
LINE
  5
2DC
330
2
100
AcDbEntity
  8
0
 62
     3
100
AcDbLine
 10
192.3989492015
 20
155.9864912874999
 30
0.0
 11
192.2419893900999
 21
155.9043192977
 31
0.0
  0
LINE
  5
2DD
330
2
100
AcDbEntity
  8
0
 62
     3
100
AcDbLine
 10
189.5655974247999
 20
160.0999999999999
 30
0.0
 11
191.0655974247999
 21
159.1
 31
0.0
  0
LINE
  5
2DE
330
2
100
AcDbEntity
  8
0
 62
     3
100
AcDbLine
 10
191.2655974247999
 20
158.9
 30
0.0
 11
191.4655974248
 21
158.6999999999999
 31
0.0
  0
LINE
  5
2DF
330
2
100
AcDbEntity
  8
0
  6
CENTER
 62
     3
100
AcDbLine
 10
158.3346005147998
 20
168.5
 30
0.0
 11
196.3354370920999
 21
168.5
 31
0.0
  0
LINE
  5
2E0
330
2
100
AcDbEntity
  8
0
 62
     3
100
AcDbLine
 10
165.7655974247998
 20
176.9
 30
0.0
 11
189.5655974247999
 21
176.9
 31
0.0
  0
LINE
  5
2E1
330
2
100
AcDbEntity
  8
0
 62
     3
100
AcDbLine
 10
164.0655974248
 20
178.0999999999999
 30
0.0
 11
191.2655974247999
 21
178.0999999999999
 31
0.0
  0
LINE
  5
2E2
330
2
100
AcDbEntity
  8
0
 62
     3
100
AcDbLine
 10
163.8655974248
 20
178.3
 30
0.0
 11
191.4655974248
 21
178.3
 31
0.0
  0
LINE
  5
2E3
330
2
100
AcDbEntity
  8
0
 62
     3
100
AcDbLine
 10
164.2655974247998
 20
177.9
 30
0.0
 11
191.0655974247999
 21
177.9
 31
0.0
  0
LINE
  5
2E4
330
2
100
AcDbEntity
  8
0
 62
     3
100
AcDbLine
 10
161.6656355716999
 20
180.9999542236
 30
0.0
 11
193.6655974247999
 21
180.9999542236
 31
0.0
  0
LINE
  5
2E5
330
2
100
AcDbEntity
  8
0
 62
     3
100
AcDbLine
 10
163.7656599857999
 20
179.6999511718999
 30
0.0
 11
191.5655958988999
 21
179.6999511718999
 31
0.0
  0
LINE
  5
2E6
330
2
100
AcDbEntity
  8
0
 62
     3
100
AcDbLine
 10
148.6805868690999
 20
228.4
 30
0.0
 11
148.6805868690999
 21
204.5999999999999
 31
0.0
  0
LINE
  5
2E7
330
2
100
AcDbEntity
  8
0
 62
     3
100
AcDbLine
 10
147.6805868690999
 20
229.8999999999999
 30
0.0
 11
147.6805868690999
 21
203.1
 31
0.0
  0
LINE
  5
2E8
330
2
100
AcDbEntity
  8
0
 62
     3
100
AcDbLine
 10
145.7805868690996
 20
221.7
 30
0.0
 11
145.7805868690996
 21
211.2999999999999
 31
0.0
  0
LINE
  5
2E9
330
2
100
AcDbEntity
  8
0
 62
     3
100
AcDbLine
 10
146.5805868690999
 20
221.7
 30
0.0
 11
146.5805868690999
 21
211.2999999999999
 31
0.0
  0
LINE
  5
2EA
330
2
100
AcDbEntity
  8
0
 62
     3
100
AcDbLine
 10
146.6805868690999
 20
221.7
 30
0.0
 11
146.6805868690999
 21
211.2999999999999
 31
0.0
  0
LINE
  5
2EB
330
2
100
AcDbEntity
  8
0
 62
     3
100
AcDbLine
 10
136.1805914466999
 20
210.0
 30
0.0
 11
136.1805914466999
 21
223.0
 31
0.0
  0
LINE
  5
2EC
330
2
100
AcDbEntity
  8
0
 62
     3
100
AcDbLine
 10
132.6805914466999
 20
210.0
 30
0.0
 11
132.6805914466999
 21
223.0
 31
0.0
  0
LINE
  5
2ED
330
2
100
AcDbEntity
  8
0
 62
     3
100
AcDbLine
 10
131.6805914466999
 20
209.0
 30
0.0
 11
131.6805914466999
 21
224.0
 31
0.0
  0
LINE
  5
2EE
330
2
100
AcDbEntity
  8
0
 62
     3
100
AcDbLine
 10
125.1805914466999
 20
224.0
 30
0.0
 11
125.1805914466999
 21
209.0
 31
0.0
  0
LINE
  5
2EF
330
2
100
AcDbEntity
  8
0
 62
     3
100
AcDbLine
 10
120.9805838172999
 20
224.0
 30
0.0
 11
120.9805838172999
 21
209.0
 31
0.0
  0
LINE
  5
2F0
330
2
100
AcDbEntity
  8
0
 62
     3
100
AcDbLine
 10
119.9805868691
 20
212.4140510559
 30
0.0
 11
119.9805868691
 21
220.5858650206999
 31
0.0
  0
LINE
  5
2F1
330
2
100
AcDbEntity
  8
0
 62
     3
100
AcDbLine
 10
126.1805914466999
 20
201.4999961852999
 30
0.0
 11
126.1805914466999
 21
231.4999580382998
 31
0.0
  0
LINE
  5
2F2
330
2
100
AcDbEntity
  8
0
 62
     3
100
AcDbLine
 10
145.1805914466999
 20
200.4999999999999
 30
0.0
 11
145.1805914466999
 21
232.4999618529997
 31
0.0
  0
LINE
  5
2F3
330
2
100
AcDbEntity
  8
0
 62
     3
100
AcDbLine
 10
143.1805914466998
 20
200.5000381469999
 30
0.0
 11
143.1805914466998
 21
232.4999999999999
 31
0.0
  0
LINE
  5
2F4
330
2
100
AcDbEntity
  8
0
 62
     3
100
AcDbLine
 10
143.8805883949999
 20
202.7260666844
 30
0.0
 11
143.8805883949999
 21
230.2739943506999
 31
0.0
  0
ARC
  5
2F5
330
2
100
AcDbEntity
  8
0
 62
     3
100
AcDbCircle
 10
118.4805868690999
 20
212.9980081588
 30
0.0
 40
0.3
100
AcDbArc
 50
270.0
 51
0.0
  0
LINE
  5
2F6
330
2
100
AcDbEntity
  8
0
 62
     3
100
AcDbLine
 10
113.0804351398999
 20
212.9772737565999
 30
0.0
 11
113.0802854711999
 21
209.0360114461999
 31
0.0
  0
ARC
  5
2F7
330
2
100
AcDbEntity
  8
0
 62
     3
100
AcDbCircle
 10
111.7804351398999
 20
213.2529942421999
 30
0.0
 40
0.8
100
AcDbArc
 50
270.0
 51
0.0
  0
LINE
  5
2F8
330
2
100
AcDbEntity
  8
0
 62
     3
100
AcDbLine
 10
110.5804351398999
 20
212.9529942422
 30
0.0
 11
110.5804351398999
 21
212.4529942422
 31
0.0
  0
LINE
  5
2F9
330
2
100
AcDbEntity
  8
0
 62
     3
100
AcDbLine
 10
109.2804351398999
 20
216.3000478712999
 30
0.0
 11
109.2805329364999
 21
211.4117190678999
 31
0.0
  0
LINE
  5
2FA
330
2
100
AcDbEntity
  8
0
 62
     3
100
AcDbLine
 10
106.2305792396998
 20
216.6517791747999
 30
0.0
 11
106.2305792396998
 21
212.6517791747999
 31
0.0
  0
LINE
  5
2FB
330
2
100
AcDbEntity
  8
0
 62
     3
100
AcDbLine
 10
105.6305807655999
 20
216.6517791747999
 30
0.0
 11
105.6305807655999
 21
212.6517791747999
 31
0.0
  0
LINE
  5
2FC
330
2
100
AcDbEntity
  8
0
 62
     3
100
AcDbLine
 10
102.1805838172999
 20
223.0
 30
0.0
 11
102.1805838172999
 21
210.0
 31
0.0
  0
LINE
  5
2FD
330
2
100
AcDbEntity
  8
0
 62
     3
100
AcDbLine
 10
107.1805838173
 20
223.0
 30
0.0
 11
107.1805838173
 21
210.0
 31
0.0
  0
LINE
  5
2FE
330
2
100
AcDbEntity
  8
0
 62
     3
100
AcDbLine
 10
98.18058381729999
 20
231.4999999999999
 30
0.0
 11
98.18058381729999
 21
201.5000915526999
 31
0.0
  0
LINE
  5
2FF
330
2
100
AcDbEntity
  8
0
 62
     3
100
AcDbLine
 10
108.9805868690999
 20
228.5500030516999
 30
0.0
 11
108.9805868690999
 21
204.4500427246
 31
0.0
  0
LINE
  5
300
330
2
100
AcDbEntity
  8
0
 62
     3
100
AcDbLine
 10
108.3805807655999
 20
228.5500030516999
 30
0.0
 11
108.3805807655999
 21
204.4500427246
 31
0.0
  0
LINE
  5
301
330
2
100
AcDbEntity
  8
0
 62
     3
100
AcDbLine
 10
139.8805914466999
 20
204.6000015259
 30
0.0
 11
137.8287007830999
 21
204.6000015259
 31
0.0
  0
LINE
  5
302
330
2
100
AcDbEntity
  8
0
 62
     3
100
AcDbLine
 10
142.6837179403999
 20
202.2256919366999
 30
0.0
 11
137.3013079902999
 21
204.8579190006
 31
0.0
  0
LINE
  5
303
330
2
100
AcDbEntity
  8
0
 62
     3
100
AcDbLine
 10
142.6084693091999
 20
202.0281642797
 30
0.0
 11
137.2260593590999
 21
204.6603913435999
 31
0.0
  0
LINE
  5
304
330
2
100
AcDbEntity
  8
0
 62
     3
100
AcDbLine
 10
142.5473857323999
 20
201.5503784873
 30
0.0
 11
138.2692401803999
 21
201.7695201252
 31
0.0
  0
LINE
  5
305
330
2
100
AcDbEntity
  8
0
 62
     3
100
AcDbLine
 10
139.6805914466999
 20
174.0
 30
0.0
 11
137.4805914466999
 21
176.2
 31
0.0
  0
LINE
  5
306
330
2
100
AcDbEntity
  8
0
 62
     3
100
AcDbLine
 10
143.1805914466998
 20
179.4999999999999
 30
0.0
 11
136.4250522381998
 21
179.4999999999999
 31
0.0
  0
LINE
  5
307
330
2
100
AcDbEntity
  8
0
 62
     3
100
AcDbLine
 10
142.6084693091999
 20
181.1629924445999
 30
0.0
 11
137.2260593590999
 21
181.5013979084999
 31
0.0
  0
LINE
  5
308
330
2
100
AcDbEntity
  8
0
 62
     3
100
AcDbLine
 10
138.2692401803999
 20
180.0510283122999
 30
0.0
 11
142.5473857323999
 21
180.8715446699
 31
0.0
  0
LINE
  5
309
330
2
100
AcDbEntity
  8
0
 62
     3
100
AcDbLine
 10
138.3444888116999
 20
179.7114396373
 30
0.0
 11
142.6226343635998
 21
180.5319559948
 31
0.0
  0
LINE
  5
30A
330
2
100
AcDbEntity
  8
0
 62
     3
100
AcDbLine
 10
139.8805914466999
 20
207.6999999999999
 30
0.0
 11
131.5805914467
 21
207.6999999999999
 31
0.0
  0
LINE
  5
30B
330
2
100
AcDbEntity
  8
0
 62
     3
100
AcDbLine
 10
143.1805914466998
 20
209.0
 30
0.0
 11
131.6805914466999
 21
209.0
 31
0.0
  0
LINE
  5
30C
330
2
100
AcDbEntity
  8
0
 62
     3
100
AcDbLine
 10
139.3805914466996
 20
207.1000015259
 30
0.0
 11
131.5805914467
 21
207.1000015259
 31
0.0
  0
LINE
  5
30D
330
2
100
AcDbEntity
  8
0
 62
     3
100
AcDbLine
 10
139.3805914466996
 20
205.2000076293999
 30
0.0
 11
129.1805914466999
 21
205.2000076293999
 31
0.0
  0
LINE
  5
30E
330
2
100
AcDbEntity
  8
0
 62
     3
100
AcDbLine
 10
143.1805914466998
 20
201.4999961852999
 30
0.0
 11
131.6805914466999
 21
201.4999961852999
 31
0.0
  0
LINE
  5
30F
330
2
100
AcDbEntity
  8
0
 62
     3
100
AcDbLine
 10
116.6805883949999
 20
180.0
 30
0.0
 11
98.180588395
 21
180.0
 31
0.0
  0
LINE
  5
310
330
2
100
AcDbEntity
  8
0
 62
     3
100
AcDbLine
 10
98.180588395
 20
180.0
 30
0.0
 11
98.180588395
 21
174.1999999999999
 31
0.0
  0
ARC
  5
311
330
2
100
AcDbEntity
  8
0
 62
     3
100
AcDbCircle
 10
92.18058839500001
 20
168.5
 30
0.0
 40
0.5999999046
100
AcDbArc
 50
270.0000359722
 51
90.0
  0
ARC
  5
312
330
2
100
AcDbEntity
  8
0
 62
     3
100
AcDbCircle
 10
92.1805868691
 20
166.1000976562
 30
0.0
 40
0.5999994278000002
100
AcDbArc
 50
270.0
 51
90.0
  0
LINE
  5
313
330
2
100
AcDbEntity
  8
0
 62
     3
100
AcDbLine
 10
97.4805838173
 20
165.4001464844
 30
0.0
 11
97.4805838173
 21
164.7001953124999
 31
0.0
  0
LINE
  5
314
330
2
100
AcDbEntity
  8
0
 62
     3
100
AcDbLine
 10
98.180588395
 20
165.4001464844
 30
0.0
 11
97.4805838173
 21
165.4001464844
 31
0.0
  0
ARC
  5
315
330
2
100
AcDbEntity
  8
0
 62
     3
100
AcDbCircle
 10
92.18070839759993
 20
172.0999755859
 30
0.0
 40
0.5999994278000002
100
AcDbArc
 50
270.0
 51
90.0
  0
LINE
  5
316
330
2
100
AcDbEntity
  8
0
 62
     3
100
AcDbLine
 10
101.1805883949999
 20
174.1999999999999
 30
0.0
 11
98.180588395
 21
174.1999999999999
 31
0.0
  0
LINE
  5
317
330
2
100
AcDbEntity
  8
0
 62
     3
100
AcDbLine
 10
101.1805883949999
 20
174.0
 30
0.0
 11
98.180588395
 21
174.0
 31
0.0
  0
ARC
  5
318
330
2
100
AcDbEntity
  8
0
 62
     3
100
AcDbCircle
 10
92.18069393749999
 20
178.0999354059
 30
0.0
 40
0.5999994278000002
100
AcDbArc
 50
270.0
 51
90.0
  0
LINE
  5
319
330
2
100
AcDbEntity
  8
0
 62
     3
100
AcDbLine
 10
98.180588395
 20
178.8000488280999
 30
0.0
 11
97.4805838173
 21
178.8000488280999
 31
0.0
  0
LINE
  5
31A
330
2
100
AcDbEntity
  8
0
 62
     3
100
AcDbLine
 10
97.4805838173
 20
178.8000488280999
 30
0.0
 11
97.4805838173
 21
179.5001220702999
 31
0.0
  0
ARC
  5
31B
330
2
100
AcDbEntity
  8
0
 62
     3
100
AcDbCircle
 10
132.6805914466999
 20
175.1999999999999
 30
0.0
 40
1.0
100
AcDbArc
 50
90.0
 51
180.0
  0
LINE
  5
31C
330
2
100
AcDbEntity
  8
0
 62
     3
100
AcDbLine
 10
126.1805914466999
 20
165.0999999999999
 30
0.0
 11
116.6805883949999
 21
165.0999999999999
 31
0.0
  0
LINE
  5
31D
330
2
100
AcDbEntity
  8
0
 62
     3
100
AcDbLine
 10
126.1805914466999
 20
171.9
 30
0.0
 11
116.6805883949999
 21
171.9
 31
0.0
  0
ARC
  5
31E
330
2
100
AcDbEntity
  8
0
 62
     3
100
AcDbCircle
 10
129.6805914466997
 20
165.0999999999999
 30
0.0
 40
0.2
100
AcDbArc
 50
0.0000000000001018
 51
90.0
  0
ARC
  5
31F
330
2
100
AcDbEntity
  8
0
 62
     3
100
AcDbCircle
 10
127.6805914466999
 20
165.0999999999999
 30
0.0
 40
0.2
100
AcDbArc
 50
90.0
 51
180.0
  0
LINE
  5
320
330
2
100
AcDbEntity
  8
0
 62
     3
100
AcDbLine
 10
129.7805914467
 20
165.0999999999999
 30
0.0
 11
127.6805914466999
 21
165.0999999999999
 31
0.0
  0
LINE
  5
321
330
2
100
AcDbEntity
  8
0
 62
     3
100
AcDbLine
 10
129.6805914466997
 20
165.3
 30
0.0
 11
127.6805914466999
 21
165.3
 31
0.0
  0
ARC
  5
322
330
2
100
AcDbEntity
  8
0
 62
     3
100
AcDbCircle
 10
129.5805914466999
 20
174.5
 30
0.0
 40
0.2
100
AcDbArc
 50
0.0000000000010178
 51
90.0
  0
ARC
  5
323
330
2
100
AcDbEntity
  8
0
 62
     3
100
AcDbCircle
 10
129.6805914466997
 20
174.6999999999999
 30
0.0
 40
0.2
100
AcDbArc
 50
0.0000000000005089
 51
90.0
  0
ARC
  5
324
330
2
100
AcDbEntity
  8
0
 62
     3
100
AcDbCircle
 10
127.8805914466999
 20
174.5
 30
0.0
 40
0.2
100
AcDbArc
 50
90.0
 51
180.0
  0
ARC
  5
325
330
2
100
AcDbEntity
  8
0
 62
     3
100
AcDbCircle
 10
127.6805914466999
 20
174.6999999999999
 30
0.0
 40
0.2
100
AcDbArc
 50
90.0
 51
180.0
  0
LINE
  5
326
330
2
100
AcDbEntity
  8
0
 62
     3
100
AcDbLine
 10
129.5805914466999
 20
174.6999999999999
 30
0.0
 11
127.8805914466999
 21
174.6999999999999
 31
0.0
  0
LINE
  5
327
330
2
100
AcDbEntity
  8
0
 62
     3
100
AcDbLine
 10
127.6805914466999
 20
174.9
 30
0.0
 11
129.6805914466997
 21
174.9
 31
0.0
  0
ARC
  5
328
330
2
100
AcDbEntity
  8
0
 62
     3
100
AcDbCircle
 10
129.6805914466997
 20
171.9
 30
0.0
 40
0.2
100
AcDbArc
 50
270.0
 51
0.0
  0
ARC
  5
329
330
2
100
AcDbEntity
  8
0
 62
     3
100
AcDbCircle
 10
127.6805914466999
 20
171.9
 30
0.0
 40
0.2
100
AcDbArc
 50
180.0
 51
270.0
  0
LINE
  5
32A
330
2
100
AcDbEntity
  8
0
 62
     3
100
AcDbLine
 10
129.7805914467
 20
171.9
 30
0.0
 11
127.6805914466999
 21
171.9
 31
0.0
  0
LINE
  5
32B
330
2
100
AcDbEntity
  8
0
 62
     3
100
AcDbLine
 10
129.6805914466997
 20
171.6999999999999
 30
0.0
 11
127.6805914466999
 21
171.6999999999999
 31
0.0
  0
LINE
  5
32C
330
2
100
AcDbEntity
  8
0
 62
     3
100
AcDbLine
 10
129.7805914467
 20
171.9
 30
0.0
 11
129.7805914467
 21
174.5
 31
0.0
  0
LINE
  5
32D
330
2
100
AcDbEntity
  8
0
 62
     3
100
AcDbLine
 10
127.6805914466999
 20
174.5
 30
0.0
 11
127.6805914466999
 21
171.9
 31
0.0
  0
LINE
  5
32E
330
2
100
AcDbEntity
  8
0
 62
     3
100
AcDbLine
 10
127.4805914466996
 20
171.9
 30
0.0
 11
127.4805914466996
 21
174.6999999999999
 31
0.0
  0
LINE
  5
32F
330
2
100
AcDbEntity
  8
0
 62
     3
100
AcDbLine
 10
129.8805914466997
 20
171.9
 30
0.0
 11
129.8805914466997
 21
174.6999999999999
 31
0.0
  0
LINE
  5
330
330
2
100
AcDbEntity
  8
0
 62
     3
100
AcDbLine
 10
126.1805914466999
 20
179.9
 30
0.0
 11
136.4422195273999
 21
179.9
 31
0.0
  0
LINE
  5
331
330
2
100
AcDbEntity
  8
0
 62
     3
100
AcDbLine
 10
126.1805914466999
 20
180.0
 30
0.0
 11
116.6805883949999
 21
180.0
 31
0.0
  0
LINE
  5
332
330
2
100
AcDbEntity
  8
0
 62
     3
100
AcDbLine
 10
129.8692401803999
 20
180.0510283122999
 30
0.0
 11
133.4607838875999
 21
180.7398595651998
 31
0.0
  0
LINE
  5
333
330
2
100
AcDbEntity
  8
0
 62
     3
100
AcDbLine
 10
137.4805914466999
 20
176.2
 30
0.0
 11
132.6805914466999
 21
176.2
 31
0.0
  0
LINE
  5
334
330
2
100
AcDbEntity
  8
0
 62
     3
100
AcDbLine
 10
131.5805914467
 20
179.4999999999999
 30
0.0
 11
136.4422195273999
 21
179.4999999999999
 31
0.0
  0
LINE
  5
335
330
2
100
AcDbEntity
  8
0
 62
     3
100
AcDbLine
 10
127.8805914466999
 20
179.9
 30
0.0
 11
127.8805914466999
 21
180.0
 31
0.0
  0
LINE
  5
336
330
2
100
AcDbEntity
  8
0
 62
     3
100
AcDbLine
 10
127.6805914466999
 20
180.0
 30
0.0
 11
127.6805914466999
 21
179.9
 31
0.0
  0
LINE
  5
337
330
2
100
AcDbEntity
  8
0
 62
     3
100
AcDbLine
 10
129.5444821214998
 20
180.0
 30
0.0
 11
127.6805914466999
 21
180.0
 31
0.0
  0
ARC
  5
338
330
2
100
AcDbEntity
  8
0
 62
     3
100
AcDbCircle
 10
128.3143303658997
 20
188.8879588218999
 30
0.0
 40
8.9726855157
100
AcDbArc
 50
270.6832779991998
 51
279.9793768922
  0
ARC
  5
339
330
2
100
AcDbEntity
  8
0
 62
     3
100
AcDbCircle
 10
137.2062413701996
 20
181.1386144573999
 30
0.0
 40
0.3633243525
100
AcDbArc
 50
86.87317699229998
 51
101.1526584430999
  0
ARC
  5
33A
330
2
100
AcDbEntity
  8
0
 62
     3
100
AcDbCircle
 10
136.4269215397999
 20
191.2114999524
 30
0.0
 40
11.3115102971
100
AcDbArc
 50
270.0774883608
 51
279.3735872537999
  0
ARC
  5
33B
330
2
100
AcDbEntity
  8
0
 62
     3
100
AcDbCircle
 10
136.4250522381998
 20
188.3172889697999
 30
0.0
 40
8.8173056822
100
AcDbArc
 50
270.1115549204999
 51
282.5733737345
  0
LINE
  5
33C
330
2
100
AcDbEntity
  8
0
 62
     3
100
AcDbLine
 10
133.4607838875999
 20
180.7398595651998
 30
0.0
 11
133.5538455572
 21
180.8080536372999
 31
0.0
  0
LINE
  5
33D
330
2
100
AcDbEntity
  8
0
 62
     3
100
AcDbLine
 10
133.5538455572
 20
180.8080536372999
 30
0.0
 11
137.1359658097
 21
181.4950775418999
 31
0.0
  0
LINE
  5
33E
330
2
100
AcDbEntity
  8
0
 62
     3
100
AcDbLine
 10
115.1805872839998
 20
204.4500027588999
 30
0.0
 11
112.8805833909999
 21
205.1500039125
 31
0.0
  0
LINE
  5
33F
330
2
100
AcDbEntity
  8
0
 62
     3
100
AcDbLine
 10
116.6805838172999
 20
211.9000015259
 30
0.0
 11
113.0803942306998
 21
211.9000015259
 31
0.0
  0
LINE
  5
340
330
2
100
AcDbEntity
  8
0
 62
     3
100
AcDbLine
 10
116.0805853431998
 20
211.7722244262
 30
0.0
 11
113.0803893783999
 21
211.7722244262
 31
0.0
  0
LINE
  5
341
330
2
100
AcDbEntity
  8
0
 62
     3
100
AcDbLine
 10
116.0805853431998
 20
210.6999969482
 30
0.0
 11
113.0803486608
 21
210.6999969482
 31
0.0
  0
LINE
  5
342
330
2
100
AcDbEntity
  8
0
 62
     3
100
AcDbLine
 10
113.0805838172999
 20
212.6980081588
 30
0.0
 11
118.4805868690999
 21
212.6980081588
 31
0.0
  0
LINE
  5
343
330
2
100
AcDbEntity
  8
0
 62
     3
100
AcDbLine
 10
116.0805853431998
 20
204.4500427246
 30
0.0
 11
108.3805807655999
 21
204.4500427246
 31
0.0
  0
LINE
  5
344
330
2
100
AcDbEntity
  8
0
 62
     3
100
AcDbLine
 10
98.18058381729999
 20
201.5000915526999
 30
0.0
 11
116.6805838172999
 21
201.5000915526999
 31
0.0
  0
LINE
  5
345
330
2
100
AcDbEntity
  8
0
 62
     3
100
AcDbLine
 10
107.1805838173
 20
210.0
 30
0.0
 11
102.1805838172999
 21
210.0
 31
0.0
  0
LINE
  5
346
330
2
100
AcDbEntity
  8
0
 62
     3
100
AcDbLine
 10
97.4805792397
 20
202.8999999999999
 30
0.0
 11
97.4805792397
 21
203.3999999999999
 31
0.0
  0
LINE
  5
347
330
2
100
AcDbEntity
  8
0
 62
     3
100
AcDbLine
 10
101.3804129188998
 20
210.3499984741
 30
0.0
 11
101.3804129188998
 21
207.7500076294
 31
0.0
  0
LINE
  5
348
330
2
100
AcDbEntity
  8
0
 62
     3
100
AcDbLine
 10
97.4805792397
 20
207.9999465941999
 30
0.0
 11
97.4805792397
 21
208.4999465941999
 31
0.0
  0
LINE
  5
349
330
2
100
AcDbEntity
  8
0
 62
     3
100
AcDbLine
 10
99.88059602440001
 20
210.3499984741
 30
0.0
 11
99.88059602440001
 21
207.7500076294
 31
0.0
  0
LINE
  5
34A
330
2
100
AcDbEntity
  8
0
 62
     3
100
AcDbLine
 10
99.88059602440001
 20
207.7500076294
 30
0.0
 11
101.3804129188998
 21
207.7500076294
 31
0.0
  0
LINE
  5
34B
330
2
100
AcDbEntity
  8
0
 62
     3
100
AcDbLine
 10
99.88059602440001
 20
210.3499984741
 30
0.0
 11
101.3804129188998
 21
210.3499984741
 31
0.0
  0
LINE
  5
34C
330
2
100
AcDbEntity
  8
0
 62
     3
100
AcDbLine
 10
112.8805807655999
 20
208.7129593479999
 30
0.0
 11
112.8805807655999
 21
205.1499938965
 31
0.0
  0
LINE
  5
34D
330
2
100
AcDbEntity
  8
0
 62
     3
100
AcDbLine
 10
112.8805807655999
 20
205.1499938965
 30
0.0
 11
108.9805868690999
 21
205.1499938965
 31
0.0
  0
LINE
  5
34E
330
2
100
AcDbEntity
  8
0
 62
     3
100
AcDbLine
 10
109.2805257241999
 20
211.7722244262
 30
0.0
 11
108.9805868690999
 21
211.7722244262
 31
0.0
  0
LINE
  5
34F
330
2
100
AcDbEntity
  8
0
 62
     3
100
AcDbLine
 10
109.2805231678999
 20
211.9000015259
 30
0.0
 11
108.9805868690999
 21
211.9000015259
 31
0.0
  0
LINE
  5
350
330
2
100
AcDbEntity
  8
0
 62
     3
100
AcDbLine
 10
110.0805471754999
 20
210.6999969482
 30
0.0
 11
108.9805868690999
 21
210.6999969482
 31
0.0
  0
LINE
  5
351
330
2
100
AcDbEntity
  8
0
 62
     3
100
AcDbLine
 10
106.5305828514998
 20
212.6517875993999
 30
0.0
 11
105.9305815399999
 21
210.6517830618999
 31
0.0
  0
LINE
  5
352
330
2
100
AcDbEntity
  8
0
 62
     3
100
AcDbLine
 10
106.5305822914998
 20
212.6517791747999
 30
0.0
 11
106.2305792396998
 21
212.6517791747999
 31
0.0
  0
LINE
  5
353
330
2
100
AcDbEntity
  8
0
 62
     3
100
AcDbLine
 10
105.6305807655999
 20
212.6517791747999
 30
0.0
 11
105.3305853431999
 21
212.6517791747999
 31
0.0
  0
LINE
  5
354
330
2
100
AcDbEntity
  8
0
 62
     3
100
AcDbLine
 10
105.9305487510999
 20
210.6518763311999
 30
0.0
 11
105.3305627856998
 21
212.6518297151998
 31
0.0
  0
LINE
  5
355
330
2
100
AcDbEntity
  8
0
 62
     3
100
AcDbLine
 10
112.0804351399
 20
211.9529942422
 30
0.0
 11
112.0804351399
 21
210.2117190678999
 31
0.0
  0
LINE
  5
356
330
2
100
AcDbEntity
  8
0
 62
     3
100
AcDbLine
 10
112.5804351398999
 20
208.6268074912998
 30
0.0
 11
112.6765267056998
 21
208.6346218466999
 31
0.0
  0
LINE
  5
357
330
2
100
AcDbEntity
  8
0
 62
     3
100
AcDbLine
 10
112.6765267056998
 20
208.6346218466999
 30
0.0
 11
112.7690358010999
 21
208.6577735791999
 31
0.0
  0
LINE
  5
358
330
2
100
AcDbEntity
  8
0
 62
     3
100
AcDbLine
 10
112.7690358010999
 20
208.6577735791999
 30
0.0
 11
112.8545135168999
 21
208.6953995497
 31
0.0
  0
LINE
  5
359
330
2
100
AcDbEntity
  8
0
 62
     3
100
AcDbLine
 10
112.8545135168999
 20
208.6953995497
 30
0.0
 11
112.9297730863999
 21
208.7460969927999
 31
0.0
  0
LINE
  5
35A
330
2
100
AcDbEntity
  8
0
 62
     3
100
AcDbLine
 10
112.9297730863999
 20
208.7460969927999
 30
0.0
 11
112.9920086945999
 21
208.8079758145
 31
0.0
  0
LINE
  5
35B
330
2
100
AcDbEntity
  8
0
 62
     3
100
AcDbLine
 10
112.9920086945999
 20
208.8079758145
 30
0.0
 11
113.0389000832999
 21
208.8787290584999
 31
0.0
  0
LINE
  5
35C
330
2
100
AcDbEntity
  8
0
 62
     3
100
AcDbLine
 10
113.0389000832999
 20
208.8787290584999
 30
0.0
 11
113.0686990554
 21
208.9557189136
 31
0.0
  0
LINE
  5
35D
330
2
100
AcDbEntity
  8
0
 62
     3
100
AcDbLine
 10
113.0686990554
 20
208.9557189136
 30
0.0
 11
113.0802946503999
 21
209.0360750564999
 31
0.0
  0
LINE
  5
35E
330
2
100
AcDbEntity
  8
0
 62
     3
100
AcDbLine
 10
111.9805753871
 20
209.2898675185999
 30
0.0
 11
111.9805886523999
 21
208.6268074912998
 31
0.0
  0
LINE
  5
35F
330
2
100
AcDbEntity
  8
0
 62
     3
100
AcDbLine
 10
112.5804351398999
 20
208.6268074912998
 30
0.0
 11
111.9805886523999
 21
208.6268074912998
 31
0.0
  0
LINE
  5
360
330
2
100
AcDbEntity
  8
0
 62
     3
100
AcDbLine
 10
110.8804351398999
 20
211.9529942422
 30
0.0
 11
110.8804351398999
 21
210.2117190678999
 31
0.0
  0
LINE
  5
361
330
2
100
AcDbEntity
  8
0
 62
     3
100
AcDbLine
 10
109.5918344786999
 20
208.6577735791999
 30
0.0
 11
109.6843435740999
 21
208.6346218466999
 31
0.0
  0
LINE
  5
362
330
2
100
AcDbEntity
  8
0
 62
     3
100
AcDbLine
 10
109.6843435740999
 20
208.6346218466999
 30
0.0
 11
109.7804351398999
 21
208.6268074912998
 31
0.0
  0
LINE
  5
363
330
2
100
AcDbEntity
  8
0
 62
     3
100
AcDbLine
 10
110.3805886520999
 20
208.6268074912998
 30
0.0
 11
109.7804351398999
 21
208.6268074912998
 31
0.0
  0
LINE
  5
364
330
2
100
AcDbEntity
  8
0
 62
     3
100
AcDbLine
 10
110.3805753867999
 20
209.2898675185999
 30
0.0
 11
110.3805886520999
 21
208.6268074912998
 31
0.0
  0
ARC
  5
365
330
2
100
AcDbEntity
  8
0
 62
     3
100
AcDbCircle
 10
109.5805469408999
 20
210.7117190678998
 30
0.0
 40
0.5
100
AcDbArc
 50
270.0
 51
0.0011462677000385
  0
ARC
  5
366
330
2
100
AcDbEntity
  8
0
 62
     3
100
AcDbCircle
 10
109.5805429396998
 20
210.9117190679
 30
0.0
 40
0.5
100
AcDbArc
 50
0.0011462676913
 51
90.0
  0
LINE
  5
367
330
2
100
AcDbEntity
  8
0
 62
     3
100
AcDbLine
 10
110.0805429395999
 20
210.9117290709999
 30
0.0
 11
110.0805469407999
 21
210.7117290709999
 31
0.0
  0
LINE
  5
368
330
2
100
AcDbEntity
  8
0
 62
     3
100
AcDbLine
 10
109.2805756294999
 20
209.0360750564999
 30
0.0
 11
109.2921712243999
 21
208.9557189136
 31
0.0
  0
LINE
  5
369
330
2
100
AcDbEntity
  8
0
 62
     3
100
AcDbLine
 10
109.2921712243999
 20
208.9557189136
 30
0.0
 11
109.3219701964999
 21
208.8787290584999
 31
0.0
  0
LINE
  5
36A
330
2
100
AcDbEntity
  8
0
 62
     3
100
AcDbLine
 10
109.3219701964999
 20
208.8787290584999
 30
0.0
 11
109.3688615851999
 21
208.8079758145
 31
0.0
  0
LINE
  5
36B
330
2
100
AcDbEntity
  8
0
 62
     3
100
AcDbLine
 10
109.3688615851999
 20
208.8079758145
 30
0.0
 11
109.4310971933999
 21
208.7460969927999
 31
0.0
  0
LINE
  5
36C
330
2
100
AcDbEntity
  8
0
 62
     3
100
AcDbLine
 10
109.2805487597999
 20
210.6207991698
 30
0.0
 11
109.2805804646999
 21
209.0360415490999
 31
0.0
  0
LINE
  5
36D
330
2
100
AcDbEntity
  8
0
 62
     3
100
AcDbLine
 10
109.4310971933999
 20
208.7460969927999
 30
0.0
 11
109.5063567628999
 21
208.6953995497
 31
0.0
  0
LINE
  5
36E
330
2
100
AcDbEntity
  8
0
 62
     3
100
AcDbLine
 10
109.5063567628999
 20
208.6953995497
 30
0.0
 11
109.5918344786999
 21
208.6577735791999
 31
0.0
  0
LINE
  5
36F
330
2
100
AcDbEntity
  8
0
 62
     3
100
AcDbLine
 10
110.0722110254997
 20
210.6207991698
 30
0.0
 11
109.2805487597999
 21
210.6207991698
 31
0.0
  0
LINE
  5
370
330
2
100
AcDbEntity
  8
0
 62
     3
100
AcDbLine
 10
110.0698709006999
 20
210.6089471733
 30
0.0
 11
109.2805489968999
 21
210.6089471733
 31
0.0
  0
LINE
  5
371
330
2
100
AcDbEntity
  8
0
 62
     3
100
AcDbLine
 10
109.5805469408999
 20
210.2117190678999
 30
0.0
 11
109.2805569438999
 21
210.2117190678999
 31
0.0
  0
LINE
  5
372
330
2
100
AcDbEntity
  8
0
 62
     3
100
AcDbLine
 10
109.2805569438999
 20
211.4117190678999
 30
0.0
 11
109.5805429396998
 21
211.4117190678999
 31
0.0
  0
LINE
  5
373
330
2
100
AcDbEntity
  8
0
 62
     3
100
AcDbLine
 10
110.5804351398999
 20
212.4529942422
 30
0.0
 11
111.7804351398999
 21
212.4529942422
 31
0.0
  0
LINE
  5
374
330
2
100
AcDbEntity
  8
0
 62
     3
100
AcDbLine
 10
110.8804351398999
 20
211.9529942422
 30
0.0
 11
112.0804351399
 21
211.9529942422
 31
0.0
  0
LINE
  5
375
330
2
100
AcDbEntity
  8
0
 62
     3
100
AcDbLine
 10
112.0804351399
 20
210.6207991698
 30
0.0
 11
110.8804351398999
 21
210.6207991698
 31
0.0
  0
LINE
  5
376
330
2
100
AcDbEntity
  8
0
 62
     3
100
AcDbLine
 10
112.0804351399
 20
210.6089471733
 30
0.0
 11
110.8804351398999
 21
210.6089471733
 31
0.0
  0
LINE
  5
377
330
2
100
AcDbEntity
  8
0
 62
     3
100
AcDbLine
 10
112.0804351399
 20
210.2117190678999
 30
0.0
 11
110.8804351398999
 21
210.2117190678999
 31
0.0
  0
LINE
  5
378
330
2
100
AcDbEntity
  8
0
 62
     3
100
AcDbLine
 10
111.9805834154999
 20
208.8885750890999
 30
0.0
 11
110.3805834150999
 21
208.8885750890999
 31
0.0
  0
LINE
  5
379
330
2
100
AcDbEntity
  8
0
 62
     3
100
AcDbLine
 10
111.9805753871
 20
209.2898675185999
 30
0.0
 11
110.3805753867999
 21
209.2898675185999
 31
0.0
  0
LINE
  5
37A
330
2
100
AcDbEntity
  8
0
 62
     3
100
AcDbLine
 10
112.0804351399
 20
210.6999969482
 30
0.0
 11
110.8804351398999
 21
210.6999969482
 31
0.0
  0
LINE
  5
37B
330
2
100
AcDbEntity
  8
0
 62
     3
100
AcDbLine
 10
112.0804351399
 20
211.9000015259
 30
0.0
 11
110.8804351398999
 21
211.9000015259
 31
0.0
  0
LINE
  5
37C
330
2
100
AcDbEntity
  8
0
 62
     3
100
AcDbLine
 10
112.0804351399
 20
211.7722244262
 30
0.0
 11
110.8804351398999
 21
211.7722244262
 31
0.0
  0
LINE
  5
37D
330
2
100
AcDbEntity
  8
0
 62
     3
100
AcDbLine
 10
131.3805914466996
 20
209.2000434875
 30
0.0
 11
126.3805914466999
 21
209.2000434875
 31
0.0
  0
LINE
  5
37E
330
2
100
AcDbEntity
  8
0
 62
     3
100
AcDbLine
 10
131.5805914467
 20
201.5000434875
 30
0.0
 11
126.1805914466999
 21
201.5000434875
 31
0.0
  0
LINE
  5
37F
330
2
100
AcDbEntity
  8
0
 62
     3
100
AcDbLine
 10
126.1805914466999
 20
201.5000434875
 30
0.0
 11
126.1805914466999
 21
209.0000434874999
 31
0.0
  0
LINE
  5
380
330
2
100
AcDbEntity
  8
0
 62
     3
100
AcDbLine
 10
116.0805853431998
 20
204.4500427246
 30
0.0
 11
116.0805853431998
 21
211.9000015259
 31
0.0
  0
LINE
  5
381
330
2
100
AcDbEntity
  8
0
 62
     3
100
AcDbLine
 10
115.1805838172998
 20
210.6999969482
 30
0.0
 11
115.1805838172998
 21
204.4500427246
 31
0.0
  0
LINE
  5
382
330
2
100
AcDbEntity
  8
0
 62
     3
100
AcDbLine
 10
116.6805838172999
 20
201.4999961852999
 30
0.0
 11
116.6805838172999
 21
212.6980081588
 31
0.0
  0
LINE
  5
383
330
2
100
AcDbEntity
  8
0
 62
     3
100
AcDbLine
 10
116.6805838172999
 20
201.5000915526999
 30
0.0
 11
116.6805838172999
 21
211.9000015259
 31
0.0
  0
LINE
  5
384
330
2
100
AcDbEntity
  8
0
 62
     3
100
AcDbLine
 10
126.1805914466999
 20
201.4999961852999
 30
0.0
 11
116.6805838172999
 21
201.4999961852999
 31
0.0
  0
LINE
  5
385
330
2
100
AcDbEntity
  8
0
 62
     3
100
AcDbLine
 10
116.6805838172999
 20
211.5999984741
 30
0.0
 11
116.0805853431998
 21
211.5999984741
 31
0.0
  0
LINE
  5
386
330
2
100
AcDbEntity
  8
0
 62
     3
100
AcDbLine
 10
119.9805868691
 20
212.4140510559
 30
0.0
 11
116.6805838172999
 21
212.4140510559
 31
0.0
  0
ARC
  5
387
330
2
100
AcDbEntity
  8
0
 62
     3
100
AcDbCircle
 10
126.3805914466999
 20
209.0000434874999
 30
0.0
 40
0.2
100
AcDbArc
 50
90.0
 51
180.0
  0
LINE
  5
388
330
2
100
AcDbEntity
  8
0
 62
     3
100
AcDbLine
 10
120.9805838172999
 20
209.0
 30
0.0
 11
125.1805914466999
 21
209.0
 31
0.0
  0
LINE
  5
389
330
2
100
AcDbEntity
  8
0
 62
     3
100
AcDbLine
 10
128.6805914466997
 20
207.6999999999999
 30
0.0
 11
128.6805914466997
 21
206.3000434875
 31
0.0
  0
LINE
  5
38A
330
2
100
AcDbEntity
  8
0
 62
     3
100
AcDbLine
 10
129.1805914466999
 20
207.6999999999999
 30
0.0
 11
129.1805914466999
 21
206.3000434875
 31
0.0
  0
LINE
  5
38B
330
2
100
AcDbEntity
  8
0
 62
     3
100
AcDbLine
 10
127.6805914466999
 20
208.2000061035
 30
0.0
 11
127.6805914466999
 21
206.5999984740999
 31
0.0
  0
LINE
  5
38C
330
2
100
AcDbEntity
  8
0
 62
     3
100
AcDbLine
 10
129.8805914466997
 20
208.2000434875
 30
0.0
 11
129.8805914466997
 21
206.5000434874999
 31
0.0
  0
LINE
  5
38D
330
2
100
AcDbEntity
  8
0
 62
     3
100
AcDbLine
 10
127.4805914466996
 20
208.2000434875
 30
0.0
 11
127.4805914466996
 21
206.5000434874999
 31
0.0
  0
LINE
  5
38E
330
2
100
AcDbEntity
  8
0
 62
     3
100
AcDbLine
 10
131.4805914466999
 20
206.7238039181999
 30
0.0
 11
129.9270016081998
 21
205.8268384068
 31
0.0
  0
LINE
  5
38F
330
2
100
AcDbEntity
  8
0
 62
     3
100
AcDbLine
 10
133.5360325187999
 20
204.9830763017999
 30
0.0
 11
129.9444888116999
 21
205.1670477821998
 31
0.0
  0
LINE
  5
390
330
2
100
AcDbEntity
  8
0
 62
     3
100
AcDbLine
 10
133.4607838875999
 20
204.7855486447999
 30
0.0
 11
129.8692401803999
 21
204.9695201252
 31
0.0
  0
LINE
  5
391
330
2
100
AcDbEntity
  8
0
 62
     3
100
AcDbLine
 10
137.3805914466996
 20
201.8431539140999
 30
0.0
 11
128.9805914466999
 21
205.0431539140999
 31
0.0
  0
LINE
  5
392
330
2
100
AcDbEntity
  8
0
 62
     3
100
AcDbLine
 10
136.4422195273999
 20
201.9000434875
 30
0.0
 11
131.5805914467
 21
201.9000434875
 31
0.0
  0
LINE
  5
393
330
2
100
AcDbEntity
  8
0
 62
     3
100
AcDbLine
 10
136.44268431
 20
201.9000205993
 30
0.0
 11
131.5805914467
 21
201.9000205993
 31
0.0
  0
LINE
  5
394
330
2
100
AcDbEntity
  8
0
 62
     3
100
AcDbLine
 10
128.6805914466997
 20
205.8000434875
 30
0.0
 11
128.6805914466997
 21
205.1000434874999
 31
0.0
  0
LINE
  5
395
330
2
100
AcDbEntity
  8
0
 62
     3
100
AcDbLine
 10
129.1805914466999
 20
205.8000434875
 30
0.0
 11
129.1805914466999
 21
205.1000434874999
 31
0.0
  0
ARC
  5
396
330
2
100
AcDbEntity
  8
0
 62
     3
100
AcDbCircle
 10
129.8270016081999
 20
206.0000434875
 30
0.0
 40
0.2
100
AcDbArc
 50
270.0
 51
300.0
  0
ARC
  5
397
330
2
100
AcDbEntity
  8
0
 62
     3
100
AcDbCircle
 10
129.6805914466997
 20
206.5000434874999
 30
0.0
 40
0.2
100
AcDbArc
 50
270.0
 51
0.0
  0
ARC
  5
398
330
2
100
AcDbEntity
  8
0
 62
     3
100
AcDbCircle
 10
127.8805960243999
 20
206.5999984740999
 30
0.0
 40
0.1999999881
100
AcDbArc
 50
180.0
 51
269.9999820138998
  0
LINE
  5
399
330
2
100
AcDbEntity
  8
0
 62
     3
100
AcDbLine
 10
128.0422195274
 20
205.1000434874999
 30
0.0
 11
128.0305914466999
 21
205.1000434874999
 31
0.0
  0
ARC
  5
39A
330
2
100
AcDbEntity
  8
0
 62
     3
100
AcDbCircle
 10
128.0305914466999
 20
205.4500434875
 30
0.0
 40
0.35
100
AcDbArc
 50
90.0
 51
270.0
  0
ARC
  5
39B
330
2
100
AcDbEntity
  8
0
 62
     3
100
AcDbCircle
 10
127.6805914466999
 20
206.5000434874999
 30
0.0
 40
0.2
100
AcDbArc
 50
180.0
 51
270.0
  0
LINE
  5
39C
330
2
100
AcDbEntity
  8
0
 62
     3
100
AcDbLine
 10
128.6805914466997
 20
206.3999938964999
 30
0.0
 11
127.8805960243999
 21
206.3999938964999
 31
0.0
  0
LINE
  5
39D
330
2
100
AcDbEntity
  8
0
 62
     3
100
AcDbLine
 10
129.8270016081999
 20
205.8000434875
 30
0.0
 11
128.0305914466999
 21
205.8000434875
 31
0.0
  0
LINE
  5
39E
330
2
100
AcDbEntity
  8
0
 62
     3
100
AcDbLine
 10
129.6805914466997
 20
206.3000434875
 30
0.0
 11
127.6805914466999
 21
206.3000434875
 31
0.0
  0
ARC
  5
39F
330
2
100
AcDbEntity
  8
0
 62
     3
100
AcDbCircle
 10
130.1613181965999
 20
171.9747443384999
 30
0.0
 40
33.19301165729999
100
AcDbArc
 50
90.37428049959999
 51
93.6603499487
  0
ARC
  5
3A0
330
2
100
AcDbEntity
  8
0
 62
     3
100
AcDbCircle
 10
126.0058408116999
 20
163.7432604281
 30
0.0
 40
41.4068876311
100
AcDbArc
 50
84.64632755910001
 51
87.18107308350003
  0
LINE
  5
3A1
330
2
100
AcDbEntity
  8
0
 62
     3
100
AcDbLine
 10
131.6805914466999
 20
201.9000205993
 30
0.0
 11
131.6805914466999
 21
201.4999961852999
 31
0.0
  0
LINE
  5
3A2
330
2
100
AcDbEntity
  8
0
 62
     3
100
AcDbLine
 10
131.5805914467
 20
201.9000434875
 30
0.0
 11
131.5805914467
 21
201.5000434875
 31
0.0
  0
LINE
  5
3A3
330
2
100
AcDbEntity
  8
0
 62
     3
100
AcDbLine
 10
137.3013079902999
 20
204.8579190006
 30
0.0
 11
137.2260593590999
 21
204.6603913435999
 31
0.0
  0
LINE
  5
3A4
330
2
100
AcDbEntity
  8
0
 62
     3
100
AcDbLine
 10
137.2112144408999
 20
204.8813744065999
 30
0.0
 11
137.1359658097
 21
204.6838467495999
 31
0.0
  0
ARC
  5
3A5
330
2
100
AcDbEntity
  8
0
 62
     3
100
AcDbCircle
 10
137.1987215321998
 20
204.6486335041
 30
0.0
 40
0.2330759543
100
AcDbArc
 50
63.8870743657
 51
86.9274645533
  0
ARC
  5
3A6
330
2
100
AcDbEntity
  8
0
 62
     3
100
AcDbCircle
 10
137.1234729008999
 20
204.4511058471
 30
0.0
 40
0.2330759543
100
AcDbArc
 50
63.8870743656
 51
86.9274645534
  0
LINE
  5
3A7
330
2
100
AcDbEntity
  8
0
 62
     3
100
AcDbLine
 10
134.8519567759999
 20
206.6000015259
 30
0.0
 11
134.8519567759999
 21
205.7000076293999
 31
0.0
  0
LINE
  5
3A8
330
2
100
AcDbEntity
  8
0
 62
     3
100
AcDbLine
 10
137.4805944984996
 20
201.8358291670999
 30
0.0
 11
137.4805944984996
 21
201.4999961852999
 31
0.0
  0
ARC
  5
3A9
330
2
100
AcDbEntity
  8
0
 62
     3
100
AcDbCircle
 10
134.4058408116999
 20
160.5432604280999
 30
0.0
 40
41.4068876311
100
AcDbArc
 50
84.64632755910001
 51
87.18107308350003
  0
LINE
  5
3AA
330
2
100
AcDbEntity
  8
0
 62
     3
100
AcDbLine
 10
134.2805929725999
 20
206.6000015259
 30
0.0
 11
134.2805929725999
 21
205.7000076293999
 31
0.0
  0
LINE
  5
3AB
330
2
100
AcDbEntity
  8
0
 62
     3
100
AcDbLine
 10
133.1092306950999
 20
206.6000015259
 30
0.0
 11
133.1092306950999
 21
205.7000076293999
 31
0.0
  0
LINE
  5
3AC
330
2
100
AcDbEntity
  8
0
 62
     3
100
AcDbLine
 10
133.6805944985
 20
206.6000015259
 30
0.0
 11
133.6805944985
 21
205.7000076293999
 31
0.0
  0
LINE
  5
3AD
330
2
100
AcDbEntity
  8
0
 62
     3
100
AcDbLine
 10
133.6290941883996
 20
205.0648631844999
 30
0.0
 11
133.5360325187999
 21
204.9830763017999
 31
0.0
  0
LINE
  5
3AE
330
2
100
AcDbEntity
  8
0
 62
     3
100
AcDbLine
 10
133.6290941883996
 20
205.0648631844999
 30
0.0
 11
133.5538455572
 21
204.8673355275999
 31
0.0
  0
LINE
  5
3AF
330
2
100
AcDbEntity
  8
0
 62
     3
100
AcDbLine
 10
133.5538455572
 20
204.8673355275999
 30
0.0
 11
133.4607838875999
 21
204.7855486447999
 31
0.0
  0
LINE
  5
3B0
330
2
100
AcDbEntity
  8
0
 62
     3
100
AcDbLine
 10
133.5360325187999
 20
204.9830763017999
 30
0.0
 11
133.4607838875999
 21
204.7855486447999
 31
0.0
  0
LINE
  5
3B1
330
2
100
AcDbEntity
  8
0
 62
     3
100
AcDbLine
 10
134.8519567759999
 20
206.6000015259
 30
0.0
 11
133.1092306950999
 21
206.6000015259
 31
0.0
  0
LINE
  5
3B2
330
2
100
AcDbEntity
  8
0
 62
     3
100
AcDbLine
 10
134.8519567759999
 20
205.7000076293999
 30
0.0
 11
133.1092306950999
 21
205.7000076293999
 31
0.0
  0
LINE
  5
3B3
330
2
100
AcDbEntity
  8
0
 62
     3
100
AcDbLine
 10
137.2112144408999
 20
204.8813744065999
 30
0.0
 11
133.6290941883996
 21
205.0648631844999
 31
0.0
  0
LINE
  5
3B4
330
2
100
AcDbEntity
  8
0
 62
     3
100
AcDbLine
 10
137.1359658097
 20
204.6838467495999
 30
0.0
 11
133.5538455572
 21
204.8673355275999
 31
0.0
  0
LINE
  5
3B5
330
2
100
AcDbEntity
  8
0
 62
     3
100
AcDbLine
 10
136.1805914466999
 20
210.0
 30
0.0
 11
132.6805914466999
 21
210.0
 31
0.0
  0
ARC
  5
3B6
330
2
100
AcDbEntity
  8
0
 62
     3
100
AcDbCircle
 10
131.3805914466996
 20
209.0000434874999
 30
0.0
 40
0.2
100
AcDbArc
 50
0.0
 51
90.0
  0
ARC
  5
3B7
330
2
100
AcDbEntity
  8
0
 62
     3
100
AcDbCircle
 10
131.3805914466996
 20
206.897008999
 30
0.0
 40
0.2
100
AcDbArc
 50
300.0
 51
0.0
  0
LINE
  5
3B8
330
2
100
AcDbEntity
  8
0
 62
     3
100
AcDbLine
 10
131.5805914467
 20
209.0000434874999
 30
0.0
 11
131.5805914467
 21
206.897008999
 31
0.0
  0
ARC
  5
3B9
330
2
100
AcDbEntity
  8
0
 62
     3
100
AcDbCircle
 10
129.5805929725996
 20
208.2000061035
 30
0.0
 40
0.1999999881
100
AcDbArc
 50
0.000035972178686
 51
90.0000179861
  0
ARC
  5
3BA
330
2
100
AcDbEntity
  8
0
 62
     3
100
AcDbCircle
 10
129.6805914466997
 20
208.2000434875
 30
0.0
 40
0.2
100
AcDbArc
 50
0.0
 51
90.0
  0
ARC
  5
3BB
330
2
100
AcDbEntity
  8
0
 62
     3
100
AcDbCircle
 10
127.8805960243999
 20
208.2000061035
 30
0.0
 40
0.1999999881
100
AcDbArc
 50
90.0000179861
 51
180.0
  0
ARC
  5
3BC
330
2
100
AcDbEntity
  8
0
 62
     3
100
AcDbCircle
 10
127.6805914466999
 20
208.2000434875
 30
0.0
 40
0.2
100
AcDbArc
 50
90.0
 51
180.0
  0
LINE
  5
3BD
330
2
100
AcDbEntity
  8
0
 62
     3
100
AcDbLine
 10
129.5805929725996
 20
208.4000106811
 30
0.0
 11
127.8805960243999
 21
208.4000106811
 31
0.0
  0
LINE
  5
3BE
330
2
100
AcDbEntity
  8
0
 62
     3
100
AcDbLine
 10
129.6805914466997
 20
208.4000434875
 30
0.0
 11
127.6805914466999
 21
208.4000434875
 31
0.0
  0
LINE
  5
3BF
330
2
100
AcDbEntity
  8
0
 62
     3
100
AcDbLine
 10
129.8805914466997
 20
207.6999999999999
 30
0.0
 11
128.6805914466997
 21
207.6999999999999
 31
0.0
  0
LINE
  5
3C0
330
2
100
AcDbEntity
  8
0
 62
     3
100
AcDbLine
 10
129.8805914466997
 20
207.1000015259
 30
0.0
 11
129.1805914466999
 21
207.1000015259
 31
0.0
  0
LINE
  5
3C1
330
2
100
AcDbEntity
  8
0
 62
     3
100
AcDbLine
 10
128.6805914466997
 20
206.8999938965
 30
0.0
 11
127.6805914466999
 21
206.8999938965
 31
0.0
  0
LINE
  5
3C2
330
2
100
AcDbEntity
  8
0
 62
     3
100
AcDbLine
 10
129.7805899207999
 20
208.2000061035
 30
0.0
 11
129.7805899207999
 21
207.6999999999999
 31
0.0
  0
LINE
  5
3C3
330
2
100
AcDbEntity
  8
0
 62
     3
100
AcDbLine
 10
161.9656355716998
 20
179.9999542236
 30
0.0
 11
162.8656599858
 21
179.9999542236
 31
0.0
  0
LINE
  5
3C4
330
2
100
AcDbEntity
  8
0
 62
     3
100
AcDbLine
 10
143.1805914466998
 20
174.0
 30
0.0
 11
139.6805914466999
 21
174.0
 31
0.0
  0
LINE
  5
3C5
330
2
100
AcDbEntity
  8
0
 62
     3
100
AcDbLine
 10
145.1805914466999
 20
181.0
 30
0.0
 11
143.1805914466998
 21
181.0
 31
0.0
  0
LINE
  5
3C6
330
2
100
AcDbEntity
  8
0
 62
     3
100
AcDbLine
 10
147.6171555717999
 20
180.1847036874
 30
0.0
 11
144.3559703215998
 21
181.0
 31
0.0
  0
LINE
  5
3C7
330
2
100
AcDbEntity
  8
0
 62
     3
100
AcDbLine
 10
142.8087577027999
 20
180.6683441388999
 30
0.0
 11
142.8069487015
 21
180.6483533311999
 31
0.0
  0
LINE
  5
3C8
330
2
100
AcDbEntity
  8
0
 62
     3
100
AcDbLine
 10
142.8069487015
 20
180.6483533311999
 30
0.0
 11
142.7976704408998
 21
180.6276848775999
 31
0.0
  0
LINE
  5
3C9
330
2
100
AcDbEntity
  8
0
 62
     3
100
AcDbLine
 10
142.7976704408998
 20
180.6276848775999
 30
0.0
 11
142.7812794792999
 21
180.6071330552
 31
0.0
  0
LINE
  5
3CA
330
2
100
AcDbEntity
  8
0
 62
     3
100
AcDbLine
 10
142.7812794792999
 20
180.6071330552
 30
0.0
 11
142.7584057121
 21
180.5874876591999
 31
0.0
  0
LINE
  5
3CB
330
2
100
AcDbEntity
  8
0
 62
     3
100
AcDbLine
 10
142.7584057121
 20
180.5874876591999
 30
0.0
 11
142.7299281654998
 21
180.5695036509
 31
0.0
  0
LINE
  5
3CC
330
2
100
AcDbEntity
  8
0
 62
     3
100
AcDbLine
 10
142.7299281654998
 20
180.5695036509
 30
0.0
 11
142.6969412154998
 21
180.5538721458999
 31
0.0
  0
LINE
  5
3CD
330
2
100
AcDbEntity
  8
0
 62
     3
100
AcDbLine
 10
142.6969412154998
 20
180.5538721458999
 30
0.0
 11
142.6607125322999
 21
180.5411938539999
 31
0.0
  0
LINE
  5
3CE
330
2
100
AcDbEntity
  8
0
 62
     3
100
AcDbLine
 10
142.6607125322999
 20
180.5411938539999
 30
0.0
 11
142.6226343635998
 21
180.5319559948
 31
0.0
  0
LINE
  5
3CF
330
2
100
AcDbEntity
  8
0
 62
     3
100
AcDbLine
 10
142.5473857323999
 20
180.8715446699
 30
0.0
 11
142.5854639009999
 21
180.8807825289999
 31
0.0
  0
LINE
  5
3D0
330
2
100
AcDbEntity
  8
0
 62
     3
100
AcDbLine
 10
142.5854639009999
 20
180.8807825289999
 30
0.0
 11
142.6216925842999
 21
180.8934608209
 31
0.0
  0
LINE
  5
3D1
330
2
100
AcDbEntity
  8
0
 62
     3
100
AcDbLine
 10
142.6216925842999
 20
180.8934608209
 30
0.0
 11
142.6546795342999
 21
180.9090923259999
 31
0.0
  0
LINE
  5
3D2
330
2
100
AcDbEntity
  8
0
 62
     3
100
AcDbLine
 10
142.6546795342999
 20
180.9090923259999
 30
0.0
 11
142.6831570809
 21
180.9270763341999
 31
0.0
  0
LINE
  5
3D3
330
2
100
AcDbEntity
  8
0
 62
     3
100
AcDbLine
 10
142.6831570809
 20
180.9270763341999
 30
0.0
 11
142.7060308479999
 21
180.9467217303
 31
0.0
  0
LINE
  5
3D4
330
2
100
AcDbEntity
  8
0
 62
     3
100
AcDbLine
 10
142.7060308479999
 20
180.9467217303
 30
0.0
 11
142.7224218095999
 21
180.9672735525999
 31
0.0
  0
LINE
  5
3D5
330
2
100
AcDbEntity
  8
0
 62
     3
100
AcDbLine
 10
142.7224218095999
 20
180.9672735525999
 30
0.0
 11
142.7317000702999
 21
180.9879420062
 31
0.0
  0
LINE
  5
3D6
330
2
100
AcDbEntity
  8
0
 62
     3
100
AcDbLine
 10
142.7317000702999
 20
180.9879420062
 30
0.0
 11
142.7335090716
 21
181.007932814
 31
0.0
  0
LINE
  5
3D7
330
2
100
AcDbEntity
  8
0
 62
     3
100
AcDbLine
 10
142.7245963318999
 20
181.0955325652
 30
0.0
 11
142.7213679276998
 21
181.1087136035998
 31
0.0
  0
LINE
  5
3D8
330
2
100
AcDbEntity
  8
0
 62
     3
100
AcDbLine
 10
142.7213679276998
 20
181.1087136035998
 30
0.0
 11
142.7144980729998
 21
181.1209357854999
 31
0.0
  0
LINE
  5
3D9
330
2
100
AcDbEntity
  8
0
 62
     3
100
AcDbLine
 10
142.7144980729998
 20
181.1209357854999
 30
0.0
 11
142.7041164233999
 21
181.1319684398999
 31
0.0
  0
LINE
  5
3DA
330
2
100
AcDbEntity
  8
0
 62
     3
100
AcDbLine
 10
142.7041164233999
 20
181.1319684398999
 30
0.0
 11
142.6904189132999
 21
181.1416033459999
 31
0.0
  0
LINE
  5
3DB
330
2
100
AcDbEntity
  8
0
 62
     3
100
AcDbLine
 10
142.6904189132999
 20
181.1416033459999
 30
0.0
 11
142.6736640576999
 21
181.1496586627999
 31
0.0
  0
LINE
  5
3DC
330
2
100
AcDbEntity
  8
0
 62
     3
100
AcDbLine
 10
142.6736640576999
 20
181.1496586627999
 30
0.0
 11
142.6541680732998
 21
181.1559823613
 31
0.0
  0
LINE
  5
3DD
330
2
100
AcDbEntity
  8
0
 62
     3
100
AcDbLine
 10
142.6541680732998
 20
181.1559823613
 30
0.0
 11
142.6322989105998
 21
181.1604550933999
 31
0.0
  0
LINE
  5
3DE
330
2
100
AcDbEntity
  8
0
 62
     3
100
AcDbLine
 10
142.6322989105998
 20
181.1604550933999
 30
0.0
 11
142.6084693091999
 21
181.1629924445999
 31
0.0
  0
LINE
  5
3DF
330
2
100
AcDbEntity
  8
0
 62
     3
100
AcDbLine
 10
142.7335090716
 20
181.007932814
 30
0.0
 11
142.7245963318999
 21
181.0955325652
 31
0.0
  0
LINE
  5
3E0
330
2
100
AcDbEntity
  8
0
 62
     3
100
AcDbLine
 10
142.7998449630998
 20
180.7559438900999
 30
0.0
 11
142.7236879950999
 21
181.1011762415
 31
0.0
  0
LINE
  5
3E1
330
2
100
AcDbEntity
  8
0
 62
     3
100
AcDbLine
 10
142.8087577027999
 20
180.6683441388999
 30
0.0
 11
142.7998449630998
 21
180.7559438900999
 31
0.0
  0
LINE
  5
3E2
330
2
100
AcDbEntity
  8
0
 62
     3
100
AcDbLine
 10
142.6226343635998
 20
180.5319559948
 30
0.0
 11
142.5473857323999
 21
180.8715446699
 31
0.0
  0
LINE
  5
3E3
330
2
100
AcDbEntity
  8
0
 62
     3
100
AcDbLine
 10
143.1805914466998
 20
180.0
 30
0.0
 11
139.8490331399999
 21
180.0
 31
0.0
  0
LINE
  5
3E4
330
2
100
AcDbEntity
  8
0
 62
     3
100
AcDbLine
 10
147.6656626967999
 20
180.3787321875
 30
0.0
 11
145.1805914466999
 21
181.0
 31
0.0
  0
ARC
  5
3E5
330
2
100
AcDbEntity
  8
0
 62
     3
100
AcDbCircle
 10
147.1805914466998
 20
178.4384471872
 30
0.0
 40
1.8
100
AcDbArc
 50
0.0
 51
75.9637565321
  0
ARC
  5
3E6
330
2
100
AcDbEntity
  8
0
 62
     3
100
AcDbCircle
 10
147.1805914466998
 20
178.4384471872
 30
0.0
 40
2.0
100
AcDbArc
 50
0.0
 51
75.9637565321
  0
LINE
  5
3E7
330
2
100
AcDbEntity
  8
0
 62
     3
100
AcDbLine
 10
165.8941115311999
 20
181.4038439599999
 30
0.0
 11
165.8990259161999
 21
181.4041541126998
 31
0.0
  0
LINE
  5
3E8
330
2
100
AcDbEntity
  8
0
 62
     3
100
AcDbLine
 10
165.8990259161999
 20
181.4041541126998
 30
0.0
 11
165.9033907594999
 21
181.4041175847999
 31
0.0
  0
LINE
  5
3E9
330
2
100
AcDbEntity
  8
0
 62
     3
100
AcDbLine
 10
165.9033907594999
 20
181.4041175847999
 30
0.0
 11
165.9071909425998
 21
181.4037345027999
 31
0.0
  0
LINE
  5
3EA
330
2
100
AcDbEntity
  8
0
 62
     3
100
AcDbLine
 10
165.9071909425998
 20
181.4037345027999
 30
0.0
 11
165.9104133027
 21
181.4030061935998
 31
0.0
  0
LINE
  5
3EB
330
2
100
AcDbEntity
  8
0
 62
     3
100
AcDbLine
 10
165.9104133027
 20
181.4030061935998
 30
0.0
 11
165.9130466785998
 21
181.4019351798
 31
0.0
  0
LINE
  5
3EC
330
2
100
AcDbEntity
  8
0
 62
     3
100
AcDbLine
 10
165.9130466785998
 20
181.4019351798
 30
0.0
 11
165.9150819489999
 21
181.4005251712
 31
0.0
  0
LINE
  5
3ED
330
2
100
AcDbEntity
  8
0
 62
     3
100
AcDbLine
 10
165.9150819489999
 20
181.4005251712
 30
0.0
 11
165.9165120643999
 21
181.3987810515
 31
0.0
  0
LINE
  5
3EE
330
2
100
AcDbEntity
  8
0
 62
     3
100
AcDbLine
 10
165.9165120643999
 20
181.3987810515
 30
0.0
 11
165.9173320711999
 21
181.3967088618999
 31
0.0
  0
LINE
  5
3EF
330
2
100
AcDbEntity
  8
0
 62
     3
100
AcDbLine
 10
166.1028879257998
 20
181.0504334392
 30
0.0
 11
165.9166537980999
 21
181.398529052
 31
0.0
  0
LINE
  5
3F0
330
2
100
AcDbEntity
  8
0
 62
     3
100
AcDbLine
 10
166.1144882084999
 20
181.0
 30
0.0
 11
166.1028879257998
 21
181.0504334392
 31
0.0
  0
LINE
  5
3F1
330
2
100
AcDbEntity
  8
0
 62
     3
100
AcDbLine
 10
163.0892054593999
 20
181.0956807022
 30
0.0
 11
163.1135415686999
 21
181.1080199393999
 31
0.0
  0
LINE
  5
3F2
330
2
100
AcDbEntity
  8
0
 62
     3
100
AcDbLine
 10
163.1135415686999
 20
181.1080199393999
 30
0.0
 11
163.1375831309
 21
181.1194100214
 31
0.0
  0
LINE
  5
3F3
330
2
100
AcDbEntity
  8
0
 62
     3
100
AcDbLine
 10
163.1375831309
 20
181.1194100214
 30
0.0
 11
163.1608764061999
 21
181.1296359815999
 31
0.0
  0
LINE
  5
3F4
330
2
100
AcDbEntity
  8
0
 62
     3
100
AcDbLine
 10
163.1608764061999
 20
181.1296359815999
 30
0.0
 11
163.1829817773999
 21
181.138504824
 31
0.0
  0
LINE
  5
3F5
330
2
100
AcDbEntity
  8
0
 62
     3
100
AcDbLine
 10
163.1829817773999
 20
181.138504824
 30
0.0
 11
163.2034820466999
 21
181.1458491658
 31
0.0
  0
LINE
  5
3F6
330
2
100
AcDbEntity
  8
0
 62
     3
100
AcDbLine
 10
163.2034820466999
 20
181.1458491658
 30
0.0
 11
163.2219903096999
 21
181.151530396
 31
0.0
  0
LINE
  5
3F7
330
2
100
AcDbEntity
  8
0
 62
     3
100
AcDbLine
 10
163.2219903096999
 20
181.151530396
 30
0.0
 11
163.2381572572996
 21
181.1554412921998
 31
0.0
  0
LINE
  5
3F8
330
2
100
AcDbEntity
  8
0
 62
     3
100
AcDbLine
 10
163.2381572572996
 20
181.1554412921998
 30
0.0
 11
163.2516777684999
 21
181.1575080434
 31
0.0
  0
LINE
  5
3F9
330
2
100
AcDbEntity
  8
0
 62
     3
100
AcDbLine
 10
162.9322456479999
 20
181.0135087124999
 30
0.0
 11
163.0892054593999
 21
181.0956807022
 31
0.0
  0
ARC
  5
3FA
330
2
100
AcDbEntity
  8
0
 62
     3
100
AcDbCircle
 10
163.3916641091999
 20
180.4999542236
 30
0.0
 40
0.5
100
AcDbArc
 50
0.0
 51
90.0
  0
LINE
  5
3FB
330
2
100
AcDbEntity
  8
0
 62
     3
100
AcDbLine
 10
163.8916641091999
 20
179.6999511718999
 30
0.0
 11
163.8916641091999
 21
180.4999542236
 31
0.0
  0
ARC
  5
3FC
330
2
100
AcDbEntity
  8
0
 62
     3
100
AcDbCircle
 10
162.8656599858
 20
179.4999542236
 30
0.0
 40
0.5
100
AcDbArc
 50
0.0
 51
90.0
  0
LINE
  5
3FD
330
2
100
AcDbEntity
  8
0
 62
     3
100
AcDbLine
 10
163.8655974248
 20
178.3
 30
0.0
 11
164.0655974248
 21
178.0999999999999
 31
0.0
  0
LINE
  5
3FE
330
2
100
AcDbEntity
  8
0
 62
     3
100
AcDbLine
 10
163.2516777684999
 20
181.1575080434
 30
0.0
 11
165.8941115311999
 21
181.4038439599999
 31
0.0
  0
LINE
  5
3FF
330
2
100
AcDbEntity
  8
0
 62
     3
100
AcDbLine
 10
164.2655974247998
 20
177.9
 30
0.0
 11
165.7655974247998
 21
176.9
 31
0.0
  0
ARC
  5
400
330
2
100
AcDbEntity
  8
0
 62
     3
100
AcDbCircle
 10
148.9805914466999
 20
200.7
 30
0.0
 40
0.2
100
AcDbArc
 50
270.0
 51
0.0
  0
LINE
  5
401
330
2
100
AcDbEntity
  8
0
 62
     3
100
AcDbLine
 10
148.9805914466999
 20
200.4999999999999
 30
0.0
 11
143.1805914466998
 21
200.4999999999999
 31
0.0
  0
LINE
  5
402
330
2
100
AcDbEntity
  8
0
 62
     3
100
AcDbLine
 10
139.3805914466996
 20
204.6000015259
 30
0.0
 11
139.3805914466996
 21
207.6999999999999
 31
0.0
  0
LINE
  5
403
330
2
100
AcDbEntity
  8
0
 62
     3
100
AcDbLine
 10
139.8805914466999
 20
204.6000015259
 30
0.0
 11
139.8805914466999
 21
207.6999999999999
 31
0.0
  0
LINE
  5
404
330
2
100
AcDbEntity
  8
0
 62
     3
100
AcDbLine
 10
143.8805883949999
 20
202.7260666844
 30
0.0
 11
148.7426088139999
 21
202.2548103900999
 31
0.0
  0
LINE
  5
405
330
2
100
AcDbEntity
  8
0
 62
     3
100
AcDbLine
 10
142.748912689
 20
202.1779324633
 30
0.0
 11
142.7294167044999
 21
202.1962311794998
 31
0.0
  0
LINE
  5
406
330
2
100
AcDbEntity
  8
0
 62
     3
100
AcDbLine
 10
142.7294167044999
 20
202.1962311794998
 30
0.0
 11
142.7075475417999
 21
202.2122517904
 31
0.0
  0
LINE
  5
407
330
2
100
AcDbEntity
  8
0
 62
     3
100
AcDbLine
 10
142.7075475417999
 20
202.2122517904
 30
0.0
 11
142.6837179403999
 21
202.2256919366999
 31
0.0
  0
LINE
  5
408
330
2
100
AcDbEntity
  8
0
 62
     3
100
AcDbLine
 10
143.1805914466998
 20
202.7260666844
 30
0.0
 11
143.8805883949999
 21
202.7260666844
 31
0.0
  0
LINE
  5
409
330
2
100
AcDbEntity
  8
0
 62
     3
100
AcDbLine
 10
142.6084693091999
 20
202.0281642797
 30
0.0
 11
142.6322989105998
 21
202.0147241334
 31
0.0
  0
LINE
  5
40A
330
2
100
AcDbEntity
  8
0
 62
     3
100
AcDbLine
 10
142.6322989105998
 20
202.0147241334
 30
0.0
 11
142.6541680732998
 21
201.9987035224999
 31
0.0
  0
LINE
  5
40B
330
2
100
AcDbEntity
  8
0
 62
     3
100
AcDbLine
 10
142.6541680732998
 20
201.9987035224999
 30
0.0
 11
142.6736640576999
 21
201.9804048062999
 31
0.0
  0
LINE
  5
40C
330
2
100
AcDbEntity
  8
0
 62
     3
100
AcDbLine
 10
142.6736640576999
 20
201.9804048062999
 30
0.0
 11
142.6904189132999
 21
201.9601733391
 31
0.0
  0
LINE
  5
40D
330
2
100
AcDbEntity
  8
0
 62
     3
100
AcDbLine
 10
142.6904189132999
 20
201.9601733391
 30
0.0
 11
142.7041164233999
 21
201.938390952
 31
0.0
  0
LINE
  5
40E
330
2
100
AcDbEntity
  8
0
 62
     3
100
AcDbLine
 10
142.7998449630998
 20
202.0654763443
 30
0.0
 11
142.7966165589999
 21
202.0893669956
 31
0.0
  0
LINE
  5
40F
330
2
100
AcDbEntity
  8
0
 62
     3
100
AcDbLine
 10
142.7966165589999
 20
202.0893669956
 30
0.0
 11
142.7897467041999
 21
202.1129964041999
 31
0.0
  0
LINE
  5
410
330
2
100
AcDbEntity
  8
0
 62
     3
100
AcDbLine
 10
142.7897467041999
 20
202.1129964041999
 30
0.0
 11
142.7793650546998
 21
202.1359186089998
 31
0.0
  0
LINE
  5
411
330
2
100
AcDbEntity
  8
0
 62
     3
100
AcDbLine
 10
142.7793650546998
 20
202.1359186089998
 30
0.0
 11
142.7656675445999
 21
202.1577009961
 31
0.0
  0
LINE
  5
412
330
2
100
AcDbEntity
  8
0
 62
     3
100
AcDbLine
 10
143.1805914466998
 20
201.9000205993
 30
0.0
 11
142.8222034163999
 21
201.9000205993
 31
0.0
  0
LINE
  5
413
330
2
100
AcDbEntity
  8
0
 62
     3
100
AcDbLine
 10
142.7144980729998
 20
201.9154687472
 30
0.0
 11
142.7213679276998
 21
201.8918393385999
 31
0.0
  0
LINE
  5
414
330
2
100
AcDbEntity
  8
0
 62
     3
100
AcDbLine
 10
142.7213679276998
 20
201.8918393385999
 30
0.0
 11
142.7245963318999
 21
201.8679486873999
 31
0.0
  0
LINE
  5
415
330
2
100
AcDbEntity
  8
0
 62
     3
100
AcDbLine
 10
142.7335090716
 20
201.7139522528
 30
0.0
 11
142.7317000702999
 21
201.6802732877
 31
0.0
  0
LINE
  5
416
330
2
100
AcDbEntity
  8
0
 62
     3
100
AcDbLine
 10
142.7317000702999
 20
201.6802732877
 30
0.0
 11
142.7224218095999
 21
201.6482747490999
 31
0.0
  0
LINE
  5
417
330
2
100
AcDbEntity
  8
0
 62
     3
100
AcDbLine
 10
142.7224218095999
 20
201.6482747490999
 30
0.0
 11
142.7060308479999
 21
201.6191863229
 31
0.0
  0
LINE
  5
418
330
2
100
AcDbEntity
  8
0
 62
     3
100
AcDbLine
 10
142.7060308479999
 20
201.6191863229
 30
0.0
 11
142.6831570809
 21
201.5941258608
 31
0.0
  0
LINE
  5
419
330
2
100
AcDbEntity
  8
0
 62
     3
100
AcDbLine
 10
142.6831570809
 20
201.5941258608
 30
0.0
 11
142.6546795342999
 21
201.5740564225
 31
0.0
  0
LINE
  5
41A
330
2
100
AcDbEntity
  8
0
 62
     3
100
AcDbLine
 10
142.6546795342999
 20
201.5740564225
 30
0.0
 11
142.6216925842999
 21
201.5597492652
 31
0.0
  0
LINE
  5
41B
330
2
100
AcDbEntity
  8
0
 62
     3
100
AcDbLine
 10
142.6216925842999
 20
201.5597492652
 30
0.0
 11
142.5854639009999
 21
201.5517542048999
 31
0.0
  0
LINE
  5
41C
330
2
100
AcDbEntity
  8
0
 62
     3
100
AcDbLine
 10
142.5854639009999
 20
201.5517542048999
 30
0.0
 11
142.5473857323999
 21
201.5503784873
 31
0.0
  0
LINE
  5
41D
330
2
100
AcDbEntity
  8
0
 62
     3
100
AcDbLine
 10
142.7994832941999
 20
201.8503294607
 30
0.0
 11
142.7242346628998
 21
201.6528018036999
 31
0.0
  0
LINE
  5
41E
330
2
100
AcDbEntity
  8
0
 62
     3
100
AcDbLine
 10
142.7335090716
 20
201.7139522528
 30
0.0
 11
142.7245963318999
 21
201.8679486873999
 31
0.0
  0
ARC
  5
41F
330
2
100
AcDbEntity
  8
0
 62
     3
100
AcDbCircle
 10
142.6618447923999
 20
201.9024829902
 30
0.0
 40
0.1471881374
100
AcDbArc
 50
339.2474642528
 51
3.504406474400071
  0
LINE
  5
420
330
2
100
AcDbEntity
  8
0
 62
     3
100
AcDbLine
 10
142.7041164233999
 20
201.938390952
 30
0.0
 11
142.7144980729998
 21
201.9154687472
 31
0.0
  0
LINE
  5
421
330
2
100
AcDbEntity
  8
0
 62
     3
100
AcDbLine
 10
142.8087577027999
 20
201.9114799097999
 30
0.0
 11
142.7998449630998
 21
202.0654763443
 31
0.0
  0
LINE
  5
422
330
2
100
AcDbEntity
  8
0
 62
     3
100
AcDbLine
 10
142.7656675445999
 20
202.1577009961
 30
0.0
 11
142.748912689
 21
202.1779324633
 31
0.0
  0
LINE
  5
423
330
2
100
AcDbEntity
  8
0
 62
     3
100
AcDbLine
 10
142.6837179403999
 20
202.2256919366999
 30
0.0
 11
142.6084693091999
 21
202.0281642797
 31
0.0
  0
LINE
  5
424
330
2
100
AcDbEntity
  8
0
 62
     3
100
AcDbLine
 10
139.6805914466999
 20
201.6972257573999
 30
0.0
 11
139.6805914466999
 21
201.4999961852999
 31
0.0
  0
LINE
  5
425
330
2
100
AcDbEntity
  8
0
 62
     3
100
AcDbLine
 10
148.6805868690999
 20
204.5999999999999
 30
0.0
 11
147.6805868690999
 21
203.1
 31
0.0
  0
LINE
  5
426
330
2
100
AcDbEntity
  8
0
 62
     3
100
AcDbLine
 10
145.1805914466999
 20
203.1
 30
0.0
 11
147.6805868690999
 21
203.1
 31
0.0
  0
LINE
  5
427
330
2
100
AcDbEntity
  8
0
 62
     3
100
AcDbLine
 10
149.1805914466999
 20
201.7586714516999
 30
0.0
 11
149.1805914466999
 21
200.7
 31
0.0
  0
ARC
  5
428
330
2
100
AcDbEntity
  8
0
 62
     3
100
AcDbCircle
 10
148.6805914467
 20
201.7586714516999
 30
0.0
 40
0.5
100
AcDbArc
 50
0.0
 51
82.8749836511
  0
LINE
  5
429
330
2
100
AcDbEntity
  8
0
 62
     3
100
AcDbLine
 10
145.1805914466999
 20
211.2999999999999
 30
0.0
 11
146.6805868690999
 21
211.2999999999999
 31
0.0
  0
LINE
  5
42B
330
2
100
AcDbEntity
  8
0
 62
     3
100
AcDbLine
 10
140.1805914466999
 20
219.4999999999999
 30
0.0
 11
137.1805914466999
 21
219.4999999999999
 31
0.0
  0
LINE
  5
42C
330
2
100
AcDbEntity
  8
0
 62
     3
100
AcDbLine
 10
142.5473857323999
 20
231.4496215125999
 30
0.0
 11
138.2692401803999
 21
231.2304798746999
 31
0.0
  0
LINE
  5
42D
330
2
100
AcDbEntity
  8
0
 62
     3
100
AcDbLine
 10
142.6084693091999
 20
230.9718357202999
 30
0.0
 11
137.2260593590999
 21
228.3396086562999
 31
0.0
  0
LINE
  5
42E
330
2
100
AcDbEntity
  8
0
 62
     3
100
AcDbLine
 10
142.6837179403999
 20
230.7743080632999
 30
0.0
 11
137.3013079902999
 21
228.1420809993
 31
0.0
  0
LINE
  5
42F
330
2
100
AcDbEntity
  8
0
 62
     3
100
AcDbLine
 10
139.8805914466999
 20
227.0999984741
 30
0.0
 11
130.0537238476999
 21
227.0999984741
 31
0.0
  0
LINE
  5
430
330
2
100
AcDbEntity
  8
0
 62
     3
100
AcDbLine
 10
143.1805914466998
 20
224.0
 30
0.0
 11
131.5805914467
 21
224.0
 31
0.0
  0
LINE
  5
431
330
2
100
AcDbEntity
  8
0
 62
     3
100
AcDbLine
 10
139.3805914466996
 20
226.5
 30
0.0
 11
131.0929516893999
 21
226.5
 31
0.0
  0
LINE
  5
432
330
2
100
AcDbEntity
  8
0
 62
     3
100
AcDbLine
 10
139.3805914466996
 20
224.5999984740999
 30
0.0
 11
131.5805914467
 21
224.5999984740999
 31
0.0
  0
LINE
  5
433
330
2
100
AcDbEntity
  8
0
 62
     3
100
AcDbLine
 10
143.1805914466998
 20
231.4999580382998
 30
0.0
 11
131.6805914466999
 21
231.4999580382998
 31
0.0
  0
LINE
  5
434
330
2
100
AcDbEntity
  8
0
 62
     3
100
AcDbLine
 10
140.1805914466999
 20
213.5
 30
0.0
 11
137.1805914466999
 21
213.5
 31
0.0
  0
LINE
  5
435
330
2
100
AcDbEntity
  8
0
 62
     3
100
AcDbLine
 10
114.8805838172998
 20
215.1387481766
 30
0.0
 11
114.9805838172998
 21
215.1171042152
 31
0.0
  0
LINE
  5
436
330
2
100
AcDbEntity
  8
0
 62
     3
100
AcDbLine
 10
114.9805838172998
 20
215.0258327852
 30
0.0
 11
113.0804351398999
 21
215.0258327852
 31
0.0
  0
LINE
  5
437
330
2
100
AcDbEntity
  8
0
 62
     3
100
AcDbLine
 10
113.0805838172999
 20
215.8000478712998
 30
0.0
 11
117.9805868691
 21
215.8000478712998
 31
0.0
  0
LINE
  5
438
330
2
100
AcDbEntity
  8
0
 62
     3
100
AcDbLine
 10
113.0805838172999
 20
215.6268961801
 30
0.0
 11
118.4805868690999
 21
215.6268961801
 31
0.0
  0
LINE
  5
439
330
2
100
AcDbEntity
  8
0
 62
     3
100
AcDbLine
 10
116.0805853431998
 20
227.8499984740999
 30
0.0
 11
108.9805868690999
 21
227.8499984740999
 31
0.0
  0
LINE
  5
43A
330
2
100
AcDbEntity
  8
0
 62
     3
100
AcDbLine
 10
116.0805853431998
 20
228.5500030516999
 30
0.0
 11
108.3805807655999
 21
228.5500030516999
 31
0.0
  0
LINE
  5
43B
330
2
100
AcDbEntity
  8
0
 62
     3
100
AcDbLine
 10
98.18058381729999
 20
231.4999999999999
 30
0.0
 11
116.6805838172999
 21
231.4999999999999
 31
0.0
  0
LINE
  5
43C
330
2
100
AcDbEntity
  8
0
 62
     3
100
AcDbLine
 10
113.9804351398999
 20
213.2845576109
 30
0.0
 11
114.9805838172998
 21
213.2845576109
 31
0.0
  0
LINE
  5
43D
330
2
100
AcDbEntity
  8
0
 62
     3
100
AcDbLine
 10
113.9804351398999
 20
213.1278455336
 30
0.0
 11
114.9805838172998
 21
213.1278455336
 31
0.0
  0
LINE
  5
43E
330
2
100
AcDbEntity
  8
0
 62
     3
100
AcDbLine
 10
113.9804351398999
 20
213.0779363554
 30
0.0
 11
114.9805838172998
 21
213.0779363554
 31
0.0
  0
LINE
  5
43F
330
2
100
AcDbEntity
  8
0
 62
     3
100
AcDbLine
 10
107.1805838173
 20
223.0
 30
0.0
 11
102.1805838172999
 21
223.0
 31
0.0
  0
LINE
  5
441
330
2
100
AcDbEntity
  8
0
 62
     3
100
AcDbLine
 10
101.3804129188998
 20
217.3499984740999
 30
0.0
 11
101.3804129188998
 21
214.7500076293999
 31
0.0
  0
LINE
  5
442
330
2
100
AcDbEntity
  8
0
 62
     3
100
AcDbLine
 10
99.88059602440001
 20
217.3499984740999
 30
0.0
 11
99.88059602440001
 21
214.7500076293999
 31
0.0
  0
LINE
  5
443
330
2
100
AcDbEntity
  8
0
 62
     3
100
AcDbLine
 10
97.4805792397
 20
214.9999465941999
 30
0.0
 11
97.4805792397
 21
215.4999465941999
 31
0.0
  0
LINE
  5
444
330
2
100
AcDbEntity
  8
0
 62
     3
100
AcDbLine
 10
99.88059602440001
 20
217.3499984740999
 30
0.0
 11
101.3804129188998
 21
217.3499984740999
 31
0.0
  0
LINE
  5
445
330
2
100
AcDbEntity
  8
0
 62
     3
100
AcDbLine
 10
99.88059602440001
 20
214.7500076293999
 30
0.0
 11
101.3804129188998
 21
214.7500076293999
 31
0.0
  0
LINE
  5
446
330
2
100
AcDbEntity
  8
0
 62
     3
100
AcDbLine
 10
101.3804129188998
 20
224.3499984741
 30
0.0
 11
101.3804129188998
 21
221.7500076293999
 31
0.0
  0
LINE
  5
447
330
2
100
AcDbEntity
  8
0
 62
     3
100
AcDbLine
 10
99.88059602440001
 20
224.3499984741
 30
0.0
 11
99.88059602440001
 21
221.7500076293999
 31
0.0
  0
LINE
  5
448
330
2
100
AcDbEntity
  8
0
 62
     3
100
AcDbLine
 10
97.4805792397
 20
221.9999465941999
 30
0.0
 11
97.4805792397
 21
222.4999465941999
 31
0.0
  0
LINE
  5
449
330
2
100
AcDbEntity
  8
0
 62
     3
100
AcDbLine
 10
99.88059602440001
 20
224.3499984741
 30
0.0
 11
101.3804129188998
 21
224.3499984741
 31
0.0
  0
LINE
  5
44A
330
2
100
AcDbEntity
  8
0
 62
     3
100
AcDbLine
 10
99.88059602440001
 20
221.7500076293999
 30
0.0
 11
101.3804129188998
 21
221.7500076293999
 31
0.0
  0
LINE
  5
44C
330
2
100
AcDbEntity
  8
0
 62
     3
100
AcDbLine
 10
106.2305792396998
 20
216.6517791747999
 30
0.0
 11
105.6305807655999
 21
216.6517791747999
 31
0.0
  0
LINE
  5
44D
330
2
100
AcDbEntity
  8
0
 62
     3
100
AcDbLine
 10
113.0804351398999
 20
216.3000478712999
 30
0.0
 11
113.0804351398999
 21
215.0258327852
 31
0.0
  0
LINE
  5
44E
330
2
100
AcDbEntity
  8
0
 62
     3
100
AcDbLine
 10
112.3304351398999
 20
215.4529942422
 30
0.0
 11
112.8304351398996
 21
214.4529942422
 31
0.0
  0
LINE
  5
44F
330
2
100
AcDbEntity
  8
0
 62
     3
100
AcDbLine
 10
112.3304351398999
 20
215.4529942422
 30
0.0
 11
111.8304351398996
 21
214.4529942422
 31
0.0
  0
LINE
  5
450
330
2
100
AcDbEntity
  8
0
 62
     3
100
AcDbLine
 10
112.8304351398996
 20
214.4529942422
 30
0.0
 11
112.5804351398999
 21
214.4529942422
 31
0.0
  0
LINE
  5
451
330
2
100
AcDbEntity
  8
0
 62
     3
100
AcDbLine
 10
112.0804351399
 20
214.4529942422
 30
0.0
 11
111.8304351398996
 21
214.4529942422
 31
0.0
  0
LINE
  5
452
330
2
100
AcDbEntity
  8
0
 62
     3
100
AcDbLine
 10
114.8805838172998
 20
215.1387481766
 30
0.0
 11
113.0804351398999
 21
215.1387481766
 31
0.0
  0
LINE
  5
453
330
2
100
AcDbEntity
  8
0
 62
     3
100
AcDbLine
 10
109.6234772588998
 20
214.8453889446999
 30
0.0
 11
111.1729935437999
 21
214.8453889446999
 31
0.0
  0
LINE
  5
454
330
2
100
AcDbEntity
  8
0
 62
     3
100
AcDbLine
 10
111.1729935437999
 20
214.8453889446999
 30
0.0
 11
111.1729935437999
 21
214.3900840294
 31
0.0
  0
LINE
  5
455
330
2
100
AcDbEntity
  8
0
 62
     3
100
AcDbLine
 10
109.6234772588998
 20
214.8453889446999
 30
0.0
 11
109.6234772588998
 21
214.6516994090999
 31
0.0
  0
LINE
  5
456
330
2
100
AcDbEntity
  8
0
 62
     3
100
AcDbLine
 10
110.4627985799
 20
214.6516994090999
 30
0.0
 11
111.0008250676999
 21
214.6516994090999
 31
0.0
  0
LINE
  5
457
330
2
100
AcDbEntity
  8
0
 62
     3
100
AcDbLine
 10
110.4627985799
 20
214.6516994090999
 30
0.0
 11
110.4627985799
 21
214.3816773655
 31
0.0
  0
LINE
  5
458
330
2
100
AcDbEntity
  8
0
 62
     3
100
AcDbLine
 10
109.6234772588998
 20
214.6516994090999
 30
0.0
 11
110.2906301037999
 21
214.6516994090999
 31
0.0
  0
LINE
  5
459
330
2
100
AcDbEntity
  8
0
 62
     3
100
AcDbLine
 10
111.0008250676999
 20
214.6516994090999
 30
0.0
 11
111.0008250676999
 21
214.4395152129999
 31
0.0
  0
LINE
  5
45A
330
2
100
AcDbEntity
  8
0
 62
     3
100
AcDbLine
 10
110.2906301037999
 20
214.6516994090999
 30
0.0
 11
110.2906301037999
 21
214.3984906932999
 31
0.0
  0
LINE
  5
45B
330
2
100
AcDbEntity
  8
0
 62
     3
100
AcDbLine
 10
110.2906301037999
 20
214.3984906932999
 30
0.0
 11
109.6234772588998
 21
214.072312135
 31
0.0
  0
LINE
  5
45C
330
2
100
AcDbEntity
  8
0
 62
     3
100
AcDbLine
 10
110.3178676947998
 20
214.2054736908
 30
0.0
 11
109.6234772588998
 21
213.8554202070999
 31
0.0
  0
LINE
  5
45D
330
2
100
AcDbEntity
  8
0
 62
     3
100
AcDbLine
 10
109.6234772588998
 20
214.072312135
 30
0.0
 11
109.6234772588998
 21
213.8554202070999
 31
0.0
  0
LINE
  5
45E
330
2
100
AcDbEntity
  8
0
 62
     3
100
AcDbLine
 10
111.1729935437999
 20
214.3900840294
 30
0.0
 11
111.1663817458
 21
214.2841986949999
 31
0.0
  0
LINE
  5
45F
330
2
100
AcDbEntity
  8
0
 62
     3
100
AcDbLine
 10
111.1663817458
 20
214.2841986949999
 30
0.0
 11
111.1433547483999
 21
214.1806727617999
 31
0.0
  0
LINE
  5
460
330
2
100
AcDbEntity
  8
0
 62
     3
100
AcDbLine
 10
111.1433547483999
 20
214.1806727617999
 30
0.0
 11
111.1008942320999
 21
214.0835879043999
 31
0.0
  0
LINE
  5
461
330
2
100
AcDbEntity
  8
0
 62
     3
100
AcDbLine
 10
111.1008942320999
 20
214.0835879043999
 30
0.0
 11
111.0365789689998
 21
213.9995180559
 31
0.0
  0
LINE
  5
462
330
2
100
AcDbEntity
  8
0
 62
     3
100
AcDbLine
 10
111.0365789689998
 20
213.9995180559
 30
0.0
 11
110.9691557877999
 21
213.9507844695998
 31
0.0
  0
LINE
  5
463
330
2
100
AcDbEntity
  8
0
 62
     3
100
AcDbLine
 10
110.9691557877999
 20
213.9507844695998
 30
0.0
 11
110.8920994639998
 21
213.9192717133
 31
0.0
  0
LINE
  5
464
330
2
100
AcDbEntity
  8
0
 62
     3
100
AcDbLine
 10
110.8920994639998
 20
213.9192717133
 30
0.0
 11
110.8103528655999
 21
213.9029805629999
 31
0.0
  0
LINE
  5
465
330
2
100
AcDbEntity
  8
0
 62
     3
100
AcDbLine
 10
110.8103528655999
 20
213.9029805629999
 30
0.0
 11
110.7271040919999
 21
213.8984623262
 31
0.0
  0
LINE
  5
466
330
2
100
AcDbEntity
  8
0
 62
     3
100
AcDbLine
 10
110.7271040919999
 20
214.0921518618
 30
0.0
 11
110.7973282808996
 21
214.0990880618999
 31
0.0
  0
LINE
  5
467
330
2
100
AcDbEntity
  8
0
 62
     3
100
AcDbLine
 10
110.7973282808996
 20
214.0990880618999
 30
0.0
 11
110.8635627401999
 21
214.1231567221999
 31
0.0
  0
LINE
  5
468
330
2
100
AcDbEntity
  8
0
 62
     3
100
AcDbLine
 10
110.8635627401999
 20
214.1231567221999
 30
0.0
 11
110.9197850334999
 21
214.1655850106
 31
0.0
  0
LINE
  5
469
330
2
100
AcDbEntity
  8
0
 62
     3
100
AcDbLine
 10
110.9197850334999
 20
214.1655850106
 30
0.0
 11
110.9605077473997
 21
214.223017887
 31
0.0
  0
LINE
  5
46A
330
2
100
AcDbEntity
  8
0
 62
     3
100
AcDbLine
 10
110.9605077473997
 20
214.223017887
 30
0.0
 11
110.9854846200999
 21
214.2925656036999
 31
0.0
  0
LINE
  5
46B
330
2
100
AcDbEntity
  8
0
 62
     3
100
AcDbLine
 10
110.9854846200999
 20
214.2925656036999
 30
0.0
 11
110.9974395028999
 21
214.3655951008
 31
0.0
  0
LINE
  5
46C
330
2
100
AcDbEntity
  8
0
 62
     3
100
AcDbLine
 10
110.9974395028999
 20
214.3655951008
 30
0.0
 11
111.0008250676999
 21
214.4395152129999
 31
0.0
  0
LINE
  5
46D
330
2
100
AcDbEntity
  8
0
 62
     3
100
AcDbLine
 10
110.4627985799
 20
214.3816773655
 30
0.0
 11
110.4710452531999
 21
214.2988525848
 31
0.0
  0
LINE
  5
46E
330
2
100
AcDbEntity
  8
0
 62
     3
100
AcDbLine
 10
110.4710452531999
 20
214.2988525848
 30
0.0
 11
110.4979295438998
 21
214.2200867496
 31
0.0
  0
LINE
  5
46F
330
2
100
AcDbEntity
  8
0
 62
     3
100
AcDbLine
 10
110.4979295438998
 20
214.2200867496
 30
0.0
 11
110.5449773937999
 21
214.1517087213999
 31
0.0
  0
LINE
  5
470
330
2
100
AcDbEntity
  8
0
 62
     3
100
AcDbLine
 10
110.5449773937999
 20
214.1517087213999
 30
0.0
 11
110.5991506440999
 21
214.1153889802
 31
0.0
  0
LINE
  5
471
330
2
100
AcDbEntity
  8
0
 62
     3
100
AcDbLine
 10
110.5991506440999
 20
214.1153889802
 30
0.0
 11
110.6618834557
 21
214.0971846627999
 31
0.0
  0
LINE
  5
472
330
2
100
AcDbEntity
  8
0
 62
     3
100
AcDbLine
 10
110.6618834557
 20
214.0971846627999
 30
0.0
 11
110.7271040919999
 21
214.0921518618
 31
0.0
  0
LINE
  5
473
330
2
100
AcDbEntity
  8
0
 62
     3
100
AcDbLine
 10
110.7271040919999
 20
213.8984623262
 30
0.0
 11
110.6236318175999
 21
213.9071030862
 31
0.0
  0
LINE
  5
474
330
2
100
AcDbEntity
  8
0
 62
     3
100
AcDbLine
 10
110.6236318175999
 20
213.9071030862
 30
0.0
 11
110.5246631703999
 21
213.9380392362999
 31
0.0
  0
LINE
  5
475
330
2
100
AcDbEntity
  8
0
 62
     3
100
AcDbLine
 10
110.5246631703999
 20
213.9380392362999
 30
0.0
 11
110.4394175441
 21
213.9967896241
 31
0.0
  0
LINE
  5
476
330
2
100
AcDbEntity
  8
0
 62
     3
100
AcDbLine
 10
110.4394175441
 20
213.9967896241
 30
0.0
 11
110.3855499105
 21
214.0580490894
 31
0.0
  0
LINE
  5
477
330
2
100
AcDbEntity
  8
0
 62
     3
100
AcDbLine
 10
110.3855499105
 20
214.0580490894
 30
0.0
 11
110.3439441405999
 21
214.1281989612
 31
0.0
  0
LINE
  5
478
330
2
100
AcDbEntity
  8
0
 62
     3
100
AcDbLine
 10
110.3439441405999
 20
214.1281989612
 30
0.0
 11
110.3178676947998
 21
214.2054736908
 31
0.0
  0
LINE
  5
479
330
2
100
AcDbEntity
  8
0
 62
     3
100
AcDbLine
 10
113.0804351398999
 20
216.3000478712999
 30
0.0
 11
109.2804351398999
 21
216.3000478712999
 31
0.0
  0
LINE
  5
47A
330
2
100
AcDbEntity
  8
0
 62
     3
100
AcDbLine
 10
113.0804351398999
 20
216.2881958747998
 30
0.0
 11
109.2804351398999
 21
216.2881958747998
 31
0.0
  0
LINE
  5
47B
330
2
100
AcDbEntity
  8
0
 62
     3
100
AcDbLine
 10
113.0804351398999
 20
216.0501122994999
 30
0.0
 11
109.2804351398999
 21
216.0501122994999
 31
0.0
  0
LINE
  5
47C
330
2
100
AcDbEntity
  8
0
 62
     3
100
AcDbLine
 10
113.9804351398999
 20
213.2845576109
 30
0.0
 11
113.9804351398999
 21
212.9772737565999
 31
0.0
  0
ARC
  5
47D
330
2
100
AcDbEntity
  8
0
 62
     3
100
AcDbCircle
 10
111.7804351398999
 20
213.2529942421999
 30
0.0
 40
0.3
100
AcDbArc
 50
270.0
 51
0.0
  0
LINE
  5
47E
330
2
100
AcDbEntity
  8
0
 62
     3
100
AcDbLine
 10
113.0804351398999
 20
212.9772737565999
 30
0.0
 11
113.9804351398999
 21
212.9772737565999
 31
0.0
  0
LINE
  5
47F
330
2
100
AcDbEntity
  8
0
 62
     3
100
AcDbLine
 10
110.5804351398999
 20
212.9529942422
 30
0.0
 11
111.7804351398999
 21
212.9529942422
 31
0.0
  0
LINE
  5
480
330
2
100
AcDbEntity
  8
0
 62
     3
100
AcDbLine
 10
112.5804351398999
 20
214.4529942422
 30
0.0
 11
112.5804351398999
 21
213.2529942421999
 31
0.0
  0
LINE
  5
481
330
2
100
AcDbEntity
  8
0
 62
     3
100
AcDbLine
 10
112.0804351399
 20
214.4529942422
 30
0.0
 11
112.0804351399
 21
213.2529942421999
 31
0.0
  0
LINE
  5
482
330
2
100
AcDbEntity
  8
0
 62
     3
100
AcDbLine
 10
98.18058381729999
 20
231.4
 30
0.0
 11
98.18058381729999
 21
230.0999999999999
 31
0.0
  0
LINE
  5
483
330
2
100
AcDbEntity
  8
0
 62
     3
100
AcDbLine
 10
98.18058381729999
 20
229.5999999999999
 30
0.0
 11
98.18058381729999
 21
229.0999999999999
 31
0.0
  0
LINE
  5
484
330
2
100
AcDbEntity
  8
0
 62
     3
100
AcDbLine
 10
97.4805792397
 20
230.0999999999999
 30
0.0
 11
97.4805792397
 21
229.5999999999999
 31
0.0
  0
LINE
  5
485
330
2
100
AcDbEntity
  8
0
 62
     3
100
AcDbLine
 10
129.1805914466999
 20
224.5999984740999
 30
0.0
 11
129.1805914466999
 21
226.6999565124
 31
0.0
  0
LINE
  5
486
330
2
100
AcDbEntity
  8
0
 62
     3
100
AcDbLine
 10
128.6805914466997
 20
224.5999565124
 30
0.0
 11
128.6805914466997
 21
226.6999565124
 31
0.0
  0
LINE
  5
487
330
2
100
AcDbEntity
  8
0
 62
     3
100
AcDbLine
 10
129.8805914466997
 20
224.7999565123999
 30
0.0
 11
129.8805914466997
 21
226.4999565124
 31
0.0
  0
LINE
  5
488
330
2
100
AcDbEntity
  8
0
 62
     3
100
AcDbLine
 10
131.5805914467
 20
223.9999565123999
 30
0.0
 11
131.5805914467
 21
226.1029910009999
 31
0.0
  0
LINE
  5
489
330
2
100
AcDbEntity
  8
0
 62
     3
100
AcDbLine
 10
127.6805914466999
 20
224.7999938965
 30
0.0
 11
127.6805914466999
 21
226.4000015259
 31
0.0
  0
LINE
  5
48A
330
2
100
AcDbEntity
  8
0
 62
     3
100
AcDbLine
 10
127.4805914466996
 20
224.7999565123999
 30
0.0
 11
127.4805914466996
 21
226.4999565124
 31
0.0
  0
LINE
  5
48B
330
2
100
AcDbEntity
  8
0
 62
     3
100
AcDbLine
 10
126.1805914466999
 20
231.4999565123998
 30
0.0
 11
126.1805914466999
 21
223.9999565123999
 31
0.0
  0
LINE
  5
48C
330
2
100
AcDbEntity
  8
0
 62
     3
100
AcDbLine
 10
116.0805853431998
 20
221.0999984741
 30
0.0
 11
116.0805853431998
 21
228.5500030516999
 31
0.0
  0
LINE
  5
48D
330
2
100
AcDbEntity
  8
0
 62
     3
100
AcDbLine
 10
116.6805838172999
 20
215.8000478712998
 30
0.0
 11
116.6805838172999
 21
231.4999580382998
 31
0.0
  0
LINE
  5
48E
330
2
100
AcDbEntity
  8
0
 62
     3
100
AcDbLine
 10
116.6805838172999
 20
221.0999984741
 30
0.0
 11
116.6805838172999
 21
231.4999999999999
 31
0.0
  0
LINE
  5
48F
330
2
100
AcDbEntity
  8
0
 62
     3
100
AcDbLine
 10
131.3805914466996
 20
223.7999565123999
 30
0.0
 11
126.3805914466999
 21
223.7999565123999
 31
0.0
  0
LINE
  5
490
330
2
100
AcDbEntity
  8
0
 62
     3
100
AcDbLine
 10
117.1805838172998
 20
215.8000478712998
 30
0.0
 11
117.1805838172998
 21
220.1646461486999
 31
0.0
  0
LINE
  5
491
330
2
100
AcDbEntity
  8
0
 62
     3
100
AcDbLine
 10
117.9805868691
 20
215.8000478712998
 30
0.0
 11
117.9805868691
 21
219.6872367859
 31
0.0
  0
LINE
  5
492
330
2
100
AcDbEntity
  8
0
 62
     3
100
AcDbLine
 10
117.9805868691
 20
219.6872367859
 30
0.0
 11
117.9805868691
 21
215.8000478712998
 31
0.0
  0
LINE
  5
493
330
2
100
AcDbEntity
  8
0
 62
     3
100
AcDbLine
 10
118.7805868691
 20
219.6872367859
 30
0.0
 11
118.7805868691
 21
212.9980081588
 31
0.0
  0
LINE
  5
494
330
2
100
AcDbEntity
  8
0
 62
     3
100
AcDbLine
 10
117.9805868691
 20
216.4999580383
 30
0.0
 11
117.1805838172998
 21
216.4999580383
 31
0.0
  0
LINE
  5
495
330
2
100
AcDbEntity
  8
0
 62
     3
100
AcDbLine
 10
117.9805868691
 20
216.2636362393
 30
0.0
 11
118.7805868691
 21
216.2636362393
 31
0.0
  0
ARC
  5
496
330
2
100
AcDbEntity
  8
0
 62
     3
100
AcDbCircle
 10
118.4805868690999
 20
215.9268961801
 30
0.0
 40
0.3
100
AcDbArc
 50
270.0
 51
0.0
  0
LINE
  5
497
330
2
100
AcDbEntity
  8
0
 62
     3
100
AcDbLine
 10
114.9805838172998
 20
215.1171042152
 30
0.0
 11
114.9805838172998
 21
213.0779363554
 31
0.0
  0
LINE
  5
498
330
2
100
AcDbEntity
  8
0
 62
     3
100
AcDbLine
 10
119.9805868691
 20
213.2370185851999
 30
0.0
 11
118.7805868691
 21
213.2370185851999
 31
0.0
  0
LINE
  5
499
330
2
100
AcDbEntity
  8
0
 62
     3
100
AcDbLine
 10
116.6805838172999
 20
221.4000015258999
 30
0.0
 11
116.0805853431998
 21
221.4000015258999
 31
0.0
  0
LINE
  5
49A
330
2
100
AcDbEntity
  8
0
 62
     3
100
AcDbLine
 10
116.6805838172999
 20
221.0999984741
 30
0.0
 11
116.0805853431998
 21
221.0999984741
 31
0.0
  0
LINE
  5
49B
330
2
100
AcDbEntity
  8
0
 62
     3
100
AcDbLine
 10
117.1805838172998
 20
220.1646461486999
 30
0.0
 11
116.6805838172999
 21
220.1646461486999
 31
0.0
  0
LINE
  5
49C
330
2
100
AcDbEntity
  8
0
 62
     3
100
AcDbLine
 10
119.9805868691
 20
219.6872367859
 30
0.0
 11
117.1805838172998
 21
219.6872367859
 31
0.0
  0
LINE
  5
49D
330
2
100
AcDbEntity
  8
0
 62
     3
100
AcDbLine
 10
119.9805868691
 20
220.5858650206999
 30
0.0
 11
116.6805838172999
 21
220.5858650206999
 31
0.0
  0
ARC
  5
49E
330
2
100
AcDbEntity
  8
0
 62
     3
100
AcDbCircle
 10
126.3805914466999
 20
223.9999565123999
 30
0.0
 40
0.2
100
AcDbArc
 50
180.0
 51
270.0
  0
LINE
  5
49F
330
2
100
AcDbEntity
  8
0
 62
     3
100
AcDbLine
 10
120.9805838172999
 20
224.0
 30
0.0
 11
125.1805914466999
 21
224.0
 31
0.0
  0
LINE
  5
4A0
330
2
100
AcDbEntity
  8
0
 62
     3
100
AcDbLine
 10
137.1805914466999
 20
213.5
 30
0.0
 11
137.1805914466999
 21
219.4999999999999
 31
0.0
  0
LINE
  5
4A1
330
2
100
AcDbEntity
  8
0
 62
     3
100
AcDbLine
 10
136.1805914466999
 20
223.0
 30
0.0
 11
132.6805914466999
 21
223.0
 31
0.0
  0
ARC
  5
4A2
330
2
100
AcDbEntity
  8
0
 62
     3
100
AcDbCircle
 10
131.3805914466996
 20
223.9999565123999
 30
0.0
 40
0.2
100
AcDbArc
 50
270.0
 51
0.0
  0
LINE
  5
4A3
330
2
100
AcDbEntity
  8
0
 62
     3
100
AcDbLine
 10
129.6805914466997
 20
224.5999984740999
 30
0.0
 11
129.1805914466999
 21
224.5999984740999
 31
0.0
  0
ARC
  5
4A4
330
2
100
AcDbEntity
  8
0
 62
     3
100
AcDbCircle
 10
129.6805914466997
 20
224.7999565123999
 30
0.0
 40
0.2
100
AcDbArc
 50
270.0
 51
0.0
  0
ARC
  5
4A5
330
2
100
AcDbEntity
  8
0
 62
     3
100
AcDbCircle
 10
127.8805960243999
 20
224.7999938965
 30
0.0
 40
0.1999999881
100
AcDbArc
 50
180.0
 51
269.9999820138998
  0
ARC
  5
4A6
330
2
100
AcDbEntity
  8
0
 62
     3
100
AcDbCircle
 10
127.6805914466999
 20
224.7999565123999
 30
0.0
 40
0.2
100
AcDbArc
 50
180.0
 51
270.0
  0
LINE
  5
4A7
330
2
100
AcDbEntity
  8
0
 62
     3
100
AcDbLine
 10
128.6805914466997
 20
224.5999893187998
 30
0.0
 11
127.8805960243999
 21
224.5999893187998
 31
0.0
  0
LINE
  5
4A8
330
2
100
AcDbEntity
  8
0
 62
     3
100
AcDbLine
 10
129.6805914466997
 20
224.5999565124
 30
0.0
 11
127.6805914466999
 21
224.5999565124
 31
0.0
  0
LINE
  5
4A9
330
2
100
AcDbEntity
  8
0
 62
     3
100
AcDbLine
 10
131.5805914467
 20
231.4999565123998
 30
0.0
 11
126.1805914466999
 21
231.4999565123998
 31
0.0
  0
LINE
  5
4AA
330
2
100
AcDbEntity
  8
0
 62
     3
100
AcDbLine
 10
126.1805914466999
 20
231.4999580382998
 30
0.0
 11
116.6805838172999
 21
231.4999580382998
 31
0.0
  0
LINE
  5
4AB
330
2
100
AcDbEntity
  8
0
 62
     3
100
AcDbLine
 10
137.4805944984996
 20
231.1641708328997
 30
0.0
 11
137.4805944984996
 21
231.4999580382998
 31
0.0
  0
ARC
  5
4AC
330
2
100
AcDbEntity
  8
0
 62
     3
100
AcDbCircle
 10
134.4058408116999
 20
272.4567395717999
 30
0.0
 40
41.4068876311
100
AcDbArc
 50
272.8189269165
 51
275.3536724409
  0
LINE
  5
4AD
330
2
100
AcDbEntity
  8
0
 62
     3
100
AcDbLine
 10
131.6805914466999
 20
231.0999565124
 30
0.0
 11
131.6805914466999
 21
231.4999580382998
 31
0.0
  0
LINE
  5
4AE
330
2
100
AcDbEntity
  8
0
 62
     3
100
AcDbLine
 10
131.5805914467
 20
231.0999565124
 30
0.0
 11
131.5805914467
 21
231.4999565123998
 31
0.0
  0
LINE
  5
4AF
330
2
100
AcDbEntity
  8
0
 62
     3
100
AcDbLine
 10
133.4607838875999
 20
228.2144513550999
 30
0.0
 11
129.8692401803999
 21
228.0304798747
 31
0.0
  0
LINE
  5
4B0
330
2
100
AcDbEntity
  8
0
 62
     3
100
AcDbLine
 10
133.5360325187999
 20
228.0169236980999
 30
0.0
 11
129.9444888116999
 21
227.8329522177
 31
0.0
  0
LINE
  5
4B1
330
2
100
AcDbEntity
  8
0
 62
     3
100
AcDbLine
 10
136.4422195273999
 20
231.0999565124
 30
0.0
 11
131.5805914467
 21
231.0999565124
 31
0.0
  0
LINE
  5
4B2
330
2
100
AcDbEntity
  8
0
 62
     3
100
AcDbLine
 10
137.3805914466996
 20
231.1568460858
 30
0.0
 11
128.9805914466999
 21
227.9568460858
 31
0.0
  0
LINE
  5
4B3
330
2
100
AcDbEntity
  8
0
 62
     3
100
AcDbLine
 10
136.4422195273999
 20
231.0999565124
 30
0.0
 11
131.5805914467
 21
231.0999565124
 31
0.0
  0
ARC
  5
4B4
330
2
100
AcDbEntity
  8
0
 62
     3
100
AcDbCircle
 10
131.3805914466996
 20
226.1029910009999
 30
0.0
 40
0.2
100
AcDbArc
 50
0.0
 51
60.00000000000002
  0
LINE
  5
4B5
330
2
100
AcDbEntity
  8
0
 62
     3
100
AcDbLine
 10
129.8805914466997
 20
226.5
 30
0.0
 11
129.1805914466999
 21
226.5
 31
0.0
  0
ARC
  5
4B6
330
2
100
AcDbEntity
  8
0
 62
     3
100
AcDbCircle
 10
129.6805914466997
 20
226.4999565124
 30
0.0
 40
0.2
100
AcDbArc
 50
0.0000000000007633
 51
90.0
  0
ARC
  5
4B7
330
2
100
AcDbEntity
  8
0
 62
     3
100
AcDbCircle
 10
129.8270016081999
 20
226.9999565123999
 30
0.0
 40
0.2
100
AcDbArc
 50
60.0
 51
90.0
  0
ARC
  5
4B8
330
2
100
AcDbEntity
  8
0
 62
     3
100
AcDbCircle
 10
127.8805960243999
 20
226.4000015259
 30
0.0
 40
0.1999999881
100
AcDbArc
 50
90.0000179861
 51
180.0
  0
ARC
  5
4B9
330
2
100
AcDbEntity
  8
0
 62
     3
100
AcDbCircle
 10
127.6805914466999
 20
226.4999565124
 30
0.0
 40
0.2
100
AcDbArc
 50
90.0
 51
180.0
  0
ARC
  5
4BA
330
2
100
AcDbEntity
  8
0
 62
     3
100
AcDbCircle
 10
128.0305914466999
 20
227.5499565123999
 30
0.0
 40
0.35
100
AcDbArc
 50
90.0
 51
270.0
  0
LINE
  5
4BB
330
2
100
AcDbEntity
  8
0
 62
     3
100
AcDbLine
 10
128.0422195274
 20
227.8999565124
 30
0.0
 11
128.0305914466999
 21
227.8999565124
 31
0.0
  0
LINE
  5
4BC
330
2
100
AcDbEntity
  8
0
 62
     3
100
AcDbLine
 10
128.6805914466997
 20
226.6000061034999
 30
0.0
 11
127.8805960243999
 21
226.6000061034999
 31
0.0
  0
LINE
  5
4BD
330
2
100
AcDbEntity
  8
0
 62
     3
100
AcDbLine
 10
128.6805914466997
 20
226.1000061034998
 30
0.0
 11
127.6805914466999
 21
226.1000061034998
 31
0.0
  0
ARC
  5
4BE
330
2
100
AcDbEntity
  8
0
 62
     3
100
AcDbCircle
 10
126.0058408116999
 20
269.2567395718
 30
0.0
 40
41.4068876311
100
AcDbArc
 50
272.8189269165
 51
275.3536724409
  0
ARC
  5
4BF
330
2
100
AcDbEntity
  8
0
 62
     3
100
AcDbCircle
 10
130.1613181965999
 20
261.0252556615
 30
0.0
 40
33.19301165729999
100
AcDbArc
 50
266.3396500513
 51
269.6257195004
  0
LINE
  5
4C0
330
2
100
AcDbEntity
  8
0
 62
     3
100
AcDbLine
 10
129.6805914466997
 20
226.6999565124
 30
0.0
 11
127.6805914466999
 21
226.6999565124
 31
0.0
  0
LINE
  5
4C1
330
2
100
AcDbEntity
  8
0
 62
     3
100
AcDbLine
 10
129.8270016081999
 20
227.1999565123998
 30
0.0
 11
128.0305914466999
 21
227.1999565123998
 31
0.0
  0
LINE
  5
4C2
330
2
100
AcDbEntity
  8
0
 62
     3
100
AcDbLine
 10
131.4805914466999
 20
226.2761960816999
 30
0.0
 11
129.9270016081998
 21
227.1731615932
 31
0.0
  0
ARC
  5
4C3
330
2
100
AcDbEntity
  8
0
 62
     3
100
AcDbCircle
 10
137.1234729008999
 20
228.5488941529
 30
0.0
 40
0.2330759543
100
AcDbArc
 50
273.0725354466
 51
296.1129256343998
  0
ARC
  5
4C4
330
2
100
AcDbEntity
  8
0
 62
     3
100
AcDbCircle
 10
137.1987215321998
 20
228.3513664958999
 30
0.0
 40
0.2330759543
100
AcDbArc
 50
273.0725354466999
 51
296.1129256342998
  0
LINE
  5
4C5
330
2
100
AcDbEntity
  8
0
 62
     3
100
AcDbLine
 10
137.2112144408999
 20
228.1186255933999
 30
0.0
 11
137.1359658097
 21
228.3161532504
 31
0.0
  0
LINE
  5
4C6
330
2
100
AcDbEntity
  8
0
 62
     3
100
AcDbLine
 10
137.3013079902999
 20
228.1420809993
 30
0.0
 11
137.2260593590999
 21
228.3396086562999
 31
0.0
  0
LINE
  5
4C7
330
2
100
AcDbEntity
  8
0
 62
     3
100
AcDbLine
 10
134.8519567759999
 20
226.0
 30
0.0
 11
134.8519567759999
 21
225.1000061035
 31
0.0
  0
LINE
  5
4C8
330
2
100
AcDbEntity
  8
0
 62
     3
100
AcDbLine
 10
133.5360325187999
 20
228.0169236980999
 30
0.0
 11
133.4607838875999
 21
228.2144513550999
 31
0.0
  0
LINE
  5
4C9
330
2
100
AcDbEntity
  8
0
 62
     3
100
AcDbLine
 10
133.5538455572
 20
228.1326644723999
 30
0.0
 11
133.4607838875999
 21
228.2144513550999
 31
0.0
  0
LINE
  5
4CA
330
2
100
AcDbEntity
  8
0
 62
     3
100
AcDbLine
 10
133.6290941883996
 20
227.9351368153998
 30
0.0
 11
133.5538455572
 21
228.1326644723999
 31
0.0
  0
LINE
  5
4CB
330
2
100
AcDbEntity
  8
0
 62
     3
100
AcDbLine
 10
133.6290941883996
 20
227.9351368153998
 30
0.0
 11
133.5360325187999
 21
228.0169236980999
 31
0.0
  0
LINE
  5
4CC
330
2
100
AcDbEntity
  8
0
 62
     3
100
AcDbLine
 10
134.2805929725999
 20
226.0
 30
0.0
 11
134.2805929725999
 21
225.1000061035
 31
0.0
  0
LINE
  5
4CD
330
2
100
AcDbEntity
  8
0
 62
     3
100
AcDbLine
 10
133.6805944985
 20
226.0
 30
0.0
 11
133.6805944985
 21
225.1000061035
 31
0.0
  0
LINE
  5
4CE
330
2
100
AcDbEntity
  8
0
 62
     3
100
AcDbLine
 10
133.1092306950999
 20
226.0
 30
0.0
 11
133.1092306950999
 21
225.1000061035
 31
0.0
  0
LINE
  5
4CF
330
2
100
AcDbEntity
  8
0
 62
     3
100
AcDbLine
 10
134.8519567759999
 20
225.1000061035
 30
0.0
 11
133.1092306950999
 21
225.1000061035
 31
0.0
  0
LINE
  5
4D0
330
2
100
AcDbEntity
  8
0
 62
     3
100
AcDbLine
 10
134.8519567759999
 20
226.0
 30
0.0
 11
133.1092306950999
 21
226.0
 31
0.0
  0
LINE
  5
4D1
330
2
100
AcDbEntity
  8
0
 62
     3
100
AcDbLine
 10
137.1359658097
 20
228.3161532504
 30
0.0
 11
133.5538455572
 21
228.1326644723999
 31
0.0
  0
LINE
  5
4D2
330
2
100
AcDbEntity
  8
0
 62
     3
100
AcDbLine
 10
137.2112144408999
 20
228.1186255933999
 30
0.0
 11
133.6290941883996
 21
227.9351368153998
 31
0.0
  0
LINE
  5
4D3
330
2
100
AcDbEntity
  8
0
 62
     3
100
AcDbLine
 10
139.3805914466996
 20
227.0999984741
 30
0.0
 11
139.3805914466996
 21
224.0
 31
0.0
  0
LINE
  5
4D4
330
2
100
AcDbEntity
  8
0
 62
     3
100
AcDbLine
 10
139.8805914466999
 20
227.0999984741
 30
0.0
 11
139.8805914466999
 21
224.0
 31
0.0
  0
LINE
  5
4D5
330
2
100
AcDbEntity
  8
0
 62
     3
100
AcDbLine
 10
140.1805914466999
 20
213.5
 30
0.0
 11
140.1805914466999
 21
219.4999999999999
 31
0.0
  0
LINE
  5
4D6
330
2
100
AcDbEntity
  8
0
 62
     3
100
AcDbLine
 10
145.1805914466999
 20
221.7
 30
0.0
 11
146.6805868690999
 21
221.7
 31
0.0
  0
ARC
  5
4D7
330
2
100
AcDbEntity
  8
0
 62
     3
100
AcDbCircle
 10
148.6805914467
 20
231.2413895833999
 30
0.0
 40
0.5
100
AcDbArc
 50
277.1250163488999
 51
0.0
  0
LINE
  5
4D8
330
2
100
AcDbEntity
  8
0
 62
     3
100
AcDbLine
 10
142.7335090716
 20
231.2860477471998
 30
0.0
 11
142.7245963318999
 21
231.1320513125999
 31
0.0
  0
LINE
  5
4D9
330
2
100
AcDbEntity
  8
0
 62
     3
100
AcDbLine
 10
142.7994832941999
 20
231.1496705393
 30
0.0
 11
142.7242346628998
 21
231.3471981962999
 31
0.0
  0
LINE
  5
4DA
330
2
100
AcDbEntity
  8
0
 62
     3
100
AcDbLine
 10
143.8805883949999
 20
230.2739943506999
 30
0.0
 11
148.7426088139999
 21
230.745250645
 31
0.0
  0
LINE
  5
4DB
330
2
100
AcDbEntity
  8
0
 62
     3
100
AcDbLine
 10
143.1805914466998
 20
231.0999565124
 30
0.0
 11
142.8094196002999
 21
231.0999565124
 31
0.0
  0
ARC
  5
4DC
330
2
100
AcDbEntity
  8
0
 62
     3
100
AcDbCircle
 10
142.6618447923999
 20
231.0975170096998
 30
0.0
 40
0.1471881374
100
AcDbArc
 50
356.4955935256
 51
20.75253574720002
  0
LINE
  5
4DD
330
2
100
AcDbEntity
  8
0
 62
     3
100
AcDbLine
 10
142.8087577027999
 20
231.0885200902
 30
0.0
 11
142.7998449630998
 21
230.9345236555998
 31
0.0
  0
LINE
  5
4DE
330
2
100
AcDbEntity
  8
0
 62
     3
100
AcDbLine
 10
142.6084693091999
 20
230.9718357202999
 30
0.0
 11
142.6322989105998
 21
230.9852758666
 31
0.0
  0
LINE
  5
4DF
330
2
100
AcDbEntity
  8
0
 62
     3
100
AcDbLine
 10
142.6322989105998
 20
230.9852758666
 30
0.0
 11
142.6541680732998
 21
231.0012964773999
 31
0.0
  0
LINE
  5
4E0
330
2
100
AcDbEntity
  8
0
 62
     3
100
AcDbLine
 10
142.6541680732998
 20
231.0012964773999
 30
0.0
 11
142.6736640576999
 21
231.0195951936
 31
0.0
  0
LINE
  5
4E1
330
2
100
AcDbEntity
  8
0
 62
     3
100
AcDbLine
 10
142.6736640576999
 20
231.0195951936
 30
0.0
 11
142.6904189132999
 21
231.0398266608999
 31
0.0
  0
LINE
  5
4E2
330
2
100
AcDbEntity
  8
0
 62
     3
100
AcDbLine
 10
142.6904189132999
 20
231.0398266608999
 30
0.0
 11
142.7041164233999
 21
231.0616090478998
 31
0.0
  0
LINE
  5
4E3
330
2
100
AcDbEntity
  8
0
 62
     3
100
AcDbLine
 10
142.7041164233999
 20
231.0616090478998
 30
0.0
 11
142.7144980729998
 21
231.0845312527999
 31
0.0
  0
LINE
  5
4E4
330
2
100
AcDbEntity
  8
0
 62
     3
100
AcDbLine
 10
142.7144980729998
 20
231.0845312527999
 30
0.0
 11
142.7213679276998
 21
231.1081606613
 31
0.0
  0
LINE
  5
4E5
330
2
100
AcDbEntity
  8
0
 62
     3
100
AcDbLine
 10
142.7213679276998
 20
231.1081606613
 30
0.0
 11
142.7245963318999
 21
231.1320513125999
 31
0.0
  0
LINE
  5
4E6
330
2
100
AcDbEntity
  8
0
 62
     3
100
AcDbLine
 10
142.7966165589999
 20
230.9106330044
 30
0.0
 11
142.7897467041999
 21
230.8870035958
 31
0.0
  0
LINE
  5
4E7
330
2
100
AcDbEntity
  8
0
 62
     3
100
AcDbLine
 10
142.7897467041999
 20
230.8870035958
 30
0.0
 11
142.7793650546998
 21
230.8640813909999
 31
0.0
  0
LINE
  5
4E8
330
2
100
AcDbEntity
  8
0
 62
     3
100
AcDbLine
 10
142.7793650546998
 20
230.8640813909999
 30
0.0
 11
142.7656675445999
 21
230.8422990038998
 31
0.0
  0
LINE
  5
4E9
330
2
100
AcDbEntity
  8
0
 62
     3
100
AcDbLine
 10
142.7656675445999
 20
230.8422990038998
 30
0.0
 11
142.748912689
 21
230.8220675365999
 31
0.0
  0
LINE
  5
4EA
330
2
100
AcDbEntity
  8
0
 62
     3
100
AcDbLine
 10
142.748912689
 20
230.8220675365999
 30
0.0
 11
142.7294167044999
 21
230.8037688203998
 31
0.0
  0
LINE
  5
4EB
330
2
100
AcDbEntity
  8
0
 62
     3
100
AcDbLine
 10
142.7294167044999
 20
230.8037688203998
 30
0.0
 11
142.7075475417999
 21
230.7877482095999
 31
0.0
  0
LINE
  5
4EC
330
2
100
AcDbEntity
  8
0
 62
     3
100
AcDbLine
 10
142.7075475417999
 20
230.7877482095999
 30
0.0
 11
142.6837179403999
 21
230.7743080632999
 31
0.0
  0
LINE
  5
4ED
330
2
100
AcDbEntity
  8
0
 62
     3
100
AcDbLine
 10
143.1805914466998
 20
230.2739943506999
 30
0.0
 11
143.8805883949999
 21
230.2739943506999
 31
0.0
  0
LINE
  5
4EE
330
2
100
AcDbEntity
  8
0
 62
     3
100
AcDbLine
 10
142.6837179403999
 20
230.7743080632999
 30
0.0
 11
142.6084693091999
 21
230.9718357202999
 31
0.0
  0
LINE
  5
4EF
330
2
100
AcDbEntity
  8
0
 62
     3
100
AcDbLine
 10
142.7998449630998
 20
230.9345236555998
 30
0.0
 11
142.7966165589999
 21
230.9106330044
 31
0.0
  0
LINE
  5
4F0
330
2
100
AcDbEntity
  8
0
 62
     3
100
AcDbLine
 10
148.6805868690999
 20
228.4
 30
0.0
 11
147.6805868690999
 21
229.8999999999999
 31
0.0
  0
LINE
  5
4F1
330
2
100
AcDbEntity
  8
0
 62
     3
100
AcDbLine
 10
145.1805914466999
 20
229.8999999999999
 30
0.0
 11
147.6805868690999
 21
229.8999999999999
 31
0.0
  0
LINE
  5
4F2
330
2
100
AcDbEntity
  8
0
 62
     3
100
AcDbLine
 10
148.9805914466999
 20
232.4999618529997
 30
0.0
 11
143.1805914466998
 21
232.4999618529997
 31
0.0
  0
LINE
  5
4F3
330
2
100
AcDbEntity
  8
0
 62
     3
100
AcDbLine
 10
142.7335090716
 20
231.2860477471998
 30
0.0
 11
142.7317000702999
 21
231.3197267122
 31
0.0
  0
LINE
  5
4F4
330
2
100
AcDbEntity
  8
0
 62
     3
100
AcDbLine
 10
142.7317000702999
 20
231.3197267122
 30
0.0
 11
142.7224218095999
 21
231.3517252508
 31
0.0
  0
LINE
  5
4F5
330
2
100
AcDbEntity
  8
0
 62
     3
100
AcDbLine
 10
142.7224218095999
 20
231.3517252508
 30
0.0
 11
142.7060308479999
 21
231.3808136770999
 31
0.0
  0
LINE
  5
4F6
330
2
100
AcDbEntity
  8
0
 62
     3
100
AcDbLine
 10
142.7060308479999
 20
231.3808136770999
 30
0.0
 11
142.6831570809
 21
231.4058741391999
 31
0.0
  0
LINE
  5
4F7
330
2
100
AcDbEntity
  8
0
 62
     3
100
AcDbLine
 10
142.6831570809
 20
231.4058741391999
 30
0.0
 11
142.6546795342999
 21
231.4259435774999
 31
0.0
  0
LINE
  5
4F8
330
2
100
AcDbEntity
  8
0
 62
     3
100
AcDbLine
 10
142.6546795342999
 20
231.4259435774999
 30
0.0
 11
142.6216925842999
 21
231.4402507347999
 31
0.0
  0
LINE
  5
4F9
330
2
100
AcDbEntity
  8
0
 62
     3
100
AcDbLine
 10
142.6216925842999
 20
231.4402507347999
 30
0.0
 11
142.5854639009999
 21
231.4482457950998
 31
0.0
  0
LINE
  5
4FA
330
2
100
AcDbEntity
  8
0
 62
     3
100
AcDbLine
 10
142.5854639009999
 20
231.4482457950998
 30
0.0
 11
142.5473857323999
 21
231.4496215125999
 31
0.0
  0
LINE
  5
4FB
330
2
100
AcDbEntity
  8
0
 62
     3
100
AcDbLine
 10
139.6805914466999
 20
231.3027742425
 30
0.0
 11
139.6805914466999
 21
231.4999580382998
 31
0.0
  0
ARC
  5
4FC
330
2
100
AcDbEntity
  8
0
 62
     3
100
AcDbCircle
 10
148.9805914466999
 20
232.2999618529999
 30
0.0
 40
0.2
100
AcDbArc
 50
0.0
 51
90.0
  0
LINE
  5
4FD
330
2
100
AcDbEntity
  8
0
 62
     3
100
AcDbLine
 10
149.1805914466999
 20
232.2999618529999
 30
0.0
 11
149.1805914466999
 21
231.2413895833999
 31
0.0
  0
ARC
  5
4FE
330
2
100
AcDbEntity
  8
0
 62
     3
100
AcDbCircle
 10
191.9395917754999
 20
180.4999542236
 30
0.0
 40
0.5
100
AcDbArc
 50
90.0
 51
180.0
  0
LINE
  5
4FF
330
2
100
AcDbEntity
  8
0
 62
     3
100
AcDbLine
 10
192.0795170809999
 20
181.1575080434
 30
0.0
 11
189.4370833182998
 21
181.4038439599999
 31
0.0
  0
LINE
  5
500
330
2
100
AcDbEntity
  8
0
 62
     3
100
AcDbLine
 10
191.4395917754999
 20
179.6999511718999
 30
0.0
 11
191.4395917754999
 21
180.4999542236
 31
0.0
  0
LINE
  5
501
330
2
100
AcDbEntity
  8
0
 62
     3
100
AcDbLine
 10
189.4370833182998
 20
181.4038439599999
 30
0.0
 11
189.4321689332999
 21
181.4041541126998
 31
0.0
  0
LINE
  5
502
330
2
100
AcDbEntity
  8
0
 62
     3
100
AcDbLine
 10
189.4321689332999
 20
181.4041541126998
 30
0.0
 11
189.4278040899999
 21
181.4041175847999
 31
0.0
  0
LINE
  5
503
330
2
100
AcDbEntity
  8
0
 62
     3
100
AcDbLine
 10
189.4278040899999
 20
181.4041175847999
 30
0.0
 11
189.4240039069998
 21
181.4037345027999
 31
0.0
  0
LINE
  5
504
330
2
100
AcDbEntity
  8
0
 62
     3
100
AcDbLine
 10
189.4240039069998
 20
181.4037345027999
 30
0.0
 11
189.4207815468
 21
181.4030061935998
 31
0.0
  0
LINE
  5
505
330
2
100
AcDbEntity
  8
0
 62
     3
100
AcDbLine
 10
189.4207815468
 20
181.4030061935998
 30
0.0
 11
189.4181481709999
 21
181.4019351798
 31
0.0
  0
LINE
  5
506
330
2
100
AcDbEntity
  8
0
 62
     3
100
AcDbLine
 10
189.4181481709999
 20
181.4019351798
 30
0.0
 11
189.4161129004999
 21
181.4005251712
 31
0.0
  0
LINE
  5
507
330
2
100
AcDbEntity
  8
0
 62
     3
100
AcDbLine
 10
189.4161129004999
 20
181.4005251712
 30
0.0
 11
189.4146827851996
 21
181.3987810515
 31
0.0
  0
LINE
  5
508
330
2
100
AcDbEntity
  8
0
 62
     3
100
AcDbLine
 10
189.4146827851996
 20
181.3987810515
 30
0.0
 11
189.4138627782999
 21
181.3967088618999
 31
0.0
  0
LINE
  5
509
330
2
100
AcDbEntity
  8
0
 62
     3
100
AcDbLine
 10
189.2283069236999
 20
181.0504334392
 30
0.0
 11
189.4145410513999
 21
181.398529052
 31
0.0
  0
LINE
  5
50A
330
2
100
AcDbEntity
  8
0
 62
     3
100
AcDbLine
 10
189.2167066409999
 20
181.0
 30
0.0
 11
189.2283069236999
 21
181.0504334392
 31
0.0
  0
LINE
  5
50B
330
2
100
AcDbEntity
  8
0
 62
     3
100
AcDbLine
 10
189.5655974247999
 20
176.9
 30
0.0
 11
191.0655974247999
 21
177.9
 31
0.0
  0
LINE
  5
50C
330
2
100
AcDbEntity
  8
0
 62
     3
100
AcDbLine
 10
191.2655974247999
 20
178.0999999999999
 30
0.0
 11
191.4655974248
 21
178.3
 31
0.0
  0
LINE
  5
50D
330
2
100
AcDbEntity
  8
0
 62
     3
100
AcDbLine
 10
192.2419893900999
 20
181.0956807022
 30
0.0
 11
192.2176532808
 21
181.1080199393999
 31
0.0
  0
LINE
  5
50E
330
2
100
AcDbEntity
  8
0
 62
     3
100
AcDbLine
 10
192.2176532808
 20
181.1080199393999
 30
0.0
 11
192.1936117185999
 21
181.1194100214
 31
0.0
  0
LINE
  5
50F
330
2
100
AcDbEntity
  8
0
 62
     3
100
AcDbLine
 10
192.1936117185999
 20
181.1194100214
 30
0.0
 11
192.1703184432999
 21
181.1296359815999
 31
0.0
  0
LINE
  5
510
330
2
100
AcDbEntity
  8
0
 62
     3
100
AcDbLine
 10
192.1703184432999
 20
181.1296359815999
 30
0.0
 11
192.1482130720999
 21
181.138504824
 31
0.0
  0
LINE
  5
511
330
2
100
AcDbEntity
  8
0
 62
     3
100
AcDbLine
 10
192.1482130720999
 20
181.138504824
 30
0.0
 11
192.1277128027999
 21
181.1458491658
 31
0.0
  0
LINE
  5
512
330
2
100
AcDbEntity
  8
0
 62
     3
100
AcDbLine
 10
192.1277128027999
 20
181.1458491658
 30
0.0
 11
192.1092045397999
 21
181.151530396
 31
0.0
  0
LINE
  5
513
330
2
100
AcDbEntity
  8
0
 62
     3
100
AcDbLine
 10
192.1092045397999
 20
181.151530396
 30
0.0
 11
192.0930375921998
 21
181.1554412921998
 31
0.0
  0
LINE
  5
514
330
2
100
AcDbEntity
  8
0
 62
     3
100
AcDbLine
 10
192.0930375921998
 20
181.1554412921998
 30
0.0
 11
192.0795170809999
 21
181.1575080434
 31
0.0
  0
LINE
  5
515
330
2
100
AcDbEntity
  8
0
 62
     3
100
AcDbLine
 10
192.3989492015
 20
181.0135087124999
 30
0.0
 11
192.2419893900999
 21
181.0956807022
 31
0.0
  0
ARC
  5
516
330
2
100
AcDbEntity
  8
0
 62
     3
100
AcDbCircle
 10
192.4655348636999
 20
179.4999542236
 30
0.0
 40
0.5
100
AcDbArc
 50
90.0
 51
180.0
  0
LINE
  5
517
330
2
100
AcDbEntity
  8
0
 62
     3
100
AcDbLine
 10
193.3655592777999
 20
179.9999542236
 30
0.0
 11
192.4655348636999
 21
179.9999542236
 31
0.0
  0
LINE
  5
538
330
2
100
AcDbEntity
  8
0
100
AcDbLine
 10
0.0
 20
0.0
 30
0.0
 11
210.0
 21
0.0
 31
0.0
  0
LINE
  5
539
330
2
100
AcDbEntity
  8
0
100
AcDbLine
 10
210.0
 20
0.0
 30
0.0
 11
210.0
 21
297.0
 31
0.0
  0
LINE
  5
53A
330
2
100
AcDbEntity
  8
0
100
AcDbLine
 10
210.0
 20
297.0
 30
0.0
 11
0.0
 21
297.0
 31
0.0
  0
LINE
  5
53B
330
2
100
AcDbEntity
  8
0
100
AcDbLine
 10
0.0
 20
297.0
 30
0.0
 11
0.0
 21
0.0
 31
0.0
  0
TEXT
  5
549
330
2
100
AcDbEntity
  8
0
 62
     7
100
AcDbText
 10
108.0
 20
115.0000029552499
 30
0.0
 40
2.999994089499998
  1
MC3D-A10R*
 11
108.0
 21
116.5
 31
0.0
100
AcDbText
 73
     2
  0
TEXT
  5
54B
330
2
100
AcDbEntity
  8
0
 62
     7
100
AcDbText
 10
70.0
 20
115.0000029552499
 30
0.0
 40
2.999994089499998
  1
MC3D-S10R*
 11
70.0
 21
116.5
 31
0.0
100
AcDbText
 73
     2
  0
TEXT
  5
54C
330
2
100
AcDbEntity
  8
0
 62
     7
100
AcDbText
 10
32.0
 20
110.0000029552498
 30
0.0
 40
2.999994089499998
  1
MC3D-M20R*
 11
32.0
 21
111.4999999999999
 31
0.0
100
AcDbText
 73
     2
  0
TEXT
  5
54D
330
2
100
AcDbEntity
  8
0
 62
     7
100
AcDbText
 10
32.0
 20
115.0000029552499
 30
0.0
 40
2.999994089499998
  1
MC3D-M10R*
 11
32.0
 21
116.5
 31
0.0
100
AcDbText
 73
     2
  0
TEXT
  5
54E
330
2
100
AcDbEntity
  8
0
 62
     7
100
AcDbText
 10
146.0
 20
115.0000029552499
 30
0.0
 40
2.999994089499998
  1
MC3D-P00R*
 11
146.0
 21
116.5
 31
0.0
100
AcDbText
 73
     2
  0
TEXT
  5
54F
330
2
100
AcDbEntity
  8
0
 62
     7
100
AcDbText
 10
32.0
 20
100.0000029552498
 30
0.0
 40
2.999994089499998
  1
MC3D-M50R*
 11
32.0
 21
101.4999999999999
 31
0.0
100
AcDbText
 73
     2
  0
TEXT
  5
550
330
2
100
AcDbEntity
  8
0
 62
     7
100
AcDbText
 10
32.0
 20
105.0000029552498
 30
0.0
 40
2.999994089499998
  1
MC3D-M30R*
 11
32.0
 21
106.4999999999999
 31
0.0
100
AcDbText
 73
     2
  0
TEXT
  5
551
330
2
100
AcDbEntity
  8
0
 62
     7
100
AcDbText
 10
32.0
 20
90.00000295524987
 30
0.0
 40
2.999994089499998
  1
MC3D-M70R*
 11
32.0
 21
91.49999999999987
 31
0.0
100
AcDbText
 73
     2
  0
TEXT
  5
552
330
2
100
AcDbEntity
  8
0
 62
     7
100
AcDbText
 10
32.0
 20
95.00000295525
 30
0.0
 40
2.999994089499998
  1
MC3D-M60R*
 11
32.0
 21
96.5
 31
0.0
100
AcDbText
 73
     2
  0
TEXT
  5
553
330
2
100
AcDbEntity
  8
0
 62
     7
100
AcDbText
 10
70.0
 20
100.0000029552498
 30
0.0
 40
2.999994089499998
  1
MC3D-S50R*
 11
70.0
 21
101.4999999999999
 31
0.0
100
AcDbText
 73
     2
  0
TEXT
  5
554
330
2
100
AcDbEntity
  8
0
 62
     7
100
AcDbText
 10
70.0
 20
90.00000295524987
 30
0.0
 40
2.999994089499998
  1
MC3D-S70R*
 11
70.0
 21
91.49999999999987
 31
0.0
100
AcDbText
 73
     2
  0
TEXT
  5
555
330
2
100
AcDbEntity
  8
0
 62
     7
100
AcDbText
 10
70.0
 20
95.00000295525
 30
0.0
 40
2.999994089499998
  1
MC3D-S60R*
 11
70.0
 21
96.5
 31
0.0
100
AcDbText
 73
     2
  0
TEXT
  5
556
330
2
100
AcDbEntity
  8
0
 62
     7
100
AcDbText
 10
70.0
 20
105.0000029552498
 30
0.0
 40
2.999994089499998
  1
MC3D-S30R*
 11
70.0
 21
106.4999999999999
 31
0.0
100
AcDbText
 73
     2
  0
TEXT
  5
557
330
2
100
AcDbEntity
  8
0
 62
     7
100
AcDbText
 10
70.0
 20
110.0000029552498
 30
0.0
 40
2.999994089499998
  1
MC3D-S20R*
 11
70.0
 21
111.4999999999999
 31
0.0
100
AcDbText
 73
     2
  0
TEXT
  5
558
330
2
100
AcDbEntity
  8
0
 62
     7
100
AcDbText
 10
108.0
 20
90.00000295524987
 30
0.0
 40
2.999994089499998
  1
MC3D-A70R*
 11
108.0
 21
91.49999999999987
 31
0.0
100
AcDbText
 73
     2
  0
TEXT
  5
559
330
2
100
AcDbEntity
  8
0
 62
     7
100
AcDbText
 10
108.0
 20
95.00000295525
 30
0.0
 40
2.999994089499998
  1
MC3D-A60R*
 11
108.0
 21
96.5
 31
0.0
100
AcDbText
 73
     2
  0
TEXT
  5
55A
330
2
100
AcDbEntity
  8
0
 62
     7
100
AcDbText
 10
108.0
 20
100.0000029552498
 30
0.0
 40
2.999994089499998
  1
MC3D-A50R*
 11
108.0
 21
101.4999999999999
 31
0.0
100
AcDbText
 73
     2
  0
TEXT
  5
55B
330
2
100
AcDbEntity
  8
0
 62
     7
100
AcDbText
 10
108.0
 20
105.0000029552498
 30
0.0
 40
2.999994089499998
  1
MC3D-A30R*
 11
108.0
 21
106.4999999999999
 31
0.0
100
AcDbText
 73
     2
  0
TEXT
  5
55C
330
2
100
AcDbEntity
  8
0
 62
     7
100
AcDbText
 10
108.0
 20
110.0000029552498
 30
0.0
 40
2.999994089499998
  1
MC3D-A20R*
 11
108.0
 21
111.4999999999999
 31
0.0
100
AcDbText
 73
     2
  0
ENDSEC
  0
SECTION
  2
OBJECTS
  0
DICTIONARY
  5
7
330
0
100
AcDbDictionary
281
     1
  3
ACAD_GROUP
350
1F
  3
ACAD_LAYOUT
350
B
  3
ACAD_MLINESTYLE
350
20
  3
ACAD_PLOTSETTINGS
350
21
  3
ACAD_PLOTSTYLENAME
350
6
  3
AcDbVariableDictionary
350
55D
  0
DICTIONARY
  5
1F
102
{ACAD_REACTORS
330
7
102
}
330
7
100
AcDbDictionary
281
     1
  0
DICTIONARY
  5
B
102
{ACAD_REACTORS
330
7
102
}
330
7
100
AcDbDictionary
281
     1
  3
Model
350
A
  3
ﾚｲｱｳﾄ1
350
F
  0
DICTIONARY
  5
20
102
{ACAD_REACTORS
330
7
102
}
330
7
100
AcDbDictionary
281
     1
  3
Standard
350
22
  0
DICTIONARY
  5
21
102
{ACAD_REACTORS
330
7
102
}
330
7
100
AcDbDictionary
281
     1
  0
ACDBDICTIONARYWDFLT
  5
6
102
{ACAD_REACTORS
330
7
102
}
330
7
100
AcDbDictionary
281
     1
  3
Normal
350
5
100
AcDbDictionaryWithDefault
340
5
  0
DICTIONARY
  5
55D
102
{ACAD_REACTORS
330
7
102
}
330
7
100
AcDbDictionary
281
     1
  3
DIMASSOC
350
55E
  0
LAYOUT
  5
A
102
{ACAD_REACTORS
330
B
102
}
330
B
100
AcDbPlotSettings
  1

  2
C:\Program Files\AutoCAD 2000i\plotters\DWF Classic.pc3
  4

  6

 40
0.0
 41
0.0
 42
0.0
 43
0.0
 44
0.0
 45
0.0
 46
0.0
 47
0.0
 48
0.0
 49
0.0
140
0.0
141
0.0
142
1.0
143
1.0
 70
  1712
 72
     0
 73
     0
 74
     0
  7

 75
     0
147
1.0
148
0.0
149
0.0
100
AcDbLayout
  1
Model
 70
     1
 71
     0
 10
0.0
 20
0.0
 11
12.0
 21
9.0
 12
0.0
 22
0.0
 32
0.0
 14
0.0
 24
0.0
 34
0.0
 15
0.0
 25
0.0
 35
0.0
146
0.0
 13
0.0
 23
0.0
 33
0.0
 16
1.0
 26
0.0
 36
0.0
 17
0.0
 27
1.0
 37
0.0
 76
     0
330
2
  0
LAYOUT
  5
F
102
{ACAD_REACTORS
330
B
102
}
330
B
100
AcDbPlotSettings
  1

  2
C:\Program Files\AutoCAD 2000i\plotters\DWF Classic.pc3
  4

  6

 40
0.0
 41
0.0
 42
0.0
 43
0.0
 44
0.0
 45
0.0
 46
0.0
 47
0.0
 48
0.0
 49
0.0
140
0.0
141
0.0
142
1.0
143
1.0
 70
   688
 72
     0
 73
     0
 74
     5
  7

 75
    16
147
1.0
148
0.0
149
0.0
100
AcDbLayout
  1
ﾚｲｱｳﾄ1
 70
     1
 71
     1
 10
0.0
 20
0.0
 11
12.0
 21
9.0
 12
0.0
 22
0.0
 32
0.0
 14
1.000000000000000E+20
 24
1.000000000000000E+20
 34
1.000000000000000E+20
 15
-1.000000000000000E+20
 25
-1.000000000000000E+20
 35
-1.000000000000000E+20
146
0.0
 13
0.0
 23
0.0
 33
0.0
 16
1.0
 26
0.0
 36
0.0
 17
0.0
 27
1.0
 37
0.0
 76
     0
330
C
  0
MLINESTYLE
  5
22
102
{ACAD_REACTORS
330
20
102
}
330
20
100
AcDbMlineStyle
  2
STANDARD
 70
     0
  3

 62
   256
 51
90.0
 52
90.0
 71
     2
 49
0.5
 62
   256
  6
BYLAYER
 49
-0.5
 62
   256
  6
BYLAYER
  0
ACDBPLACEHOLDER
  5
5
102
{ACAD_REACTORS
330
6
102
}
330
6
  0
DICTIONARYVAR
  5
55E
102
{ACAD_REACTORS
330
55D
102
}
330
55D
100
DictionaryVariables
280
     0
  1
1
  0
ENDSEC
  0
EOF
