  0
SECTION
  2
HEADER
  9
$ACADVER
  1
AC1015
  9
$ACADMAINTVER
 70
    20
  9
$DWGCODEPAGE
  3
ANSI_932
  9
$INSBASE
 10
0.0
 20
0.0
 30
0.0
  9
$EXTMIN
 10
-0.0087188757140666
 20
-0.0007990767103365
 30
-0.0000000000000058
  9
$EXTMAX
 10
210.0066977367144
 20
297.0136501408029
 30
0.0000000000000104
  9
$LIMMIN
 10
-176.1588562012
 20
-3.174999999999998
  9
$LIMMAX
 10
3.174999999999998
 20
291.2585876465
  9
$ORTHOMODE
 70
     0
  9
$REGENMODE
 70
     1
  9
$FILLMODE
 70
     1
  9
$QTEXTMODE
 70
     0
  9
$MIRRTEXT
 70
     0
  9
$LTSCALE
 40
1.0
  9
$ATTMODE
 70
     1
  9
$TEXTSIZE
 40
2.999994039499997
  9
$TRACEWID
 40
0.05
  9
$TEXTSTYLE
  7
STANDARD
  9
$CLAYER
  8
0
  9
$CELTYPE
  6
ByLayer
  9
$CECOLOR
 62
   256
  9
$CELTSCALE
 40
1.0
  9
$DISPSILH
 70
     0
  9
$DIMSCALE
 40
1.0
  9
$DIMASZ
 40
1.9727878465
  9
$DIMEXO
 40
2.539999961899999
  9
$DIMDLI
 40
0.38
  9
$DIMRND
 40
0.0
  9
$DIMDLE
 40
0.0
  9
$DIMEXE
 40
3.809999942799997
  9
$DIMTP
 40
0.0
  9
$DIMTM
 40
0.0
  9
$DIMTXT
 40
2.999994039499997
  9
$DIMCEN
 40
0.09
  9
$DIMTSZ
 40
0.0
  9
$DIMTOL
 70
     0
  9
$DIMLIM
 70
     0
  9
$DIMTIH
 70
     0
  9
$DIMTOH
 70
     1
  9
$DIMSE1
 70
     0
  9
$DIMSE2
 70
     0
  9
$DIMTAD
 70
     0
  9
$DIMZIN
 70
     0
  9
$DIMBLK
  1

  9
$DIMASO
 70
     1
  9
$DIMSHO
 70
     0
  9
$DIMPOST
  1

  9
$DIMAPOST
  1

  9
$DIMALT
 70
     0
  9
$DIMALTD
 70
     2
  9
$DIMALTF
 40
25.4
  9
$DIMLFAC
 40
1.0
  9
$DIMTOFL
 70
     0
  9
$DIMTVP
 40
0.0
  9
$DIMTIX
 70
     0
  9
$DIMSOXD
 70
     0
  9
$DIMSAH
 70
     0
  9
$DIMBLK1
  1

  9
$DIMBLK2
  1

  9
$DIMSTYLE
  2
Standard
  9
$DIMCLRD
 70
     0
  9
$DIMCLRE
 70
     0
  9
$DIMCLRT
 70
     0
  9
$DIMTFAC
 40
1.0
  9
$DIMGAP
 40
0.09
  9
$DIMJUST
 70
     0
  9
$DIMSD1
 70
     0
  9
$DIMSD2
 70
     0
  9
$DIMTOLJ
 70
     1
  9
$DIMTZIN
 70
     0
  9
$DIMALTZ
 70
     0
  9
$DIMALTTZ
 70
     0
  9
$DIMUPT
 70
     0
  9
$DIMDEC
 70
     4
  9
$DIMTDEC
 70
     4
  9
$DIMALTU
 70
     2
  9
$DIMALTTD
 70
     2
  9
$DIMTXSTY
  7
STANDARD
  9
$DIMAUNIT
 70
     0
  9
$DIMADEC
 70
     0
  9
$DIMALTRND
 40
0.0
  9
$DIMAZIN
 70
     0
  9
$DIMDSEP
 70
    46
  9
$DIMATFIT
 70
     3
  9
$DIMFRAC
 70
     0
  9
$DIMLDRBLK
  1

  9
$DIMLUNIT
 70
     2
  9
$DIMLWD
 70
    -2
  9
$DIMLWE
 70
    -2
  9
$DIMTMOVE
 70
     0
  9
$LUNITS
 70
     2
  9
$LUPREC
 70
     3
  9
$SKETCHINC
 40
0.1
  9
$FILLETRAD
 40
0.0625
  9
$AUNITS
 70
     0
  9
$AUPREC
 70
     0
  9
$MENU
  1
ACAD
  9
$ELEVATION
 40
0.0
  9
$PELEVATION
 40
0.0
  9
$THICKNESS
 40
0.0
  9
$LIMCHECK
 70
     0
  9
$CHAMFERA
 40
0.0
  9
$CHAMFERB
 40
0.0
  9
$CHAMFERC
 40
0.0
  9
$CHAMFERD
 40
0.0
  9
$SKPOLY
 70
     0
  9
$TDCREATE
 40
2452528.584074074
  9
$TDUCREATE
 40
2452528.209074074
  9
$TDUPDATE
 40
2453397.574654792
  9
$TDUUPDATE
 40
2453397.199654792
  9
$TDINDWG
 40
0.0097864120
  9
$TDUSRTIMER
 40
0.0097844213
  9
$USRTIMER
 70
     1
  9
$ANGBASE
 50
0.0
  9
$ANGDIR
 70
     0
  9
$PDMODE
 70
     0
  9
$PDSIZE
 40
0.0
  9
$PLINEWID
 40
0.0
  9
$SPLFRAME
 70
     0
  9
$SPLINETYPE
 70
     6
  9
$SPLINESEGS
 70
     8
  9
$HANDSEED
  5
61E
  9
$SURFTAB1
 70
     6
  9
$SURFTAB2
 70
     6
  9
$SURFTYPE
 70
     6
  9
$SURFU
 70
     6
  9
$SURFV
 70
     6
  9
$UCSBASE
  2

  9
$UCSNAME
  2

  9
$UCSORG
 10
0.0
 20
0.0
 30
0.0
  9
$UCSXDIR
 10
1.0
 20
0.0
 30
0.0
  9
$UCSYDIR
 10
0.0
 20
1.0
 30
0.0
  9
$UCSORTHOREF
  2

  9
$UCSORTHOVIEW
 70
     0
  9
$UCSORGTOP
 10
0.0
 20
0.0
 30
0.0
  9
$UCSORGBOTTOM
 10
0.0
 20
0.0
 30
0.0
  9
$UCSORGLEFT
 10
0.0
 20
0.0
 30
0.0
  9
$UCSORGRIGHT
 10
0.0
 20
0.0
 30
0.0
  9
$UCSORGFRONT
 10
0.0
 20
0.0
 30
0.0
  9
$UCSORGBACK
 10
0.0
 20
0.0
 30
0.0
  9
$PUCSBASE
  2

  9
$PUCSNAME
  2

  9
$PUCSORG
 10
0.0
 20
0.0
 30
0.0
  9
$PUCSXDIR
 10
1.0
 20
0.0
 30
0.0
  9
$PUCSYDIR
 10
0.0
 20
1.0
 30
0.0
  9
$PUCSORTHOREF
  2

  9
$PUCSORTHOVIEW
 70
     0
  9
$PUCSORGTOP
 10
0.0
 20
0.0
 30
0.0
  9
$PUCSORGBOTTOM
 10
0.0
 20
0.0
 30
0.0
  9
$PUCSORGLEFT
 10
0.0
 20
0.0
 30
0.0
  9
$PUCSORGRIGHT
 10
0.0
 20
0.0
 30
0.0
  9
$PUCSORGFRONT
 10
0.0
 20
0.0
 30
0.0
  9
$PUCSORGBACK
 10
0.0
 20
0.0
 30
0.0
  9
$USERI1
 70
     8
  9
$USERI2
 70
     0
  9
$USERI3
 70
     0
  9
$USERI4
 70
     0
  9
$USERI5
 70
     0
  9
$USERR1
 40
0.0
  9
$USERR2
 40
0.0
  9
$USERR3
 40
0.0
  9
$USERR4
 40
0.0
  9
$USERR5
 40
0.0
  9
$WORLDVIEW
 70
     1
  9
$SHADEDGE
 70
     3
  9
$SHADEDIF
 70
    70
  9
$TILEMODE
 70
     1
  9
$MAXACTVP
 70
    64
  9
$PINSBASE
 10
0.0
 20
0.0
 30
0.0
  9
$PLIMCHECK
 70
     0
  9
$PEXTMIN
 10
1.000000000000000E+20
 20
1.000000000000000E+20
 30
1.000000000000000E+20
  9
$PEXTMAX
 10
-1.000000000000000E+20
 20
-1.000000000000000E+20
 30
-1.000000000000000E+20
  9
$PLIMMIN
 10
0.0
 20
0.0
  9
$PLIMMAX
 10
12.0
 20
9.0
  9
$UNITMODE
 70
     0
  9
$VISRETAIN
 70
     1
  9
$PLINEGEN
 70
     0
  9
$PSLTSCALE
 70
     1
  9
$TREEDEPTH
 70
  3020
  9
$CMLSTYLE
  2
Standard
  9
$CMLJUST
 70
     0
  9
$CMLSCALE
 40
1.0
  9
$PROXYGRAPHICS
 70
     1
  9
$MEASUREMENT
 70
     0
  9
$CELWEIGHT
370
    -1
  9
$ENDCAPS
280
     0
  9
$JOINSTYLE
280
     0
  9
$LWDISPLAY
290
     0
  9
$INSUNITS
 70
     0
  9
$HYPERLINKBASE
  1

  9
$STYLESHEET
  1

  9
$XEDIT
290
     1
  9
$CEPSNTYPE
380
     0
  9
$PSTYLEMODE
290
     1
  9
$FINGERPRINTGUID
  2
{CEAB1C1E-C2B5-4A9C-909F-BF7AAD4023E7}
  9
$VERSIONGUID
  2
{43108B3D-C352-481A-852C-05FE23429FF9}
  9
$EXTNAMES
290
     1
  9
$PSVPSCALE
 40
0.0
  9
$OLESTARTUP
290
     0
  0
ENDSEC
  0
SECTION
  2
CLASSES
  0
CLASS
  1
ACDBDICTIONARYWDFLT
  2
AcDbDictionaryWithDefault
  3
ObjectDBX Classes
 90
        0
280
     0
281
     0
  0
CLASS
  1
ACDBPLACEHOLDER
  2
AcDbPlaceHolder
  3
ObjectDBX Classes
 90
        0
280
     0
281
     0
  0
CLASS
  1
LAYOUT
  2
AcDbLayout
  3
ObjectDBX Classes
 90
        0
280
     0
281
     0
  0
CLASS
  1
DICTIONARYVAR
  2
AcDbDictionaryVar
  3
ObjectDBX Classes
 90
        0
280
     0
281
     0
  0
CLASS
  1
TABLESTYLE
  2
AcDbTableStyle
  3
ObjectDBX Classes
 90
     2047
280
     0
281
     0
  0
ENDSEC
  0
SECTION
  2
TABLES
  0
TABLE
  2
VPORT
  5
8
330
0
100
AcDbSymbolTable
 70
     5
  0
VPORT
  5
618
330
8
100
AcDbSymbolTableRecord
100
AcDbViewportTableRecord
  2
*Active
 70
     0
 10
0.0
 20
0.0
 11
1.0
 21
1.0
 12
104.9989894305001
 22
148.5064255320463
 13
0.0
 23
0.0
 14
1.0
 24
1.0
 15
0.0
 25
0.0
 16
0.0
 26
0.0
 36
1.0
 17
0.0
 27
0.0
 37
0.0
 40
299.2504425616853
 41
1.310301507537688
 42
50.0
 43
0.0
 44
0.0
 50
0.0
 51
0.0
 71
     0
 72
   100
 73
     1
 74
     1
 75
     0
 76
     0
 77
     0
 78
     0
281
     0
 65
     1
110
0.0
120
0.0
130
0.0
111
1.0
121
0.0
131
0.0
112
0.0
122
1.0
132
0.0
 79
     0
146
0.0
  0
ENDTAB
  0
TABLE
  2
LTYPE
  5
5
330
0
100
AcDbSymbolTable
 70
     4
  0
LTYPE
  5
13
330
5
100
AcDbSymbolTableRecord
100
AcDbLinetypeTableRecord
  2
ByBlock
 70
     0
  3

 72
    65
 73
     0
 40
0.0
  0
LTYPE
  5
14
330
5
100
AcDbSymbolTableRecord
100
AcDbLinetypeTableRecord
  2
ByLayer
 70
     0
  3

 72
    65
 73
     0
 40
0.0
  0
LTYPE
  5
15
330
5
100
AcDbSymbolTableRecord
100
AcDbLinetypeTableRecord
  2
Continuous
 70
     0
  3
Solid line
 72
    65
 73
     0
 40
0.0
  0
LTYPE
  5
23
330
5
100
AcDbSymbolTableRecord
100
AcDbLinetypeTableRecord
  2
DASHED
 70
     0
  3
Dashed
 72
    65
 73
     2
 40
4.7625
 49
3.174999999999998
 74
     0
 49
-1.587499999999999
 74
     0
  0
LTYPE
  5
25
330
5
100
AcDbSymbolTableRecord
100
AcDbLinetypeTableRecord
  2
DASH
 70
     0
  3
Dash
 72
    65
 73
     2
 40
1.9999960661
 49
0.9999980329999999
 74
     0
 49
-0.9999980329999999
 74
     0
  0
LTYPE
  5
26
330
5
100
AcDbSymbolTableRecord
100
AcDbLinetypeTableRecord
  2
CENTER
 70
     0
  3
Center
 72
    65
 73
     4
 40
9.100006759199999
 49
6.5000119209
 74
     0
 49
-0.7999984026000001
 74
     0
 49
0.9999980329999999
 74
     0
 49
-0.7999984026000001
 74
     0
  0
ENDTAB
  0
TABLE
  2
LAYER
  5
2
330
0
100
AcDbSymbolTable
 70
     1
  0
LAYER
  5
10
330
2
100
AcDbSymbolTableRecord
100
AcDbLayerTableRecord
  2
0
 70
     0
 62
     7
  6
Continuous
370
    -3
390
F
  0
ENDTAB
  0
TABLE
  2
STYLE
  5
3
330
0
100
AcDbSymbolTable
 70
     1
  0
STYLE
  5
11
330
3
100
AcDbSymbolTableRecord
100
AcDbTextStyleTableRecord
  2
STANDARD
 70
     0
 40
0.0
 41
1.0
 50
0.0
 71
     0
 42
2.999994039499997
  3
romans.shx
  4
bigfont.shx
  0
ENDTAB
  0
TABLE
  2
VIEW
  5
6
330
0
100
AcDbSymbolTable
 70
     0
  0
ENDTAB
  0
TABLE
  2
UCS
  5
7
330
0
100
AcDbSymbolTable
 70
     0
  0
ENDTAB
  0
TABLE
  2
APPID
  5
9
330
0
100
AcDbSymbolTable
 70
     1
  0
APPID
  5
12
330
9
100
AcDbSymbolTableRecord
100
AcDbRegAppTableRecord
  2
ACAD
 70
     0
  0
ENDTAB
  0
TABLE
  2
DIMSTYLE
  5
A
330
0
100
AcDbSymbolTable
 70
     1
100
AcDbDimStyleTable
 71
     0
  0
DIMSTYLE
105
552
330
A
100
AcDbSymbolTableRecord
100
AcDbDimStyleTableRecord
  2
Standard
 70
     0
340
11
  0
ENDTAB
  0
TABLE
  2
BLOCK_RECORD
  5
1
330
0
100
AcDbSymbolTable
 70
     2
  0
BLOCK_RECORD
  5
1E
330
1
100
AcDbSymbolTableRecord
100
AcDbBlockTableRecord
  2
*Model_Space
340
21
  0
BLOCK_RECORD
  5
1A
330
1
100
AcDbSymbolTableRecord
100
AcDbBlockTableRecord
  2
*Paper_Space
340
1D
  0
ENDTAB
  0
ENDSEC
  0
SECTION
  2
BLOCKS
  0
BLOCK
  5
1F
330
1E
100
AcDbEntity
  8
0
100
AcDbBlockBegin
  2
*Model_Space
 70
     0
 10
0.0
 20
0.0
 30
0.0
  3
*Model_Space
  1

  0
ENDBLK
  5
20
330
1E
100
AcDbEntity
  8
0
100
AcDbBlockEnd
  0
BLOCK
  5
1B
330
1A
100
AcDbEntity
 67
     1
  8
0
100
AcDbBlockBegin
  2
*Paper_Space
 70
     0
 10
0.0
 20
0.0
 30
0.0
  3
*Paper_Space
  1

  0
ENDBLK
  5
1C
330
1A
100
AcDbEntity
 67
     1
  8
0
100
AcDbBlockEnd
  0
ENDSEC
  0
SECTION
  2
ENTITIES
  0
ARC
  5
29A
330
1E
100
AcDbEntity
  8
0
 62
     3
100
AcDbCircle
 10
96.48691410509995
 20
165.2000579834
 30
0.0
 40
0.5
100
AcDbArc
 50
89.99998201389999
 51
179.9999640277999
  0
ARC
  5
29B
330
1E
100
AcDbEntity
  8
0
 62
     3
100
AcDbCircle
 10
93.48692936389999
 20
168.4999847412
 30
0.0
 40
0.5999996066
100
AcDbArc
 50
270.0000179861
 51
89.99981808940004
  0
ARC
  5
29C
330
1E
100
AcDbEntity
  8
0
 62
     3
100
AcDbCircle
 10
92.08704227890001
 20
168.4999847412
 30
0.0
 40
0.5999996066
100
AcDbArc
 50
90.00014593850002
 51
269.9998914002
  0
ARC
  5
29D
330
1E
100
AcDbEntity
  8
0
 62
     3
100
AcDbCircle
 10
92.68689579449995
 20
168.4999847412
 30
0.0
 40
2.199997901899997
100
AcDbArc
 50
140.4789048862
 51
219.5212417355
  0
ARC
  5
29E
330
1E
100
AcDbEntity
  8
0
 62
     3
100
AcDbCircle
 10
93.48692936389999
 20
162.5000915526999
 30
0.0
 40
0.5999996066
100
AcDbArc
 50
270.0000179861
 51
89.99981808940004
  0
ARC
  5
29F
330
1E
100
AcDbEntity
  8
0
 62
     3
100
AcDbCircle
 10
92.08704227890001
 20
162.5000915526999
 30
0.0
 40
0.5999996066
100
AcDbArc
 50
90.00014593850002
 51
269.9998914002
  0
ARC
  5
2A0
330
1E
100
AcDbEntity
  8
0
 62
     3
100
AcDbCircle
 10
92.68713993519998
 20
162.5000915526999
 30
0.0
 40
2.199997901899997
100
AcDbArc
 50
140.4789048862
 51
219.5212417355
  0
ARC
  5
2A1
330
1E
100
AcDbEntity
  8
0
 62
     3
100
AcDbCircle
 10
93.48692936389999
 20
174.4999694823999
 30
0.0
 40
0.5999996066
100
AcDbArc
 50
270.0000179861
 51
89.99981808940004
  0
ARC
  5
2A2
330
1E
100
AcDbEntity
  8
0
 62
     3
100
AcDbCircle
 10
92.08704227890001
 20
174.4999694823999
 30
0.0
 40
0.5999996066
100
AcDbArc
 50
90.00014593850002
 51
269.9998914002
  0
ARC
  5
2A3
330
1E
100
AcDbEntity
  8
0
 62
     3
100
AcDbCircle
 10
92.68713993519998
 20
174.4999694823999
 30
0.0
 40
2.199997901899997
100
AcDbArc
 50
140.4789048862
 51
219.5212417355
  0
ARC
  5
2A4
330
1E
100
AcDbEntity
  8
0
 62
     3
100
AcDbCircle
 10
118.6868957944999
 20
200.6262512206999
 30
0.0
 40
0.2999999522999999
100
AcDbArc
 50
359.9993083296999
 51
60.10047375230008
  0
ARC
  5
2A5
330
1E
100
AcDbEntity
  8
0
 62
     3
100
AcDbCircle
 10
118.6868957944999
 20
199.4997863769999
 30
0.0
 40
0.2999999522999999
100
AcDbArc
 50
270.0000179861
 51
359.9999093862999
  0
ARC
  5
2A6
330
1E
100
AcDbEntity
  8
0
 62
     3
100
AcDbCircle
 10
103.1868957944999
 20
202.7998352051
 30
0.0
 40
0.2999999522999999
100
AcDbArc
 50
90.00003665540001
 51
179.9999640277999
  0
ARC
  5
2A7
330
1E
100
AcDbEntity
  8
0
 62
     3
100
AcDbCircle
 10
118.6868805356999
 20
212.3730773926
 30
0.0
 40
0.2999999522999999
100
AcDbArc
 50
299.8993623231001
 51
0.000510442900028
  0
ARC
  5
2A8
330
1E
100
AcDbEntity
  8
0
 62
     3
100
AcDbCircle
 10
118.6868805356999
 20
213.4994659424
 30
0.0
 40
0.2999999522999999
100
AcDbArc
 50
359.9999093862999
 51
89.99981808940004
  0
ARC
  5
2A9
330
1E
100
AcDbEntity
  8
0
 62
     3
100
AcDbCircle
 10
103.1868957944999
 20
210.1994934082
 30
0.0
 40
0.2999999522999999
100
AcDbArc
 50
180.0000906137
 51
270.0000179861
  0
ARC
  5
2AA
330
1E
100
AcDbEntity
  8
0
 62
     3
100
AcDbCircle
 10
119.1138824889
 20
159.1212921142999
 30
0.0
 40
0.099999964237
100
AcDbArc
 50
352.8752042805
 51
77.39183529669993
  0
ARC
  5
2AB
330
1E
100
AcDbEntity
  8
0
 62
     3
100
AcDbCircle
 10
119.0762848325999
 20
158.8222351073999
 30
0.0
 40
0.099999964237
100
AcDbArc
 50
352.8752042805
 51
77.39178065510005
  0
ARC
  5
2AC
330
1E
100
AcDbEntity
  8
0
 62
     3
100
AcDbCircle
 10
119.1138824889
 20
177.8786773681999
 30
0.0
 40
0.099999964237
100
AcDbArc
 50
282.6079461373
 51
7.124560078000046
  0
ARC
  5
2AD
330
1E
100
AcDbEntity
  8
0
 62
     3
100
AcDbCircle
 10
119.0765289731998
 20
178.1777343749999
 30
0.0
 40
0.099999964237
100
AcDbArc
 50
282.6080007788
 51
7.124560078000046
  0
ARC
  5
2AE
330
1E
100
AcDbEntity
  8
0
 62
     3
100
AcDbCircle
 10
105.9869293638999
 20
164.1999969483
 30
0.0
 40
0.2999999522999999
100
AcDbArc
 50
180.0000906137
 51
270.0000179861
  0
ARC
  5
2AF
330
1E
100
AcDbEntity
  8
0
 62
     3
100
AcDbCircle
 10
107.3868317075999
 20
164.1999969483
 30
0.0
 40
0.2999999522999999
100
AcDbArc
 50
270.0000179861
 51
359.9999093862999
  0
ARC
  5
2B0
330
1E
100
AcDbEntity
  8
0
 62
     3
100
AcDbCircle
 10
104.9869293638999
 20
161.6999969482999
 30
0.0
 40
0.2999999522999999
100
AcDbArc
 50
90.00014593850002
 51
180.0000186692999
  0
ARC
  5
2B1
330
1E
100
AcDbEntity
  8
0
 62
     3
100
AcDbCircle
 10
108.4869293638998
 20
161.6999969482999
 30
0.0
 40
0.2999999522999999
100
AcDbArc
 50
359.9999093862999
 51
89.99981808940004
  0
ARC
  5
2B2
330
1E
100
AcDbEntity
  8
0
 62
     3
100
AcDbCircle
 10
105.9869293638999
 20
172.7999877929999
 30
0.0
 40
0.2999999522999999
100
AcDbArc
 50
90.00009129690003
 51
180.0000186692999
  0
ARC
  5
2B3
330
1E
100
AcDbEntity
  8
0
 62
     3
100
AcDbCircle
 10
107.3868317075999
 20
172.7999877929999
 30
0.0
 40
0.2999999522999999
100
AcDbArc
 50
359.9999093862999
 51
89.99981808940004
  0
ARC
  5
2B4
330
1E
100
AcDbEntity
  8
0
 62
     3
100
AcDbCircle
 10
104.9869293638999
 20
175.2999877929999
 30
0.0
 40
0.2999999522999999
100
AcDbArc
 50
180.0000906137
 51
270.0000179861
  0
ARC
  5
2B5
330
1E
100
AcDbEntity
  8
0
 62
     3
100
AcDbCircle
 10
108.4869293638998
 20
175.2999877929999
 30
0.0
 40
0.2999999522999999
100
AcDbArc
 50
270.0000179861
 51
359.9999093862999
  0
ARC
  5
2B6
330
1E
100
AcDbEntity
  8
0
 62
     3
100
AcDbCircle
 10
106.0867828794999
 20
165.6999664306999
 30
0.0
 40
0.2999999522999999
100
AcDbArc
 50
180.0000906137
 51
270.0000179861
  0
ARC
  5
2B7
330
1E
100
AcDbEntity
  8
0
 62
     3
100
AcDbCircle
 10
107.0867828794999
 20
165.6999664306999
 30
0.0
 40
0.2999999522999999
100
AcDbArc
 50
270.0000179861
 51
359.9999093862999
  0
ARC
  5
2B8
330
1E
100
AcDbEntity
  8
0
 62
     3
100
AcDbCircle
 10
106.0867828794999
 20
171.2999572754
 30
0.0
 40
0.2999999522999999
100
AcDbArc
 50
90.00003665540001
 51
179.9999640277999
  0
ARC
  5
2B9
330
1E
100
AcDbEntity
  8
0
 62
     3
100
AcDbCircle
 10
107.0867828794999
 20
171.2999572754
 30
0.0
 40
0.2999999522999999
100
AcDbArc
 50
0.0
 51
89.99992737239997
  0
ARC
  5
2BA
330
1E
100
AcDbEntity
  8
0
 62
     3
100
AcDbCircle
 10
104.9869446226999
 20
200.1997375488
 30
0.0
 40
0.2999999522999999
100
AcDbArc
 50
90.00014593850002
 51
180.0000186692999
  0
ARC
  5
2BB
330
1E
100
AcDbEntity
  8
0
 62
     3
100
AcDbCircle
 10
108.3868469663999
 20
200.1997375488
 30
0.0
 40
0.2999999522999999
100
AcDbArc
 50
359.9999093862999
 51
89.99981808940004
  0
ARC
  5
2BC
330
1E
100
AcDbEntity
  8
0
 62
     3
100
AcDbCircle
 10
104.4869446226999
 20
203.3999328613
 30
0.0
 40
0.1999999881
100
AcDbArc
 50
270.0000179861
 51
359.9999093862999
  0
ARC
  5
2BD
330
1E
100
AcDbEntity
  8
0
 62
     3
100
AcDbCircle
 10
104.9869446226999
 20
212.7993469238
 30
0.0
 40
0.2999999522999999
100
AcDbArc
 50
180.0000906137
 51
270.0000179861
  0
ARC
  5
2BE
330
1E
100
AcDbEntity
  8
0
 62
     3
100
AcDbCircle
 10
108.3868317075999
 20
212.7993469238
 30
0.0
 40
0.2999999522999999
100
AcDbArc
 50
270.0000179861
 51
359.9999093862999
  0
ARC
  5
2BF
330
1E
100
AcDbEntity
  8
0
 62
     3
100
AcDbCircle
 10
104.4869446226999
 20
209.599395752
 30
0.0
 40
0.1999999881
100
AcDbArc
 50
359.9999093862999
 51
89.99981808940004
  0
ARC
  5
2C0
330
1E
100
AcDbEntity
  8
0
 62
     3
100
AcDbCircle
 10
96.28699345080001
 20
204.5996398925999
 30
0.0
 40
0.2999999522999999
100
AcDbArc
 50
180.0001452552
 51
270.0000179861
  0
ARC
  5
2C1
330
1E
100
AcDbEntity
  8
0
 62
     3
100
AcDbCircle
 10
96.28699345080001
 20
207.3994445801
 30
0.0
 40
0.2999999522999999
100
AcDbArc
 50
89.99992737239997
 51
179.9998547448
  0
LINE
  5
2C7
330
1E
100
AcDbEntity
  8
0
 62
     3
100
AcDbLine
 10
95.98692936389999
 20
163.9000549317
 30
0.0
 11
95.98692936389999
 21
165.2000579834
 31
0.0
  0
LINE
  5
2C8
330
1E
100
AcDbEntity
  8
0
 62
     3
100
AcDbLine
 10
97.48691410509998
 20
165.7000579833999
 30
0.0
 11
96.48691410509995
 21
165.7000579833999
 31
0.0
  0
LINE
  5
2C9
330
1E
100
AcDbEntity
  8
0
 62
     3
100
AcDbLine
 10
102.8868164488
 20
176.4000244141
 30
0.0
 11
97.48691410509998
 21
176.4000244141
 31
0.0
  0
LINE
  5
2CA
330
1E
100
AcDbEntity
  8
0
 62
     3
100
AcDbLine
 10
102.8868164488
 20
160.6000518799
 30
0.0
 11
95.98691410509998
 21
160.6000518799
 31
0.0
  0
LINE
  5
2CB
330
1E
100
AcDbEntity
  8
0
 62
     3
100
AcDbLine
 10
97.48691410509998
 20
161.2000732422
 30
0.0
 11
96.78696293320001
 21
161.2000732422
 31
0.0
  0
LINE
  5
2CC
330
1E
100
AcDbEntity
  8
0
 62
     3
100
AcDbLine
 10
95.98692936389999
 20
160.6000976562999
 30
0.0
 11
95.98692936389999
 21
161.1000671387
 31
0.0
  0
LINE
  5
2CD
330
1E
100
AcDbEntity
  8
0
 62
     3
100
AcDbLine
 10
90.48688632099993
 20
200.4500074834
 30
0.0
 11
90.9868604873
 21
200.5999981901
 31
0.0
  0
LINE
  5
2CE
330
1E
100
AcDbEntity
  8
0
 62
     3
100
AcDbLine
 10
90.9869175649
 20
200.0995408486999
 30
0.0
 11
90.48696221399998
 21
200.2495411711999
 31
0.0
  0
LINE
  5
2CF
330
1E
100
AcDbEntity
  8
0
 62
     3
100
AcDbLine
 10
97.48691410509998
 20
200.0998992919999
 30
0.0
 11
90.99010319199996
 21
200.0998992919999
 31
0.0
  0
LINE
  5
2D0
330
1E
100
AcDbEntity
  8
0
 62
     3
100
AcDbLine
 10
97.48691410509998
 20
200.5998992919999
 30
0.0
 11
90.99010319199996
 21
200.5998992919999
 31
0.0
  0
LINE
  5
2D1
330
1E
100
AcDbEntity
  8
0
 62
     3
100
AcDbLine
 10
90.98686832870001
 20
200.0996551514
 30
0.0
 11
90.98686832870001
 21
200.5996551513999
 31
0.0
  0
LINE
  5
2D2
330
1E
100
AcDbEntity
  8
0
 62
     3
100
AcDbLine
 10
90.48686832869998
 20
200.2498016357999
 30
0.0
 11
90.48686832869998
 21
200.4497528076
 31
0.0
  0
LINE
  5
2D3
330
1E
100
AcDbEntity
  8
0
 62
     3
100
AcDbLine
 10
122.2869629331998
 20
203.5000457763999
 30
0.0
 11
121.2869629331999
 21
203.5000457763999
 31
0.0
  0
LINE
  5
2D4
330
1E
100
AcDbEntity
  8
0
 62
     3
100
AcDbLine
 10
122.2869629331998
 20
209.5000457763999
 30
0.0
 11
121.2869629331999
 21
209.5000457763999
 31
0.0
  0
LINE
  5
2D5
330
1E
100
AcDbEntity
  8
0
 62
     3
100
AcDbLine
 10
122.2869629331998
 20
209.5000457763999
 30
0.0
 11
122.2869629331998
 21
203.5000457763999
 31
0.0
  0
LINE
  5
2D6
330
1E
100
AcDbEntity
  8
0
 62
     3
100
AcDbLine
 10
155.6855225034999
 20
161.8999938965
 30
0.0
 11
155.6855225034999
 21
175.0999755858999
 31
0.0
  0
LINE
  5
2D7
330
1E
100
AcDbEntity
  8
0
 62
     3
100
AcDbLine
 10
168.8853668639
 20
161.8999938965
 30
0.0
 11
168.8853668639
 21
175.0999755858999
 31
0.0
  0
LINE
  5
2D8
330
1E
100
AcDbEntity
  8
0
 62
     3
100
AcDbLine
 10
155.6855835386999
 20
161.8999786377
 30
0.0
 11
168.8853668639
 21
161.8999786377
 31
0.0
  0
LINE
  5
2D9
330
1E
100
AcDbEntity
  8
0
 62
     3
100
AcDbLine
 10
155.6855682799
 20
175.0999603271999
 30
0.0
 11
168.8853516050999
 21
175.0999603271999
 31
0.0
  0
LINE
  5
2DA
330
1E
100
AcDbEntity
  8
0
 62
     3
100
AcDbLine
 10
124.2869476743999
 20
199.9000549316999
 30
0.0
 11
121.2869629331999
 21
199.9000549316999
 31
0.0
  0
LINE
  5
2DB
330
1E
100
AcDbEntity
  8
0
 62
     3
100
AcDbLine
 10
124.2869476743999
 20
213.1000518799
 30
0.0
 11
121.2869629331999
 21
213.1000518799
 31
0.0
  0
LINE
  5
2DC
330
1E
100
AcDbEntity
  8
0
 62
     3
100
AcDbLine
 10
124.2869476743999
 20
161.9000549317
 30
0.0
 11
121.2869629331999
 21
161.9000549317
 31
0.0
  0
LINE
  5
2DD
330
1E
100
AcDbEntity
  8
0
 62
     3
100
AcDbLine
 10
124.2869476743999
 20
175.1000518799
 30
0.0
 11
121.2869629331999
 21
175.1000518799
 31
0.0
  0
LINE
  5
2DE
330
1E
100
AcDbEntity
  8
0
 62
     3
100
AcDbLine
 10
124.2869629331998
 20
199.9000549316999
 30
0.0
 11
124.2869629331998
 21
213.1000518799
 31
0.0
  0
LINE
  5
2DF
330
1E
100
AcDbEntity
  8
0
 62
     3
100
AcDbLine
 10
124.2869476743999
 20
161.9000549317
 30
0.0
 11
124.2869476743999
 21
175.1000518799
 31
0.0
  0
LINE
  5
2E0
330
1E
100
AcDbEntity
  8
0
 62
     3
100
AcDbLine
 10
121.2868416354998
 20
161.0000201783
 30
0.0
 11
120.0868345214999
 21
159.5000170108
 31
0.0
  0
LINE
  5
2E1
330
1E
100
AcDbEntity
  8
0
 62
     3
100
AcDbLine
 10
121.2868332434999
 20
175.9999225025
 30
0.0
 11
120.0868214350998
 21
177.4999220061999
 31
0.0
  0
LINE
  5
2E2
330
1E
100
AcDbEntity
  8
0
 62
     3
100
AcDbLine
 10
120.0869507261999
 20
159.5000610351999
 30
0.0
 11
120.0869507261999
 21
177.5000305176
 31
0.0
  0
LINE
  5
2E3
330
1E
100
AcDbEntity
  8
0
 62
     3
100
AcDbLine
 10
119.4869598814999
 20
159.5000610351999
 30
0.0
 11
119.4869598814999
 21
177.5000305176
 31
0.0
  0
LINE
  5
2E4
330
1E
100
AcDbEntity
  8
0
 62
     3
100
AcDbLine
 10
120.0869354673999
 20
159.5000610351999
 30
0.0
 11
119.4869598814999
 21
159.5000610351999
 31
0.0
  0
LINE
  5
2E5
330
1E
100
AcDbEntity
  8
0
 62
     3
100
AcDbLine
 10
120.0869354673999
 20
177.5000305176
 30
0.0
 11
119.4869598814999
 21
177.5000305176
 31
0.0
  0
LINE
  5
2E6
330
1E
100
AcDbEntity
  8
0
 62
     3
100
AcDbLine
 10
121.2869629331999
 20
176.0000305175999
 30
0.0
 11
121.2869629331999
 21
161.0000610351999
 31
0.0
  0
LINE
  5
2E7
330
1E
100
AcDbEntity
  8
0
 62
     3
100
AcDbLine
 10
121.2868609229998
 20
199.0000015616999
 30
0.0
 11
120.0868538091
 21
197.4999983941
 31
0.0
  0
LINE
  5
2E8
330
1E
100
AcDbEntity
  8
0
 62
     3
100
AcDbLine
 10
121.2868413699
 20
213.9999290202999
 30
0.0
 11
120.0868295615999
 21
215.4999285239
 31
0.0
  0
LINE
  5
2E9
330
1E
100
AcDbEntity
  8
0
 62
     3
100
AcDbLine
 10
120.0869659849999
 20
197.5000610352
 30
0.0
 11
120.0869659849999
 21
215.5000305176
 31
0.0
  0
LINE
  5
2EA
330
1E
100
AcDbEntity
  8
0
 62
     3
100
AcDbLine
 10
119.4869751401999
 20
197.5000610352
 30
0.0
 11
119.4869751401999
 21
215.5000305176
 31
0.0
  0
LINE
  5
2EB
330
1E
100
AcDbEntity
  8
0
 62
     3
100
AcDbLine
 10
120.0869659849999
 20
197.5000610352
 30
0.0
 11
119.4869903989999
 21
197.5000610352
 31
0.0
  0
LINE
  5
2EC
330
1E
100
AcDbEntity
  8
0
 62
     3
100
AcDbLine
 10
120.0869507261999
 20
215.5000305176
 30
0.0
 11
119.4869751401999
 21
215.5000305176
 31
0.0
  0
LINE
  5
2ED
330
1E
100
AcDbEntity
  8
0
 62
     3
100
AcDbLine
 10
121.2869629331999
 20
214.0000305176
 30
0.0
 11
121.2869629331999
 21
199.0000610352
 31
0.0
  0
LINE
  5
2EE
330
1E
100
AcDbEntity
  8
0
 62
     3
100
AcDbLine
 10
90.48690413309996
 20
213.4499006061
 30
0.0
 11
90.98687829939995
 21
213.5998913128
 31
0.0
  0
LINE
  5
2EF
330
1E
100
AcDbEntity
  8
0
 62
     3
100
AcDbLine
 10
90.98689548639999
 20
213.099480749
 30
0.0
 11
90.48694013549996
 21
213.2494810714999
 31
0.0
  0
LINE
  5
2F0
330
1E
100
AcDbEntity
  8
0
 62
     3
100
AcDbLine
 10
97.48691410509998
 20
213.0996246337999
 30
0.0
 11
90.99010319199996
 21
213.0996246337999
 31
0.0
  0
LINE
  5
2F1
330
1E
100
AcDbEntity
  8
0
 62
     3
100
AcDbLine
 10
90.98686832870001
 20
213.0995178223
 30
0.0
 11
90.98686832870001
 21
213.5995178223
 31
0.0
  0
LINE
  5
2F2
330
1E
100
AcDbEntity
  8
0
 62
     3
100
AcDbLine
 10
90.48686832869998
 20
213.2495269776
 30
0.0
 11
90.48686832869998
 21
213.4495391845999
 31
0.0
  0
LINE
  5
2F3
330
1E
100
AcDbEntity
  8
0
 62
     3
100
AcDbLine
 10
90.48687479359998
 20
208.2501342325
 30
0.0
 11
90.9868489599
 21
208.4001249392
 31
0.0
  0
LINE
  5
2F4
330
1E
100
AcDbEntity
  8
0
 62
     3
100
AcDbLine
 10
90.98692536799999
 20
207.8996705255
 30
0.0
 11
90.48697001709999
 21
208.049670848
 31
0.0
  0
LINE
  5
2F5
330
1E
100
AcDbEntity
  8
0
 62
     3
100
AcDbLine
 10
97.48691410509998
 20
207.9000396729
 30
0.0
 11
90.99010319199996
 21
207.9000396729
 31
0.0
  0
LINE
  5
2F6
330
1E
100
AcDbEntity
  8
0
 62
     3
100
AcDbLine
 10
97.48691410509998
 20
208.4000396728999
 30
0.0
 11
90.99010319199996
 21
208.4000396728999
 31
0.0
  0
LINE
  5
2F7
330
1E
100
AcDbEntity
  8
0
 62
     3
100
AcDbLine
 10
97.48691410509998
 20
213.5996246337999
 30
0.0
 11
90.99010319199996
 21
213.5996246337999
 31
0.0
  0
LINE
  5
2F8
330
1E
100
AcDbEntity
  8
0
 62
     3
100
AcDbLine
 10
90.98686832870001
 20
207.8997955322
 30
0.0
 11
90.98686832870001
 21
208.3997955322
 31
0.0
  0
LINE
  5
2F9
330
1E
100
AcDbEntity
  8
0
 62
     3
100
AcDbLine
 10
90.48686832869998
 20
208.0499420165999
 30
0.0
 11
90.48686832869998
 21
208.2498931885
 31
0.0
  0
LINE
  5
2FA
330
1E
100
AcDbEntity
  8
0
 62
     3
100
AcDbLine
 10
97.48691410509998
 20
167.1000976563
 30
0.0
 11
90.98692936389999
 21
167.1000976563
 31
0.0
  0
LINE
  5
2FB
330
1E
100
AcDbEntity
  8
0
 62
     3
100
AcDbLine
 10
97.48691410509998
 20
161.9000549317
 30
0.0
 11
96.78696293320001
 21
161.9000549317
 31
0.0
  0
LINE
  5
2FC
330
1E
100
AcDbEntity
  8
0
 62
     3
100
AcDbLine
 10
97.48691410509998
 20
175.1000366211
 30
0.0
 11
96.78696293320001
 21
175.1000366211
 31
0.0
  0
LINE
  5
2FD
330
1E
100
AcDbEntity
  8
0
 62
     3
100
AcDbLine
 10
97.48691410509998
 20
163.9001464844
 30
0.0
 11
90.98692936389999
 21
163.9001464844
 31
0.0
  0
LINE
  5
2FE
330
1E
100
AcDbEntity
  8
0
 62
     3
100
AcDbLine
 10
97.48691410509998
 20
169.9000396728999
 30
0.0
 11
90.98692936389999
 21
169.9000396728999
 31
0.0
  0
LINE
  5
2FF
330
1E
100
AcDbEntity
  8
0
 62
     3
100
AcDbLine
 10
97.48691410509998
 20
173.1000366211
 30
0.0
 11
90.98692936389999
 21
173.1000366211
 31
0.0
  0
LINE
  5
300
330
1E
100
AcDbEntity
  8
0
  6
CENTER
 62
     3
100
AcDbLine
 10
89.91026920759997
 20
162.5001525879
 30
0.0
 11
94.686865277
 21
162.5001525879
 31
0.0
  0
LINE
  5
301
330
1E
100
AcDbEntity
  8
0
  6
CENTER
 62
     3
100
AcDbLine
 10
90.02940983259998
 20
174.5000305176
 30
0.0
 11
94.686865277
 21
174.5000305176
 31
0.0
  0
LINE
  5
302
330
1E
100
AcDbEntity
  8
0
 62
     3
100
AcDbLine
 10
93.48691410509998
 20
169.1000366211
 30
0.0
 11
92.08702702009999
 21
169.1000366211
 31
0.0
  0
LINE
  5
303
330
1E
100
AcDbEntity
  8
0
 62
     3
100
AcDbLine
 10
93.48691410509998
 20
167.9000701904
 30
0.0
 11
92.08702702009999
 21
167.9000701904
 31
0.0
  0
LINE
  5
304
330
1E
100
AcDbEntity
  8
0
 62
     3
100
AcDbLine
 10
90.98692936389999
 20
169.9000396728999
 30
0.0
 11
90.98692936389999
 21
167.1000976563
 31
0.0
  0
LINE
  5
305
330
1E
100
AcDbEntity
  8
0
 62
     3
100
AcDbLine
 10
93.48691410509998
 20
163.1001434325999
 30
0.0
 11
92.08702702009999
 21
163.1001434325999
 31
0.0
  0
LINE
  5
306
330
1E
100
AcDbEntity
  8
0
 62
     3
100
AcDbLine
 10
93.48691410509998
 20
161.9001464843999
 30
0.0
 11
92.08702702009999
 21
161.9001464843999
 31
0.0
  0
LINE
  5
307
330
1E
100
AcDbEntity
  8
0
 62
     3
100
AcDbLine
 10
90.98692936389999
 20
163.9001464844
 30
0.0
 11
90.98692936389999
 21
161.1001434325999
 31
0.0
  0
LINE
  5
308
330
1E
100
AcDbEntity
  8
0
 62
     3
100
AcDbLine
 10
96.78696293320001
 20
161.1001434325999
 30
0.0
 11
90.98692936389999
 21
161.1001434325999
 31
0.0
  0
LINE
  5
309
330
1E
100
AcDbEntity
  8
0
 62
     3
100
AcDbLine
 10
93.48691410509998
 20
175.1000366211
 30
0.0
 11
92.08702702009999
 21
175.1000366211
 31
0.0
  0
LINE
  5
30A
330
1E
100
AcDbEntity
  8
0
 62
     3
100
AcDbLine
 10
93.48691410509998
 20
173.9000244141
 30
0.0
 11
92.08702702009999
 21
173.9000244141
 31
0.0
  0
LINE
  5
30B
330
1E
100
AcDbEntity
  8
0
 62
     3
100
AcDbLine
 10
90.98692936389999
 20
175.9000244141
 30
0.0
 11
90.98692936389999
 21
173.1000366211
 31
0.0
  0
LINE
  5
30C
330
1E
100
AcDbEntity
  8
0
 62
     3
100
AcDbLine
 10
96.78696293320001
 20
175.9000244141
 30
0.0
 11
90.98692936389999
 21
175.9000244141
 31
0.0
  0
LINE
  5
30D
330
1E
100
AcDbEntity
  8
0
 62
     3
100
AcDbLine
 10
96.78696293320001
 20
175.1000366211
 30
0.0
 11
96.78696293320001
 21
175.9000244141
 31
0.0
  0
LINE
  5
30E
330
1E
100
AcDbEntity
  8
0
 62
     3
100
AcDbLine
 10
96.78696293320001
 20
161.9000549317
 30
0.0
 11
96.78696293320001
 21
161.1001434325999
 31
0.0
  0
LINE
  5
30F
330
1E
100
AcDbEntity
  8
0
 62
     3
100
AcDbLine
 10
154.6328357841999
 20
159.6
 30
0.0
 11
154.3857237900999
 21
158.8998513047
 31
0.0
  0
LINE
  5
310
330
1E
100
AcDbEntity
  8
0
 62
     3
100
AcDbLine
 10
169.9386452343999
 20
177.3999389649
 30
0.0
 11
170.1856248118
 21
178.0997124807
 31
0.0
  0
LINE
  5
311
330
1E
100
AcDbEntity
  8
0
 62
     3
100
AcDbLine
 10
170.1857798461999
 20
178.0995045537999
 30
0.0
 11
168.8357065417999
 21
178.8995479102999
 31
0.0
  0
LINE
  5
312
330
1E
100
AcDbEntity
  8
0
 62
     3
100
AcDbLine
 10
168.835637032
 20
178.8998796021999
 30
0.0
 11
166.8856615291999
 21
179.0998777667
 31
0.0
  0
LINE
  5
313
330
1E
100
AcDbEntity
  8
0
 62
     3
100
AcDbLine
 10
166.8856743317999
 20
179.0996653274
 30
0.0
 11
166.1302399493999
 21
177.3999389649
 31
0.0
  0
LINE
  5
314
330
1E
100
AcDbEntity
  8
0
 62
     3
100
AcDbLine
 10
170.1855666551999
 20
158.8995215168999
 30
0.0
 11
169.9383382650998
 21
159.6
 31
0.0
  0
LINE
  5
315
330
1E
100
AcDbEntity
  8
0
 62
     3
100
AcDbLine
 10
168.8354616641998
 20
158.0998368528
 30
0.0
 11
170.1855349686999
 21
158.8998802092999
 31
0.0
  0
LINE
  5
316
330
1E
100
AcDbEntity
  8
0
 62
     3
100
AcDbLine
 10
166.8855787719
 20
157.9000179459
 30
0.0
 11
168.8357971411999
 21
158.1000410199
 31
0.0
  0
LINE
  5
317
330
1E
100
AcDbEntity
  8
0
 62
     3
100
AcDbLine
 10
166.1299611247
 20
159.6
 30
0.0
 11
166.8855982327999
 21
157.8998175046999
 31
0.0
  0
LINE
  5
318
330
1E
100
AcDbEntity
  8
0
 62
     3
100
AcDbLine
 10
154.3856211441999
 20
178.0995288035999
 30
0.0
 11
154.6325358942999
 21
177.3999389649
 31
0.0
  0
LINE
  5
319
330
1E
100
AcDbEntity
  8
0
 62
     3
100
AcDbLine
 10
155.7355966320999
 20
178.8999210203999
 30
0.0
 11
154.3855102006999
 21
178.0998698849
 31
0.0
  0
LINE
  5
31A
330
1E
100
AcDbEntity
  8
0
 62
     3
100
AcDbLine
 10
157.6855824321999
 20
179.0995534306999
 30
0.0
 11
155.7356069293999
 21
178.8995552662
 31
0.0
  0
LINE
  5
31B
330
1E
100
AcDbEntity
  8
0
 62
     3
100
AcDbLine
 10
158.4408885957
 20
177.3999389649
 30
0.0
 11
157.6855002687999
 21
179.0995617025999
 31
0.0
  0
LINE
  5
31C
330
1E
100
AcDbEntity
  8
0
 62
     3
100
AcDbLine
 10
154.3858406467999
 20
158.8996592752
 30
0.0
 11
155.7357170460999
 21
158.0997326032
 31
0.0
  0
LINE
  5
31D
330
1E
100
AcDbEntity
  8
0
 62
     3
100
AcDbLine
 10
155.7356460950998
 20
158.0999154299
 30
0.0
 11
157.6856215978999
 21
157.8999172654
 31
0.0
  0
LINE
  5
31E
330
1E
100
AcDbEntity
  8
0
 62
     3
100
AcDbLine
 10
157.6857808746999
 20
157.8997801435999
 30
0.0
 11
158.4414345877999
 21
159.6
 31
0.0
  0
LINE
  5
31F
330
1E
100
AcDbEntity
  8
0
 62
     3
100
AcDbLine
 10
116.6130911582999
 20
201.0643944474999
 30
0.0
 11
115.9864054725
 21
201.4247415412999
 31
0.0
  0
LINE
  5
320
330
1E
100
AcDbEntity
  8
0
 62
     3
100
AcDbLine
 10
118.9864965214999
 20
199.6996756668999
 30
0.0
 11
118.3864783116999
 21
200.0446888417
 31
0.0
  0
LINE
  5
321
330
1E
100
AcDbEntity
  8
0
 62
     3
100
AcDbLine
 10
117.4131154379999
 20
200.604376881
 30
0.0
 11
116.7864297521999
 21
200.9647239747999
 31
0.0
  0
LINE
  5
322
330
1E
100
AcDbEntity
  8
0
 62
     3
100
AcDbLine
 10
118.2131397176999
 20
200.1443593145
 30
0.0
 11
117.5864540318999
 21
200.5047064081999
 31
0.0
  0
LINE
  5
323
330
1E
100
AcDbEntity
  8
0
 62
     3
100
AcDbLine
 10
115.8130668784999
 20
201.524412014
 30
0.0
 11
115.1865796113998
 21
201.8846450160999
 31
0.0
  0
LINE
  5
324
330
1E
100
AcDbEntity
  8
0
 62
     3
100
AcDbLine
 10
118.8360013014999
 20
200.8862144974
 30
0.0
 11
114.9863474323
 21
203.0997828223
 31
0.0
  0
LINE
  5
325
330
1E
100
AcDbEntity
  8
0
 62
     3
100
AcDbLine
 10
118.9869141050999
 20
199.5000457764
 30
0.0
 11
118.9869141050999
 21
200.6265106201
 31
0.0
  0
LINE
  5
326
330
1E
100
AcDbEntity
  8
0
 62
     3
100
AcDbLine
 10
118.3868164488
 20
200.0449676514
 30
0.0
 11
118.3868164488
 21
201.1450653076
 31
0.0
  0
LINE
  5
327
330
1E
100
AcDbEntity
  8
0
 62
     3
100
AcDbLine
 10
117.5867676206999
 20
200.5049285889
 30
0.0
 11
117.5867676206999
 21
201.6050262451
 31
0.0
  0
LINE
  5
328
330
1E
100
AcDbEntity
  8
0
 62
     3
100
AcDbLine
 10
116.7869629331999
 20
200.9651336669999
 30
0.0
 11
116.7869629331999
 21
202.0649871825999
 31
0.0
  0
LINE
  5
329
330
1E
100
AcDbEntity
  8
0
 62
     3
100
AcDbLine
 10
115.9869141050999
 20
201.4250946045
 30
0.0
 11
115.9869141050999
 21
202.5249481201
 31
0.0
  0
LINE
  5
32A
330
1E
100
AcDbEntity
  8
0
 62
     3
100
AcDbLine
 10
115.1868652769999
 20
201.8850555419999
 30
0.0
 11
115.1868652769999
 21
202.9849090576
 31
0.0
  0
LINE
  5
32B
330
1E
100
AcDbEntity
  8
0
 62
     3
100
AcDbLine
 10
111.5865009503999
 20
199.1996818627
 30
0.0
 11
103.1864859288998
 21
203.0996988127
 31
0.0
  0
LINE
  5
32C
330
1E
100
AcDbEntity
  8
0
 62
     3
100
AcDbLine
 10
108.7869629331999
 20
198.8999481201
 30
0.0
 11
104.6868652769999
 21
198.8999481201
 31
0.0
  0
LINE
  5
32D
330
1E
100
AcDbEntity
  8
0
 62
     3
100
AcDbLine
 10
108.7869629331999
 20
200.5000457763999
 30
0.0
 11
104.6868652769999
 21
200.5000457763999
 31
0.0
  0
LINE
  5
32E
330
1E
100
AcDbEntity
  8
0
 62
     3
100
AcDbLine
 10
110.5867676206998
 20
198.6001434326
 30
0.0
 11
102.8868164488
 21
198.6001434326
 31
0.0
  0
LINE
  5
32F
330
1E
100
AcDbEntity
  8
0
 62
     3
100
AcDbLine
 10
110.5867676206998
 20
199.1999969483
 30
0.0
 11
118.6868652769999
 21
199.1999969483
 31
0.0
  0
LINE
  5
330
330
1E
100
AcDbEntity
  8
0
 62
     3
100
AcDbLine
 10
114.9869141050999
 20
203.1001434326
 30
0.0
 11
103.1868652769999
 21
203.1001434326
 31
0.0
  0
LINE
  5
331
330
1E
100
AcDbEntity
  8
0
 62
     3
100
AcDbLine
 10
110.5867676206998
 20
198.6001434326
 30
0.0
 11
110.5867676206998
 21
199.1999969483
 31
0.0
  0
LINE
  5
332
330
1E
100
AcDbEntity
  8
0
 62
     3
100
AcDbLine
 10
108.7869629331999
 20
198.6001434326
 30
0.0
 11
108.7869629331999
 21
200.5000457763999
 31
0.0
  0
LINE
  5
333
330
1E
100
AcDbEntity
  8
0
 62
     3
100
AcDbLine
 10
104.6868652769999
 20
198.6001434326
 30
0.0
 11
104.6868652769999
 21
200.5000457763999
 31
0.0
  0
LINE
  5
334
330
1E
100
AcDbEntity
  8
0
 62
     3
100
AcDbLine
 10
102.8868164488
 20
198.6001434326
 30
0.0
 11
102.8868164488
 21
202.8000946044999
 31
0.0
  0
LINE
  5
335
330
1E
100
AcDbEntity
  8
0
  6
DASH
 62
     3
100
AcDbLine
 10
104.6868652769999
 20
214.0995330811
 30
0.0
 11
102.8868164488
 21
214.0995330811
 31
0.0
  0
LINE
  5
336
330
1E
100
AcDbEntity
  8
0
 62
     3
100
AcDbLine
 10
116.6131815262999
 20
211.9351676868
 30
0.0
 11
115.9865487520999
 21
211.5748510174999
 31
0.0
  0
LINE
  5
337
330
1E
100
AcDbEntity
  8
0
 62
     3
100
AcDbLine
 10
118.9865083487999
 20
213.2998413061999
 30
0.0
 11
118.3865298226999
 21
212.9548509495999
 31
0.0
  0
LINE
  5
338
330
1E
100
AcDbEntity
  8
0
 62
     3
100
AcDbLine
 10
117.4131669489999
 20
212.3951629103999
 30
0.0
 11
116.7865465759999
 21
212.0348533718
 31
0.0
  0
LINE
  5
339
330
1E
100
AcDbEntity
  8
0
 62
     3
100
AcDbLine
 10
118.2131647728999
 20
212.8551652646999
 30
0.0
 11
117.5865319987999
 21
212.4948485952999
 31
0.0
  0
LINE
  5
33A
330
1E
100
AcDbEntity
  8
0
 62
     3
100
AcDbLine
 10
115.8131704743999
 20
211.4751577264
 30
0.0
 11
115.1865509282
 21
211.1148486632
 31
0.0
  0
LINE
  5
33B
330
1E
100
AcDbEntity
  8
0
 62
     3
100
AcDbLine
 10
118.8360736464999
 20
212.1133196721999
 30
0.0
 11
114.9865247738999
 21
209.8998117207
 31
0.0
  0
LINE
  5
33C
330
1E
100
AcDbEntity
  8
0
 62
     3
100
AcDbLine
 10
118.9869141050999
 20
213.4995422363
 30
0.0
 11
118.9869141050999
 21
212.3733367919999
 31
0.0
  0
LINE
  5
33D
330
1E
100
AcDbEntity
  8
0
 62
     3
100
AcDbLine
 10
118.3868164488
 20
212.9545593262
 30
0.0
 11
118.3868164488
 21
211.8547821044999
 31
0.0
  0
LINE
  5
33E
330
1E
100
AcDbEntity
  8
0
 62
     3
100
AcDbLine
 10
117.5867676206999
 20
212.4946746826
 30
0.0
 11
117.5867676206999
 21
211.3945770263999
 31
0.0
  0
LINE
  5
33F
330
1E
100
AcDbEntity
  8
0
 62
     3
100
AcDbLine
 10
116.7869629331999
 20
212.0347137451
 30
0.0
 11
116.7869629331999
 21
210.9346160888999
 31
0.0
  0
LINE
  5
340
330
1E
100
AcDbEntity
  8
0
 62
     3
100
AcDbLine
 10
115.9869141050999
 20
211.5747528076
 30
0.0
 11
115.9869141050999
 21
210.4746551513999
 31
0.0
  0
LINE
  5
341
330
1E
100
AcDbEntity
  8
0
 62
     3
100
AcDbLine
 10
115.1868652769999
 20
211.1145477294999
 30
0.0
 11
115.1868652769999
 21
210.0146942138999
 31
0.0
  0
LINE
  5
342
330
1E
100
AcDbEntity
  8
0
 62
     3
100
AcDbLine
 10
111.5864832421999
 20
213.7998611082
 30
0.0
 11
103.1864682206999
 21
209.8998441582999
 31
0.0
  0
LINE
  5
343
330
1E
100
AcDbEntity
  8
0
 62
     3
100
AcDbLine
 10
108.7869629331999
 20
214.0995330811
 30
0.0
 11
104.6868652769999
 21
214.0995330811
 31
0.0
  0
LINE
  5
344
330
1E
100
AcDbEntity
  8
0
 62
     3
100
AcDbLine
 10
108.7869629331999
 20
212.4995574951
 30
0.0
 11
104.6868652769999
 21
212.4995574951
 31
0.0
  0
LINE
  5
345
330
1E
100
AcDbEntity
  8
0
 62
     3
100
AcDbLine
 10
110.5867676206998
 20
214.399520874
 30
0.0
 11
102.8868164488
 21
214.399520874
 31
0.0
  0
LINE
  5
346
330
1E
100
AcDbEntity
  8
0
 62
     3
100
AcDbLine
 10
110.5867676206998
 20
213.7995300292999
 30
0.0
 11
118.6868652769999
 21
213.7995300292999
 31
0.0
  0
LINE
  5
347
330
1E
100
AcDbEntity
  8
0
 62
     3
100
AcDbLine
 10
114.9869141050999
 20
209.8997039794999
 30
0.0
 11
103.1868652769999
 21
209.8997039794999
 31
0.0
  0
LINE
  5
348
330
1E
100
AcDbEntity
  8
0
 62
     3
100
AcDbLine
 10
110.5867676206998
 20
214.399520874
 30
0.0
 11
110.5867676206998
 21
213.7995300292999
 31
0.0
  0
LINE
  5
349
330
1E
100
AcDbEntity
  8
0
 62
     3
100
AcDbLine
 10
108.7869629331999
 20
214.399520874
 30
0.0
 11
108.7869629331999
 21
212.4995574951
 31
0.0
  0
LINE
  5
34A
330
1E
100
AcDbEntity
  8
0
 62
     3
100
AcDbLine
 10
104.6868652769999
 20
214.399520874
 30
0.0
 11
104.6868652769999
 21
212.4995574951
 31
0.0
  0
LINE
  5
34B
330
1E
100
AcDbEntity
  8
0
 62
     3
100
AcDbLine
 10
102.8868164488
 20
214.399520874
 30
0.0
 11
102.8868164488
 21
210.1997528076
 31
0.0
  0
LINE
  5
34C
330
1E
100
AcDbEntity
  8
0
 62
     3
100
AcDbLine
 10
111.6197082973998
 20
160.8999743841
 30
0.0
 11
111.5865643095999
 21
160.5999655436
 31
0.0
  0
LINE
  5
34D
330
1E
100
AcDbEntity
  8
0
 62
     3
100
AcDbLine
 10
111.6520879221998
 20
160.8927938864999
 30
0.0
 11
119.1353748036999
 21
159.2189035707999
 31
0.0
  0
LINE
  5
34E
330
1E
100
AcDbEntity
  8
0
 62
     3
100
AcDbLine
 10
111.6199707456999
 20
160.9000549317
 30
0.0
 11
110.5870117612999
 21
160.9000549317
 31
0.0
  0
LINE
  5
34F
330
1E
100
AcDbEntity
  8
0
 62
     3
100
AcDbLine
 10
111.5866004075999
 20
160.6000256844
 30
0.0
 11
119.0980011370999
 21
158.9198467552999
 31
0.0
  0
LINE
  5
350
330
1E
100
AcDbEntity
  8
0
 62
     3
100
AcDbLine
 10
119.2124965014998
 20
159.1089125220999
 30
0.0
 11
119.0863844299
 21
158.1000097677
 31
0.0
  0
LINE
  5
351
330
1E
100
AcDbEntity
  8
0
 62
     3
100
AcDbLine
 10
119.0864195451998
 20
158.0999832103
 30
0.0
 11
114.5864673309999
 21
157.8999845733999
 31
0.0
  0
LINE
  5
352
330
1E
100
AcDbEntity
  8
0
 62
     3
100
AcDbLine
 10
114.5864039627999
 20
157.9001881782
 30
0.0
 11
102.8865726443999
 21
160.6001488112999
 31
0.0
  0
LINE
  5
353
330
1E
100
AcDbEntity
  8
0
 62
     3
100
AcDbLine
 10
111.5866964069999
 20
176.3999431913999
 30
0.0
 11
111.6198403947999
 21
176.0999343508999
 31
0.0
  0
LINE
  5
354
330
1E
100
AcDbEntity
  8
0
 62
     3
100
AcDbLine
 10
119.1354346939998
 20
177.7812758554
 30
0.0
 11
111.6522669389999
 21
176.1074121862999
 31
0.0
  0
LINE
  5
355
330
1E
100
AcDbEntity
  8
0
 62
     3
100
AcDbLine
 10
110.5870117612999
 20
176.1000518799
 30
0.0
 11
111.6199707456999
 21
176.1000518799
 31
0.0
  0
LINE
  5
356
330
1E
100
AcDbEntity
  8
0
 62
     3
100
AcDbLine
 10
119.0980510349999
 20
178.0803773433
 30
0.0
 11
111.5867694319999
 21
176.4002250609
 31
0.0
  0
LINE
  5
357
330
1E
100
AcDbEntity
  8
0
 62
     3
100
AcDbLine
 10
119.0866569519999
 20
178.8999234090999
 30
0.0
 11
119.2127690235998
 21
177.8910206546999
 31
0.0
  0
LINE
  5
358
330
1E
100
AcDbEntity
  8
0
 62
     3
100
AcDbLine
 10
114.5863855194999
 20
179.0999280624999
 30
0.0
 11
119.0865816335999
 21
178.8999185854999
 31
0.0
  0
LINE
  5
359
330
1E
100
AcDbEntity
  8
0
 62
     3
100
AcDbLine
 10
102.8868268129998
 20
176.3999767862
 30
0.0
 11
114.5867919436999
 21
179.099968299
 31
0.0
  0
LINE
  5
35A
330
1E
100
AcDbEntity
  8
0
 62
     3
100
AcDbLine
 10
105.9869141050999
 20
163.9000549317
 30
0.0
 11
107.3868164487999
 21
163.9000549317
 31
0.0
  0
LINE
  5
35B
330
1E
100
AcDbEntity
  8
0
 62
     3
100
AcDbLine
 10
108.7869629331999
 20
160.6000518799
 30
0.0
 11
108.7869629331999
 21
161.7000579834
 31
0.0
  0
LINE
  5
35C
330
1E
100
AcDbEntity
  8
0
 62
     3
100
AcDbLine
 10
108.4869141050999
 20
162.0000610351999
 30
0.0
 11
104.9869141050999
 21
162.0000610351999
 31
0.0
  0
LINE
  5
35D
330
1E
100
AcDbEntity
  8
0
 62
     3
100
AcDbLine
 10
104.6868652769999
 20
161.7000579834
 30
0.0
 11
104.6868652769999
 21
160.6000518799
 31
0.0
  0
LINE
  5
35E
330
1E
100
AcDbEntity
  8
0
 62
     3
100
AcDbLine
 10
111.5870117612999
 20
160.6000518799
 30
0.0
 11
102.8868164488
 21
160.6000518799
 31
0.0
  0
LINE
  5
35F
330
1E
100
AcDbEntity
  8
0
 62
     3
100
AcDbLine
 10
105.6868652769999
 20
172.8000488280999
 30
0.0
 11
105.6868652769999
 21
164.2000579834
 31
0.0
  0
LINE
  5
360
330
1E
100
AcDbEntity
  8
0
 62
     3
100
AcDbLine
 10
107.3868164487999
 20
173.1000518799
 30
0.0
 11
105.9869141050999
 21
173.1000518799
 31
0.0
  0
LINE
  5
361
330
1E
100
AcDbEntity
  8
0
 62
     3
100
AcDbLine
 10
107.6868652769999
 20
164.2000579834
 30
0.0
 11
107.6868652769999
 21
172.8000488280999
 31
0.0
  0
LINE
  5
362
330
1E
100
AcDbEntity
  8
0
 62
     3
100
AcDbLine
 10
110.5867676206998
 20
176.4000396728999
 30
0.0
 11
110.5867676206998
 21
160.6000518799
 31
0.0
  0
LINE
  5
363
330
1E
100
AcDbEntity
  8
0
 62
     3
100
AcDbLine
 10
108.7869629331999
 20
175.3000488280999
 30
0.0
 11
108.7869629331999
 21
176.4000396728999
 31
0.0
  0
LINE
  5
364
330
1E
100
AcDbEntity
  8
0
 62
     3
100
AcDbLine
 10
104.9869141050999
 20
175.0000457763999
 30
0.0
 11
108.4869141050999
 21
175.0000457763999
 31
0.0
  0
LINE
  5
365
330
1E
100
AcDbEntity
  8
0
 62
     3
100
AcDbLine
 10
104.6868652769999
 20
176.4000396728999
 30
0.0
 11
104.6868652769999
 21
175.3000488280999
 31
0.0
  0
LINE
  5
366
330
1E
100
AcDbEntity
  8
0
 62
     3
100
AcDbLine
 10
102.8868164488
 20
176.4000396728999
 30
0.0
 11
111.5870117612999
 21
176.4000396728999
 31
0.0
  0
LINE
  5
367
330
1E
100
AcDbEntity
  8
0
 62
     3
100
AcDbLine
 10
102.8870148130998
 20
160.6000518799
 30
0.0
 11
102.8870148130998
 21
176.4000396728999
 31
0.0
  0
LINE
  5
368
330
1E
100
AcDbEntity
  8
0
 62
     3
100
AcDbLine
 10
105.8011230894999
 20
198.9045867919999
 30
0.0
 11
105.8011230894999
 21
198.6045379638999
 31
0.0
  0
LINE
  5
369
330
1E
100
AcDbEntity
  8
0
 62
     3
100
AcDbLine
 10
107.4012207456999
 20
198.9045867919999
 30
0.0
 11
107.4012207456999
 21
198.6045379638999
 31
0.0
  0
LINE
  5
36A
330
1E
100
AcDbEntity
  8
0
 62
     3
100
AcDbLine
 10
105.8011230894999
 20
198.6045379638999
 30
0.0
 11
107.4012207456999
 21
198.6045379638999
 31
0.0
  0
LINE
  5
36B
330
1E
100
AcDbEntity
  8
0
 62
     3
100
AcDbLine
 10
105.8011230894999
 20
214.4040222167999
 30
0.0
 11
105.8011230894999
 21
214.104095459
 31
0.0
  0
LINE
  5
36C
330
1E
100
AcDbEntity
  8
0
 62
     3
100
AcDbLine
 10
107.4012207456999
 20
214.4040222167999
 30
0.0
 11
107.4012207456999
 21
214.104095459
 31
0.0
  0
LINE
  5
36D
330
1E
100
AcDbEntity
  8
0
 62
     3
100
AcDbLine
 10
107.4012207456999
 20
214.4040222167999
 30
0.0
 11
105.8011230894999
 21
214.4040222167999
 31
0.0
  0
LINE
  5
36E
330
1E
100
AcDbEntity
  8
0
 62
     3
100
AcDbLine
 10
110.5867676206998
 20
198.6001434326
 30
0.0
 11
110.5867676206998
 21
199.1055145264
 31
0.0
  0
LINE
  5
36F
330
1E
100
AcDbEntity
  8
0
 62
     3
100
AcDbLine
 10
102.6868652769999
 20
203.2002410889
 30
0.0
 11
102.6868652769999
 21
198.6001434326
 31
0.0
  0
LINE
  5
370
330
1E
100
AcDbEntity
  8
0
 62
     3
100
AcDbLine
 10
110.5867676206998
 20
198.6001434326
 30
0.0
 11
119.4869141050999
 21
198.6001434326
 31
0.0
  0
LINE
  5
371
330
1E
100
AcDbEntity
  8
0
 62
     3
100
AcDbLine
 10
102.6868652769999
 20
198.8999481201
 30
0.0
 11
102.8868164488
 21
198.8999481201
 31
0.0
  0
LINE
  5
372
330
1E
100
AcDbEntity
  8
0
 62
     3
100
AcDbLine
 10
97.48691410509998
 20
198.6001434326
 30
0.0
 11
102.6868652769999
 21
198.6001434326
 31
0.0
  0
LINE
  5
373
330
1E
100
AcDbEntity
  8
0
 62
     3
100
AcDbLine
 10
110.5867676206998
 20
213.9002380371
 30
0.0
 11
110.5867676206998
 21
214.3995056152
 31
0.0
  0
LINE
  5
374
330
1E
100
AcDbEntity
  8
0
 62
     3
100
AcDbLine
 10
102.6868652769999
 20
214.3995056152
 30
0.0
 11
102.6868652769999
 21
209.7996063232999
 31
0.0
  0
LINE
  5
375
330
1E
100
AcDbEntity
  8
0
 62
     3
100
AcDbLine
 10
119.4869141050999
 20
214.3995056152
 30
0.0
 11
110.5867676206998
 21
214.3995056152
 31
0.0
  0
LINE
  5
376
330
1E
100
AcDbEntity
  8
0
 62
     3
100
AcDbLine
 10
102.8868164488
 20
214.0995788574
 30
0.0
 11
102.6868652769999
 21
214.0995788574
 31
0.0
  0
LINE
  5
377
330
1E
100
AcDbEntity
  8
0
 62
     3
100
AcDbLine
 10
102.6868652769999
 20
214.3995056152
 30
0.0
 11
97.48691410509998
 21
214.3995056152
 31
0.0
  0
LINE
  5
378
330
1E
100
AcDbEntity
  8
0
 62
     3
100
AcDbLine
 10
115.4869141050999
 20
176.3999938965
 30
0.0
 11
115.4869141050999
 21
176.1000061035
 31
0.0
  0
LINE
  5
379
330
1E
100
AcDbEntity
  8
0
 62
     3
100
AcDbLine
 10
115.4868378110999
 20
160.9000091552999
 30
0.0
 11
115.4868378110999
 21
160.6000061035
 31
0.0
  0
LINE
  5
37A
330
1E
100
AcDbEntity
  8
0
 62
     3
100
AcDbLine
 10
110.5867676206998
 20
176.1000518799
 30
0.0
 11
119.4869141050999
 21
176.1000518799
 31
0.0
  0
LINE
  5
37B
330
1E
100
AcDbEntity
  8
0
 62
     3
100
AcDbLine
 10
102.8868164488
 20
160.9000701904
 30
0.0
 11
102.6868652769999
 21
160.9000701904
 31
0.0
  0
LINE
  5
37C
330
1E
100
AcDbEntity
  8
0
 62
     3
100
AcDbLine
 10
102.6868652769999
 20
160.6000518799
 30
0.0
 11
102.6868652769999
 21
176.4000244141
 31
0.0
  0
LINE
  5
37D
330
1E
100
AcDbEntity
  8
0
 62
     3
100
AcDbLine
 10
106.0867676206999
 20
165.4000396728999
 30
0.0
 11
107.0867676206999
 21
165.4000396728999
 31
0.0
  0
LINE
  5
37E
330
1E
100
AcDbEntity
  8
0
 62
     3
100
AcDbLine
 10
105.7867187925999
 20
171.2999877929999
 30
0.0
 11
105.7867187925999
 21
165.7000122069999
 31
0.0
  0
LINE
  5
37F
330
1E
100
AcDbEntity
  8
0
 62
     3
100
AcDbLine
 10
107.0867676206999
 20
171.6000061034999
 30
0.0
 11
106.0867676206999
 21
171.6000061034999
 31
0.0
  0
LINE
  5
380
330
1E
100
AcDbEntity
  8
0
 62
     3
100
AcDbLine
 10
107.3868164487999
 20
165.7000122069999
 30
0.0
 11
107.3868164487999
 21
171.2999877929999
 31
0.0
  0
LINE
  5
381
330
1E
100
AcDbEntity
  8
0
 62
     3
100
AcDbLine
 10
108.6868652769999
 20
198.8999481201
 30
0.0
 11
108.6868652769999
 21
200.2002410888999
 31
0.0
  0
LINE
  5
382
330
1E
100
AcDbEntity
  8
0
 62
     3
100
AcDbLine
 10
108.3868164487999
 20
200.5000457763999
 30
0.0
 11
104.9869141050999
 21
200.5000457763999
 31
0.0
  0
LINE
  5
383
330
1E
100
AcDbEntity
  8
0
 62
     3
100
AcDbLine
 10
104.6868652769999
 20
200.2002410888999
 30
0.0
 11
104.6868652769999
 21
198.8999481201
 31
0.0
  0
LINE
  5
384
330
1E
100
AcDbEntity
  8
0
 62
     3
100
AcDbLine
 10
119.4864741875999
 20
201.0997623547999
 30
0.0
 11
115.4865116050999
 21
203.3996673412999
 31
0.0
  0
LINE
  5
385
330
1E
100
AcDbEntity
  8
0
 62
     3
100
AcDbLine
 10
115.4869141050999
 20
203.3999481201
 30
0.0
 11
104.6868652769999
 21
203.3999481201
 31
0.0
  0
LINE
  5
386
330
1E
100
AcDbEntity
  8
0
 62
     3
100
AcDbLine
 10
104.4869141050999
 20
203.2002410889
 30
0.0
 11
102.6868652769999
 21
203.2002410889
 31
0.0
  0
LINE
  5
387
330
1E
100
AcDbEntity
  8
0
 62
     3
100
AcDbLine
 10
108.6868652769999
 20
212.7996063233
 30
0.0
 11
108.6868652769999
 21
214.0995788574
 31
0.0
  0
LINE
  5
388
330
1E
100
AcDbEntity
  8
0
 62
     3
100
AcDbLine
 10
104.9869141050999
 20
212.4995574951
 30
0.0
 11
108.3868164487999
 21
212.4995574951
 31
0.0
  0
LINE
  5
389
330
1E
100
AcDbEntity
  8
0
 62
     3
100
AcDbLine
 10
104.6868652769999
 20
214.0995788574
 30
0.0
 11
104.6868652769999
 21
212.7996063233
 31
0.0
  0
LINE
  5
38A
330
1E
100
AcDbEntity
  8
0
 62
     3
100
AcDbLine
 10
115.4866583437999
 20
209.5997816166
 30
0.0
 11
119.4865688408998
 21
211.8996566549999
 31
0.0
  0
LINE
  5
38B
330
1E
100
AcDbEntity
  8
0
 62
     3
100
AcDbLine
 10
104.6868652769999
 20
209.5996551513999
 30
0.0
 11
115.4869141050999
 21
209.5996551513999
 31
0.0
  0
LINE
  5
38C
330
1E
100
AcDbEntity
  8
0
 62
     3
100
AcDbLine
 10
102.6868652769999
 20
209.7996063232999
 30
0.0
 11
104.4869141050999
 21
209.7996063232999
 31
0.0
  0
LINE
  5
38D
330
1E
100
AcDbEntity
  8
0
 62
     3
100
AcDbLine
 10
117.9869141050999
 20
203.8999481201
 30
0.0
 11
115.2869629331999
 21
203.8999481201
 31
0.0
  0
LINE
  5
38E
330
1E
100
AcDbEntity
  8
0
 62
     3
100
AcDbLine
 10
117.9869141050999
 20
209.0998992919999
 30
0.0
 11
115.2869629331999
 21
209.0998992919999
 31
0.0
  0
LINE
  5
38F
330
1E
100
AcDbEntity
  8
0
 62
     3
100
AcDbLine
 10
115.2869629331999
 20
209.0998992919999
 30
0.0
 11
115.2869629331999
 21
203.8999481201
 31
0.0
  0
LINE
  5
390
330
1E
100
AcDbEntity
  8
0
 62
     3
100
AcDbLine
 10
117.9869141050999
 20
209.0998992919999
 30
0.0
 11
117.9869141050999
 21
203.8999481201
 31
0.0
  0
LINE
  5
391
330
1E
100
AcDbEntity
  8
0
 62
     3
100
AcDbLine
 10
99.18686527700002
 20
212.0996551513999
 30
0.0
 11
100.6868652769999
 21
212.0996551513999
 31
0.0
  0
LINE
  5
392
330
1E
100
AcDbEntity
  8
0
 62
     3
100
AcDbLine
 10
99.18686527700002
 20
213.2994079589999
 30
0.0
 11
100.6868652769999
 21
213.2994079589999
 31
0.0
  0
LINE
  5
393
330
1E
100
AcDbEntity
  8
0
  6
CENTER
 62
     3
100
AcDbLine
 10
162.2861084409999
 20
178.9180603026999
 30
0.0
 11
162.2861084409999
 21
157.4957733154
 31
0.0
  0
LINE
  5
394
330
1E
100
AcDbEntity
  8
0
 62
     3
100
AcDbLine
 10
154.7861084409998
 20
175.9999542236
 30
0.0
 11
154.7861084409998
 21
161.0000305175999
 31
0.0
  0
LINE
  5
395
330
1E
100
AcDbEntity
  8
0
 62
     3
100
AcDbLine
 10
169.7858032651999
 20
161.0000152588
 30
0.0
 11
154.7861084409998
 21
161.0000152588
 31
0.0
  0
LINE
  5
396
330
1E
100
AcDbEntity
  8
0
 62
     3
100
AcDbLine
 10
169.7860474058998
 20
175.9999389649
 30
0.0
 11
154.7861084409998
 21
175.9999389649
 31
0.0
  0
LINE
  5
397
330
1E
100
AcDbEntity
  8
0
 62
     3
100
AcDbLine
 10
169.7858032651999
 20
175.9999694823999
 30
0.0
 11
169.7858032651999
 21
161.0000457763999
 31
0.0
  0
LINE
  5
398
330
1E
100
AcDbEntity
  8
0
 62
     3
100
AcDbLine
 10
169.0853638121
 20
161.7000427245999
 30
0.0
 11
155.4855102964999
 21
161.7000427245999
 31
0.0
  0
LINE
  5
399
330
1E
100
AcDbEntity
  8
0
 62
     3
100
AcDbLine
 10
169.0853638121
 20
161.7000579834
 30
0.0
 11
169.0853638121
 21
175.2999877929999
 31
0.0
  0
LINE
  5
39A
330
1E
100
AcDbEntity
  8
0
 62
     3
100
AcDbLine
 10
169.0853638121
 20
175.2999725341999
 30
0.0
 11
155.4855102964999
 21
175.2999725341999
 31
0.0
  0
LINE
  5
39B
330
1E
100
AcDbEntity
  8
0
 62
     3
100
AcDbLine
 10
155.4855102964999
 20
161.7000579834
 30
0.0
 11
155.4855102964999
 21
175.2999877929999
 31
0.0
  0
LINE
  5
39C
330
1E
100
AcDbEntity
  8
0
 62
     3
100
AcDbLine
 10
169.7853388048999
 20
161.0001182066
 30
0.0
 11
171.1854509923998
 21
159.6
 31
0.0
  0
LINE
  5
39D
330
1E
100
AcDbEntity
  8
0
 62
     3
100
AcDbLine
 10
154.7854981699998
 20
161.0001873969
 30
0.0
 11
153.3853167923998
 21
159.6
 31
0.0
  0
LINE
  5
39E
330
1E
100
AcDbEntity
  8
0
 62
     3
100
AcDbLine
 10
154.7854192285999
 20
176.0001022673
 30
0.0
 11
153.3855885488998
 21
177.3999389649
 31
0.0
  0
LINE
  5
39F
330
1E
100
AcDbEntity
  8
0
 62
     3
100
AcDbLine
 10
169.7851877934999
 20
175.9999415039
 30
0.0
 11
171.1860474058999
 21
177.4008071385999
 31
0.0
  0
LINE
  5
3A0
330
1E
100
AcDbEntity
  8
0
  6
CENTER
 62
     3
100
AcDbLine
 10
173.2860474058999
 20
168.5
 30
0.0
 11
152.5746826597998
 21
168.5
 31
0.0
  0
LINE
  5
3A1
330
1E
100
AcDbEntity
  8
0
 62
     3
100
AcDbLine
 10
95.98691410509998
 20
207.3999481201
 30
0.0
 11
95.98691410509998
 21
204.5998992919999
 31
0.0
  0
LINE
  5
3A2
330
1E
100
AcDbEntity
  8
0
 62
     3
100
AcDbLine
 10
96.2869629332
 20
207.6999969482999
 30
0.0
 11
97.48691410509998
 21
207.6999969482999
 31
0.0
  0
LINE
  5
3A3
330
1E
100
AcDbEntity
  8
0
 62
     3
100
AcDbLine
 10
96.2869629332
 20
204.2998504639
 30
0.0
 11
97.48691410509998
 21
204.2998504639
 31
0.0
  0
LINE
  5
3A4
330
1E
100
AcDbEntity
  8
0
 62
     3
100
AcDbLine
 10
100.6868652769999
 20
199.9998016358
 30
0.0
 11
100.6868652769999
 21
202.3999481201
 31
0.0
  0
LINE
  5
3A5
330
1E
100
AcDbEntity
  8
0
 62
     3
100
AcDbLine
 10
102.6868652769999
 20
176.1000518799
 30
0.0
 11
102.8868164488
 21
176.1000518799
 31
0.0
  0
LINE
  5
3A6
330
1E
100
AcDbEntity
  8
0
 62
     3
100
AcDbLine
 10
116.9585937925999
 20
206.0745086669999
 30
0.0
 11
116.3150391050999
 21
206.0745086669999
 31
0.0
  0
LINE
  5
3A7
330
1E
100
AcDbEntity
  8
0
 62
     3
100
AcDbLine
 10
116.9585937925999
 20
206.9028778076
 30
0.0
 11
116.3150391050999
 21
206.9028778076
 31
0.0
  0
LINE
  5
3A8
330
1E
100
AcDbEntity
  8
0
 62
     3
100
AcDbLine
 10
117.4190430112999
 20
205.2461395263999
 30
0.0
 11
116.6827148862999
 21
205.2461395263999
 31
0.0
  0
LINE
  5
3A9
330
1E
100
AcDbEntity
  8
0
 62
     3
100
AcDbLine
 10
116.3150391050999
 20
205.2461395263999
 30
0.0
 11
115.6707519956998
 21
205.2461395263999
 31
0.0
  0
LINE
  5
3AA
330
1E
100
AcDbEntity
  8
0
 62
     3
100
AcDbLine
 10
116.3150391050999
 20
205.2461395263999
 30
0.0
 11
116.3150391050999
 21
204.7512664794999
 31
0.0
  0
LINE
  5
3AB
330
1E
100
AcDbEntity
  8
0
 62
     3
100
AcDbLine
 10
116.6827148862999
 20
205.2461395263999
 30
0.0
 11
116.6827148862999
 21
204.7512664794999
 31
0.0
  0
LINE
  5
3AC
330
1E
100
AcDbEntity
  8
0
 62
     3
100
AcDbLine
 10
117.4190430112999
 20
207.9836883544999
 30
0.0
 11
117.4190430112999
 21
207.5696258544999
 31
0.0
  0
LINE
  5
3AD
330
1E
100
AcDbEntity
  8
0
 62
     3
100
AcDbLine
 10
117.4190430112999
 20
207.9836883544999
 30
0.0
 11
115.6707519956998
 21
207.9836883544999
 31
0.0
  0
LINE
  5
3AE
330
1E
100
AcDbEntity
  8
0
 62
     3
100
AcDbLine
 10
117.4190430112999
 20
208.3171844483
 30
0.0
 11
115.6707519956998
 21
208.3171844483
 31
0.0
  0
LINE
  5
3AF
330
1E
100
AcDbEntity
  8
0
 62
     3
100
AcDbLine
 10
117.4190430112999
 20
205.2461395263999
 30
0.0
 11
117.4190430112999
 21
204.7512664794999
 31
0.0
  0
LINE
  5
3B0
330
1E
100
AcDbEntity
  8
0
 62
     3
100
AcDbLine
 10
117.7869629331999
 20
205.5796356201
 30
0.0
 11
117.7869629331999
 21
204.7512664794999
 31
0.0
  0
LINE
  5
3B1
330
1E
100
AcDbEntity
  8
0
 62
     3
100
AcDbLine
 10
117.4190430112999
 20
208.7212371826
 30
0.0
 11
117.4190430112999
 21
208.3171844483
 31
0.0
  0
LINE
  5
3B2
330
1E
100
AcDbEntity
  8
0
 62
     3
100
AcDbLine
 10
117.7869629331999
 20
205.5796356201
 30
0.0
 11
115.6707519956998
 21
205.5796356201
 31
0.0
  0
LINE
  5
3B3
330
1E
100
AcDbEntity
  8
0
 62
     3
100
AcDbLine
 10
116.9585937925999
 20
205.7512664794999
 30
0.0
 11
116.3150391050999
 21
205.7512664794999
 31
0.0
  0
LINE
  5
3B4
330
1E
100
AcDbEntity
  8
0
 62
     3
100
AcDbLine
 10
116.9585937925999
 20
207.2361297607999
 30
0.0
 11
116.3150391050999
 21
207.2361297607999
 31
0.0
  0
LINE
  5
3B5
330
1E
100
AcDbEntity
  8
0
 62
     3
100
AcDbLine
 10
117.7869629331999
 20
208.7212371826
 30
0.0
 11
117.7869629331999
 21
207.5696258544999
 31
0.0
  0
LINE
  5
3B6
330
1E
100
AcDbEntity
  8
0
 62
     3
100
AcDbLine
 10
100.6868652769999
 20
199.9998016358
 30
0.0
 11
99.18686527700002
 21
199.9998016358
 31
0.0
  0
LINE
  5
3B7
330
1E
100
AcDbEntity
  8
0
 62
     3
100
AcDbLine
 10
100.6868652769999
 20
202.3999481201
 30
0.0
 11
99.18686527700002
 21
202.3999481201
 31
0.0
  0
LINE
  5
3B8
330
1E
100
AcDbEntity
  8
0
 62
     3
100
AcDbLine
 10
100.6868652769999
 20
207.7998504638999
 30
0.0
 11
99.18686527700002
 21
207.7998504638999
 31
0.0
  0
LINE
  5
3B9
330
1E
100
AcDbEntity
  8
0
 62
     3
100
AcDbLine
 10
100.6868652769999
 20
210.1997528076
 30
0.0
 11
99.18686527700002
 21
210.1997528076
 31
0.0
  0
LINE
  5
3BA
330
1E
100
AcDbEntity
  8
0
 62
     3
100
AcDbLine
 10
99.18686527700002
 20
202.3999481201
 30
0.0
 11
99.18686527700002
 21
199.9998016358
 31
0.0
  0
LINE
  5
3BB
330
1E
100
AcDbEntity
  8
0
 62
     3
100
AcDbLine
 10
99.18686527700002
 20
207.7998504638999
 30
0.0
 11
99.18686527700002
 21
210.1997528076
 31
0.0
  0
LINE
  5
3BC
330
1E
100
AcDbEntity
  8
0
 62
     3
100
AcDbLine
 10
100.6868652769999
 20
210.1997528076
 30
0.0
 11
100.6868652769999
 21
207.7998504638999
 31
0.0
  0
LINE
  5
3BD
330
1E
100
AcDbEntity
  8
0
 62
     3
100
AcDbLine
 10
99.18686527700002
 20
213.2994079589999
 30
0.0
 11
99.18686527700002
 21
212.0996551513999
 31
0.0
  0
LINE
  5
3BE
330
1E
100
AcDbEntity
  8
0
 62
     3
100
AcDbLine
 10
100.6868652769999
 20
213.2994079589999
 30
0.0
 11
100.6868652769999
 21
212.0996551513999
 31
0.0
  0
LINE
  5
3BF
330
1E
100
AcDbEntity
  8
0
 62
     3
100
AcDbLine
 10
97.48691410509998
 20
214.3995056152
 30
0.0
 11
97.48691410509998
 21
198.5998992919999
 31
0.0
  0
LINE
  5
3C0
330
1E
100
AcDbEntity
  8
0
  6
CENTER
 62
     3
100
AcDbLine
 10
127.0726990171999
 20
206.5000457763999
 30
0.0
 11
95.07578129259995
 21
206.5000457763999
 31
0.0
  0
LINE
  5
3C1
330
1E
100
AcDbEntity
  8
0
 62
     3
100
AcDbLine
 10
119.4869141050999
 20
160.9000701904
 30
0.0
 11
110.5870117612999
 21
160.9000701904
 31
0.0
  0
LINE
  5
3C2
330
1E
100
AcDbEntity
  8
0
 62
     3
100
AcDbLine
 10
119.4869141050999
 20
176.4000396728999
 30
0.0
 11
112.9612793394999
 21
176.4000396728999
 31
0.0
  0
LINE
  5
3C3
330
1E
100
AcDbEntity
  8
0
 62
     3
100
AcDbLine
 10
119.4869141050999
 20
160.6000671387
 30
0.0
 11
112.9612793394999
 21
160.6000671387
 31
0.0
  0
LINE
  5
3C4
330
1E
100
AcDbEntity
  8
0
 62
     3
100
AcDbLine
 10
97.48691410509998
 20
160.6000671387
 30
0.0
 11
97.48691410509998
 21
176.4000396728999
 31
0.0
  0
LINE
  5
3C5
330
1E
100
AcDbEntity
  8
0
  6
CENTER
 62
     3
100
AcDbLine
 10
127.3269409605999
 20
168.5000457763999
 30
0.0
 11
89.04356998889999
 21
168.5000457763999
 31
0.0
  0
LINE
  5
3C7
330
1E
100
AcDbEntity
  8
0
 62
     3
100
AcDbLine
 10
41.88715214219999
 20
175.8999786377
 30
0.0
 11
41.88715214219999
 21
173.0999755858999
 31
0.0
  0
LINE
  5
3C8
330
1E
100
AcDbEntity
  8
0
 62
     3
100
AcDbLine
 10
42.84076357079999
 20
158.007289824
 30
0.0
 11
43.41255915799999
 21
159.2938291400999
 31
0.0
  0
LINE
  5
3C9
330
1E
100
AcDbEntity
  8
0
 62
     3
100
AcDbLine
 10
41.38703007189996
 20
175.8999023438
 30
0.0
 11
41.88703007189996
 21
175.8999023438
 31
0.0
  0
LINE
  5
3CA
330
1E
100
AcDbEntity
  8
0
 62
     3
100
AcDbLine
 10
41.38703007189996
 20
173.099899292
 30
0.0
 11
41.88703007189996
 21
173.099899292
 31
0.0
  0
LINE
  5
3CB
330
1E
100
AcDbEntity
  8
0
 62
     3
100
AcDbLine
 10
41.38703007189996
 20
169.8999481200999
 30
0.0
 11
41.88703007189996
 21
169.8999481200999
 31
0.0
  0
LINE
  5
3CC
330
1E
100
AcDbEntity
  8
0
 62
     3
100
AcDbLine
 10
41.38704533069996
 20
167.1000061034999
 30
0.0
 11
41.88704533069997
 21
167.1000061034999
 31
0.0
  0
LINE
  5
3CD
330
1E
100
AcDbEntity
  8
0
 62
     3
100
AcDbLine
 10
41.38704533069996
 20
163.9000091552999
 30
0.0
 11
41.88704533069997
 21
163.9000091552999
 31
0.0
  0
LINE
  5
3CE
330
1E
100
AcDbEntity
  8
0
 62
     3
100
AcDbLine
 10
41.38704533069996
 20
161.1000213622999
 30
0.0
 11
41.88704533069997
 21
161.1000213622999
 31
0.0
  0
LINE
  5
3CF
330
1E
100
AcDbEntity
  8
0
 62
     3
100
AcDbLine
 10
41.38715214219999
 20
175.8999786377
 30
0.0
 11
41.38715214219999
 21
173.0999755858999
 31
0.0
  0
LINE
  5
3D0
330
1E
100
AcDbEntity
  8
0
 62
     3
100
AcDbLine
 10
54.88713688339996
 20
169.9000244141
 30
0.0
 11
54.88713688339996
 21
167.1000976563
 31
0.0
  0
LINE
  5
3D1
330
1E
100
AcDbEntity
  8
0
 62
     3
100
AcDbLine
 10
54.88713688339996
 20
163.900100708
 30
0.0
 11
54.88713688339996
 21
161.1001129151
 31
0.0
  0
LINE
  5
3D2
330
1E
100
AcDbEntity
  8
0
 62
     3
100
AcDbLine
 10
54.38713688339996
 20
169.9000244141
 30
0.0
 11
54.38713688339996
 21
167.1000976563
 31
0.0
  0
LINE
  5
3D3
330
1E
100
AcDbEntity
  8
0
 62
     3
100
AcDbLine
 10
54.38713688339996
 20
163.900100708
 30
0.0
 11
54.38713688339996
 21
161.1001129151
 31
0.0
  0
LINE
  5
3D4
330
1E
100
AcDbEntity
  8
0
 62
     3
100
AcDbLine
 10
54.38703007189996
 20
175.8999023438
 30
0.0
 11
54.88703007189997
 21
175.8999023438
 31
0.0
  0
LINE
  5
3D5
330
1E
100
AcDbEntity
  8
0
 62
     3
100
AcDbLine
 10
54.38703007189996
 20
173.099899292
 30
0.0
 11
54.88703007189997
 21
173.099899292
 31
0.0
  0
LINE
  5
3D6
330
1E
100
AcDbEntity
  8
0
 62
     3
100
AcDbLine
 10
54.38703007189996
 20
169.8999481200999
 30
0.0
 11
54.88703007189997
 21
169.8999481200999
 31
0.0
  0
LINE
  5
3D7
330
1E
100
AcDbEntity
  8
0
 62
     3
100
AcDbLine
 10
54.38704533069998
 20
167.1000061034999
 30
0.0
 11
54.88704533069998
 21
167.1000061034999
 31
0.0
  0
LINE
  5
3D8
330
1E
100
AcDbEntity
  8
0
 62
     3
100
AcDbLine
 10
54.38704533069998
 20
163.9000091552999
 30
0.0
 11
54.88704533069998
 21
163.9000091552999
 31
0.0
  0
LINE
  5
3D9
330
1E
100
AcDbEntity
  8
0
 62
     3
100
AcDbLine
 10
54.38704533069998
 20
161.1000213622999
 30
0.0
 11
54.88704533069998
 21
161.1000213622999
 31
0.0
  0
LINE
  5
3DA
330
1E
100
AcDbEntity
  8
0
 62
     3
100
AcDbLine
 10
48.88709110699998
 20
163.8000030518
 30
0.0
 11
48.88709110699998
 21
163.0000152588
 31
0.0
  0
LINE
  5
3DB
330
1E
100
AcDbEntity
  8
0
 62
     3
100
AcDbLine
 10
48.68709415879999
 20
163.8000030518
 30
0.0
 11
48.68709415879999
 21
163.0000152588
 31
0.0
  0
LINE
  5
3DC
330
1E
100
AcDbEntity
  8
0
 62
     3
100
AcDbLine
 10
50.38709110699997
 20
168.7999877929999
 30
0.0
 11
50.38709110699997
 21
168.2000122069999
 31
0.0
  0
LINE
  5
3DD
330
1E
100
AcDbEntity
  8
0
 62
     3
100
AcDbLine
 10
50.1870941588
 20
168.7999877929999
 30
0.0
 11
50.1870941588
 21
168.2000122069999
 31
0.0
  0
LINE
  5
3DE
330
1E
100
AcDbEntity
  8
0
 62
     3
100
AcDbLine
 10
48.95196108519995
 20
167.8159232044
 30
0.0
 11
48.38727656949998
 21
168.8747028002999
 31
0.0
  0
LINE
  5
3DF
330
1E
100
AcDbEntity
  8
0
 62
     3
100
AcDbLine
 10
48.42251552279997
 20
169.1835685336999
 30
0.0
 11
48.9872017551
 21
168.1247898676
 31
0.0
  0
LINE
  5
3E0
330
1E
100
AcDbEntity
  8
0
 62
     3
100
AcDbLine
 10
48.38709110699998
 20
168.8749847411999
 30
0.0
 11
48.38709110699998
 21
167.8499603271999
 31
0.0
  0
LINE
  5
3E1
330
1E
100
AcDbEntity
  8
0
 62
     3
100
AcDbLine
 10
48.98709721059997
 20
169.1499938965
 30
0.0
 11
48.98709721059997
 21
168.1249542236
 31
0.0
  0
LINE
  5
3E2
330
1E
100
AcDbEntity
  8
0
 62
     3
100
AcDbLine
 10
49.68709415879999
 20
168.7999877929999
 30
0.0
 11
49.68709415879999
 21
168.2000122069999
 31
0.0
  0
LINE
  5
3E3
330
1E
100
AcDbEntity
  8
0
 62
     3
100
AcDbLine
 10
49.18709415879999
 20
169.1499938965
 30
0.0
 11
49.18709415879999
 21
167.8749542236
 31
0.0
  0
LINE
  5
3E4
330
1E
100
AcDbEntity
  8
0
 62
     3
100
AcDbLine
 10
49.48709721059998
 20
168.7999877929999
 30
0.0
 11
49.48709721059998
 21
168.2000122069999
 31
0.0
  0
LINE
  5
3E5
330
1E
100
AcDbEntity
  8
0
 62
     3
100
AcDbLine
 10
48.18709415879999
 20
169.1249847411999
 30
0.0
 11
48.18709415879999
 21
167.8499603271999
 31
0.0
  0
LINE
  5
3E6
330
1E
100
AcDbEntity
  8
0
 62
     3
100
AcDbLine
 10
48.95201077429996
 20
173.5158241520999
 30
0.0
 11
48.38721136849997
 21
174.5748191659999
 31
0.0
  0
LINE
  5
3E7
330
1E
100
AcDbEntity
  8
0
 62
     3
100
AcDbLine
 10
48.42256940249999
 20
174.8834766021999
 30
0.0
 11
48.98725563479999
 21
173.8246979361
 31
0.0
  0
LINE
  5
3E8
330
1E
100
AcDbEntity
  8
0
 62
     3
100
AcDbLine
 10
48.38709110699998
 20
174.5749359131
 30
0.0
 11
48.38709110699998
 21
173.5498809814999
 31
0.0
  0
LINE
  5
3E9
330
1E
100
AcDbEntity
  8
0
 62
     3
100
AcDbLine
 10
48.98709721059997
 20
174.8499298095999
 30
0.0
 11
48.98709721059997
 21
173.8248901366999
 31
0.0
  0
LINE
  5
3EA
330
1E
100
AcDbEntity
  8
0
 62
     3
100
AcDbLine
 10
49.68709415879999
 20
174.4999389649
 30
0.0
 11
49.68709415879999
 21
173.8999328612999
 31
0.0
  0
LINE
  5
3EB
330
1E
100
AcDbEntity
  8
0
 62
     3
100
AcDbLine
 10
49.18709415879999
 20
174.8499298095999
 30
0.0
 11
49.18709415879999
 21
173.5748901366999
 31
0.0
  0
LINE
  5
3EC
330
1E
100
AcDbEntity
  8
0
 62
     3
100
AcDbLine
 10
49.48709721059998
 20
174.4999389649
 30
0.0
 11
49.48709721059998
 21
173.8999328612999
 31
0.0
  0
LINE
  5
3ED
330
1E
100
AcDbEntity
  8
0
 62
     3
100
AcDbLine
 10
48.18709415879999
 20
174.8249359130999
 30
0.0
 11
48.18709415879999
 21
173.5498809814999
 31
0.0
  0
LINE
  5
3EE
330
1E
100
AcDbEntity
  8
0
 62
     3
100
AcDbLine
 10
50.58708805529997
 20
175.6499786376999
 30
0.0
 11
50.58708805529997
 21
165.7000122069999
 31
0.0
  0
LINE
  5
3EF
330
1E
100
AcDbEntity
  8
0
 62
     3
100
AcDbLine
 10
50.78708500349997
 20
165.7000122069999
 30
0.0
 11
50.78708500349997
 21
162.1000061034999
 31
0.0
  0
LINE
  5
3F0
330
1E
100
AcDbEntity
  8
0
 62
     3
100
AcDbLine
 10
47.78708500349997
 20
165.7000122069999
 30
0.0
 11
47.78708500349997
 21
162.1000061034999
 31
0.0
  0
LINE
  5
3F1
330
1E
100
AcDbEntity
  8
0
 62
     3
100
AcDbLine
 10
47.98709721059998
 20
175.6499786376999
 30
0.0
 11
47.98709721059998
 21
165.7000122069999
 31
0.0
  0
LINE
  5
3F2
330
1E
100
AcDbEntity
  8
0
 62
     3
100
AcDbLine
 10
50.78705448589997
 20
165.7000122069999
 30
0.0
 11
47.78705448589997
 21
165.7000122069999
 31
0.0
  0
LINE
  5
3F3
330
1E
100
AcDbEntity
  8
0
 62
     3
100
AcDbLine
 10
50.78705448589997
 20
162.1000061034999
 30
0.0
 11
47.78705448589997
 21
162.1000061034999
 31
0.0
  0
LINE
  5
3F4
330
1E
100
AcDbEntity
  8
0
 62
     3
100
AcDbLine
 10
50.58708805529997
 20
161.6000518799
 30
0.0
 11
50.58708805529997
 21
162.1000061034999
 31
0.0
  0
LINE
  5
3F5
330
1E
100
AcDbEntity
  8
0
 62
     3
100
AcDbLine
 10
47.98709721059998
 20
161.6000518799
 30
0.0
 11
47.98709721059998
 21
162.1000061034999
 31
0.0
  0
LINE
  5
3F6
330
1E
100
AcDbEntity
  8
0
 62
     3
100
AcDbLine
 10
42.78708500349997
 20
161.6000518799
 30
0.0
 11
42.78708500349997
 21
175.3999786377
 31
0.0
  0
LINE
  5
3F7
330
1E
100
AcDbEntity
  8
0
 62
     3
100
AcDbLine
 10
54.88713688339996
 20
175.8999786377
 30
0.0
 11
54.88713688339996
 21
173.0999755858999
 31
0.0
  0
LINE
  5
3F8
330
1E
100
AcDbEntity
  8
0
 62
     3
100
AcDbLine
 10
54.38713688339996
 20
175.8999786377
 30
0.0
 11
54.38713688339996
 21
173.0999755858999
 31
0.0
  0
LINE
  5
3F9
330
1E
100
AcDbEntity
  8
0
 62
     3
100
AcDbLine
 10
40.58727102429997
 20
177.7995649975999
 30
0.0
 11
41.08138337989998
 21
176.3995838982999
 31
0.0
  0
LINE
  5
3FA
330
1E
100
AcDbEntity
  8
0
 62
     3
100
AcDbLine
 10
44.45898786889997
 20
177.8134261558
 30
0.0
 11
43.41236966539997
 21
177.7060803356999
 31
0.0
  0
LINE
  5
3FB
330
1E
100
AcDbEntity
  8
0
 62
     3
100
AcDbLine
 10
43.41247347279996
 20
177.7056963945
 30
0.0
 11
42.84064689959999
 21
178.9923054289
 31
0.0
  0
LINE
  5
3FC
330
1E
100
AcDbEntity
  8
0
 62
     3
100
AcDbLine
 10
43.41232826499997
 20
159.2939508218
 30
0.0
 11
44.45893128929998
 21
159.1866065584
 31
0.0
  0
LINE
  5
3FD
330
1E
100
AcDbEntity
  8
0
 62
     3
100
AcDbLine
 10
40.5870727965
 20
178.0999908446999
 30
0.0
 11
40.5870727965
 21
177.7999877929999
 31
0.0
  0
LINE
  5
3FE
330
1E
100
AcDbEntity
  8
0
 62
     3
100
AcDbLine
 10
41.93717777409997
 20
178.8998278915
 30
0.0
 11
40.5872094858
 21
178.0998467667
 31
0.0
  0
LINE
  5
3FF
330
1E
100
AcDbEntity
  8
0
 62
     3
100
AcDbLine
 10
43.8871265967
 20
179.100020098
 30
0.0
 11
41.93715109389997
 21
178.9000219334999
 31
0.0
  0
LINE
  5
400
330
1E
100
AcDbEntity
  8
0
 62
     3
100
AcDbLine
 10
45.08717208580001
 20
176.3997647897999
 30
0.0
 11
43.88719893009996
 21
179.099702805
 31
0.0
  0
LINE
  5
401
330
1E
100
AcDbEntity
  8
0
 62
     3
100
AcDbLine
 10
40.5870727965
 20
159.2000122069999
 30
0.0
 11
40.5870727965
 21
158.9000244140999
 31
0.0
  0
LINE
  5
402
330
1E
100
AcDbEntity
  8
0
 62
     3
100
AcDbLine
 10
41.08163414679999
 20
160.5998491101999
 30
0.0
 11
40.58751639529997
 21
159.1998527227
 31
0.0
  0
LINE
  5
403
330
1E
100
AcDbEntity
  8
0
 62
     3
100
AcDbLine
 10
40.58757718589999
 20
158.8997490007999
 30
0.0
 11
41.93745358519999
 21
158.0998223287999
 31
0.0
  0
LINE
  5
404
330
1E
100
AcDbEntity
  8
0
 62
     3
100
AcDbLine
 10
41.93711280719996
 20
158.1000395822999
 30
0.0
 11
43.88711866829999
 21
157.9000383041
 31
0.0
  0
LINE
  5
405
330
1E
100
AcDbEntity
  8
0
 62
     3
100
AcDbLine
 10
43.88736827729999
 20
157.8999358280999
 30
0.0
 11
45.08736622169999
 21
160.5999296178999
 31
0.0
  0
LINE
  5
406
330
1E
100
AcDbEntity
  8
0
 62
     3
100
AcDbLine
 10
55.89332093469996
 20
176.3997342979999
 30
0.0
 11
56.38745868259996
 21
177.7997873417999
 31
0.0
  0
LINE
  5
407
330
1E
100
AcDbEntity
  8
0
 62
     3
100
AcDbLine
 10
53.56194277549997
 20
177.7060255710999
 30
0.0
 11
52.51532457199997
 21
177.8133713912
 31
0.0
  0
LINE
  5
408
330
1E
100
AcDbEntity
  8
0
 62
     3
100
AcDbLine
 10
54.13411432819998
 20
178.9924236356
 30
0.0
 11
53.56231254379998
 21
177.7058703758999
 31
0.0
  0
LINE
  5
409
330
1E
100
AcDbEntity
  8
0
 62
     3
100
AcDbLine
 10
52.51538270839997
 20
159.1866461438999
 30
0.0
 11
53.56198573279996
 21
159.2939904071999
 31
0.0
  0
LINE
  5
40A
330
1E
100
AcDbEntity
  8
0
 62
     3
100
AcDbLine
 10
53.56202235159997
 20
159.2936644544
 30
0.0
 11
54.13384892469998
 21
158.0070554200999
 31
0.0
  0
LINE
  5
40B
330
1E
100
AcDbEntity
  8
0
 62
     3
100
AcDbLine
 10
56.38712162459999
 20
177.8000030517999
 30
0.0
 11
56.38712162459999
 21
178.1000061034999
 31
0.0
  0
LINE
  5
40C
330
1E
100
AcDbEntity
  8
0
 62
     3
100
AcDbLine
 10
56.38760146769996
 20
178.0997079251999
 30
0.0
 11
55.03751503629999
 21
178.8997590607
 31
0.0
  0
LINE
  5
40D
330
1E
100
AcDbEntity
  8
0
 62
     3
100
AcDbLine
 10
55.03716134699999
 20
178.8999671688999
 30
0.0
 11
53.08718584420001
 21
179.0999653334
 31
0.0
  0
LINE
  5
40E
330
1E
100
AcDbEntity
  8
0
 62
     3
100
AcDbLine
 10
53.08752821319998
 20
179.0998194624999
 30
0.0
 11
51.88752407159999
 21
176.3998117289999
 31
0.0
  0
LINE
  5
40F
330
1E
100
AcDbEntity
  8
0
 62
     3
100
AcDbLine
 10
56.38712162459999
 20
158.9000549317
 30
0.0
 11
56.38712162459999
 21
159.2000427245999
 31
0.0
  0
LINE
  5
410
330
1E
100
AcDbEntity
  8
0
 62
     3
100
AcDbLine
 10
56.38715797759996
 20
159.1998788514
 30
0.0
 11
55.89304562199998
 21
160.5998599507
 31
0.0
  0
LINE
  5
411
330
1E
100
AcDbEntity
  8
0
 62
     3
100
AcDbLine
 10
55.03711524789999
 20
158.1000704404999
 30
0.0
 11
56.38710979029998
 21
158.9000671232
 31
0.0
  0
LINE
  5
412
330
1E
100
AcDbEntity
  8
0
 62
     3
100
AcDbLine
 10
53.0871922158
 20
157.9001082478
 30
0.0
 11
55.03719807689997
 21
158.1001095259999
 31
0.0
  0
LINE
  5
413
330
1E
100
AcDbEntity
  8
0
 62
     3
100
AcDbLine
 10
51.88721064
 20
160.5998129604
 30
0.0
 11
53.08718379560001
 21
157.8998749451999
 31
0.0
  0
LINE
  5
414
330
1E
100
AcDbEntity
  8
0
 62
     3
100
AcDbLine
 10
55.68709415879999
 20
160.6000518799
 30
0.0
 11
51.88709110699996
 21
160.6000518799
 31
0.0
  0
LINE
  5
415
330
1E
100
AcDbEntity
  8
0
 62
     3
100
AcDbLine
 10
55.68707889999998
 20
176.4000091552999
 30
0.0
 11
51.8870758482
 21
176.4000091552999
 31
0.0
  0
LINE
  5
416
330
1E
100
AcDbEntity
  8
0
 62
     3
100
AcDbLine
 10
50.68704838239998
 20
161.3000488280999
 30
0.0
 11
47.08704227889996
 21
161.3000488280999
 31
0.0
  0
LINE
  5
417
330
1E
100
AcDbEntity
  8
0
 62
     3
100
AcDbLine
 10
46.58702702009997
 20
175.3999786377
 30
0.0
 11
41.88703007189996
 21
175.3999786377
 31
0.0
  0
LINE
  5
418
330
1E
100
AcDbEntity
  8
0
 62
     3
100
AcDbLine
 10
47.9870514342
 20
161.6000518799
 30
0.0
 11
47.08714909039996
 21
161.6000518799
 31
0.0
  0
LINE
  5
419
330
1E
100
AcDbEntity
  8
0
 62
     3
100
AcDbLine
 10
46.88709110699996
 20
160.6000518799
 30
0.0
 11
46.88709110699996
 21
161.1000518799
 31
0.0
  0
LINE
  5
41A
330
1E
100
AcDbEntity
  8
0
 62
     3
100
AcDbLine
 10
50.68709415879999
 20
160.6000518799
 30
0.0
 11
50.68709415879999
 21
161.6000518799
 31
0.0
  0
LINE
  5
41B
330
1E
100
AcDbEntity
  8
0
 62
     3
100
AcDbLine
 10
50.68706364119997
 20
175.6999664306999
 30
0.0
 11
47.08702702009997
 21
175.6999664306999
 31
0.0
  0
LINE
  5
41C
330
1E
100
AcDbEntity
  8
0
 62
     3
100
AcDbLine
 10
50.68709415879999
 20
175.3999786377
 30
0.0
 11
50.68709415879999
 21
175.6999664306999
 31
0.0
  0
LINE
  5
41D
330
1E
100
AcDbEntity
  8
0
 62
     3
100
AcDbLine
 10
56.3870758482
 20
175.3999786377
 30
0.0
 11
54.88703007189997
 21
175.3999786377
 31
0.0
  0
LINE
  5
41E
330
1E
100
AcDbEntity
  8
0
 62
     3
100
AcDbLine
 10
56.38706058949998
 20
161.6000518799
 30
0.0
 11
54.88704533069998
 21
161.6000518799
 31
0.0
  0
LINE
  5
41F
330
1E
100
AcDbEntity
  8
0
  6
DASHED
 62
     3
100
AcDbLine
 10
47.08708805529997
 20
160.6000518799
 30
0.0
 11
47.08708805529997
 21
161.2000579834
 31
0.0
  0
LINE
  5
420
330
1E
100
AcDbEntity
  8
0
 62
     3
100
AcDbLine
 10
55.88706058949998
 20
176.3999786377
 30
0.0
 11
41.08707279649999
 21
176.3999786377
 31
0.0
  0
LINE
  5
421
330
1E
100
AcDbEntity
  8
0
 62
     3
100
AcDbLine
 10
55.88704533069996
 20
160.6000518799
 30
0.0
 11
41.08705753769998
 21
160.6000518799
 31
0.0
  0
LINE
  5
422
330
1E
100
AcDbEntity
  8
0
 62
     3
100
AcDbLine
 10
40.58708805529997
 20
161.1000518799
 30
0.0
 11
40.58708805529997
 21
175.8999786377
 31
0.0
  0
LINE
  5
42B
330
1E
100
AcDbEntity
  8
0
 62
     3
100
AcDbLine
 10
56.38709110699998
 20
161.1000213622999
 30
0.0
 11
56.38709110699998
 21
175.8999786377
 31
0.0
  0
LINE
  5
431
330
1E
100
AcDbEntity
  8
0
  6
CENTER
 62
     3
100
AcDbLine
 10
48.48709721059997
 20
157.5000457764
 30
0.0
 11
48.48709721059997
 21
179.4999847411999
 31
0.0
  0
LINE
  5
432
330
1E
100
AcDbEntity
  8
0
  6
CENTER
 62
     3
100
AcDbLine
 10
59.48708195179997
 20
168.5000305175999
 30
0.0
 11
38.52788395370001
 21
168.5000305175999
 31
0.0
  0
ARC
  5
433
330
1E
100
AcDbEntity
  8
0
 62
     3
100
AcDbCircle
 10
49.78705448589997
 20
163.0000457763999
 30
0.0
 40
0.099999964237
100
AcDbArc
 50
359.9996354955
 51
179.9995268956999
  0
ARC
  5
434
330
1E
100
AcDbEntity
  8
0
 62
     3
100
AcDbCircle
 10
49.78705448589997
 20
163.8000488280999
 30
0.0
 40
0.099999964237
100
AcDbArc
 50
180.0004731042998
 51
0.0002738908000399
  0
ARC
  5
435
330
1E
100
AcDbEntity
  8
0
 62
     3
100
AcDbCircle
 10
49.28705448589997
 20
163.0000610351999
 30
0.0
 40
0.4000014663000001
100
AcDbArc
 50
179.9999640277999
 51
359.999545565
  0
ARC
  5
436
330
1E
100
AcDbEntity
  8
0
 62
     3
100
AcDbCircle
 10
49.28705448589997
 20
163.8000488280999
 30
0.0
 40
0.4000014663000001
100
AcDbArc
 50
0.00040047664022
 51
179.9998547448
  0
ARC
  5
437
330
1E
100
AcDbEntity
  8
0
 62
     3
100
AcDbCircle
 10
49.28705448589997
 20
163.0000610351999
 30
0.0
 40
0.6000015140000003
100
AcDbArc
 50
179.9999640277999
 51
359.999545565
  0
ARC
  5
438
330
1E
100
AcDbEntity
  8
0
 62
     3
100
AcDbCircle
 10
49.28705448589997
 20
163.8000488280999
 30
0.0
 40
0.6000015140000003
100
AcDbArc
 50
0.00040047664022
 51
179.9998547448
  0
ARC
  5
439
330
1E
100
AcDbEntity
  8
0
 62
     3
100
AcDbCircle
 10
49.06207889999999
 20
167.8749999999999
 30
0.0
 40
0.1249987483
100
AcDbArc
 50
208.0726052345998
 51
0.0
  0
ARC
  5
43A
330
1E
100
AcDbEntity
  8
0
 62
     3
100
AcDbCircle
 10
48.31207889999999
 20
169.1250457764
 30
0.0
 40
0.1249986291
100
AcDbArc
 50
28.0727502624
 51
179.9998547448
  0
ARC
  5
43B
330
1E
100
AcDbEntity
  8
0
 62
     3
100
AcDbCircle
 10
48.28706974469998
 20
167.8500061035
 30
0.0
 40
0.099998414516
100
AcDbArc
 50
179.9999640277999
 51
359.9999826972001
  0
ARC
  5
43C
330
1E
100
AcDbEntity
  8
0
 62
     3
100
AcDbCircle
 10
49.08707279649999
 20
169.1500396728999
 30
0.0
 40
0.099999964237
100
AcDbArc
 50
0.0
 51
179.9998547448
  0
ARC
  5
43D
330
1E
100
AcDbEntity
  8
0
 62
     3
100
AcDbCircle
 10
49.93707889999999
 20
168.2000579834
 30
0.0
 40
0.2499999404
100
AcDbArc
 50
179.9999640277999
 51
359.9999826972001
  0
ARC
  5
43E
330
1E
100
AcDbEntity
  8
0
 62
     3
100
AcDbCircle
 10
49.93707889999999
 20
168.8000335693
 30
0.0
 40
0.2499999404
100
AcDbArc
 50
0.0
 51
179.9998547448
  0
ARC
  5
43F
330
1E
100
AcDbEntity
  8
0
 62
     3
100
AcDbCircle
 10
49.93707889999999
 20
168.2000579834
 30
0.0
 40
0.4499999881
100
AcDbArc
 50
179.9999640277999
 51
359.9999826972001
  0
ARC
  5
440
330
1E
100
AcDbEntity
  8
0
 62
     3
100
AcDbCircle
 10
49.93707889999999
 20
168.8000335693
 30
0.0
 40
0.4499999881
100
AcDbArc
 50
0.0
 51
179.9998547448
  0
ARC
  5
441
330
1E
100
AcDbEntity
  8
0
 62
     3
100
AcDbCircle
 10
49.06206364119999
 20
173.5749359130999
 30
0.0
 40
0.1249987483
100
AcDbArc
 50
208.0726052345998
 51
0.0
  0
ARC
  5
442
330
1E
100
AcDbEntity
  8
0
 62
     3
100
AcDbCircle
 10
48.31206364119998
 20
174.8249969483
 30
0.0
 40
0.1249986291
100
AcDbArc
 50
28.0727502624
 51
179.9998547448
  0
ARC
  5
443
330
1E
100
AcDbEntity
  8
0
 62
     3
100
AcDbCircle
 10
48.28706974469998
 20
173.5499420166
 30
0.0
 40
0.099998414516
100
AcDbArc
 50
179.9999640277999
 51
359.9999826972001
  0
ARC
  5
444
330
1E
100
AcDbEntity
  8
0
 62
     3
100
AcDbCircle
 10
49.0870575377
 20
174.8499755858999
 30
0.0
 40
0.099999964237
100
AcDbArc
 50
0.0
 51
179.9998547448
  0
ARC
  5
445
330
1E
100
AcDbEntity
  8
0
 62
     3
100
AcDbCircle
 10
50.28346867049997
 20
173.8499298095999
 30
0.0
 40
0.099999964237
100
AcDbArc
 50
351.7787130319
 51
171.7786019276998
  0
ARC
  5
446
330
1E
100
AcDbEntity
  8
0
 62
     3
100
AcDbCircle
 10
50.28346867049997
 20
174.5499267577999
 30
0.0
 40
0.099999964237
100
AcDbArc
 50
188.2052241843999
 51
8.205078929200011
  0
ARC
  5
447
330
1E
100
AcDbEntity
  8
0
 62
     3
100
AcDbCircle
 10
49.93706364119997
 20
173.8999786377
 30
0.0
 40
0.2499999404
100
AcDbArc
 50
179.9999640277999
 51
351.7786205969998
  0
ARC
  5
448
330
1E
100
AcDbEntity
  8
0
 62
     3
100
AcDbCircle
 10
49.93706364119997
 20
174.4999847412
 30
0.0
 40
0.2499999404
100
AcDbArc
 50
8.205205287700001
 51
179.9998547448
  0
ARC
  5
449
330
1E
100
AcDbEntity
  8
0
 62
     3
100
AcDbCircle
 10
49.93706364119997
 20
173.8999786377
 30
0.0
 40
0.4499999881
100
AcDbArc
 50
179.9999640277999
 51
351.7786205969998
  0
ARC
  5
44A
330
1E
100
AcDbEntity
  8
0
 62
     3
100
AcDbCircle
 10
49.93706364119997
 20
174.4999847412
 30
0.0
 40
0.4499999881
100
AcDbArc
 50
8.205205287700001
 51
179.9998547448
  0
ARC
  5
44B
330
1E
100
AcDbEntity
  8
0
 62
     3
100
AcDbCircle
 10
55.88707584819999
 20
175.9000091553
 30
0.0
 40
0.5
100
AcDbArc
 50
0.0
 51
89.99981808940002
  0
ARC
  5
44C
330
1E
100
AcDbEntity
  8
0
 62
     3
100
AcDbCircle
 10
41.08708805529997
 20
175.9000244141
 30
0.0
 40
0.5
100
AcDbArc
 50
89.99998201389999
 51
179.9998001033
  0
ARC
  5
44D
330
1E
100
AcDbEntity
  8
0
 62
     3
100
AcDbCircle
 10
41.08707279649999
 20
161.1000823974999
 30
0.0
 40
0.5
100
AcDbArc
 50
180.0001452552
 51
270.0000179861
  0
ARC
  5
44E
330
1E
100
AcDbEntity
  8
0
 62
     3
100
AcDbCircle
 10
55.88706058949998
 20
161.1000671387
 30
0.0
 40
0.5
100
AcDbArc
 50
270.0000726275999
 51
0.0
  0
LINE
  5
44F
330
1E
100
AcDbEntity
  8
0
 62
     3
100
AcDbLine
 10
41.38703007189996
 20
175.3999786377
 30
0.0
 11
40.5870727965
 21
175.3999786377
 31
0.0
  0
LINE
  5
450
330
1E
100
AcDbEntity
  8
0
 62
     3
100
AcDbLine
 10
54.38703007189996
 20
175.3999786377
 30
0.0
 11
50.68706364119997
 21
175.3999786377
 31
0.0
  0
LINE
  5
451
330
1E
100
AcDbEntity
  8
0
 62
     3
100
AcDbLine
 10
54.38704533069998
 20
161.6000518799
 30
0.0
 11
50.58704227889997
 21
161.6000518799
 31
0.0
  0
LINE
  5
452
330
1E
100
AcDbEntity
  8
0
 62
     3
100
AcDbLine
 10
41.38704533069996
 20
161.6000518799
 30
0.0
 11
40.58705753769999
 21
161.6000518799
 31
0.0
  0
LINE
  5
453
330
1E
100
AcDbEntity
  8
0
 62
     3
100
AcDbLine
 10
46.58704227889996
 20
161.6000518799
 30
0.0
 11
41.88704533069997
 21
161.6000518799
 31
0.0
  0
LINE
  5
454
330
1E
100
AcDbEntity
  8
0
 62
     3
100
AcDbLine
 10
47.08714909039996
 20
169.9000244141
 30
0.0
 11
47.08714909039996
 21
167.1000976563
 31
0.0
  0
LINE
  5
455
330
1E
100
AcDbEntity
  8
0
 62
     3
100
AcDbLine
 10
47.08714909039996
 20
163.900100708
 30
0.0
 11
47.08714909039996
 21
161.1001129151
 31
0.0
  0
LINE
  5
456
330
1E
100
AcDbEntity
  8
0
 62
     3
100
AcDbLine
 10
46.58714909039996
 20
169.9000244141
 30
0.0
 11
46.58714909039996
 21
167.1000976563
 31
0.0
  0
LINE
  5
457
330
1E
100
AcDbEntity
  8
0
 62
     3
100
AcDbLine
 10
46.58714909039996
 20
163.900100708
 30
0.0
 11
46.58714909039996
 21
161.1001129151
 31
0.0
  0
LINE
  5
458
330
1E
100
AcDbEntity
  8
0
 62
     3
100
AcDbLine
 10
46.58702702009997
 20
175.8999023438
 30
0.0
 11
47.08702702009997
 21
175.8999023438
 31
0.0
  0
LINE
  5
459
330
1E
100
AcDbEntity
  8
0
 62
     3
100
AcDbLine
 10
46.58702702009997
 20
173.099899292
 30
0.0
 11
47.08702702009997
 21
173.099899292
 31
0.0
  0
LINE
  5
45A
330
1E
100
AcDbEntity
  8
0
 62
     3
100
AcDbLine
 10
46.58702702009997
 20
169.8999481200999
 30
0.0
 11
47.08702702009997
 21
169.8999481200999
 31
0.0
  0
LINE
  5
45B
330
1E
100
AcDbEntity
  8
0
 62
     3
100
AcDbLine
 10
46.58704227889996
 20
167.1000061034999
 30
0.0
 11
47.08704227889996
 21
167.1000061034999
 31
0.0
  0
LINE
  5
45C
330
1E
100
AcDbEntity
  8
0
 62
     3
100
AcDbLine
 10
46.58704227889996
 20
163.9000091552999
 30
0.0
 11
47.08704227889996
 21
163.9000091552999
 31
0.0
  0
LINE
  5
45D
330
1E
100
AcDbEntity
  8
0
 62
     3
100
AcDbLine
 10
46.58704227889996
 20
161.1000213622999
 30
0.0
 11
47.08704227889996
 21
161.1000213622999
 31
0.0
  0
LINE
  5
45E
330
1E
100
AcDbEntity
  8
0
 62
     3
100
AcDbLine
 10
47.08714909039996
 20
175.8999786377
 30
0.0
 11
47.08714909039996
 21
173.0999755858999
 31
0.0
  0
LINE
  5
45F
330
1E
100
AcDbEntity
  8
0
 62
     3
100
AcDbLine
 10
46.58714909039996
 20
175.8999786377
 30
0.0
 11
46.58714909039996
 21
173.0999755858999
 31
0.0
  0
LINE
  5
460
330
1E
100
AcDbEntity
  8
0
 62
     3
100
AcDbLine
 10
41.88715214219999
 20
169.9000244141
 30
0.0
 11
41.88715214219999
 21
167.1000976563
 31
0.0
  0
LINE
  5
461
330
1E
100
AcDbEntity
  8
0
 62
     3
100
AcDbLine
 10
41.88715214219999
 20
163.900100708
 30
0.0
 11
41.88715214219999
 21
161.1001129151
 31
0.0
  0
LINE
  5
462
330
1E
100
AcDbEntity
  8
0
 62
     3
100
AcDbLine
 10
41.38715214219999
 20
169.9000244141
 30
0.0
 11
41.38715214219999
 21
167.1000976563
 31
0.0
  0
LINE
  5
463
330
1E
100
AcDbEntity
  8
0
 62
     3
100
AcDbLine
 10
41.38715214219999
 20
163.900100708
 30
0.0
 11
41.38715214219999
 21
161.1001129151
 31
0.0
  0
LINE
  5
53C
330
1E
100
AcDbEntity
  8
0
 62
     3
100
AcDbLine
 10
153.3861084409999
 20
177.3999389649
 30
0.0
 11
153.3861084409999
 21
159.6
 31
0.0
  0
LINE
  5
53D
330
1E
100
AcDbEntity
  8
0
 62
     3
100
AcDbLine
 10
171.1860474058999
 20
177.3999389649
 30
0.0
 11
153.3861084409999
 21
177.3999389649
 31
0.0
  0
LINE
  5
53E
330
1E
100
AcDbEntity
  8
0
 62
     3
100
AcDbLine
 10
171.1860474058999
 20
177.3999389649
 30
0.0
 11
171.1860474058999
 21
159.6
 31
0.0
  0
LINE
  5
53F
330
1E
100
AcDbEntity
  8
0
 62
     3
100
AcDbLine
 10
171.1860474058999
 20
159.6
 30
0.0
 11
153.3861084409999
 21
159.6
 31
0.0
  0
LINE
  5
541
330
1E
100
AcDbEntity
  8
0
 62
     3
100
AcDbLine
 10
39.58709721059998
 20
159.6000457764
 30
0.0
 11
39.58709721059998
 21
177.3999847412
 31
0.0
  0
LINE
  5
542
330
1E
100
AcDbEntity
  8
0
 62
     3
100
AcDbLine
 10
52.33204567129999
 20
177.3999847412
 30
0.0
 11
44.6426296242
 21
177.3999847412
 31
0.0
  0
LINE
  5
543
330
1E
100
AcDbEntity
  8
0
 62
     3
100
AcDbLine
 10
40.69293827499999
 20
177.3999847412
 30
0.0
 11
39.58709721059998
 21
177.3999847412
 31
0.0
  0
LINE
  5
544
330
1E
100
AcDbEntity
  8
0
 62
     3
100
AcDbLine
 10
57.3870972106
 20
177.3999847412
 30
0.0
 11
56.24635148849997
 21
177.3999847412
 31
0.0
  0
LINE
  5
545
330
1E
100
AcDbEntity
  8
0
 62
     3
100
AcDbLine
 10
57.3870972106
 20
159.6000457764
 30
0.0
 11
57.3870972106
 21
177.3999847412
 31
0.0
  0
LINE
  5
546
330
1E
100
AcDbEntity
  8
0
 62
     3
100
AcDbLine
 10
57.3870972106
 20
159.6000457764
 30
0.0
 11
56.245922198
 21
159.6000457764
 31
0.0
  0
LINE
  5
547
330
1E
100
AcDbEntity
  8
0
 62
     3
100
AcDbLine
 10
52.33155187149997
 20
159.6000457764
 30
0.0
 11
44.64297314239998
 21
159.6000457764
 31
0.0
  0
LINE
  5
548
330
1E
100
AcDbEntity
  8
0
 62
     3
100
AcDbLine
 10
40.72876139679997
 20
159.6000457764
 30
0.0
 11
39.58709721059998
 21
159.6000457764
 31
0.0
  0
LINE
  5
55E
330
1E
100
AcDbEntity
  8
0
 62
     3
100
AcDbLine
 10
117.7868866392999
 20
208.7207335906
 30
0.0
 11
117.7728812145999
 21
208.7840694197
 31
0.0
  0
LINE
  5
55F
330
1E
100
AcDbEntity
  8
0
 62
     3
100
AcDbLine
 10
117.7728812145999
 20
208.7840694197
 30
0.0
 11
117.7329970961999
 21
208.8377629470999
 31
0.0
  0
LINE
  5
560
330
1E
100
AcDbEntity
  8
0
 62
     3
100
AcDbLine
 10
117.7329970961999
 20
208.8377629470999
 30
0.0
 11
117.6733062818999
 21
208.8736398167
 31
0.0
  0
LINE
  5
561
330
1E
100
AcDbEntity
  8
0
 62
     3
100
AcDbLine
 10
117.6733062818999
 20
208.8736398167
 30
0.0
 11
117.6028961606998
 21
208.8862380981999
 31
0.0
  0
LINE
  5
562
330
1E
100
AcDbEntity
  8
0
 62
     3
100
AcDbLine
 10
117.6028961606998
 20
208.8862380981999
 30
0.0
 11
117.5324860395999
 21
208.8736398167
 31
0.0
  0
LINE
  5
563
330
1E
100
AcDbEntity
  8
0
 62
     3
100
AcDbLine
 10
117.5324860395999
 20
208.8736398167
 30
0.0
 11
117.4727952252998
 21
208.8377629470999
 31
0.0
  0
LINE
  5
564
330
1E
100
AcDbEntity
  8
0
 62
     3
100
AcDbLine
 10
117.4727952252998
 20
208.8377629470999
 30
0.0
 11
117.4329111068999
 21
208.7840694197
 31
0.0
  0
LINE
  5
565
330
1E
100
AcDbEntity
  8
0
 62
     3
100
AcDbLine
 10
117.4329111068999
 20
208.7840694197
 30
0.0
 11
117.4189056821999
 21
208.7207335906
 31
0.0
  0
LINE
  5
566
330
1E
100
AcDbEntity
  8
0
 62
     3
100
AcDbLine
 10
116.3150699113999
 20
206.9132995606
 30
0.0
 11
116.1390475061999
 21
206.8818042465999
 31
0.0
  0
LINE
  5
567
330
1E
100
AcDbEntity
  8
0
 62
     3
100
AcDbLine
 10
116.1390475061999
 20
206.8818042465999
 30
0.0
 11
115.9898228829999
 21
206.7921129838
 31
0.0
  0
LINE
  5
568
330
1E
100
AcDbEntity
  8
0
 62
     3
100
AcDbLine
 10
115.9898228829999
 20
206.7921129838
 30
0.0
 11
115.8901141471998
 21
206.6578804593
 31
0.0
  0
LINE
  5
569
330
1E
100
AcDbEntity
  8
0
 62
     3
100
AcDbLine
 10
115.8901141471998
 20
206.6578804593
 30
0.0
 11
115.8551010557999
 21
206.4995423661999
 31
0.0
  0
LINE
  5
56A
330
1E
100
AcDbEntity
  8
0
 62
     3
100
AcDbLine
 10
115.8551010557999
 20
206.4995423661999
 30
0.0
 11
115.8901140366999
 21
206.3412042533
 31
0.0
  0
LINE
  5
56B
330
1E
100
AcDbEntity
  8
0
 62
     3
100
AcDbLine
 10
115.8901140366999
 20
206.3412042533
 30
0.0
 11
115.9898226787999
 21
206.2069716724999
 31
0.0
  0
LINE
  5
56C
330
1E
100
AcDbEntity
  8
0
 62
     3
100
AcDbLine
 10
115.9898226787999
 20
206.2069716724999
 30
0.0
 11
116.1390472393999
 21
206.1172803254999
 31
0.0
  0
LINE
  5
56D
330
1E
100
AcDbEntity
  8
0
 62
     3
100
AcDbLine
 10
116.1390472393999
 20
206.1172803254999
 30
0.0
 11
116.3150696226999
 21
206.0857849121
 31
0.0
  0
LINE
  5
56E
330
1E
100
AcDbEntity
  8
0
 62
     3
100
AcDbLine
 10
116.3150701424999
 20
207.2443008422999
 30
0.0
 11
116.0318972513999
 21
207.1993865447999
 31
0.0
  0
LINE
  5
56F
330
1E
100
AcDbEntity
  8
0
 62
     3
100
AcDbLine
 10
116.0318972513999
 20
207.1993865447999
 30
0.0
 11
115.7828791409999
 21
207.0700606616999
 31
0.0
  0
LINE
  5
570
330
1E
100
AcDbEntity
  8
0
 62
     3
100
AcDbLine
 10
115.7828791409999
 20
207.0700606616999
 30
0.0
 11
115.5980510823999
 21
206.8719218093
 31
0.0
  0
LINE
  5
571
330
1E
100
AcDbEntity
  8
0
 62
     3
100
AcDbLine
 10
115.5980510823999
 20
206.8719218093
 30
0.0
 11
115.4997060759999
 21
206.6288684668999
 31
0.0
  0
LINE
  5
572
330
1E
100
AcDbEntity
  8
0
 62
     3
100
AcDbLine
 10
115.4997060759999
 20
206.6288684668999
 30
0.0
 11
115.4997059857999
 21
206.3702164662999
 31
0.0
  0
LINE
  5
573
330
1E
100
AcDbEntity
  8
0
 62
     3
100
AcDbLine
 10
115.4997059857999
 20
206.3702164662999
 30
0.0
 11
115.5980508225
 21
206.1271630683
 31
0.0
  0
LINE
  5
574
330
1E
100
AcDbEntity
  8
0
 62
     3
100
AcDbLine
 10
115.5980508225
 20
206.1271630683
 30
0.0
 11
115.7828787427999
 21
205.9290241115999
 31
0.0
  0
LINE
  5
575
330
1E
100
AcDbEntity
  8
0
 62
     3
100
AcDbLine
 10
115.7828787427999
 20
205.9290241115999
 30
0.0
 11
116.0318967629998
 21
205.7996980877999
 31
0.0
  0
LINE
  5
576
330
1E
100
AcDbEntity
  8
0
 62
     3
100
AcDbLine
 10
116.0318967629998
 20
205.7996980877999
 30
0.0
 11
116.3150696226999
 21
205.7547836303999
 31
0.0
  0
LINE
  5
577
330
1E
100
AcDbEntity
  8
0
 62
     3
100
AcDbLine
 10
115.6707826287999
 20
205.5839920043999
 30
0.0
 11
115.6003724987999
 21
205.5713937626999
 31
0.0
  0
LINE
  5
578
330
1E
100
AcDbEntity
  8
0
 62
     3
100
AcDbLine
 10
115.6003724987999
 20
205.5713937626999
 30
0.0
 11
115.5406816594999
 21
205.5355169268
 31
0.0
  0
LINE
  5
579
330
1E
100
AcDbEntity
  8
0
 62
     3
100
AcDbLine
 10
115.5406816594999
 20
205.5355169268
 30
0.0
 11
115.5007975035999
 21
205.4818234219999
 31
0.0
  0
LINE
  5
57A
330
1E
100
AcDbEntity
  8
0
 62
     3
100
AcDbLine
 10
115.5007975035999
 20
205.4818234219999
 30
0.0
 11
115.4867920347999
 21
205.4184876008
 31
0.0
  0
LINE
  5
57B
330
1E
100
AcDbEntity
  8
0
 62
     3
100
AcDbLine
 10
115.4867920347999
 20
205.4184876008
 30
0.0
 11
115.5007974593999
 21
205.3551517717
 31
0.0
  0
LINE
  5
57C
330
1E
100
AcDbEntity
  8
0
 62
     3
100
AcDbLine
 10
115.5007974593999
 20
205.3551517717
 30
0.0
 11
115.5406815777999
 21
205.3014582444
 31
0.0
  0
LINE
  5
57D
330
1E
100
AcDbEntity
  8
0
 62
     3
100
AcDbLine
 10
115.5406815777999
 20
205.3014582444
 30
0.0
 11
115.6003723920999
 21
205.2655813747999
 31
0.0
  0
LINE
  5
57E
330
1E
100
AcDbEntity
  8
0
 62
     3
100
AcDbLine
 10
115.6003723920999
 20
205.2655813747999
 30
0.0
 11
115.6707825133
 21
205.2529830933
 31
0.0
  0
LINE
  5
57F
330
1E
100
AcDbEntity
  8
0
 62
     3
100
AcDbLine
 10
115.6707673699999
 20
208.3105545043999
 30
0.0
 11
115.6003572399999
 21
208.2979562627
 31
0.0
  0
LINE
  5
580
330
1E
100
AcDbEntity
  8
0
 62
     3
100
AcDbLine
 10
115.6003572399999
 20
208.2979562627
 30
0.0
 11
115.5406664006999
 21
208.2620794268
 31
0.0
  0
LINE
  5
581
330
1E
100
AcDbEntity
  8
0
 62
     3
100
AcDbLine
 10
115.5406664006999
 20
208.2620794268
 30
0.0
 11
115.5007822448
 21
208.2083859219999
 31
0.0
  0
LINE
  5
582
330
1E
100
AcDbEntity
  8
0
 62
     3
100
AcDbLine
 10
115.5007822448
 20
208.2083859219999
 30
0.0
 11
115.4867767759999
 21
208.1450501008
 31
0.0
  0
LINE
  5
583
330
1E
100
AcDbEntity
  8
0
 62
     3
100
AcDbLine
 10
115.4867767759999
 20
208.1450501008
 30
0.0
 11
115.5007822005998
 21
208.0817142717
 31
0.0
  0
LINE
  5
584
330
1E
100
AcDbEntity
  8
0
 62
     3
100
AcDbLine
 10
115.5007822005998
 20
208.0817142717
 30
0.0
 11
115.5406663189999
 21
208.0280207444
 31
0.0
  0
LINE
  5
585
330
1E
100
AcDbEntity
  8
0
 62
     3
100
AcDbLine
 10
115.5406663189999
 20
208.0280207444
 30
0.0
 11
115.6003571332999
 21
207.9921438747999
 31
0.0
  0
LINE
  5
586
330
1E
100
AcDbEntity
  8
0
 62
     3
100
AcDbLine
 10
115.6003571332999
 20
207.9921438747999
 30
0.0
 11
115.6707672544999
 21
207.9795455933
 31
0.0
  0
LINE
  5
587
330
1E
100
AcDbEntity
  8
0
 62
     3
100
AcDbLine
 10
116.9586243101999
 20
205.7547836303999
 30
0.0
 11
117.2417970613
 21
205.7996980522999
 31
0.0
  0
LINE
  5
588
330
1E
100
AcDbEntity
  8
0
 62
     3
100
AcDbLine
 10
117.2417970613
 20
205.7996980522999
 30
0.0
 11
117.4908150129999
 21
205.9290239779999
 31
0.0
  0
LINE
  5
589
330
1E
100
AcDbEntity
  8
0
 62
     3
100
AcDbLine
 10
117.4908150129999
 20
205.9290239779999
 30
0.0
 11
117.6756429369999
 21
206.1271627983999
 31
0.0
  0
LINE
  5
58A
330
1E
100
AcDbEntity
  8
0
 62
     3
100
AcDbLine
 10
117.6756429369999
 20
206.1271627983999
 30
0.0
 11
117.7739878667999
 21
206.370216057
 31
0.0
  0
LINE
  5
58B
330
1E
100
AcDbEntity
  8
0
 62
     3
100
AcDbLine
 10
117.7739878667999
 20
206.370216057
 30
0.0
 11
117.7739879570999
 21
206.6288679552
 31
0.0
  0
LINE
  5
58C
330
1E
100
AcDbEntity
  8
0
 62
     3
100
AcDbLine
 10
117.7739879570999
 20
206.6288679552
 30
0.0
 11
117.6756431969999
 21
206.8719212693999
 31
0.0
  0
LINE
  5
58D
330
1E
100
AcDbEntity
  8
0
 62
     3
100
AcDbLine
 10
117.6756431969999
 20
206.8719212693999
 30
0.0
 11
117.4908154111999
 21
207.0700601941
 31
0.0
  0
LINE
  5
58E
330
1E
100
AcDbEntity
  8
0
 62
     3
100
AcDbLine
 10
117.4908154111999
 20
207.0700601941
 30
0.0
 11
117.2417975497999
 21
207.1993862604999
 31
0.0
  0
LINE
  5
58F
330
1E
100
AcDbEntity
  8
0
 62
     3
100
AcDbLine
 10
117.2417975497999
 20
207.1993862604999
 30
0.0
 11
116.9586248299999
 21
207.2443008422999
 31
0.0
  0
LINE
  5
590
330
1E
100
AcDbEntity
  8
0
 62
     3
100
AcDbLine
 10
116.9586243101999
 20
206.0857849121
 30
0.0
 11
117.1346466267999
 21
206.1172803005999
 31
0.0
  0
LINE
  5
591
330
1E
100
AcDbEntity
  8
0
 62
     3
100
AcDbLine
 10
117.1346466267999
 20
206.1172803005999
 30
0.0
 11
117.2838711518999
 21
206.2069715807
 31
0.0
  0
LINE
  5
592
330
1E
100
AcDbEntity
  8
0
 62
     3
100
AcDbLine
 10
117.2838711518999
 20
206.2069715807
 30
0.0
 11
117.3835798132998
 21
206.3412040733
 31
0.0
  0
LINE
  5
593
330
1E
100
AcDbEntity
  8
0
 62
     3
100
AcDbLine
 10
117.3835798132998
 20
206.3412040733
 30
0.0
 11
117.4185928770999
 21
206.4995421065
 31
0.0
  0
LINE
  5
594
330
1E
100
AcDbEntity
  8
0
 62
     3
100
AcDbLine
 10
117.4185928770999
 20
206.4995421065
 30
0.0
 11
117.3835799237999
 21
206.6578801593
 31
0.0
  0
LINE
  5
595
330
1E
100
AcDbEntity
  8
0
 62
     3
100
AcDbLine
 10
117.3835799237999
 20
206.6578801593
 30
0.0
 11
117.2838713560999
 21
206.7921127083
 31
0.0
  0
LINE
  5
596
330
1E
100
AcDbEntity
  8
0
 62
     3
100
AcDbLine
 10
117.2838713560999
 20
206.7921127083
 30
0.0
 11
117.1346468935999
 21
206.8818040726
 31
0.0
  0
LINE
  5
597
330
1E
100
AcDbEntity
  8
0
 62
     3
100
AcDbLine
 10
117.1346468935999
 20
206.8818040726
 30
0.0
 11
116.9586245988998
 21
206.9132995606
 31
0.0
  0
LINE
  5
598
330
1E
100
AcDbEntity
  8
0
 62
     3
100
AcDbLine
 10
117.4189209409999
 20
207.5691222625
 30
0.0
 11
117.4329263987999
 21
207.5057864653
 31
0.0
  0
LINE
  5
599
330
1E
100
AcDbEntity
  8
0
 62
     3
100
AcDbLine
 10
117.4329263987999
 20
207.5057864653
 30
0.0
 11
117.4728105248999
 21
207.4520929731999
 31
0.0
  0
LINE
  5
59A
330
1E
100
AcDbEntity
  8
0
 62
     3
100
AcDbLine
 10
117.4728105248999
 20
207.4520929731999
 30
0.0
 11
117.5325013249999
 21
207.4162161304999
 31
0.0
  0
LINE
  5
59B
330
1E
100
AcDbEntity
  8
0
 62
     3
100
AcDbLine
 10
117.5325013249999
 20
207.4162161304999
 30
0.0
 11
117.6029114194999
 21
207.4036178589
 31
0.0
  0
LINE
  5
59C
330
1E
100
AcDbEntity
  8
0
 62
     3
100
AcDbLine
 10
117.6029114194999
 20
207.4036178589
 30
0.0
 11
117.673321514
 21
207.4162161304999
 31
0.0
  0
LINE
  5
59D
330
1E
100
AcDbEntity
  8
0
 62
     3
100
AcDbLine
 10
117.673321514
 20
207.4162161304999
 30
0.0
 11
117.7330123141
 21
207.4520929731999
 31
0.0
  0
LINE
  5
59E
330
1E
100
AcDbEntity
  8
0
 62
     3
100
AcDbLine
 10
117.7330123141
 20
207.4520929731999
 30
0.0
 11
117.7728964401999
 21
207.5057864653
 31
0.0
  0
LINE
  5
59F
330
1E
100
AcDbEntity
  8
0
 62
     3
100
AcDbLine
 10
117.7728964401999
 20
207.5057864653
 30
0.0
 11
117.7869018980999
 21
207.5691222625
 31
0.0
  0
LINE
  5
5A0
330
1E
100
AcDbEntity
  8
0
 62
     3
100
AcDbLine
 10
116.6826843687999
 20
204.7619933043
 30
0.0
 11
116.7106952843999
 21
204.63532171
 31
0.0
  0
LINE
  5
5A1
330
1E
100
AcDbEntity
  8
0
 62
     3
100
AcDbLine
 10
116.7106952843999
 20
204.63532171
 30
0.0
 11
116.7904635365998
 21
204.5279347258
 31
0.0
  0
LINE
  5
5A2
330
1E
100
AcDbEntity
  8
0
 62
     3
100
AcDbLine
 10
116.7904635365998
 20
204.5279347258
 30
0.0
 11
116.9098451367998
 21
204.4561810402
 31
0.0
  0
LINE
  5
5A3
330
1E
100
AcDbEntity
  8
0
 62
     3
100
AcDbLine
 10
116.9098451367998
 20
204.4561810402
 30
0.0
 11
117.0506653257999
 21
204.4309844970999
 31
0.0
  0
LINE
  5
5A4
330
1E
100
AcDbEntity
  8
0
 62
     3
100
AcDbLine
 10
117.0506653257999
 20
204.4309844970999
 30
0.0
 11
117.1914855147998
 21
204.4561810402
 31
0.0
  0
LINE
  5
5A5
330
1E
100
AcDbEntity
  8
0
 62
     3
100
AcDbLine
 10
117.1914855147998
 20
204.4561810402
 30
0.0
 11
117.310867115
 21
204.5279347258
 31
0.0
  0
LINE
  5
5A6
330
1E
100
AcDbEntity
  8
0
 62
     3
100
AcDbLine
 10
117.310867115
 20
204.5279347258
 30
0.0
 11
117.3906353672
 21
204.63532171
 31
0.0
  0
LINE
  5
5A7
330
1E
100
AcDbEntity
  8
0
 62
     3
100
AcDbLine
 10
117.3906353672
 20
204.63532171
 30
0.0
 11
117.4186462827999
 21
204.7619933043
 31
0.0
  0
LINE
  5
5A8
330
1E
100
AcDbEntity
  8
0
 62
     3
100
AcDbLine
 10
116.3147110410999
 20
204.7619932004
 30
0.0
 11
116.3707322915999
 21
204.5086529313
 31
0.0
  0
LINE
  5
5A9
330
1E
100
AcDbEntity
  8
0
 62
     3
100
AcDbLine
 10
116.3707322915999
 20
204.5086529313
 30
0.0
 11
116.5302671420999
 21
204.2938814381
 31
0.0
  0
LINE
  5
5AA
330
1E
100
AcDbEntity
  8
0
 62
     3
100
AcDbLine
 10
116.5302671420999
 20
204.2938814381
 30
0.0
 11
116.7690278673999
 21
204.1503757208
 31
0.0
  0
LINE
  5
5AB
330
1E
100
AcDbEntity
  8
0
 62
     3
100
AcDbLine
 10
116.7690278673999
 20
204.1503757208
 30
0.0
 11
117.0506653257999
 21
204.0999832152999
 31
0.0
  0
LINE
  5
5AC
330
1E
100
AcDbEntity
  8
0
 62
     3
100
AcDbLine
 10
117.0506653257999
 20
204.0999832152999
 30
0.0
 11
117.3323027841
 21
204.1503757208
 31
0.0
  0
LINE
  5
5AD
330
1E
100
AcDbEntity
  8
0
 62
     3
100
AcDbLine
 10
117.3323027841
 20
204.1503757208
 30
0.0
 11
117.5710635093998
 21
204.2938814381
 31
0.0
  0
LINE
  5
5AE
330
1E
100
AcDbEntity
  8
0
 62
     3
100
AcDbLine
 10
117.5710635093998
 20
204.2938814381
 30
0.0
 11
117.7305983598998
 21
204.5086529313
 31
0.0
  0
LINE
  5
5AF
330
1E
100
AcDbEntity
  8
0
 62
     3
100
AcDbLine
 10
117.7305983598998
 20
204.5086529313
 30
0.0
 11
117.7866196104998
 21
204.7619932004
 31
0.0
  0
TEXT
  5
5B0
330
1E
100
AcDbEntity
  8
0
 62
     5
100
AcDbText
 10
145.0
 20
10.0
 30
0.0
 40
5.0
  1
ＭＡ４-Ｍ０００４４Ｃ
 41
0.8418911459846409
 72
     5
 11
199.0413935612998
 21
10.0
 31
0.0
100
AcDbText
  0
LINE
  5
5B8
330
1E
100
AcDbEntity
  8
0
100
AcDbLine
 10
0.0
 20
0.0
 30
0.0
 11
210.0
 21
0.0
 31
0.0
  0
LINE
  5
5B9
330
1E
100
AcDbEntity
  8
0
100
AcDbLine
 10
210.0
 20
0.0
 30
0.0
 11
210.0
 21
297.0
 31
0.0
  0
LINE
  5
5BA
330
1E
100
AcDbEntity
  8
0
100
AcDbLine
 10
210.0
 20
297.0
 30
0.0
 11
0.0
 21
297.0
 31
0.0
  0
LINE
  5
5BB
330
1E
100
AcDbEntity
  8
0
100
AcDbLine
 10
0.0
 20
297.0
 30
0.0
 11
0.0
 21
0.0
 31
0.0
  0
TEXT
  5
5C9
330
1E
100
AcDbEntity
  8
0
 62
     7
100
AcDbText
 10
108.0
 20
115.0000029552499
 30
0.0
 40
2.999994089499998
  1
MA2P-131*
 11
108.0
 21
116.4999999999999
 31
0.0
100
AcDbText
 73
     2
  0
TEXT
  5
5CA
330
1E
100
AcDbEntity
  8
0
 62
     7
100
AcDbText
 10
108.0
 20
100.0000029552499
 30
0.0
 40
2.999994089499998
  1
MA2L-M1111*
 11
108.0
 21
101.4999999999999
 31
0.0
100
AcDbText
 73
     2
  0
TEXT
  5
5CB
330
1E
100
AcDbEntity
  8
0
 62
     7
100
AcDbText
 10
108.0
 20
120.00000295525
 30
0.0
 40
2.999994089499998
  1
MA2P-111*
 11
108.0
 21
121.5
 31
0.0
100
AcDbText
 73
     2
  0
TEXT
  5
5CC
330
1E
100
AcDbEntity
  8
0
 62
     7
100
AcDbText
 10
108.0
 20
110.0000029552499
 30
0.0
 40
2.999994089499998
  1
MA2P-141*
 11
108.0
 21
111.4999999999999
 31
0.0
100
AcDbText
 73
     2
  0
TEXT
  5
5CD
330
1E
100
AcDbEntity
  8
0
 62
     7
100
AcDbText
 10
146.0
 20
100.0000029552499
 30
0.0
 40
2.999994089499998
  1
MA2L-A1111*
 11
146.0
 21
101.4999999999999
 31
0.0
100
AcDbText
 73
     2
  0
TEXT
  5
5D3
330
1E
100
AcDbEntity
  8
0
 62
     7
100
AcDbText
 10
108.0
 20
90.00000295524987
 30
0.0
 40
2.999994089499998
  1
MA2L-M1141*
 11
108.0
 21
91.49999999999987
 31
0.0
100
AcDbText
 73
     2
  0
TEXT
  5
5D7
330
1E
100
AcDbEntity
  8
0
 62
     7
100
AcDbText
 10
108.0
 20
95.00000295525
 30
0.0
 40
2.999994089499998
  1
MA2L-M1131*
 11
108.0
 21
96.5
 31
0.0
100
AcDbText
 73
     2
  0
TEXT
  5
5D9
330
1E
100
AcDbEntity
  8
0
 62
     7
100
AcDbText
 10
146.0
 20
90.00000295524987
 30
0.0
 40
2.999994089499998
  1
MA2L-A1141*
 11
146.0
 21
91.49999999999987
 31
0.0
100
AcDbText
 73
     2
  0
TEXT
  5
5DA
330
1E
100
AcDbEntity
  8
0
 62
     7
100
AcDbText
 10
146.0
 20
95.00000295525
 30
0.0
 40
2.999994089499998
  1
MA2L-A1131*
 11
146.0
 21
96.5
 31
0.0
100
AcDbText
 73
     2
  0
TEXT
  5
5DB
330
1E
100
AcDbEntity
  8
0
 62
     7
100
AcDbText
 10
146.0
 20
85.00000295524989
 30
0.0
 40
2.999994089499998
  1
MA2L-A2111*
 11
146.0
 21
86.49999999999989
 31
0.0
100
AcDbText
 73
     2
  0
TEXT
  5
5DC
330
1E
100
AcDbEntity
  8
0
 62
     7
100
AcDbText
 10
146.0
 20
75.0000029552499
 30
0.0
 40
2.999994089499998
  1
MA2L-A2141*
 11
146.0
 21
76.4999999999999
 31
0.0
100
AcDbText
 73
     2
  0
TEXT
  5
5DD
330
1E
100
AcDbEntity
  8
0
 62
     7
100
AcDbText
 10
146.0
 20
80.00000295525
 30
0.0
 40
2.999994089499998
  1
MA2L-A2131*
 11
146.0
 21
81.5
 31
0.0
100
AcDbText
 73
     2
  0
TEXT
  5
5DE
330
1E
100
AcDbEntity
  8
0
 62
     7
100
AcDbText
 10
108.0
 20
85.00000295524989
 30
0.0
 40
2.999994089499998
  1
MA2L-M2111*
 11
108.0
 21
86.49999999999989
 31
0.0
100
AcDbText
 73
     2
  0
TEXT
  5
5DF
330
1E
100
AcDbEntity
  8
0
 62
     7
100
AcDbText
 10
108.0
 20
75.0000029552499
 30
0.0
 40
2.999994089499998
  1
MA2L-M2141*
 11
108.0
 21
76.4999999999999
 31
0.0
100
AcDbText
 73
     2
  0
TEXT
  5
5E0
330
1E
100
AcDbEntity
  8
0
 62
     7
100
AcDbText
 10
108.0
 20
80.00000295525
 30
0.0
 40
2.999994089499998
  1
MA2L-M2131*
 11
108.0
 21
81.5
 31
0.0
100
AcDbText
 73
     2
  0
TEXT
  5
5E1
330
1E
100
AcDbEntity
  8
0
 62
     7
100
AcDbText
 10
108.0
 20
60.0000029552499
 30
0.0
 40
2.999994089499998
  1
MA2L-M5141*
 11
108.0
 21
61.49999999999989
 31
0.0
100
AcDbText
 73
     2
  0
TEXT
  5
5E2
330
1E
100
AcDbEntity
  8
0
 62
     7
100
AcDbText
 10
108.0
 20
65.00000295525
 30
0.0
 40
2.999994089499998
  1
MA2L-M5131*
 11
108.0
 21
66.5
 31
0.0
100
AcDbText
 73
     2
  0
TEXT
  5
5E3
330
1E
100
AcDbEntity
  8
0
 62
     7
100
AcDbText
 10
108.0
 20
70.0000029552499
 30
0.0
 40
2.999994089499998
  1
MA2L-M5111*
 11
108.0
 21
71.4999999999999
 31
0.0
100
AcDbText
 73
     2
  0
TEXT
  5
5E4
330
1E
100
AcDbEntity
  8
0
 62
     7
100
AcDbText
 10
146.0
 20
60.0000029552499
 30
0.0
 40
2.999994089499998
  1
MA2L-A5141*
 11
146.0
 21
61.49999999999989
 31
0.0
100
AcDbText
 73
     2
  0
TEXT
  5
5E5
330
1E
100
AcDbEntity
  8
0
 62
     7
100
AcDbText
 10
146.0
 20
65.00000295525
 30
0.0
 40
2.999994089499998
  1
MA2L-A5131*
 11
146.0
 21
66.5
 31
0.0
100
AcDbText
 73
     2
  0
TEXT
  5
5E6
330
1E
100
AcDbEntity
  8
0
 62
     7
100
AcDbText
 10
146.0
 20
70.0000029552499
 30
0.0
 40
2.999994089499998
  1
MA2L-A5111*
 11
146.0
 21
71.4999999999999
 31
0.0
100
AcDbText
 73
     2
  0
TEXT
  5
5E7
330
1E
100
AcDbEntity
  8
0
 62
     7
100
AcDbText
 10
108.0
 20
45.0000029552499
 30
0.0
 40
2.999994089499998
  1
MA2L-M6141*
 11
108.0
 21
46.49999999999989
 31
0.0
100
AcDbText
 73
     2
  0
TEXT
  5
5E8
330
1E
100
AcDbEntity
  8
0
 62
     7
100
AcDbText
 10
108.0
 20
50.00000295525
 30
0.0
 40
2.999994089499998
  1
MA2L-M6131*
 11
108.0
 21
51.5
 31
0.0
100
AcDbText
 73
     2
  0
TEXT
  5
5E9
330
1E
100
AcDbEntity
  8
0
 62
     7
100
AcDbText
 10
108.0
 20
55.0000029552499
 30
0.0
 40
2.999994089499998
  1
MA2L-M6111*
 11
108.0
 21
56.49999999999989
 31
0.0
100
AcDbText
 73
     2
  0
TEXT
  5
5EA
330
1E
100
AcDbEntity
  8
0
 62
     7
100
AcDbText
 10
146.0
 20
45.0000029552499
 30
0.0
 40
2.999994089499998
  1
MA2L-A6141*
 11
146.0
 21
46.49999999999989
 31
0.0
100
AcDbText
 73
     2
  0
TEXT
  5
5EB
330
1E
100
AcDbEntity
  8
0
 62
     7
100
AcDbText
 10
146.0
 20
50.00000295525
 30
0.0
 40
2.999994089499998
  1
MA2L-A6131*
 11
146.0
 21
51.5
 31
0.0
100
AcDbText
 73
     2
  0
TEXT
  5
5EC
330
1E
100
AcDbEntity
  8
0
 62
     7
100
AcDbText
 10
146.0
 20
55.0000029552499
 30
0.0
 40
2.999994089499998
  1
MA2L-A6111*
 11
146.0
 21
56.49999999999989
 31
0.0
100
AcDbText
 73
     2
  0
TEXT
  5
5FF
330
1E
100
AcDbEntity
  8
0
 62
     7
100
AcDbText
 10
108.0
 20
105.00000295525
 30
0.0
 40
2.999994089499998
  1
MA2P-144RG
 11
108.0
 21
106.5
 31
0.0
100
AcDbText
 73
     2
  0
TEXT
  5
60E
330
1E
100
AcDbEntity
  8
0
 62
     7
100
AcDbText
 10
108.0
 20
39.99999958902629
 30
0.0
 40
2.999994089499998
  1
MA2L-M1144RG
 11
108.0
 21
41.49999663377628
 31
0.0
100
AcDbText
 73
     2
  0
TEXT
  5
60F
330
1E
100
AcDbEntity
  8
0
 62
     7
100
AcDbText
 10
146.0
 20
39.99999958902629
 30
0.0
 40
2.999994089499998
  1
MA2L-A1144RG
 11
146.0
 21
41.49999663377628
 31
0.0
100
AcDbText
 73
     2
  0
TEXT
  5
610
330
1E
100
AcDbEntity
  8
0
 62
     7
100
AcDbText
 10
108.0
 20
24.99999958902629
 30
0.0
 40
2.999994089499998
  1
MA2L-M6144RG
 11
108.0
 21
26.49999663377629
 31
0.0
100
AcDbText
 73
     2
  0
TEXT
  5
611
330
1E
100
AcDbEntity
  8
0
 62
     7
100
AcDbText
 10
108.0
 20
29.99999958902639
 30
0.0
 40
2.999994089499998
  1
MA2L-M5144RG
 11
108.0
 21
31.49999663377639
 31
0.0
100
AcDbText
 73
     2
  0
TEXT
  5
612
330
1E
100
AcDbEntity
  8
0
 62
     7
100
AcDbText
 10
108.0
 20
34.99999958902629
 30
0.0
 40
2.999994089499998
  1
MA2L-M2144RG
 11
108.0
 21
36.49999663377629
 31
0.0
100
AcDbText
 73
     2
  0
TEXT
  5
613
330
1E
100
AcDbEntity
  8
0
 62
     7
100
AcDbText
 10
146.0
 20
24.99999958902629
 30
0.0
 40
2.999994089499998
  1
MA2L-A6144RG
 11
146.0
 21
26.49999663377629
 31
0.0
100
AcDbText
 73
     2
  0
TEXT
  5
614
330
1E
100
AcDbEntity
  8
0
 62
     7
100
AcDbText
 10
146.0
 20
29.99999958902639
 30
0.0
 40
2.999994089499998
  1
MA2L-A5144RG
 11
146.0
 21
31.49999663377639
 31
0.0
100
AcDbText
 73
     2
  0
TEXT
  5
615
330
1E
100
AcDbEntity
  8
0
 62
     7
100
AcDbText
 10
146.0
 20
34.99999958902629
 30
0.0
 40
2.999994089499998
  1
MA2L-A2144RG
 11
146.0
 21
36.49999663377629
 31
0.0
100
AcDbText
 73
     2
  0
ENDSEC
  0
SECTION
  2
OBJECTS
  0
DICTIONARY
  5
C
330
0
100
AcDbDictionary
281
     1
  3
ACAD_COLOR
350
5F5
  3
ACAD_GROUP
350
D
  3
ACAD_LAYOUT
350
19
  3
ACAD_MATERIAL
350
5F4
  3
ACAD_MLINESTYLE
350
16
  3
ACAD_PLOTSETTINGS
350
18
  3
ACAD_PLOTSTYLENAME
350
E
  3
ACAD_TABLESTYLE
350
5F6
  3
ACDBHEADERROUNDTRIPXREC
350
619
  3
AcDbVariableDictionary
350
5ED
  0
DICTIONARY
  5
5F5
102
{ACAD_REACTORS
330
C
102
}
330
C
100
AcDbDictionary
281
     1
  0
DICTIONARY
  5
D
102
{ACAD_REACTORS
330
C
102
}
330
C
100
AcDbDictionary
281
     1
  0
DICTIONARY
  5
19
102
{ACAD_REACTORS
330
C
102
}
330
C
100
AcDbDictionary
281
     1
  3
Model
350
21
  3
ﾚｲｱｳﾄ1
350
1D
  0
DICTIONARY
  5
5F4
102
{ACAD_REACTORS
330
C
102
}
330
C
100
AcDbDictionary
281
     1
  0
DICTIONARY
  5
16
102
{ACAD_REACTORS
330
C
102
}
330
C
100
AcDbDictionary
281
     1
  3
Standard
350
17
  0
DICTIONARY
  5
18
102
{ACAD_REACTORS
330
C
102
}
330
C
100
AcDbDictionary
281
     1
  0
ACDBDICTIONARYWDFLT
  5
E
102
{ACAD_REACTORS
330
C
102
}
330
C
100
AcDbDictionary
281
     1
  3
Normal
350
F
100
AcDbDictionaryWithDefault
340
F
  0
DICTIONARY
  5
5F6
102
{ACAD_REACTORS
330
C
102
}
330
C
100
AcDbDictionary
281
     1
  3
Standard
350
5F7
  0
DICTIONARY
  5
619
102
{ACAD_REACTORS
330
C
102
}
330
C
100
AcDbDictionary
281
     1
  0
DICTIONARY
  5
5ED
102
{ACAD_REACTORS
330
C
102
}
330
C
100
AcDbDictionary
281
     1
  3
CTABLESTYLE
350
616
  3
DIMASSOC
350
5EE
  3
PROJECTNAME
350
617
  0
LAYOUT
  5
21
102
{ACAD_XDICTIONARY
360
61C
102
}
102
{ACAD_REACTORS
330
19
102
}
330
19
100
AcDbPlotSettings
  1

  2
C:\Program Files\AutoCAD 2000i\plotters\DWF Classic.pc3
  4

  6

 40
0.0
 41
0.0
 42
0.0
 43
0.0
 44
0.0
 45
0.0
 46
0.0
 47
0.0
 48
0.0
 49
0.0
140
0.0
141
0.0
142
1.0
143
1.0
 70
  1712
 72
     0
 73
     0
 74
     0
  7

 75
     0
147
1.0
148
0.0
149
0.0
100
AcDbLayout
  1
Model
 70
     1
 71
     0
 10
0.0
 20
0.0
 11
12.0
 21
9.0
 12
0.0
 22
0.0
 32
0.0
 14
0.0
 24
0.0
 34
0.0
 15
0.0
 25
0.0
 35
0.0
146
0.0
 13
0.0
 23
0.0
 33
0.0
 16
1.0
 26
0.0
 36
0.0
 17
0.0
 27
1.0
 37
0.0
 76
     0
330
1E
  0
LAYOUT
  5
1D
102
{ACAD_XDICTIONARY
360
61A
102
}
102
{ACAD_REACTORS
330
19
102
}
330
19
100
AcDbPlotSettings
  1

  2
C:\Program Files\AutoCAD 2000i\plotters\DWF Classic.pc3
  4

  6

 40
0.0
 41
0.0
 42
0.0
 43
0.0
 44
0.0
 45
0.0
 46
0.0
 47
0.0
 48
0.0
 49
0.0
140
0.0
141
0.0
142
1.0
143
1.0
 70
   688
 72
     0
 73
     0
 74
     5
  7

 75
    16
147
1.0
148
0.0
149
0.0
100
AcDbLayout
  1
ﾚｲｱｳﾄ1
 70
     1
 71
     1
 10
0.0
 20
0.0
 11
12.0
 21
9.0
 12
0.0
 22
0.0
 32
0.0
 14
1.000000000000000E+20
 24
1.000000000000000E+20
 34
1.000000000000000E+20
 15
-1.000000000000000E+20
 25
-1.000000000000000E+20
 35
-1.000000000000000E+20
146
0.0
 13
0.0
 23
0.0
 33
0.0
 16
1.0
 26
0.0
 36
0.0
 17
0.0
 27
1.0
 37
0.0
 76
     0
330
1A
  0
MLINESTYLE
  5
17
102
{ACAD_REACTORS
330
16
102
}
330
16
100
AcDbMlineStyle
  2
STANDARD
 70
     0
  3

 62
   256
 51
90.0
 52
90.0
 71
     2
 49
0.5
 62
   256
  6
BYLAYER
 49
-0.5
 62
   256
  6
BYLAYER
  0
ACDBPLACEHOLDER
  5
F
102
{ACAD_REACTORS
330
E
102
}
330
E
  0
TABLESTYLE
  5
5F7
102
{ACAD_REACTORS
330
5F6
102
}
330
5F6
100
AcDbTableStyle
  3
Standard
 70
     0
 71
     0
 40
0.06
 41
0.06
280
     0
281
     0
  7
STANDARD
140
0.18
170
     2
 62
     0
 63
     7
283
     0
274
    -2
284
     1
 64
     0
275
    -2
285
     1
 65
     0
276
    -2
286
     1
 66
     0
277
    -2
287
     1
 67
     0
278
    -2
288
     1
 68
     0
279
    -2
289
     1
 69
     0
  7
STANDARD
140
0.25
170
     5
 62
     0
 63
     7
283
     0
274
    -2
284
     1
 64
     0
275
    -2
285
     1
 65
     0
276
    -2
286
     1
 66
     0
277
    -2
287
     1
 67
     0
278
    -2
288
     1
 68
     0
279
    -2
289
     1
 69
     0
  7
STANDARD
140
0.18
170
     5
 62
     0
 63
     7
283
     0
274
    -2
284
     1
 64
     0
275
    -2
285
     1
 65
     0
276
    -2
286
     1
 66
     0
277
    -2
287
     1
 67
     0
278
    -2
288
     1
 68
     0
279
    -2
289
     1
 69
     0
  0
DICTIONARYVAR
  5
616
102
{ACAD_REACTORS
330
5ED
102
}
330
5ED
100
DictionaryVariables
280
     0
  1
STANDARD
  0
DICTIONARYVAR
  5
5EE
102
{ACAD_REACTORS
330
5ED
102
}
330
5ED
100
DictionaryVariables
280
     0
  1
1
  0
DICTIONARYVAR
  5
617
102
{ACAD_REACTORS
330
5ED
102
}
330
5ED
100
DictionaryVariables
280
     0
  1

  0
DICTIONARY
  5
61C
330
21
100
AcDbDictionary
280
     1
281
     1
  3
ACAD_XREC_ROUNDTRIP
360
61D
  0
DICTIONARY
  5
61A
330
1D
100
AcDbDictionary
280
     1
281
     1
  3
ACAD_XREC_ROUNDTRIP
360
61B
  0
XRECORD
  5
61D
102
{ACAD_REACTORS
330
61C
102
}
330
61C
100
AcDbXrecord
280
     1
102
SHADEPLOT
 70
     0
102
SHADEPLOTRESLEVEL
 70
     2
102
SHADEPLOTCUSTOMDPI
 70
   300
  0
XRECORD
  5
61B
102
{ACAD_REACTORS
330
61A
102
}
330
61A
100
AcDbXrecord
280
     1
102
SHADEPLOT
 70
     0
102
SHADEPLOTRESLEVEL
 70
     2
102
SHADEPLOTCUSTOMDPI
 70
   300
  0
ENDSEC
  0
EOF
