  0
SECTION
  2
HEADER
  9
$ACADVER
  1
AC1004
  9
$ANGBASE
 50
0.0000000000
  9
$ANGDIR
 70
     0
  9
$ATTDIA
 70
     0
  9
$ATTMODE
 70
     1
  9
$ATTREQ
 70
     1
  9
$AUNITS
 70
     0
  9
$AUPREC
 70
     0
  9
$AXISMODE
 70
     0
  9
$AXISUNIT
 10
0.0000000000
 20
0.0000000000
  9
$BLIPMODE
 70
     1
  9
$CECOLOR
 62
   256
  9
$CELTYPE
  6
BYLAYER
  9
$CHAMFERA
 40
0.0000000000
  9
$CHAMFERB
 40
0.0000000000
  9
$CLAYER
  8
0
  9
$COORDS
 70
     0
  9
$DIMALT
 70
     0
  9
$DIMALTD
 70
     2
  9
$DIMALTF
 40
25.4000000000
  9
$DIMAPOST
  1

  9
$DIMASO
 70
     1
  9
$DIMASZ
 40
1.9727878460
  9
$DIMBLK
  1

  9
$DIMBLK1
  1

  9
$DIMBLK2
  1

  9
$DIMCEN
 40
9.0000000000E-02
  9
$DIMDLE
 40
0.0000000000
  9
$DIMDLI
 40
0.3800000000
  9
$DIMEXE
 40
3.8099999428
  9
$DIMEXO
 40
2.5399999619
  9
$DIMLFAC
 40
1.0000000000
  9
$DIMLIM
 70
     0
  9
$DIMPOST
  1

  9
$DIMRND
 40
0.0000000000
  9
$DIMSCALE
 40
1.0000000000
  9
$DIMSE1
 70
     0
  9
$DIMSE2
 70
     0
  9
$DIMSHO
 70
     0
  9
$DIMTAD
 70
     0
  9
$DIMTIH
 70
     0
  9
$DIMTM
 40
0.0000000000
  9
$DIMTOH
 70
     1
  9
$DIMTOL
 70
     0
  9
$DIMTP
 40
0.0000000000
  9
$DIMTSZ
 40
0.0000000000
  9
$DIMTXT
 40
2.9999940395
  9
$DIMZIN
 70
     0
  9
$DRAGMODE
 70
     1
  9
$ELEVATION
 40
0.0000000000
  9
$EXTMAX
 10
3.1750000000
 20
167.9815185547
 30
0.0000000000
  9
$EXTMIN
 10
-216.0523193359
 20
-3.1750000000
 30
0.0000000000
  9
$FASTZOOM
 70
     1
  9
$FILLETRAD
 40
6.2500000000E-02
  9
$FILLMODE
 70
     1
  9
$GRIDMODE
 70
     0
  9
$GRIDUNIT
 10
0.0000000000
 20
0.0000000000
  9
$INSBASE
 10
0.0000000000
 20
0.0000000000
 30
0.0000000000
  9
$LIMCHECK
 70
     0
  9
$LIMMAX
 10
3.1750000000
 20
167.9815185547
  9
$LIMMIN
 10
-216.0523193359
 20
-3.1750000000
  9
$LTSCALE
 40
1.0000000000
  9
$LUNITS
 70
     2
  9
$LUPREC
 70
     3
  9
$MEASUREMENT
 70
     0
  9
$MENU
  1
ACAD
  9
$MIRRTEXT
 70
     0
  9
$ORTHOMODE
 70
     0
  9
$OSMODE
 70
     0
  9
$PDMODE
 70
     0
  9
$PDSIZE
 40
0.0000000000
  9
$PLINEWID
 40
0.0000000000
  9
$PROXYGRAPHICS
 70
     0
  9
$QTEXTMODE
 70
     0
  9
$REGENMODE
 70
     1
  9
$SKETCHINC
 40
0.1000000000
  9
$SKPOLY
 70
     0
  9
$SNAPANG
 50
0.0000000000
  9
$SNAPBASE
 10
0.0000000000
 20
0.0000000000
  9
$SNAPISOPAIR
 70
     0
  9
$SNAPMODE
 70
     0
  9
$SNAPSTYLE
 70
     0
  9
$SNAPUNIT
 10
1.0000000000
 20
1.0000000000
  9
$SPLFRAME
 70
     0
  9
$SPLINESEGS
 70
     8
  9
$TDCREATE
 40
2454673.6535648201
  9
$TDINDWG
 40
0.0000000000
  9
$TDUPDATE
 40
2454673.6535648201
  9
$TDUSRTIMER
 40
0.0000000000
  9
$TEXTSIZE
 40
2.9999940395
  9
$TEXTSTYLE
  7
STANDARD
  9
$THICKNESS
 40
0.0000000000
  9
$TRACEWID
 40
5.0000000000E-02
  9
$USERI1
 70
     0
  9
$USERI2
 70
     0
  9
$USERI3
 70
     0
  9
$USERI4
 70
     0
  9
$USERI5
 70
     0
  9
$USERR1
 40
0.0000000000
  9
$USERR2
 40
0.0000000000
  9
$USERR3
 40
0.0000000000
  9
$USERR4
 40
0.0000000000
  9
$USERR5
 40
0.0000000000
  9
$USRTIMER
 70
     1
  9
$VIEWCTR
 10
-106.4386596680
 20
82.4032592773
  9
$VIEWDIR
 10
0.0000000000
 20
0.0000000000
 30
1.0000000000
  9
$VIEWSIZE
 40
171.1565185547
  0
ENDSEC
  0
SECTION
  2
TABLES
  0
TABLE
  2
LTYPE
 70
     3
  0
LTYPE
  2
SOLID
  3
Solid
 70
    64
 72
    65
 73
     0
 40
0.0000000000
  0
LTYPE
  2
DASH
  3
Dash
 70
    64
 72
    65
 73
     2
 40
2.0000000000
 49
1.0000000000
 49
-1.0000000000
  0
LTYPE
  2
CENTER
  3
Center
 70
    64
 72
    65
 73
     4
 40
9.1000000238
 49
6.5000000000
 49
-0.8000000119
 49
1.0000000000
 49
-0.8000000119
  0
ENDTAB
  0
TABLE
  2
LAYER
 70
     4
  0
LAYER
  2
Layer0$C$L0
 70
     0
  6
SOLID
 62
     3
  0
LAYER
  2
Layer1$C$L1
 70
     0
  6
SOLID
 62
     3
  0
LAYER
  2
Layer6$C$L6
 70
     0
  6
SOLID
 62
    31
  0
LAYER
  2
Layer8$C$L8
 70
     0
  6
SOLID
 62
     7
  0
ENDTAB
  0
TABLE
  2
STYLE
 70
     1
  0
STYLE
  2
STANDARD
  3
txt
  4

 40
0.0000000000
 41
1.0000000000
 42
3.0000000000
 50
0.0000000000
 70
     0
 71
     0
  0
ENDTAB
  0
ENDSEC
  0
SECTION
  2
BLOCKS
  0
BLOCK
  8
Layer6$C$L6
  2
*X0
 70
     1
 10
0.0000000000
 20
0.0000000000
  0
LINE
  8
Layer0$C$L0
 62
     3
 10
-140.0936902134
 20
92.4247989201
 11
-140.3049971839
 21
92.4247989201
  0
LINE
  8
Layer0$C$L0
 62
     3
 10
-140.4924971839
 20
93.1747989201
 11
-139.9061902134
 21
93.1747989201
  0
LINE
  8
Layer0$C$L0
 62
     3
 10
-139.7186902134
 20
93.9247989201
 11
-140.6799971839
 21
93.9247989201
  0
LINE
  8
Layer0$C$L0
 62
     3
 10
-140.8674971839
 20
94.6747989201
 11
-139.5311902134
 21
94.6747989201
  0
ENDBLK
  8
Layer0$C$L0
  0
ENDSEC
  0
SECTION
  2
ENTITIES
  0
TEXT
  8
Layer8$C$L8
 62
     5
 10
-39.0020628504
 20
1.8995889153
 40
2.9999941014
  1
MA4-H01778
 41
0.8595006237
 72
     5
 11
-15.7955916396
 21
1.8995889153
  0
TEXT
  8
Layer8$C$L8
 10
-38.4602961398
 20
10.8387396411
 40
2.9999941014
  1
LW6K-##C##
 41
0.8595006237
 72
     5
 11
-15.2538249289
 21
10.8387396411
  0
LINE
  8
Layer1$C$L1
  6
CENTER
 62
     3
 10
-78.4305678160
 20
92.0710101295
 11
-44.3768738943
 21
92.0710101295
  0
CIRCLE
  8
Layer0$C$L0
 62
     3
 10
-61.3768738943
 20
92.0710101295
 40
12.1000000000
  0
CIRCLE
  8
Layer0$C$L0
 62
     3
 10
-61.3768738943
 20
92.0710101295
 40
11.3000000000
  0
CIRCLE
  8
Layer0$C$L0
 62
     3
 10
-61.3768738943
 20
92.0710101295
 40
11.0000000000
  0
CIRCLE
  8
Layer0$C$L0
 62
     3
 10
-61.3768738943
 20
92.0710101295
 40
14.0000000000
  0
LINE
  8
Layer0$C$L0
 62
     3
 10
-62.4018738943
 20
94.0710101295
 11
-62.2768738943
 21
94.0710101295
  0
LINE
  8
Layer0$C$L0
 62
     3
 10
-60.4768738943
 20
94.0710101295
 11
-60.3518738943
 21
94.0710101295
  0
LINE
  8
Layer0$C$L0
 62
     3
 10
-62.4018738943
 20
87.8949623568
 11
-62.4018738943
 21
94.0710101295
  0
ARC
  8
Layer0$C$L0
 62
     3
 10
-61.3768738943
 20
92.0710101295
 40
4.3000000000
 50
102.0814698847
 51
256.2095201246
  0
ARC
  8
Layer0$C$L0
 62
     3
 10
-61.3768738943
 20
92.0710101295
 40
4.3000000000
 50
283.7904798754
 51
437.9185301153
  0
LINE
  8
Layer0$C$L0
 62
     3
 10
-60.3518738943
 20
94.0710101295
 11
-60.3518738943
 21
87.8949623568
  0
ARC
  8
Layer0$C$L0
 62
     3
 10
-61.3768738943
 20
92.0710101295
 40
5.0000000000
 50
100.3697598055
 51
259.6302401945
  0
ARC
  8
Layer0$C$L0
 62
     3
 10
-61.3768738943
 20
92.0710101295
 40
5.0000000000
 50
280.3697598055
 51
439.6302401945
  0
ARC
  8
Layer0$C$L0
 62
     3
 10
-61.3768738943
 20
92.0710101295
 40
7.3000000000
 50
97.0818816903
 51
262.9181183097
  0
ARC
  8
Layer0$C$L0
 62
     3
 10
-61.3768738943
 20
92.0710101295
 40
7.3000000000
 50
277.0818816903
 51
442.9181183097
  0
ARC
  8
Layer0$C$L0
 62
     3
 10
-61.3768738943
 20
92.0710101295
 40
8.0000000000
 50
276.4594497774
 51
623.5405502226
  0
LINE
  8
Layer0$C$L0
 62
     3
 10
-47.7768738943
 20
88.7483605844
 11
-47.7768738943
 21
78.2710101295
  0
LINE
  8
Layer0$C$L0
 62
     3
 10
-47.7768738943
 20
78.2710101295
 11
-59.0189086698
 21
78.2710101295
  0
LINE
  8
Layer0$C$L0
 62
     3
 10
-49.8768738943
 20
79.4710101295
 11
-49.8768738943
 21
78.2710101295
  0
LINE
  8
Layer0$C$L0
 62
     3
 10
-55.2744153733
 20
79.4710101295
 11
-47.7768738943
 21
79.4710101295
  0
LINE
  8
Layer0$C$L0
 62
     3
 10
-74.9768738943
 20
95.3936596747
 11
-74.9768738943
 21
105.8710101295
  0
LINE
  8
Layer0$C$L0
 62
     3
 10
-74.9768738943
 20
105.8710101295
 11
-63.7348391188
 21
105.8710101295
  0
LINE
  8
Layer0$C$L0
 62
     3
 10
-72.8768738943
 20
104.6710101295
 11
-72.8768738943
 21
105.8710101295
  0
LINE
  8
Layer0$C$L0
 62
     3
 10
-67.4793324153
 20
104.6710101295
 11
-74.9768738943
 21
104.6710101295
  0
LINE
  8
Layer0$C$L0
 62
     3
 10
-70.0205778808
 20
79.4710101295
 11
-70.0205778808
 21
78.2710101295
  0
LINE
  8
Layer0$C$L0
 62
     3
 10
-63.7348391188
 20
78.2710101295
 11
-74.9768738943
 21
78.2710101295
  0
LINE
  8
Layer0$C$L0
 62
     3
 10
-72.8768738943
 20
79.4710101295
 11
-72.8768738943
 21
78.2710101295
  0
LINE
  8
Layer0$C$L0
 62
     3
 10
-74.9768738943
 20
79.4710101295
 11
-67.4793324153
 21
79.4710101295
  0
LINE
  8
Layer0$C$L0
 62
     3
 10
-52.7331699078
 20
104.6710101295
 11
-52.7331699078
 21
105.8710101295
  0
LINE
  8
Layer0$C$L0
 62
     3
 10
-59.0189086698
 20
105.8710101295
 11
-47.7768738943
 21
105.8710101295
  0
LINE
  8
Layer0$C$L0
 62
     3
 10
-49.8768738943
 20
104.6710101295
 11
-49.8768738943
 21
105.8710101295
  0
LINE
  8
Layer0$C$L0
 62
     3
 10
-47.7768738943
 20
104.6710101295
 11
-55.2744153733
 21
104.6710101295
  0
LINE
  8
Layer0$C$L0
 62
     3
 10
-70.0205778808
 20
104.6710101295
 11
-70.0205778808
 21
105.8710101295
  0
LINE
  8
Layer0$C$L0
 62
     3
 10
-52.7331699078
 20
79.4710101295
 11
-52.7331699078
 21
78.2710101295
  0
LINE
  8
Layer0$C$L0
 62
     3
 10
-47.7768738943
 20
95.3936596747
 11
-47.7768738943
 21
105.8710101295
  0
LINE
  8
Layer0$C$L0
 62
     3
 10
-74.9768738943
 20
88.7483605844
 11
-74.9768738943
 21
78.2710101295
  0
CIRCLE
  8
Layer0$C$L0
 62
     3
 10
-61.3768738943
 20
92.0710101295
 40
10.7000000000
  0
ARC
  8
Layer0$C$L0
 62
     3
 10
-61.3768738943
 20
92.0710101295
 40
8.1000000000
 50
276.3793702084
 51
623.6206297916
  0
LINE
  8
Layer1$C$L1
 62
     3
 10
-62.2768738943
 20
83.3710101295
 11
-60.4768738943
 21
83.3710101295
  0
LINE
  8
Layer1$C$L1
 62
     3
 10
-62.2768738943
 20
99.3710057234
 11
-60.4768738943
 21
99.3710057234
  0
LINE
  8
Layer1$C$L1
 62
     3
 10
-60.4768738943
 20
83.3710101295
 11
-60.4768738943
 21
99.3710057234
  0
LINE
  8
Layer1$C$L1
 62
     3
 10
-62.2768738943
 20
83.3710101295
 11
-62.2768738943
 21
99.3710057234
  0
LINE
  8
Layer0$C$L0
 62
     3
 10
-107.5432895796
 20
164.8065141821
 11
-108.3268738943
 21
164.8065141821
  0
LINE
  8
Layer0$C$L0
 62
     3
 10
-108.3268738943
 20
136.8065141821
 11
-107.5432895796
 21
136.8065141821
  0
ARC
  8
Layer0$C$L0
 62
     3
 10
-107.5432895796
 20
164.3065141821
 40
0.5000000000
 50
25.3461759419
 51
90.0000000000
  0
ARC
  8
Layer0$C$L0
 62
     3
 10
-107.5432895796
 20
137.3065141821
 40
0.5000000000
 50
270.0000000000
 51
334.6538240581
  0
LINE
  8
Layer0$C$L0
 62
     3
 10
-107.0914206602
 20
137.0924710097
 11
-106.3268738943
 21
138.7065141821
  0
LINE
  8
Layer0$C$L0
 62
     3
 10
-106.3268738943
 20
162.9065141821
 11
-107.0914206602
 21
164.5205573545
  0
LINE
  8
Layer0$C$L0
 62
     3
 10
-108.4268738943
 20
163.3065141821
 11
-109.8268738943
 21
163.3065141821
  0
LINE
  8
Layer0$C$L0
 62
     3
 10
-109.8268738943
 20
138.3065141821
 11
-108.4268738943
 21
138.3065141821
  0
LINE
  8
Layer0$C$L0
 62
     3
 10
-124.6268738943
 20
161.8065141821
 11
-126.3268738943
 21
161.8065141821
  0
LINE
  8
Layer0$C$L0
 62
     3
 10
-126.3268738943
 20
139.8065141821
 11
-124.6268738943
 21
139.8065141821
  0
LINE
  8
Layer0$C$L0
 62
     3
 10
-126.8268738943
 20
140.6065141821
 11
-126.3268738943
 21
140.6065141821
  0
LINE
  8
Layer0$C$L0
 62
     3
 10
-126.3268738943
 20
161.0065141821
 11
-126.8268738943
 21
161.0065141821
  0
LINE
  8
Layer0$C$L0
 62
     3
 10
-127.0270997244
 20
140.7905479409
 11
-126.8268738943
 21
140.7905479409
  0
LINE
  8
Layer0$C$L0
 62
     3
 10
-126.8268738943
 20
160.8224804233
 11
-127.0270997244
 21
160.8224804233
  0
LINE
  8
Layer0$C$L0
 62
     3
 10
-106.3268738943
 20
142.8065141821
 11
-105.6268738943
 21
143.5065141821
  0
LINE
  8
Layer0$C$L0
 62
     3
 10
-105.6268738943
 20
158.1065141821
 11
-106.3268738943
 21
158.8065141821
  0
LINE
  8
Layer0$C$L0
 62
     3
 10
-105.6268738943
 20
145.8065141821
 11
-104.9268738943
 21
146.5065141821
  0
LINE
  8
Layer0$C$L0
 62
     3
 10
-104.9268738943
 20
155.1065141821
 11
-105.6268738943
 21
155.8065141821
  0
LINE
  8
Layer0$C$L0
 62
     3
 10
-108.3268738943
 20
163.9565141821
 11
-108.4268738943
 21
163.9565141821
  0
LINE
  8
Layer0$C$L0
 62
     3
 10
-108.4268738943
 20
137.6565141821
 11
-108.3268738943
 21
137.6565141821
  0
LINE
  8
Layer0$C$L0
 62
     3
 10
-108.3268738943
 20
164.8065141821
 11
-108.3268738943
 21
136.8065141821
  0
LINE
  8
Layer0$C$L0
 62
     3
 10
-106.3268738943
 20
162.9065141821
 11
-106.3268738943
 21
138.7065141821
  0
LINE
  8
Layer0$C$L0
 62
     3
 10
-110.0268738943
 20
140.5918473882
 11
-110.0268738943
 21
161.0211809760
  0
LINE
  8
Layer0$C$L0
 62
     3
 10
-109.8268738943
 20
140.3062177868
 11
-109.8268738943
 21
161.3068105774
  0
LINE
  8
Layer0$C$L0
 62
     3
 10
-126.3268738943
 20
139.8065141821
 11
-126.3268738943
 21
149.3596535635
  0
LINE
  8
Layer0$C$L0
 62
     3
 10
-124.6268738943
 20
141.4363097681
 11
-126.3268738943
 21
141.4363097681
  0
LINE
  8
Layer0$C$L0
 62
     3
 10
-126.3268738943
 20
145.0446334787
 11
-124.6268738943
 21
145.0446334787
  0
LINE
  8
Layer0$C$L0
 62
     3
 10
-124.6268738943
 20
148.6666572618
 11
-126.3268738943
 21
148.6666572618
  0
LINE
  8
Layer0$C$L0
 62
     3
 10
-124.6268738943
 20
152.9463711024
 11
-126.3268738943
 21
152.9463711024
  0
LINE
  8
Layer0$C$L0
 62
     3
 10
-126.3268738943
 20
152.2533748007
 11
-126.3268738943
 21
161.8065141821
  0
LINE
  8
Layer0$C$L0
 62
     3
 10
-124.6268738943
 20
152.0565141821
 11
-126.8268738943
 21
152.0565141821
  0
LINE
  8
Layer0$C$L0
 62
     3
 10
-126.8268738943
 20
153.7709755561
 11
-126.8268738943
 21
149.3596535635
  0
LINE
  8
Layer0$C$L0
 62
     3
 10
-126.8268738943
 20
152.2533748007
 11
-126.3268738943
 21
152.2533748007
  0
LINE
  8
Layer0$C$L0
 62
     3
 10
-126.3268738943
 20
149.3596535635
 11
-126.8268738943
 21
149.3596535635
  0
LINE
  8
Layer0$C$L0
 62
     3
 10
-124.6268738943
 20
149.5565141821
 11
-126.8268738943
 21
149.5565141821
  0
LINE
  8
Layer0$C$L0
 62
     3
 10
-126.8268738943
 20
140.6065141821
 11
-126.8268738943
 21
140.7961247215
  0
LINE
  8
Layer0$C$L0
 62
     3
 10
-126.8268738943
 20
148.2822717579
 11
-126.8268738943
 21
149.3596535635
  0
LINE
  8
Layer0$C$L0
 62
     3
 10
-126.8268738943
 20
160.7095697140
 11
-127.0270997244
 21
160.7095697140
  0
LINE
  8
Layer0$C$L0
 62
     3
 10
-126.8268738943
 20
160.7095697140
 11
-126.8268738943
 21
161.0065141821
  0
LINE
  8
Layer0$C$L0
 62
     3
 10
-126.8268738943
 20
153.7709755561
 11
-127.0270997244
 21
153.7709755561
  0
LINE
  8
Layer0$C$L0
 62
     3
 10
-127.0270997244
 20
154.6128440235
 11
-126.8268738943
 21
154.6128440235
  0
LINE
  8
Layer0$C$L0
 62
     3
 10
-126.8268738943
 20
154.6128440235
 11
-126.8268738943
 21
158.0190033502
  0
LINE
  8
Layer0$C$L0
 62
     3
 10
-127.0270997244
 20
158.0190033502
 11
-126.8268738943
 21
158.0190033502
  0
LINE
  8
Layer0$C$L0
 62
     3
 10
-127.0270997244
 20
148.6565141821
 11
-126.8268738943
 21
148.6565141821
  0
LINE
  8
Layer0$C$L0
 62
     3
 10
-126.8268738943
 20
152.9565141821
 11
-127.0270997244
 21
152.9565141821
  0
LINE
  8
Layer0$C$L0
 62
     3
 10
-127.0270997244
 20
157.8775819940
 11
-126.8268738943
 21
157.8775819940
  0
LINE
  8
Layer0$C$L0
 62
     3
 10
-105.6268738943
 20
158.1065141821
 11
-105.6268738943
 21
143.5065141821
  0
LINE
  8
Layer0$C$L0
 62
     3
 10
-104.9268738943
 20
146.5065141821
 11
-104.9268738943
 21
155.1065141821
  0
LINE
  8
Layer0$C$L0
 62
     3
 10
-124.1268738943
 20
160.3571684646
 11
-124.1268738943
 21
142.8785704578
  0
LINE
  8
Layer0$C$L0
 62
     3
 10
-124.6268738943
 20
149.3065141821
 11
-120.1268738943
 21
149.3065141821
  0
LINE
  8
Layer0$C$L0
 62
     3
 10
-120.6268738943
 20
141.2558598996
 11
-120.6268738943
 21
158.7344579064
  0
LINE
  8
Layer0$C$L0
 62
     3
 10
-124.1268738943
 20
142.8785704578
 11
-120.6268738943
 21
142.8785704578
  0
LINE
  8
Layer0$C$L0
 62
     3
 10
-120.1268738943
 20
143.2346776119
 11
-120.6268738943
 21
142.8785704578
  0
LINE
  8
Layer0$C$L0
 62
     3
 10
-124.6268738943
 20
143.2346776119
 11
-124.6268738943
 21
158.3783507523
  0
LINE
  8
Layer0$C$L0
 62
     3
 10
-124.6268738943
 20
158.3783507523
 11
-124.1268738943
 21
158.7344579064
  0
LINE
  8
Layer0$C$L0
 62
     3
 10
-120.6268738943
 20
152.3065141821
 11
-124.6268738943
 21
152.3065141821
  0
LINE
  8
Layer0$C$L0
 62
     3
 10
-124.1268738943
 20
142.8785704578
 11
-124.6268738943
 21
143.2346776119
  0
LINE
  8
Layer0$C$L0
 62
     3
 10
-124.1268738943
 20
158.7344579064
 11
-120.6268738943
 21
158.7344579064
  0
LINE
  8
Layer0$C$L0
 62
     3
 10
-120.6268738943
 20
158.7344579064
 11
-120.1268738943
 21
158.3783507523
  0
LINE
  8
Layer0$C$L0
 62
     3
 10
-120.1268738943
 20
152.3065141821
 11
-120.6268738943
 21
152.3065141821
  0
LINE
  8
Layer0$C$L0
 62
     3
 10
-120.6268738943
 20
141.2558598996
 11
-120.1268738943
 21
141.3983993084
  0
LINE
  8
Layer0$C$L0
 62
     3
 10
-124.1268738943
 20
141.2558598996
 11
-120.6268738943
 21
141.2558598996
  0
LINE
  8
Layer0$C$L0
 62
     3
 10
-124.1268738943
 20
142.8573866023
 11
-124.1268738943
 21
141.2558598996
  0
LINE
  8
Layer0$C$L0
 62
     3
 10
-124.6268738943
 20
141.3983993084
 11
-124.1268738943
 21
141.2558598996
  0
LINE
  8
Layer0$C$L0
 62
     3
 10
-124.6268738943
 20
143.2195943272
 11
-124.6268738943
 21
138.5983202125
  0
LINE
  8
Layer0$C$L0
 62
     3
 10
-120.6268738943
 20
160.3571684646
 11
-124.1268738943
 21
160.3571684646
  0
LINE
  8
Layer0$C$L0
 62
     3
 10
-120.6268738943
 20
160.3571684646
 11
-120.6268738943
 21
158.7439406568
  0
LINE
  8
Layer0$C$L0
 62
     3
 10
-124.1268738943
 20
160.3571684646
 11
-124.6268738943
 21
160.2146290558
  0
LINE
  8
Layer0$C$L0
 62
     3
 10
-124.6268738943
 20
163.0147081517
 11
-124.6268738943
 21
158.3868411774
  0
LINE
  8
Layer0$C$L0
 62
     3
 10
-120.1268738943
 20
160.2146290558
 11
-120.6268738943
 21
160.3571684646
  0
LINE
  8
Layer0$C$L0
 62
     3
 10
-120.6268738943
 20
138.0947086455
 11
-120.6268738943
 21
140.7572501143
  0
LINE
  8
Layer0$C$L0
 62
     3
 10
-124.1268738943
 20
138.0947086455
 11
-120.6268738943
 21
138.0947086455
  0
LINE
  8
Layer0$C$L0
 62
     3
 10
-124.1268738943
 20
140.7572501143
 11
-124.1268738943
 21
138.0947086455
  0
LINE
  8
Layer0$C$L0
 62
     3
 10
-124.1268738943
 20
140.7572501143
 11
-120.6268738943
 21
140.7572501143
  0
LINE
  8
Layer0$C$L0
 62
     3
 10
-120.6268738943
 20
140.7572501143
 11
-120.1268738943
 21
141.1133572684
  0
LINE
  8
Layer0$C$L0
 62
     3
 10
-124.6268738943
 20
141.1133572684
 11
-124.1268738943
 21
140.7572501143
  0
POLYLINE
  8
Layer0$C$L0
 62
     3
 66
     1
  0
VERTEX
  8
Layer0$C$L0
 62
     3
 10
-124.1268738943
 20
138.0947086455
  0
VERTEX
  8
Layer0$C$L0
 62
     3
 10
-124.3887850414
 20
138.3584752970
  0
VERTEX
  8
Layer0$C$L0
 62
     3
 10
-124.6268738943
 20
138.5983202125
  0
SEQEND
  8
Layer0$C$L0
 62
     3
  0
POLYLINE
  8
Layer0$C$L0
 62
     3
 66
     1
  0
VERTEX
  8
Layer0$C$L0
 62
     3
 10
-120.1268738943
 20
138.5983202125
  0
VERTEX
  8
Layer0$C$L0
 62
     3
 10
-120.4890741776
 20
138.2334749308
  0
VERTEX
  8
Layer0$C$L0
 62
     3
 10
-120.6268738943
 20
138.0947086455
  0
SEQEND
  8
Layer0$C$L0
 62
     3
  0
LINE
  8
Layer0$C$L0
 62
     3
 10
-120.1268738943
 20
160.4996710958
 11
-120.6268738943
 21
160.8557782499
  0
LINE
  8
Layer0$C$L0
 62
     3
 10
-120.6268738943
 20
160.8557782499
 11
-120.6268738943
 21
163.5183197187
  0
POLYLINE
  8
Layer0$C$L0
 62
     3
 66
     1
  0
VERTEX
  8
Layer0$C$L0
 62
     3
 10
-120.6268738943
 20
163.5183197187
  0
VERTEX
  8
Layer0$C$L0
 62
     3
 10
-120.2135006526
 20
163.1019817393
  0
VERTEX
  8
Layer0$C$L0
 62
     3
 10
-120.1268738943
 20
163.0147081517
  0
SEQEND
  8
Layer0$C$L0
 62
     3
  0
LINE
  8
Layer0$C$L0
 62
     3
 10
-124.1268738943
 20
163.5183197187
 11
-124.1268738943
 21
160.8557782499
  0
LINE
  8
Layer0$C$L0
 62
     3
 10
-124.1268738943
 20
160.8557782499
 11
-124.6268738943
 21
160.4996710958
  0
POLYLINE
  8
Layer0$C$L0
 62
     3
 66
     1
  0
VERTEX
  8
Layer0$C$L0
 62
     3
 10
-124.6268738943
 20
163.0147081517
  0
VERTEX
  8
Layer0$C$L0
 62
     3
 10
-124.5402471360
 20
163.1019817393
  0
VERTEX
  8
Layer0$C$L0
 62
     3
 10
-124.1268738943
 20
163.5183197187
  0
SEQEND
  8
Layer0$C$L0
 62
     3
  0
LINE
  8
Layer0$C$L0
 62
     3
 10
-124.1268738943
 20
160.8557782499
 11
-120.6268738943
 21
160.8557782499
  0
LINE
  8
Layer0$C$L0
 62
     3
 10
-124.1268738943
 20
163.5183197187
 11
-120.6268738943
 21
163.5183197187
  0
LINE
  8
Layer0$C$L0
 62
     3
 10
-108.4268738943
 20
163.9565141821
 11
-108.4268738943
 21
137.6565141821
  0
LINE
  8
Layer0$C$L0
 62
     3
 10
-110.5973097246
 20
137.2065141821
 11
-120.1268738943
 21
137.2065141821
  0
LINE
  8
Layer0$C$L0
 62
     3
 10
-120.1268738943
 20
137.2065141821
 11
-120.1268738943
 21
164.4065141821
  0
LINE
  8
Layer0$C$L0
 62
     3
 10
-120.1268738943
 20
164.4065141821
 11
-110.5973097246
 21
164.4065141821
  0
LINE
  8
Layer0$C$L0
 62
     3
 10
-109.1268738943
 20
162.3065141821
 11
-110.5973097246
 21
164.4065141821
  0
LINE
  8
Layer0$C$L0
 62
     3
 10
-111.1268738943
 20
159.4502181686
 11
-109.1268738943
 21
162.3065141821
  0
LINE
  8
Layer0$C$L0
 62
     3
 10
-111.1268738943
 20
159.4502181686
 11
-111.1268738943
 21
142.1628101956
  0
LINE
  8
Layer0$C$L0
 62
     3
 10
-109.1268738943
 20
139.3065141821
 11
-111.1268738943
 21
142.1628101956
  0
LINE
  8
Layer0$C$L0
 62
     3
 10
-110.5973097246
 20
137.2065141821
 11
-109.1268738943
 21
139.3065141821
  0
LINE
  8
Layer1$C$L1
 62
     3
 10
-81.9268738943
 20
149.9477205267
 11
-104.9268738943
 21
149.9477205267
  0
LINE
  8
Layer1$C$L1
 62
     3
 10
-81.9268738943
 20
151.7477205267
 11
-104.9268738943
 21
151.7477205267
  0
LINE
  8
Layer1$C$L1
 62
     3
 10
-104.9268738943
 20
151.7477205267
 11
-104.9268738943
 21
149.9477205267
  0
LINE
  8
Layer1$C$L1
 62
     3
 10
-103.4268738943
 20
151.7477205267
 11
-103.4268738943
 21
149.9477205267
  0
LINE
  8
Layer1$C$L1
 62
     3
 10
-101.9768289221
 20
151.4642184916
 11
-101.9768289221
 21
150.2241735153
  0
LINE
  8
Layer1$C$L1
 62
     3
 10
-101.2596902812
 20
151.4642184916
 11
-101.2596902812
 21
150.2241735153
  0
LINE
  8
Layer1$C$L1
 62
     3
 10
-83.0940575075
 20
151.4642184916
 11
-83.0940575075
 21
150.2241735153
  0
LINE
  8
Layer1$C$L1
 62
     3
 10
-81.9268738943
 20
151.7477205267
 11
-81.9268738943
 21
149.9477205267
  0
LINE
  8
Layer0$C$L0
 62
     3
 10
-107.5432895796
 20
78.0710101295
 11
-108.3268738943
 21
78.0710101295
  0
LINE
  8
Layer0$C$L0
 62
     3
 10
-108.3268738943
 20
106.0710101295
 11
-107.5432895796
 21
106.0710101295
  0
ARC
  8
Layer0$C$L0
 62
     3
 10
-107.5432895796
 20
78.5710101295
 40
0.5000000000
 50
270.0000000000
 51
334.6538240581
  0
ARC
  8
Layer0$C$L0
 62
     3
 10
-107.5432895796
 20
105.5710101295
 40
0.5000000000
 50
25.3461759419
 51
90.0000000000
  0
LINE
  8
Layer0$C$L0
 62
     3
 10
-107.0914206602
 20
105.7850533019
 11
-106.3268738943
 21
104.1710101295
  0
LINE
  8
Layer0$C$L0
 62
     3
 10
-106.3268738943
 20
79.9710101295
 11
-107.0914206602
 21
78.3569669571
  0
LINE
  8
Layer0$C$L0
 62
     3
 10
-108.4268738943
 20
79.5710101295
 11
-109.6268738943
 21
79.5710101295
  0
ARC
  8
Layer0$C$L0
 62
     3
 10
-115.2268738943
 20
103.8710101295
 40
0.5000000000
 50
90.0000000000
 51
180.0000000000
  0
ARC
  8
Layer0$C$L0
 62
     3
 10
-115.2268738943
 20
80.2710101295
 40
0.5000000000
 50
180.0000000000
 51
270.0000000000
  0
LINE
  8
Layer0$C$L0
 62
     3
 10
-115.2268738943
 20
104.3710101295
 11
-109.8268738943
 21
104.3710101295
  0
LINE
  8
Layer0$C$L0
 62
     3
 10
-109.8268738943
 20
79.7710101295
 11
-115.2268738943
 21
79.7710101295
  0
LINE
  8
Layer0$C$L0
 62
     3
 10
-115.7268738943
 20
81.0710101295
 11
-117.3268738943
 21
81.0710101295
  0
LINE
  8
Layer0$C$L0
 62
     3
 10
-117.3268738943
 20
103.0710101295
 11
-115.7268738943
 21
103.0710101295
  0
LINE
  8
Layer0$C$L0
 62
     3
 10
-126.8268738943
 20
82.0550438883
 11
-127.0268738943
 21
82.0550438883
  0
LINE
  8
Layer0$C$L0
 62
     3
 10
-127.0268738943
 20
101.9630641327
 11
-126.8268738943
 21
101.9630641327
  0
LINE
  8
Layer0$C$L0
 62
     3
 10
-106.3268738943
 20
100.0710101295
 11
-105.6268738943
 21
99.3710101295
  0
LINE
  8
Layer0$C$L0
 62
     3
 10
-105.6268738943
 20
84.7710101295
 11
-106.3268738943
 21
84.0710101295
  0
LINE
  8
Layer0$C$L0
 62
     3
 10
-105.6268738943
 20
97.0710101295
 11
-104.9268738943
 21
96.3710101295
  0
LINE
  8
Layer0$C$L0
 62
     3
 10
-108.3268738943
 20
78.9210101295
 11
-108.4268738943
 21
78.9210101295
  0
LINE
  8
Layer0$C$L0
 62
     3
 10
-108.4268738943
 20
105.2210101295
 11
-108.3268738943
 21
105.2210101295
  0
LINE
  8
Layer0$C$L0
 62
     3
 10
-108.3268738943
 20
78.0710101295
 11
-108.3268738943
 21
106.0710101295
  0
LINE
  8
Layer0$C$L0
 62
     3
 10
-106.3268738943
 20
79.9710101295
 11
-106.3268738943
 21
104.1710101295
  0
LINE
  8
Layer0$C$L0
 62
     3
 10
-115.7268738943
 20
103.8710101295
 11
-115.7268738943
 21
80.2710101295
  0
LINE
  8
Layer0$C$L0
 62
     3
 10
-117.3268738943
 20
81.2811532092
 11
-118.9268738943
 21
81.2811532092
  0
LINE
  8
Layer0$C$L0
 62
     3
 10
-124.6268738943
 20
81.2811532092
 11
-126.3268738943
 21
81.2811532092
  0
LINE
  8
Layer0$C$L0
 62
     3
 10
-117.3268738943
 20
102.8608670498
 11
-118.9268738943
 21
102.8608670498
  0
LINE
  8
Layer0$C$L0
 62
     3
 10
-124.6268738943
 20
102.8608670498
 11
-126.3268738943
 21
102.8608670498
  0
LINE
  8
Layer0$C$L0
 62
     3
 10
-117.3268738943
 20
86.3091294261
 11
-118.9268738943
 21
86.3091294261
  0
LINE
  8
Layer0$C$L0
 62
     3
 10
-124.6268738943
 20
86.3091294261
 11
-126.3268738943
 21
86.3091294261
  0
LINE
  8
Layer0$C$L0
 62
     3
 10
-117.3268738943
 20
103.0710101295
 11
-117.3268738943
 21
81.0710101295
  0
LINE
  8
Layer0$C$L0
 62
     3
 10
-126.3268738943
 20
82.7008057156
 11
-124.6268738943
 21
82.7008057156
  0
LINE
  8
Layer0$C$L0
 62
     3
 10
-118.9268738943
 20
82.7008057156
 11
-117.3268738943
 21
82.7008057156
  0
LINE
  8
Layer0$C$L0
 62
     3
 10
-126.8268738943
 20
94.5142643391
 11
-127.0268738943
 21
94.5142643391
  0
LINE
  8
Layer0$C$L0
 62
     3
 10
-126.8268738943
 20
94.5142643391
 11
-126.8268738943
 21
90.1134343719
  0
LINE
  8
Layer0$C$L0
 62
     3
 10
-126.8268738943
 20
82.0606206689
 11
-126.8268738943
 21
81.9741495110
  0
LINE
  8
Layer0$C$L0
 62
     3
 10
-126.3268738943
 20
81.9741495110
 11
-126.8268738943
 21
81.9741495110
  0
LINE
  8
Layer0$C$L0
 62
     3
 10
-126.8268738943
 20
102.1678707481
 11
-126.3268738943
 21
102.1678707481
  0
LINE
  8
Layer0$C$L0
 62
     3
 10
-126.8268738943
 20
102.1678707481
 11
-126.8268738943
 21
101.8307216397
  0
LINE
  8
Layer0$C$L0
 62
     3
 10
-126.8268738943
 20
101.8307216397
 11
-127.0268738943
 21
101.8307216397
  0
LINE
  8
Layer0$C$L0
 62
     3
 10
-127.0268738943
 20
101.5341942204
 11
-126.8268738943
 21
101.5341942204
  0
LINE
  8
Layer0$C$L0
 62
     3
 10
-126.8268738943
 20
101.5341942204
 11
-126.8268738943
 21
99.2834992976
  0
LINE
  8
Layer0$C$L0
 62
     3
 10
-127.0268738943
 20
99.2834992976
 11
-126.8268738943
 21
99.2834992976
  0
LINE
  8
Layer0$C$L0
 62
     3
 10
-126.8268738943
 20
90.4710101295
 11
-127.0268738943
 21
90.4710101295
  0
LINE
  8
Layer0$C$L0
 62
     3
 10
-126.8268738943
 20
93.6710101295
 11
-127.0268738943
 21
93.6710101295
  0
LINE
  8
Layer0$C$L0
 62
     3
 10
-126.3268738943
 20
81.2811532092
 11
-126.3268738943
 21
102.8608670498
  0
LINE
  8
Layer0$C$L0
 62
     3
 10
-127.0268738943
 20
101.3801779527
 11
-126.8268738943
 21
101.3801779527
  0
LINE
  8
Layer0$C$L0
 62
     3
 10
-105.6268738943
 20
84.7710101295
 11
-105.6268738943
 21
99.3710101295
  0
POLYLINE
  8
Layer0$C$L0
 62
     3
 66
     1
  0
VERTEX
  8
Layer0$C$L0
 62
     3
 10
-104.9268738943
 20
87.8949623568
  0
VERTEX
  8
Layer0$C$L0
 62
     3
 10
-105.4380965619
 20
87.3702401333
  0
VERTEX
  8
Layer0$C$L0
 62
     3
 10
-105.6268738943
 20
87.1772002640
  0
SEQEND
  8
Layer0$C$L0
 62
     3
  0
LINE
  8
Layer0$C$L0
 62
     3
 10
-104.9268738943
 20
96.3710101295
 11
-104.9268738943
 21
87.8949623568
  0
LINE
  8
Layer0$C$L0
 62
     3
 10
-120.6268738943
 20
84.1430664052
 11
-120.1268738943
 21
84.4991735593
  0
LINE
  8
Layer0$C$L0
 62
     3
 10
-124.1268738943
 20
84.1430664052
 11
-120.6268738943
 21
84.1430664052
  0
LINE
  8
Layer0$C$L0
 62
     3
 10
-120.1268738943
 20
90.5710101295
 11
-124.6268738943
 21
90.5710101295
  0
LINE
  8
Layer0$C$L0
 62
     3
 10
-124.6268738943
 20
84.4991735593
 11
-124.1268738943
 21
84.1430664052
  0
LINE
  8
Layer0$C$L0
 62
     3
 10
-124.1268738943
 20
99.9989538538
 11
-120.6268738943
 21
99.9989538538
  0
LINE
  8
Layer0$C$L0
 62
     3
 10
-124.1268738943
 20
99.9989538538
 11
-124.6268738943
 21
99.6428466997
  0
LINE
  8
Layer0$C$L0
 62
     3
 10
-120.1268738943
 20
99.6428466997
 11
-120.6268738943
 21
99.9989538538
  0
LINE
  8
Layer0$C$L0
 62
     3
 10
-124.6268738943
 20
93.5710101295
 11
-120.1268738943
 21
93.5710101295
  0
LINE
  8
Layer0$C$L0
 62
     3
 10
-124.6268738943
 20
84.4991735593
 11
-124.6268738943
 21
99.6428466997
  0
LINE
  8
Layer0$C$L0
 62
     3
 10
-124.1268738943
 20
82.5203558470
 11
-124.1268738943
 21
99.9989538538
  0
LINE
  8
Layer0$C$L0
 62
     3
 10
-120.6268738943
 20
82.5203558470
 11
-124.1268738943
 21
82.5203558470
  0
LINE
  8
Layer0$C$L0
 62
     3
 10
-120.6268738943
 20
82.5203558470
 11
-120.6268738943
 21
84.1335836548
  0
LINE
  8
Layer0$C$L0
 62
     3
 10
-120.1268738943
 20
82.6628952559
 11
-120.6268738943
 21
82.5203558470
  0
LINE
  8
Layer0$C$L0
 62
     3
 10
-124.1268738943
 20
82.5203558470
 11
-124.6268738943
 21
82.6628952559
  0
LINE
  8
Layer0$C$L0
 62
     3
 10
-120.6268738943
 20
101.6216644120
 11
-120.1268738943
 21
101.4791250032
  0
LINE
  8
Layer0$C$L0
 62
     3
 10
-120.6268738943
 20
84.1430664052
 11
-120.6268738943
 21
101.6216644120
  0
LINE
  8
Layer0$C$L0
 62
     3
 10
-124.1268738943
 20
101.6216644120
 11
-120.6268738943
 21
101.6216644120
  0
LINE
  8
Layer0$C$L0
 62
     3
 10
-124.1268738943
 20
100.0201377094
 11
-124.1268738943
 21
101.6216644120
  0
LINE
  8
Layer0$C$L0
 62
     3
 10
-124.6268738943
 20
101.4791250032
 11
-124.1268738943
 21
101.6216644120
  0
LINE
  8
Layer0$C$L0
 62
     3
 10
-124.1268738943
 20
79.3592045929
 11
-124.1268738943
 21
82.0217460617
  0
LINE
  8
Layer0$C$L0
 62
     3
 10
-124.1268738943
 20
82.0217460617
 11
-124.6268738943
 21
82.3778532158
  0
POLYLINE
  8
Layer0$C$L0
 62
     3
 66
     1
  0
VERTEX
  8
Layer0$C$L0
 62
     3
 10
-124.6268738943
 20
79.8628161599
  0
VERTEX
  8
Layer0$C$L0
 62
     3
 10
-124.3887850414
 20
79.6229712444
  0
VERTEX
  8
Layer0$C$L0
 62
     3
 10
-124.1268738943
 20
79.3592045929
  0
SEQEND
  8
Layer0$C$L0
 62
     3
  0
LINE
  8
Layer0$C$L0
 62
     3
 10
-120.6268738943
 20
82.0217460617
 11
-120.6268738943
 21
79.3592045929
  0
LINE
  8
Layer0$C$L0
 62
     3
 10
-124.1268738943
 20
82.0217460617
 11
-120.6268738943
 21
82.0217460617
  0
LINE
  8
Layer0$C$L0
 62
     3
 10
-124.1268738943
 20
79.3592045929
 11
-120.6268738943
 21
79.3592045929
  0
LINE
  8
Layer0$C$L0
 62
     3
 10
-120.1268738943
 20
82.3778532158
 11
-120.6268738943
 21
82.0217460617
  0
POLYLINE
  8
Layer0$C$L0
 62
     3
 66
     1
  0
VERTEX
  8
Layer0$C$L0
 62
     3
 10
-120.6268738943
 20
79.3592045929
  0
VERTEX
  8
Layer0$C$L0
 62
     3
 10
-120.4890741776
 20
79.4979708782
  0
VERTEX
  8
Layer0$C$L0
 62
     3
 10
-120.1268738943
 20
79.8628161599
  0
SEQEND
  8
Layer0$C$L0
 62
     3
  0
LINE
  8
Layer0$C$L0
 62
     3
 10
-120.6268738943
 20
102.1202741973
 11
-120.1268738943
 21
101.7641670433
  0
LINE
  8
Layer0$C$L0
 62
     3
 10
-124.1268738943
 20
102.1202741973
 11
-120.6268738943
 21
102.1202741973
  0
LINE
  8
Layer0$C$L0
 62
     3
 10
-124.6268738943
 20
101.7641670433
 11
-124.1268738943
 21
102.1202741973
  0
POLYLINE
  8
Layer0$C$L0
 62
     3
 66
     1
  0
VERTEX
  8
Layer0$C$L0
 62
     3
 10
-120.1268738943
 20
104.2792040991
  0
VERTEX
  8
Layer0$C$L0
 62
     3
 10
-120.2135006526
 20
104.3664776867
  0
VERTEX
  8
Layer0$C$L0
 62
     3
 10
-120.6268738943
 20
104.7828156661
  0
SEQEND
  8
Layer0$C$L0
 62
     3
  0
LINE
  8
Layer0$C$L0
 62
     3
 10
-120.6268738943
 20
104.7828156661
 11
-120.6268738943
 21
102.1202741973
  0
LINE
  8
Layer0$C$L0
 62
     3
 10
-124.1268738943
 20
102.1202741973
 11
-124.1268738943
 21
104.7828156661
  0
POLYLINE
  8
Layer0$C$L0
 62
     3
 66
     1
  0
VERTEX
  8
Layer0$C$L0
 62
     3
 10
-124.1268738943
 20
104.7828156661
  0
VERTEX
  8
Layer0$C$L0
 62
     3
 10
-124.5402471360
 20
104.3664776867
  0
VERTEX
  8
Layer0$C$L0
 62
     3
 10
-124.6268738943
 20
104.2792040991
  0
SEQEND
  8
Layer0$C$L0
 62
     3
  0
LINE
  8
Layer0$C$L0
 62
     3
 10
-124.6268738943
 20
104.2792040991
 11
-124.6268738943
 21
99.6579299845
  0
LINE
  8
Layer0$C$L0
 62
     3
 10
-124.1268738943
 20
104.7828156661
 11
-120.6268738943
 21
104.7828156661
  0
LINE
  8
Layer0$C$L0
 62
     3
 10
-124.6268738943
 20
84.4906831342
 11
-124.6268738943
 21
79.8628161599
  0
LINE
  8
Layer0$C$L0
 62
     3
 10
-108.4268738943
 20
78.9210101295
 11
-108.4268738943
 21
105.2210101295
  0
ARC
  8
Layer0$C$L0
 62
     3
 10
-118.9268738943
 20
79.4710101295
 40
1.2000000000
 50
180.0000000000
 51
270.0000000000
  0
LINE
  8
Layer0$C$L0
 62
     3
 10
-110.5973097246
 20
79.4710101295
 11
-110.5973097246
 21
78.2710101295
  0
LINE
  8
Layer0$C$L0
 62
     3
 10
-118.9268738943
 20
79.4710101295
 11
-118.9268738943
 21
104.6710101295
  0
LINE
  8
Layer0$C$L0
 62
     3
 10
-110.5973097246
 20
104.6710101295
 11
-110.5973097246
 21
105.8710101295
  0
ARC
  8
Layer0$C$L0
 62
     3
 10
-118.9268738943
 20
104.6710101295
 40
1.2000000000
 50
90.0000000000
 51
180.0000000000
  0
LINE
  8
Layer0$C$L0
 62
     3
 10
-120.1268738943
 20
79.4710101295
 11
-120.1268738943
 21
104.6710101295
  0
LINE
  8
Layer0$C$L0
 62
     3
 10
-109.1268738943
 20
79.4710101295
 11
-109.1268738943
 21
78.2710101295
  0
LINE
  8
Layer0$C$L0
 62
     3
 10
-118.9268738943
 20
78.2710101295
 11
-109.1268738943
 21
78.2710101295
  0
LINE
  8
Layer0$C$L0
 62
     3
 10
-109.1268738943
 20
79.4710101295
 11
-118.9268738943
 21
79.4710101295
  0
LINE
  8
Layer0$C$L0
 62
     3
 10
-109.1268738943
 20
104.6710101295
 11
-109.1268738943
 21
105.8710101295
  0
LINE
  8
Layer0$C$L0
 62
     3
 10
-109.1268738943
 20
105.8710101295
 11
-118.9268738943
 21
105.8710101295
  0
LINE
  8
Layer0$C$L0
 62
     3
 10
-118.9268738943
 20
104.6710101295
 11
-109.1268738943
 21
104.6710101295
  0
LINE
  8
Layer1$C$L1
 62
     3
 10
-83.5859341434
 20
97.3001641090
 11
-84.6567757578
 21
98.3710057234
  0
LINE
  8
Layer1$C$L1
 62
     3
 10
-99.2104605174
 20
98.3710057234
 11
-100.8993532443
 21
96.6821129964
  0
LINE
  8
Layer1$C$L1
 62
     3
 10
-97.7962469550
 20
98.3710057234
 11
-101.1841704558
 21
94.9830822225
  0
LINE
  8
Layer1$C$L1
 62
     3
 10
-98.9410186311
 20
84.3710101295
 11
-100.9642376012
 21
86.3942290996
  0
LINE
  8
Layer1$C$L1
 62
     3
 10
-83.0007924066
 20
93.3675388467
 11
-83.7391018417
 21
92.6292294115
  0
LINE
  8
Layer1$C$L1
 62
     3
 10
-83.1273560500
 20
94.6551886931
 11
-85.1115368166
 21
92.6710079264
  0
LINE
  8
Layer1$C$L1
 62
     3
 10
-83.5107063032
 20
85.7865572109
 11
-84.9262533845
 21
84.3710101295
  0
LINE
  8
Layer1$C$L1
 62
     3
 10
-86.0264941105
 20
87.0128129980
 11
-90.7265020590
 21
91.7128209465
  0
LINE
  8
Layer1$C$L1
 62
     3
 10
-86.0264941105
 20
88.4270265362
 11
-90.7265020590
 21
93.1270344847
  0
LINE
  8
Layer1$C$L1
 62
     3
 10
-85.3404669469
 20
85.3710101295
 11
-86.3404669469
 21
84.3710101295
  0
LINE
  8
Layer1$C$L1
 62
     3
 10
-86.0264941105
 20
86.0991965040
 11
-87.7546804851
 21
84.3710101295
  0
LINE
  8
Layer1$C$L1
 62
     3
 10
-86.0264941105
 20
87.5134100422
 11
-89.1688940233
 21
84.3710101295
  0
LINE
  8
Layer1$C$L1
 62
     3
 10
-96.1125915064
 20
84.3710101295
 11
-101.3192907689
 21
89.5777093921
  0
LINE
  8
Layer1$C$L1
 62
     3
 10
-94.6983779682
 20
84.3710101295
 11
-101.4243710664
 21
91.0970032277
  0
LINE
  8
Layer1$C$L1
 62
     3
 10
-93.2841860092
 20
84.3710101295
 11
-95.2841838061
 21
86.3710079264
  0
LINE
  8
Layer1$C$L1
 62
     3
 10
-91.8699724710
 20
84.3710101295
 11
-93.8699633356
 21
86.3710009941
  0
LINE
  8
Layer1$C$L1
 62
     3
 10
-90.4557589329
 20
84.3710101295
 11
-92.4557497974
 21
86.3710009941
  0
LINE
  8
Layer1$C$L1
 62
     3
 10
-89.0415453947
 20
84.3710101295
 11
-91.0415416541
 21
86.3710063889
  0
LINE
  8
Layer1$C$L1
 62
     3
 10
-87.6273318565
 20
84.3710101295
 11
-90.7265017219
 21
87.4701799948
  0
LINE
  8
Layer1$C$L1
 62
     3
 10
-83.4891213958
 20
85.8896538214
 11
-83.9137996870
 21
86.3143321127
  0
LINE
  8
Layer1$C$L1
 62
     3
 10
-83.2693692984
 20
87.0841152622
 11
-83.7078082374
 21
87.5225542012
  0
LINE
  8
Layer1$C$L1
 62
     3
 10
-83.0989156608
 20
88.3278751627
 11
-83.5535938048
 21
88.7825533068
  0
LINE
  8
Layer1$C$L1
 62
     3
 10
-82.9832926131
 20
89.6264656533
 11
-83.4573468825
 21
90.1005199226
  0
LINE
  8
Layer1$C$L1
 62
     3
 10
-82.9296049326
 20
90.9869915109
 11
-83.4273196705
 21
91.4847062488
  0
LINE
  8
Layer1$C$L1
 62
     3
 10
-83.2048500080
 20
87.5066270684
 11
-83.8057926346
 21
86.9056844418
  0
LINE
  8
Layer1$C$L1
 62
     3
 10
-82.9378252227
 20
90.6020789300
 11
-83.4582596114
 21
90.0816445414
  0
LINE
  8
Layer1$C$L1
 62
     3
 10
-82.9346617730
 20
92.0194559179
 11
-83.4277066810
 21
91.5264110099
  0
LINE
  8
Layer1$C$L1
 62
     3
 10
-86.4825521124
 20
98.3710057234
 11
-90.7265067795
 21
94.1270510563
  0
LINE
  8
Layer1$C$L1
 62
     3
 10
-87.8967643019
 20
98.3710057234
 11
-90.7265061051
 21
95.5412639201
  0
LINE
  8
Layer1$C$L1
 62
     3
 10
-89.3109778401
 20
98.3710057234
 11
-91.3109837546
 21
96.3709998088
  0
LINE
  8
Layer1$C$L1
 62
     3
 10
-90.7251913782
 20
98.3710057234
 11
-92.7251972928
 21
96.3709998088
  0
LINE
  8
Layer1$C$L1
 62
     3
 10
-92.1394042421
 20
98.3710057234
 11
-94.1394104938
 21
96.3709994717
  0
LINE
  8
Layer1$C$L1
 62
     3
 10
-93.5536177802
 20
98.3710057234
 11
-101.4131877529
 21
90.5114357506
  0
LINE
  8
Layer1$C$L1
 62
     3
 10
-94.9678198544
 20
98.3710057234
 11
-101.4213430597
 21
91.9174825181
  0
LINE
  8
Layer1$C$L1
 62
     3
 10
-96.3820333926
 20
98.3710057234
 11
-101.3503240061
 21
93.4027151099
  0
LINE
  8
Layer1$C$L1
 62
     3
 10
-83.0222631593
 20
89.1034274553
 11
-83.5776658180
 21
88.5480247965
  0
LINE
  8
Layer1$C$L1
 62
     3
 10
-84.7989047802
 20
84.3710101295
 11
-90.7265017219
 21
90.2986070712
  0
LINE
  8
Layer1$C$L1
 62
     3
 10
-86.2131183184
 20
84.3710101295
 11
-90.7265017219
 21
88.8843935330
  0
LINE
  8
Layer1$C$L1
 62
     3
 10
-83.8101655456
 20
84.7964844331
 11
-84.3985126586
 21
85.3848315460
  0
LINE
  8
Layer1$C$L1
 62
     3
 10
-95.7264941105
 20
91.9554894529
 11
-101.0141004671
 21
86.6678830963
  0
LINE
  8
Layer1$C$L1
 62
     3
 10
-95.7264941105
 20
90.5412759147
 11
-100.7784528570
 21
85.4893171682
  0
LINE
  8
Layer1$C$L1
 62
     3
 10
-95.7264941105
 20
89.1270637252
 11
-100.3004511718
 21
84.5531066639
  0
LINE
  8
Layer1$C$L1
 62
     3
 10
-95.7264941105
 20
87.7128933454
 11
-99.0683773265
 21
84.3710101295
  0
LINE
  8
Layer1$C$L1
 62
     3
 10
-95.7264941105
 20
86.2986845277
 11
-97.6541685088
 21
84.3710101295
  0
LINE
  8
Layer1$C$L1
 62
     3
 10
-94.2399708495
 20
86.3710009941
 11
-96.2399617141
 21
84.3710101295
  0
LINE
  8
Layer1$C$L1
 62
     3
 10
-92.8257573114
 20
86.3710009941
 11
-94.8257481759
 21
84.3710101295
  0
LINE
  8
Layer1$C$L1
 62
     3
 10
-91.4115437732
 20
86.3710009941
 11
-93.4115346378
 21
84.3710101295
  0
LINE
  8
Layer1$C$L1
 62
     3
 10
-95.7264941105
 20
89.6417453072
 11
-101.1701576462
 21
95.0854088428
  0
LINE
  8
Layer1$C$L1
 62
     3
 10
-95.7264941105
 20
91.0559588453
 11
-100.9727446183
 21
96.3022093530
  0
LINE
  8
Layer1$C$L1
 62
     3
 10
-95.7264941105
 20
92.4701723835
 11
-100.7285028485
 21
97.4721811215
  0
LINE
  8
Layer1$C$L1
 62
     3
 10
-95.7264941105
 20
93.8843859217
 11
-100.1282471743
 21
98.2861389854
  0
LINE
  8
Layer1$C$L1
 62
     3
 10
-95.7264941105
 20
95.2985994598
 11
-98.7989003741
 21
98.3710057234
  0
LINE
  8
Layer1$C$L1
 62
     3
 10
-95.3846890390
 20
96.3710079264
 11
-97.3846868359
 21
98.3710057234
  0
LINE
  8
Layer1$C$L1
 62
     3
 10
-93.9704677204
 20
96.3710001460
 11
-95.9704732977
 21
98.3710057234
  0
LINE
  8
Layer1$C$L1
 62
     3
 10
-92.5562545194
 20
96.3710004832
 11
-94.5562597596
 21
98.3710057234
  0
LINE
  8
Layer1$C$L1
 62
     3
 10
-91.1420409812
 20
96.3710004832
 11
-93.1420462214
 21
98.3710057234
  0
LINE
  8
Layer1$C$L1
 62
     3
 10
-95.7264941105
 20
93.3697029911
 11
-101.2020728632
 21
87.8941242384
  0
LINE
  8
Layer1$C$L1
 62
     3
 10
-95.7264941105
 20
94.7839158549
 11
-101.3372692762
 21
89.1731406892
  0
LINE
  8
Layer1$C$L1
 62
     3
 10
-95.7264941105
 20
88.2275317690
 11
-101.3158608459
 21
93.8168985044
  0
LINE
  8
Layer1$C$L1
 62
     3
 10
-95.7264941105
 20
86.8133182308
 11
-101.3863283436
 21
92.4731524639
  0
LINE
  8
Layer1$C$L1
 62
     3
 10
-90.7264941105
 20
86.3710079264
 11
-95.7264941105
 21
86.3710079264
  0
LINE
  8
Layer1$C$L1
 62
     3
 10
-83.2526608476
 20
95.5526772509
 11
-86.0709893201
 21
98.3710057234
  0
LINE
  8
Layer1$C$L1
 62
     3
 10
-83.5362092138
 20
97.0747626298
 11
-90.7265071167
 21
89.8844647269
  0
LINE
  8
Layer1$C$L1
 62
     3
 10
-83.9344208678
 20
98.0907577705
 11
-90.7265037449
 21
91.2986748934
  0
LINE
  8
Layer1$C$L1
 62
     3
 10
-83.0488602647
 20
93.9346739193
 11
-87.4851920687
 21
98.3710057234
  0
LINE
  8
Layer1$C$L1
 62
     3
 10
-85.0683817326
 20
98.3710057234
 11
-90.7265067795
 21
92.7128806765
  0
LINE
  8
Layer1$C$L1
 62
     3
 10
-85.8807172534
 20
92.5238902936
 11
-91.7278326832
 21
98.3710057234
  0
LINE
  8
Layer1$C$L1
 62
     3
 10
-86.0264941105
 20
91.2554536125
 11
-90.7265020590
 21
95.9554615610
  0
LINE
  8
Layer1$C$L1
 62
     3
 10
-86.0264941105
 20
91.7560506567
 11
-90.7265071167
 21
87.0560376506
  0
LINE
  8
Layer1$C$L1
 62
     3
 10
-83.3075907749
 20
95.8891675305
 11
-90.7265071167
 21
88.4702511888
  0
LINE
  8
Layer1$C$L1
 62
     3
 10
-84.6136213481
 20
92.6710079264
 11
-90.3136191450
 21
98.3710057234
  0
LINE
  8
Layer1$C$L1
 62
     3
 10
-82.9472129555
 20
92.4188130720
 11
-88.8994056069
 21
98.3710057234
  0
LINE
  8
Layer1$C$L1
 62
     3
 10
-86.0264941105
 20
88.9276235804
 11
-90.5831075614
 21
84.3710101295
  0
LINE
  8
Layer1$C$L1
 62
     3
 10
-86.0264941105
 20
90.3418371185
 11
-91.9973210996
 21
84.3710101295
  0
LINE
  8
Layer1$C$L1
 62
     3
 10
-86.0264941105
 20
89.8412400743
 11
-90.7265020590
 21
94.5412480228
  0
LINE
  8
Layer1$C$L1
 62
     3
 10
-97.5268050687
 20
84.3710101295
 11
-101.0083971846
 21
87.8526022453
  0
LINE
  8
Layer1$C$L1
 62
     3
 10
-90.7264941105
 20
96.3710079264
 11
-95.7264941105
 21
96.3710079264
  0
LINE
  8
Layer1$C$L1
 62
     3
 10
-90.7264941105
 20
86.3710079264
 11
-90.7264941105
 21
96.3710079264
  0
LINE
  8
Layer1$C$L1
 62
     3
 10
-95.7264941105
 20
86.3710079264
 11
-95.7264941105
 21
96.3710079264
  0
ARC
  8
Layer1$C$L1
 62
     3
 10
-83.9391845011
 20
92.1710079264
 40
0.5000000000
 50
1.7632253576
 51
90.0000000000
  0
ARC
  8
Layer1$C$L1
 62
     3
 10
-84.5152618984
 20
85.8710101295
 40
0.5000000000
 50
270.0000000000
 51
347.7874796984
  0
ARC
  8
Layer1$C$L1
 62
     3
 10
-109.9268738943
 20
91.3710079264
 40
26.5000000000
 50
347.7874796984
 51
361.7632253576
  0
ARC
  8
Layer1$C$L1
 62
     3
 10
-84.6286520905
 20
85.3710101295
 40
1.0000000000
 50
270.0000000000
 51
346.6576411924
  0
LINE
  8
Layer1$C$L1
 62
     3
 10
-84.6286520905
 20
84.3710101295
 11
-99.7250956982
 21
84.3710101295
  0
ARC
  8
Layer1$C$L1
 62
     3
 10
-99.7250956982
 20
85.3710101295
 40
1.0000000000
 50
193.3423588076
 51
270.0000000000
  0
ARC
  8
Layer1$C$L1
 62
     3
 10
-74.4268738943
 20
91.3710079264
 40
27.0000000000
 50
166.6576411924
 51
193.3423588076
  0
ARC
  8
Layer1$C$L1
 62
     3
 10
-99.7250956982
 20
97.3710057234
 40
1.0000000000
 50
90.0000000000
 51
166.6576411924
  0
LINE
  8
Layer1$C$L1
 62
     3
 10
-84.6286520905
 20
98.3710057234
 11
-99.7250956982
 21
98.3710057234
  0
ARC
  8
Layer1$C$L1
 62
     3
 10
-84.6286520905
 20
97.3710057234
 40
1.0000000000
 50
13.3423588076
 51
90.0000000000
  0
ARC
  8
Layer1$C$L1
 62
     3
 10
-109.9268738943
 20
91.3710079264
 40
27.0000000000
 50
346.6576411924
 51
373.3423588076
  0
ARC
  8
Layer1$C$L1
 62
     3
 10
-85.5264941105
 20
92.1710079264
 40
0.5000000000
 50
90.0000000000
 51
180.0000000000
  0
ARC
  8
Layer1$C$L1
 62
     3
 10
-85.5264941105
 20
85.8710101295
 40
0.5000000000
 50
180.0000000000
 51
270.0000000000
  0
ARC
  8
Layer1$C$L1
 62
     3
 10
-102.2261540406
 20
96.6710101295
 40
0.3000000000
 50
270.0000000000
 51
349.2059544395
  0
ARC
  8
Layer1$C$L1
 62
     3
 10
-102.2261548806
 20
86.0710101295
 40
0.3000000000
 50
10.7940364793
 51
90.0000000000
  0
ARC
  8
Layer1$C$L1
 62
     3
 10
-74.4268738943
 20
91.3710079264
 40
28.0000000000
 50
166.6576411924
 51
169.2059544395
  0
ARC
  8
Layer1$C$L1
 62
     3
 10
-99.7250956982
 20
85.3710101295
 40
2.0000000000
 50
193.3423588076
 51
270.0000000000
  0
ARC
  8
Layer1$C$L1
 62
     3
 10
-99.7250956982
 20
97.3710057234
 40
2.0000000000
 50
90.0000000000
 51
166.6576411924
  0
ARC
  8
Layer1$C$L1
 62
     3
 10
-74.4268738943
 20
91.3710079264
 40
28.0000000000
 50
190.7940364793
 51
193.3423588076
  0
ARC
  8
Layer1$C$L1
 62
     3
 10
-84.6286520905
 20
97.3710057234
 40
2.0000000000
 50
13.3423588076
 51
90.0000000000
  0
ARC
  8
Layer1$C$L1
 62
     3
 10
-84.6286520905
 20
85.3710101295
 40
2.0000000000
 50
270.0000000000
 51
346.6576411924
  0
ARC
  8
Layer1$C$L1
 62
     3
 10
-109.9268738943
 20
91.3710079264
 40
28.0000000000
 50
346.6576411924
 51
373.3423588076
  0
LINE
  8
Layer1$C$L1
 62
     3
 10
-84.6286520905
 20
99.3710057234
 11
-99.7250956982
 21
99.3710057234
  0
LINE
  8
Layer1$C$L1
 62
     3
 10
-84.6286520905
 20
83.3710101295
 11
-99.7250956982
 21
83.3710101295
  0
LINE
  8
Layer1$C$L1
 62
     3
 10
-104.9268738943
 20
94.6710101295
 11
-103.2268738943
 21
94.6710101295
  0
LINE
  8
Layer1$C$L1
 62
     3
 10
-84.5152618984
 20
85.3710101295
 11
-85.5264941105
 21
85.3710101295
  0
LINE
  8
Layer1$C$L1
 62
     3
 10
-103.0268738943
 20
95.2093637270
 11
-103.0268738943
 21
94.8710101295
  0
LINE
  8
Layer1$C$L1
 62
     3
 10
-103.3636621201
 20
95.6117490912
 11
-103.0900856686
 21
95.3552711678
  0
LINE
  8
Layer1$C$L1
 62
     3
 10
-103.4268738943
 20
95.7576565320
 11
-103.4268738943
 21
96.3710101295
  0
ARC
  8
Layer1$C$L1
 62
     3
 10
-103.2268738943
 20
94.8710101295
 40
0.2000000000
 50
270.0000000000
 51
360.0000000000
  0
ARC
  8
Layer1$C$L1
 62
     3
 10
-103.2268738943
 20
95.2093637270
 40
0.2000000000
 50
0.0000000000
 51
46.8476102660
  0
ARC
  8
Layer1$C$L1
 62
     3
 10
-103.2268738943
 20
95.7576565320
 40
0.2000000000
 50
180.0000000000
 51
226.8476102660
  0
LINE
  8
Layer1$C$L1
 62
     3
 10
-103.4268738943
 20
96.3710101295
 11
-102.2261540406
 21
96.3710101295
  0
LINE
  8
Layer1$C$L1
 62
     3
 10
-103.4268738943
 20
86.3710101295
 11
-102.2261548806
 21
86.3710101295
  0
ARC
  8
Layer1$C$L1
 62
     3
 10
-103.2268738943
 20
86.9843637270
 40
0.2000000000
 50
133.1523897340
 51
180.0000000000
  0
ARC
  8
Layer1$C$L1
 62
     3
 10
-103.2268738943
 20
87.5326565320
 40
0.2000000000
 50
313.1523897340
 51
360.0000000000
  0
ARC
  8
Layer1$C$L1
 62
     3
 10
-103.2268738943
 20
87.8710101295
 40
0.2000000000
 50
8.1422199845E-12
 51
90.0000000000
  0
LINE
  8
Layer1$C$L1
 62
     3
 10
-103.4268738943
 20
86.9843637270
 11
-103.4268738943
 21
86.3710101295
  0
LINE
  8
Layer1$C$L1
 62
     3
 10
-103.3636621201
 20
87.1302711678
 11
-103.0900856686
 21
87.3867490912
  0
LINE
  8
Layer1$C$L1
 62
     3
 10
-103.0268738943
 20
87.5326565320
 11
-103.0268738943
 21
87.8710101295
  0
LINE
  8
Layer1$C$L1
 62
     3
 10
-104.9268738943
 20
88.0710101295
 11
-103.2268738943
 21
88.0710101295
  0
LINE
  8
Layer1$C$L1
 62
     3
 10
-85.5264941105
 20
92.6710079264
 11
-83.9391845011
 21
92.6710079264
  0
LINE
  8
Layer1$C$L1
 62
     3
 10
-86.0264941105
 20
85.8710101295
 11
-86.0264941105
 21
92.1710079264
  0
LINE
  8
Layer1$C$L1
 62
     3
 10
-108.4268738943
 20
90.8898352799
 11
-115.7268738943
 21
90.8898352799
  0
LINE
  8
Layer1$C$L1
 62
     3
 10
-108.4268738943
 20
93.3898352799
 11
-115.7268738943
 21
93.3898352799
  0
LINE
  8
Layer1$C$L1
 62
     3
 10
-109.8268738943
 20
93.8678472172
 11
-115.2268738943
 21
93.8678472172
  0
LINE
  8
Layer1$C$L1
 62
     3
 10
-109.8268738943
 20
90.4118233426
 11
-115.2268738943
 21
90.4118233426
  0
LINE
  8
Layer1$C$L1
 62
     3
 10
-109.6268738943
 20
94.0439568948
 11
-109.8268738943
 21
93.8678472172
  0
LINE
  8
Layer1$C$L1
 62
     3
 10
-109.6268738943
 20
90.2357136650
 11
-109.8268738943
 21
90.4118233426
  0
LINE
  8
Layer1$C$L1
 62
     3
 10
-108.4268738943
 20
90.2357136650
 11
-109.6268738943
 21
90.2357136650
  0
LINE
  8
Layer1$C$L1
 62
     3
 10
-108.4268738943
 20
94.0439568948
 11
-109.6268738943
 21
94.0439568948
  0
POLYLINE
  8
Layer1$C$L1
 62
     3
 66
     1
  0
VERTEX
  8
Layer1$C$L1
 62
     3
 10
-115.2268738943
 20
90.4118233426
  0
VERTEX
  8
Layer1$C$L1
 62
     3
 10
-115.3677191334
 20
90.4297406342
  0
VERTEX
  8
Layer1$C$L1
 62
     3
 10
-115.4921928843
 20
90.4793425978
  0
VERTEX
  8
Layer1$C$L1
 62
     3
 10
-115.5974233359
 20
90.5577097980
  0
VERTEX
  8
Layer1$C$L1
 62
     3
 10
-115.6815198398
 20
90.6718268954
  0
VERTEX
  8
Layer1$C$L1
 62
     3
 10
-115.7253866275
 20
90.8245870306
  0
VERTEX
  8
Layer1$C$L1
 62
     3
 10
-115.7268738943
 20
90.8595009303
  0
SEQEND
  8
Layer1$C$L1
 62
     3
  0
POLYLINE
  8
Layer1$C$L1
 62
     3
 66
     1
  0
VERTEX
  8
Layer1$C$L1
 62
     3
 10
-115.7268738943
 20
93.4201696295
  0
VERTEX
  8
Layer1$C$L1
 62
     3
 10
-115.6994541959
 20
93.5676304762
  0
VERTEX
  8
Layer1$C$L1
 62
     3
 10
-115.6074401617
 20
93.7117962407
  0
VERTEX
  8
Layer1$C$L1
 62
     3
 10
-115.4856853700
 20
93.8038827788
  0
VERTEX
  8
Layer1$C$L1
 62
     3
 10
-115.3535713108
 20
93.8534079163
  0
VERTEX
  8
Layer1$C$L1
 62
     3
 10
-115.2268738943
 20
93.8678472172
  0
SEQEND
  8
Layer1$C$L1
 62
     3
  0
LINE
  8
Layer1$C$L1
 62
     3
 10
-109.6268738943
 20
104.5710101295
 11
-109.8268738943
 21
104.3710101295
  0
LINE
  8
Layer1$C$L1
 62
     3
 10
-109.6268738943
 20
79.5710101295
 11
-109.8268738943
 21
79.7710101295
  0
LINE
  8
Layer1$C$L1
 62
     3
 10
-108.4268738943
 20
104.5710101295
 11
-109.6268738943
 21
104.5710101295
  0
LINE
  8
Layer1$C$L1
 62
     3
 10
-109.6268738943
 20
79.5710101295
 11
-109.6268738943
 21
90.2357136650
  0
LINE
  8
Layer1$C$L1
 62
     3
 10
-109.8268738943
 20
79.7710101295
 11
-109.8268738943
 21
90.4118233426
  0
LINE
  8
Layer1$C$L1
 62
     3
 10
-109.6268738943
 20
94.0439568948
 11
-109.6268738943
 21
104.5710101295
  0
LINE
  8
Layer1$C$L1
 62
     3
 10
-109.8268738943
 20
93.8678472172
 11
-109.8268738943
 21
104.3710101295
  0
TEXT
  8
Layer8$C$L8
 62
     3
 10
-94.4764941105
 20
94.8766364365
 40
2.5000000000
  1
俆侽侽
 41
0.5709479975
 50
270.0000000000
 72
     5
 11
-94.4764941105
 21
87.7397864682
  0
LINE
  8
Layer0$C$L0
 62
     3
 10
-186.2552244371
 20
105.8710101295
 11
-182.7011893370
 21
105.8710101295
  0
LINE
  8
Layer0$C$L0
 62
     3
 10
-189.0265343532
 20
105.8710101295
 11
-187.6408796241
 21
105.8710101295
  0
LINE
  8
Layer0$C$L0
 62
     3
 10
-209.9011893370
 20
105.8710101295
 11
-190.4121714630
 21
105.8710101295
  0
ARC
  8
Layer0$C$L0
 62
     3
 10
-196.3011893370
 20
92.0710101295
 40
14.0000000000
 50
80.3036789465
 51
99.6963210535
  0
ARC
  8
Layer0$C$L0
 62
     3
 10
-196.3011893370
 20
92.0710101295
 40
14.0000000000
 50
346.2708673246
 51
373.7291326754
  0
ARC
  8
Layer0$C$L0
 62
     3
 10
-196.3011893370
 20
92.0710101295
 40
14.0000000000
 50
260.3036789465
 51
279.6963210535
  0
ARC
  8
Layer0$C$L0
 62
     3
 10
-196.3011893370
 20
92.0710101295
 40
14.0000000000
 50
166.2708673246
 51
193.7291326754
  0
LINE
  8
Layer0$C$L0
 62
     3
 10
-182.7011893370
 20
78.2710101295
 11
-209.9011893370
 21
78.2710101295
  0
LINE
  8
Layer0$C$L0
 62
     3
 10
-182.7011893370
 20
105.8710101295
 11
-182.7011893370
 21
78.2710101295
  0
LINE
  8
Layer0$C$L0
 62
     3
 10
-209.9011893370
 20
78.2710101295
 11
-209.9011893370
 21
105.8710101295
  0
LINE
  8
Layer1$C$L1
  6
CENTER
 62
     3
 10
-165.3767579276
 20
92.0710101295
 11
-79.9305678160
 21
92.0710101295
  0
LINE
  8
Layer1$C$L1
  6
CENTER
 62
     3
 10
-61.3768738943
 20
72.0710101295
 11
-61.3768738943
 21
109.0710101295
  0
LINE
  8
Layer1$C$L1
 62
     3
 10
-207.3012045958
 20
98.2710223365
 11
-207.8012045958
 21
98.2710223365
  0
LINE
  8
Layer1$C$L1
 62
     3
 10
-207.3012045958
 20
83.4710192848
 11
-207.8012045958
 21
83.4710192848
  0
LINE
  8
Layer1$C$L1
  6
CENTER
 62
     3
 10
-212.8773154356
 20
92.0710101295
 11
-179.8982504942
 21
92.0710101295
  0
LINE
  8
Layer1$C$L1
 62
     3
 10
-191.1481150386
 20
103.9963124006
 11
-191.2443293330
 21
103.8296643572
  0
LINE
  8
Layer1$C$L1
 62
     3
 10
-188.5500388738
 20
102.4963124006
 11
-188.6462531683
 21
102.3296643572
  0
LINE
  8
Layer1$C$L1
 62
     3
 10
-191.2578489080
 20
104.4061660962
 11
-191.1480435386
 21
103.9963668821
  0
LINE
  8
Layer1$C$L1
 62
     3
 10
-188.1401792621
 20
102.6061759902
 11
-188.5499798923
 21
102.4963758553
  0
LINE
  8
Layer1$C$L1
 62
     3
 10
-189.3694807789
 20
107.6770033385
 11
-191.2579314015
 21
104.4061109713
  0
LINE
  8
Layer1$C$L1
 62
     3
 10
-188.3208382831
 20
107.0933115558
 11
-187.2815972456
 21
106.4933054523
  0
LINE
  8
Layer1$C$L1
 62
     3
 10
-189.8208306537
 20
104.4952486055
 11
-188.7815896162
 21
103.8952425020
  0
LINE
  8
Layer1$C$L1
 62
     3
 10
-188.3208382831
 20
107.0933115558
 11
-189.8208306537
 21
104.4952486055
  0
LINE
  8
Layer1$C$L1
 62
     3
 10
-187.2815972456
 20
106.4933054523
 11
-188.7815896162
 21
103.8952425020
  0
LINE
  8
Layer1$C$L1
 62
     3
 10
-188.8098491332
 20
102.6463139264
 11
-188.8901561400
 21
102.5072181129
  0
LINE
  8
Layer1$C$L1
 62
     3
 10
-190.8883047792
 20
103.8463108747
 11
-190.9686117860
 21
103.7072150611
  0
LINE
  8
Layer1$C$L1
 62
     3
 10
-188.8097610586
 20
102.6463006198
 11
-188.5499661415
 21
102.4963030221
  0
LINE
  8
Layer1$C$L1
 62
     3
 10
-191.1480803237
 20
103.9963133255
 11
-190.8882712624
 21
103.8463097254
  0
LINE
  8
Layer1$C$L1
 62
     3
 10
-186.2517372729
 20
105.8770501316
 11
-188.1401746133
 21
102.6061501104
  0
LINE
  8
Layer1$C$L1
  6
DASH
 62
     3
 10
-186.5910175662
 20
100.7012559106
 11
-186.7486458406
 21
100.5908834036
  0
LINE
  8
Layer1$C$L1
  6
DASH
 62
     3
 10
-186.5172677420
 20
101.1190413427
 11
-186.5909388892
 21
100.7012313486
  0
LINE
  8
Layer1$C$L1
  6
DASH
 62
     3
 10
-183.4234427147
 20
103.2854518287
 11
-186.5173441347
 21
101.1190787131
  0
LINE
  8
Layer1$C$L1
  6
DASH
 62
     3
 10
-182.7197823749
 20
102.3132529224
 11
-182.0314836328
 21
101.3302604544
  0
LINE
  8
Layer1$C$L1
  6
DASH
 62
     3
 10
-185.1772385464
 20
100.5925235714
 11
-184.4889398043
 21
99.6095311033
  0
LINE
  8
Layer1$C$L1
  6
DASH
 62
     3
 10
-182.7197823749
 20
102.3132529224
 11
-185.1772385464
 21
100.5925235714
  0
LINE
  8
Layer1$C$L1
  6
DASH
 62
     3
 10
-182.0314836328
 20
101.3302604544
 11
-184.4889398043
 21
99.6095311033
  0
LINE
  8
Layer1$C$L1
  6
DASH
 62
     3
 10
-186.4189428807
 20
100.4555077936
 11
-186.5505101804
 21
100.3633833778
  0
LINE
  8
Layer1$C$L1
  6
DASH
 62
     3
 10
-186.5910109633
 20
100.7012156789
 11
-186.4189382448
 21
100.4554661850
  0
LINE
  8
Layer1$C$L1
  6
DASH
 62
     3
 10
-181.3586173543
 20
100.3365001086
 11
-183.9614576301
 21
98.5139559330
  0
LINE
  8
Layer1$C$L1
 62
     3
 10
-180.5105421639
 20
105.3002736919
 11
-178.0891657500
 21
103.4790114297
  0
LINE
  8
Layer1$C$L1
 62
     3
 10
-178.0890555749
 20
103.4790825881
 11
-179.0962132092
 21
106.7145603653
  0
ARC
  8
Layer1$C$L1
 62
     3
 10
-188.5034140684
 20
107.1771197486
 40
1.0000000000
 50
62.6970384672
 51
149.9999700232
  0
ARC
  8
Layer1$C$L1
 62
     3
 10
-187.1177786925
 20
106.3771166969
 40
1.0000000000
 50
329.9998249954
 51
417.3025004192
  0
ARC
  8
Layer1$C$L1
 62
     3
 10
-196.3011893370
 20
92.0710101295
 40
18.0000000000
 50
57.3025004192
 51
62.6970384672
  0
ARC
  8
Layer1$C$L1
  6
DASH
 62
     3
 10
-182.8498801329
 20
102.4663195777
 40
1.0000000000
 50
37.6971049351
 51
125.0000002336
  0
ARC
  8
Layer1$C$L1
  6
DASH
 62
     3
 10
-181.9321555235
 20
101.1556811500
 40
1.0000000000
 50
304.9998641424
 51
392.3025668871
  0
ARC
  8
Layer1$C$L1
  6
DASH
 62
     3
 10
-196.3011893370
 20
92.0710253883
 40
18.0000000000
 50
32.3025668871
 51
37.6971049351
  0
TEXT
  8
Layer8$C$L8
 62
     3
 10
-198.8012290337
 20
84.8853791149
 40
0.7999999523
  1
C
 50
90.0000000000
 72
     5
 11
-198.8012290337
 21
85.4568073174
  0
TEXT
  8
Layer8$C$L8
 62
     3
 10
-198.9596000054
 20
90.5853760631
 40
0.7999999523
  1
NO
 50
90.0000000000
 72
     5
 11
-198.9596000054
 21
91.9568036815
  0
TEXT
  8
Layer8$C$L8
 62
     3
 10
-198.9595694878
 20
96.0425600656
 40
0.7999999523
  1
NC
 50
90.0000000000
 72
     5
 11
-198.9595694878
 21
97.4139870940
  0
TEXT
  8
Layer8$C$L8
 62
     3
 10
-192.0011954643
 20
84.8853180797
 40
0.7999999523
  1
C
 50
90.0000000000
 72
     5
 11
-192.0011954643
 21
85.4567462822
  0
TEXT
  8
Layer8$C$L8
 62
     3
 10
-192.1595816948
 20
90.5853150280
 40
0.7999999523
  1
NO
 50
90.0000000000
 72
     5
 11
-192.1595816948
 21
91.9567426463
  0
TEXT
  8
Layer8$C$L8
 62
     3
 10
-192.1595359184
 20
96.0424990305
 40
0.7999999523
  1
NC
 50
90.0000000000
 72
     5
 11
-192.1595359184
 21
97.4139260588
  0
TEXT
  8
Layer8$C$L8
 62
     3
 10
-206.1062277891
 20
84.3139507943
 40
1.0000000000
  1
X2
 50
90.0000000000
 72
     5
 11
-206.1062277891
 21
86.0282350754
  0
TEXT
  8
Layer8$C$L8
 62
     3
 10
-206.1993064024
 20
95.9711620980
 40
1.0000000000
  1
X1
 50
90.0000000000
 72
     5
 11
-206.1993064024
 21
97.6854463792
  0
TEXT
  8
Layer8$C$L8
 62
     3
 10
-206.1993521788
 20
90.0139477425
 40
1.0000000000
  1
X2
 50
90.0000000000
 72
     5
 11
-206.1993521788
 21
91.7282320237
  0
ARC
  8
Layer1$C$L1
 62
     3
 10
-196.3011740782
 20
92.0710101295
 40
12.7999954224
 50
167.5708229083
 51
192.4291597888
  0
ARC
  8
Layer1$C$L1
 62
     3
 10
-196.3011740782
 20
92.0710101295
 40
12.7999954224
 50
226.5990835469
 51
313.4010173121
  0
ARC
  8
Layer1$C$L1
 62
     3
 10
-196.3011740782
 20
92.0710101295
 40
12.7999954224
 50
347.5707871635
 51
372.4291206289
  0
ARC
  8
Layer1$C$L1
 62
     3
 10
-196.3011740782
 20
92.0710101295
 40
10.2500000000
 50
42.3121817950
 51
137.6877071008
  0
ARC
  8
Layer1$C$L1
 62
     3
 10
-196.3011740782
 20
92.0710101295
 40
10.2500000000
 50
245.1373097845
 51
294.8627808291
  0
ARC
  8
Layer1$C$L1
 62
     3
 10
-196.3011740782
 20
92.0710101295
 40
12.7999954224
 50
32.6198155136
 51
147.3800733821
  0
ARC
  8
Layer1$C$L1
 62
     3
 10
-196.3011893370
 20
92.0710101295
 40
12.9000000000
 50
165.6945536393
 51
194.3054463607
  0
ARC
  8
Layer1$C$L1
 62
     3
 10
-196.3011893370
 20
92.0710101295
 40
12.9000000000
 50
66.6772170000
 51
147.6640060869
  0
ARC
  8
Layer1$C$L1
 62
     3
 10
-196.3011893370
 20
92.0710101295
 40
12.9000000000
 50
32.3362345467
 51
53.3224065262
  0
ARC
  8
Layer1$C$L1
 62
     3
 10
-196.3011893370
 20
92.0710101295
 40
12.9000000000
 50
345.6945536393
 51
374.3054463607
  0
ARC
  8
Layer1$C$L1
 62
     3
 10
-196.3011893370
 20
92.0710101295
 40
12.9000000000
 50
226.1313552156
 51
313.8686447844
  0
LINE
  8
Layer1$C$L1
 62
     3
 10
-207.8012045958
 20
82.7710223365
 11
-184.8012045958
 21
82.7710223365
  0
LINE
  8
Layer1$C$L1
 62
     3
 10
-208.8012045958
 20
97.9710192848
 11
-208.8012045958
 21
83.7710223365
  0
LINE
  8
Layer1$C$L1
 62
     3
 10
-185.0013517599
 20
97.7707724079
 11
-184.8012562392
 21
97.5706387477
  0
ARC
  8
Layer1$C$L1
 62
     3
 10
-207.8011588194
 20
97.9710498023
 40
1.0000000000
 50
89.9999820139
 51
179.9999093863
  0
ARC
  8
Layer1$C$L1
 62
     3
 10
-184.8012198546
 20
83.7709918189
 40
1.0000000000
 50
270.0000179861
 51
360.0000000000
  0
ARC
  8
Layer1$C$L1
 62
     3
 10
-184.8011588194
 20
97.9709887672
 40
1.0000000000
 50
0.0000000000
 51
89.9999273724
  0
ARC
  8
Layer1$C$L1
 62
     3
 10
-207.8012198546
 20
83.7710528541
 40
1.0000000000
 50
179.9999640278
 51
269.9999460417
  0
LINE
  8
Layer1$C$L1
 62
     3
 10
-207.3012045958
 20
95.4710192848
 11
-207.8012045958
 21
95.4710192848
  0
LINE
  8
Layer1$C$L1
 62
     3
 10
-207.3012045958
 20
92.2710223365
 11
-207.8012045958
 21
92.2710223365
  0
LINE
  8
Layer1$C$L1
 62
     3
 10
-207.3012045958
 20
89.4710192848
 11
-207.8012045958
 21
89.4710192848
  0
LINE
  8
Layer1$C$L1
 62
     3
 10
-207.3012045958
 20
86.2710223365
 11
-207.8012045958
 21
86.2710223365
  0
LINE
  8
Layer1$C$L1
 62
     3
 10
-207.8012045958
 20
86.3710589576
 11
-207.8012045958
 21
83.4710192848
  0
LINE
  8
Layer1$C$L1
 62
     3
 10
-207.8012045958
 20
89.3710589576
 11
-207.8012045958
 21
92.3710436988
  0
LINE
  8
Layer1$C$L1
 62
     3
 10
-207.8012045958
 20
95.4710192848
 11
-207.8012045958
 21
98.2710223365
  0
LINE
  8
Layer1$C$L1
 62
     3
 10
-207.3012045958
 20
89.4710192848
 11
-207.3012045958
 21
92.2710223365
  0
LINE
  8
Layer1$C$L1
 62
     3
 10
-207.3012045958
 20
86.2710223365
 11
-207.3012045958
 21
83.4710192848
  0
LINE
  8
Layer1$C$L1
 62
     3
 10
-207.3012045958
 20
98.2710223365
 11
-207.3012045958
 21
95.4710192848
  0
LINE
  8
Layer1$C$L1
 62
     3
 10
-208.8011435606
 20
86.3717761207
 11
-207.8011435606
 21
86.3717761207
  0
LINE
  8
Layer1$C$L1
 62
     3
 10
-208.8011435606
 20
89.3717761207
 11
-207.8011435606
 21
89.3717761207
  0
LINE
  8
Layer1$C$L1
 62
     3
 10
-208.8011435606
 20
92.3717608619
 11
-207.8011435606
 21
92.3717608619
  0
LINE
  8
Layer1$C$L1
 62
     3
 10
-208.8011435606
 20
95.4717517066
 11
-207.8011435606
 21
95.4717517066
  0
LINE
  8
Layer1$C$L1
 62
     3
 10
-186.4011801817
 20
83.9710498023
 11
-186.4011801817
 21
97.7710223365
  0
LINE
  8
Layer1$C$L1
 62
     3
 10
-191.6011313536
 20
83.9710498023
 11
-191.6011313536
 21
97.7710223365
  0
LINE
  8
Layer1$C$L1
 62
     3
 10
-193.2011069395
 20
83.9710498023
 11
-193.2011069395
 21
97.7710223365
  0
LINE
  8
Layer1$C$L1
 62
     3
 10
-198.4011801817
 20
83.9710498023
 11
-198.4011801817
 21
97.7710223365
  0
LINE
  8
Layer1$C$L1
 62
     3
 10
-200.0011557676
 20
83.9710498023
 11
-200.0011557676
 21
97.7710223365
  0
LINE
  8
Layer1$C$L1
 62
     3
 10
-205.2011069395
 20
83.9710498023
 11
-205.2011069395
 21
97.7710223365
  0
LINE
  8
Layer1$C$L1
 62
     3
 10
-184.8012837208
 20
84.1709455202
 11
-185.0012823652
 21
83.9709523548
  0
LINE
  8
Layer1$C$L1
 62
     3
 10
-183.8012045958
 20
97.9710192848
 11
-183.8012045958
 21
83.7710223365
  0
LINE
  8
Layer1$C$L1
 62
     3
 10
-184.8012045958
 20
97.5706134010
 11
-184.8012045958
 21
84.1710162330
  0
LINE
  8
Layer1$C$L1
 62
     3
 10
-207.8012045958
 20
98.9710498023
 11
-184.8012045958
 21
98.9710498023
  0
LINE
  8
Layer1$C$L1
 62
     3
 10
-200.8012045958
 20
98.2710223365
 11
-200.8012045958
 21
95.4710192848
  0
LINE
  8
Layer1$C$L1
 62
     3
 10
-200.8012045958
 20
86.2710223365
 11
-200.8012045958
 21
83.4710192848
  0
LINE
  8
Layer1$C$L1
 62
     3
 10
-200.8012045958
 20
89.4710192848
 11
-200.8012045958
 21
92.2710223365
  0
LINE
  8
Layer1$C$L1
 62
     3
 10
-201.3012045958
 20
95.4710192848
 11
-201.3012045958
 21
98.2710223365
  0
LINE
  8
Layer1$C$L1
 62
     3
 10
-201.3012045958
 20
89.4710192848
 11
-201.3012045958
 21
92.2710223365
  0
LINE
  8
Layer1$C$L1
 62
     3
 10
-201.3012045958
 20
86.2710223365
 11
-201.3012045958
 21
83.4710192848
  0
LINE
  8
Layer1$C$L1
 62
     3
 10
-200.8012045958
 20
83.4710192848
 11
-201.3012045958
 21
83.4710192848
  0
LINE
  8
Layer1$C$L1
 62
     3
 10
-200.8012045958
 20
86.2710223365
 11
-201.3012045958
 21
86.2710223365
  0
LINE
  8
Layer1$C$L1
 62
     3
 10
-200.8012045958
 20
89.4710192848
 11
-201.3012045958
 21
89.4710192848
  0
LINE
  8
Layer1$C$L1
 62
     3
 10
-200.8012045958
 20
92.2710223365
 11
-201.3012045958
 21
92.2710223365
  0
LINE
  8
Layer1$C$L1
 62
     3
 10
-200.8012045958
 20
95.4710192848
 11
-201.3012045958
 21
95.4710192848
  0
LINE
  8
Layer1$C$L1
 62
     3
 10
-200.8012045958
 20
98.2710223365
 11
-201.3012045958
 21
98.2710223365
  0
LINE
  8
Layer1$C$L1
 62
     3
 10
-194.0012045958
 20
98.2710223365
 11
-194.5012045958
 21
98.2710223365
  0
LINE
  8
Layer1$C$L1
 62
     3
 10
-194.0012045958
 20
95.4710192848
 11
-194.5012045958
 21
95.4710192848
  0
LINE
  8
Layer1$C$L1
 62
     3
 10
-194.0012045958
 20
92.2710223365
 11
-194.5012045958
 21
92.2710223365
  0
LINE
  8
Layer1$C$L1
 62
     3
 10
-194.0012045958
 20
89.4710192848
 11
-194.5012045958
 21
89.4710192848
  0
LINE
  8
Layer1$C$L1
 62
     3
 10
-194.0012045958
 20
86.2710223365
 11
-194.5012045958
 21
86.2710223365
  0
LINE
  8
Layer1$C$L1
 62
     3
 10
-194.0012045958
 20
83.4710192848
 11
-194.5012045958
 21
83.4710192848
  0
LINE
  8
Layer1$C$L1
 62
     3
 10
-194.5012045958
 20
86.2710223365
 11
-194.5012045958
 21
83.4710192848
  0
LINE
  8
Layer1$C$L1
 62
     3
 10
-194.5012045958
 20
89.4710192848
 11
-194.5012045958
 21
92.2710223365
  0
LINE
  8
Layer1$C$L1
 62
     3
 10
-194.5012045958
 20
95.4710192848
 11
-194.5012045958
 21
98.2710223365
  0
LINE
  8
Layer1$C$L1
 62
     3
 10
-194.0012045958
 20
89.4710192848
 11
-194.0012045958
 21
92.2710223365
  0
LINE
  8
Layer1$C$L1
 62
     3
 10
-194.0012045958
 20
86.2710223365
 11
-194.0012045958
 21
83.4710192848
  0
LINE
  8
Layer1$C$L1
 62
     3
 10
-194.0012045958
 20
98.2710223365
 11
-194.0012045958
 21
95.4710192848
  0
LINE
  8
Layer1$C$L1
 62
     3
 10
-187.2012045958
 20
98.2710223365
 11
-187.2012045958
 21
95.4710192848
  0
LINE
  8
Layer1$C$L1
 62
     3
 10
-187.2012045958
 20
86.2710223365
 11
-187.2012045958
 21
83.4710192848
  0
LINE
  8
Layer1$C$L1
 62
     3
 10
-187.2012045958
 20
89.4710192848
 11
-187.2012045958
 21
92.2710223365
  0
LINE
  8
Layer1$C$L1
 62
     3
 10
-187.7012045958
 20
95.4710192848
 11
-187.7012045958
 21
98.2710223365
  0
LINE
  8
Layer1$C$L1
 62
     3
 10
-187.7012045958
 20
89.4710192848
 11
-187.7012045958
 21
92.2710223365
  0
LINE
  8
Layer1$C$L1
 62
     3
 10
-187.7012045958
 20
86.2710223365
 11
-187.7012045958
 21
83.4710192848
  0
LINE
  8
Layer1$C$L1
 62
     3
 10
-187.2012045958
 20
83.4710192848
 11
-187.7012045958
 21
83.4710192848
  0
LINE
  8
Layer1$C$L1
 62
     3
 10
-187.2012045958
 20
86.2710223365
 11
-187.7012045958
 21
86.2710223365
  0
LINE
  8
Layer1$C$L1
 62
     3
 10
-187.2012045958
 20
89.4710192848
 11
-187.7012045958
 21
89.4710192848
  0
LINE
  8
Layer1$C$L1
 62
     3
 10
-187.2012045958
 20
92.2710223365
 11
-187.7012045958
 21
92.2710223365
  0
LINE
  8
Layer1$C$L1
 62
     3
 10
-187.2012045958
 20
95.4710192848
 11
-187.7012045958
 21
95.4710192848
  0
LINE
  8
Layer1$C$L1
 62
     3
 10
-187.2012045958
 20
98.2710223365
 11
-187.7012045958
 21
98.2710223365
  0
LINE
  8
Layer1$C$L1
 62
     3
 10
-207.3012045958
 20
97.7710223365
 11
-201.3012045958
 21
97.7710223365
  0
LINE
  8
Layer1$C$L1
 62
     3
 10
-207.3012045958
 20
83.9710192848
 11
-201.3012045958
 21
83.9710192848
  0
LINE
  8
Layer1$C$L1
 62
     3
 10
-200.8012045958
 20
97.7710223365
 11
-194.5012045958
 21
97.7710223365
  0
LINE
  8
Layer1$C$L1
 62
     3
 10
-200.8012045958
 20
83.9710192848
 11
-194.5012045958
 21
83.9710192848
  0
LINE
  8
Layer1$C$L1
 62
     3
 10
-194.0012045958
 20
97.7710223365
 11
-187.7012045958
 21
97.7710223365
  0
LINE
  8
Layer1$C$L1
 62
     3
 10
-187.2012045958
 20
97.7710223365
 11
-185.0015982725
 21
97.7710223365
  0
LINE
  8
Layer1$C$L1
 62
     3
 10
-194.0012045958
 20
83.9710192848
 11
-187.7012045958
 21
83.9710192848
  0
LINE
  8
Layer1$C$L1
 62
     3
 10
-187.2012045958
 20
83.9710192848
 11
-185.0012168028
 21
83.9710192848
  0
LINE
  8
Layer1$C$L1
  6
DASH
 62
     3
 10
-183.2011832335
 20
98.9709582496
 11
-183.2011832335
 21
82.7709613014
  0
LINE
  8
Layer1$C$L1
  6
DASH
 62
     3
 10
-208.9011801817
 20
93.4709429908
 11
-205.4011801817
 21
93.4709429908
  0
LINE
  8
Layer1$C$L1
  6
DASH
 62
     3
 10
-208.9011801817
 20
88.2709613014
 11
-205.4011801817
 21
88.2709613014
  0
LINE
  8
Layer1$C$L1
  6
DASH
 62
     3
 10
-208.4011801817
 20
99.9709582496
 11
-184.2011832335
 21
99.9709582496
  0
LINE
  8
Layer1$C$L1
  6
DASH
 62
     3
 10
-185.4011801817
 20
99.0209613014
 11
-185.4011801817
 21
94.2709613014
  0
LINE
  8
Layer1$C$L1
  6
DASH
 62
     3
 10
-189.7011832335
 20
99.0209613014
 11
-189.7011832335
 21
94.2709613014
  0
LINE
  8
Layer1$C$L1
  6
DASH
 62
     3
 10
-192.2011832335
 20
99.0209613014
 11
-192.2011832335
 21
94.2709613014
  0
LINE
  8
Layer1$C$L1
  6
DASH
 62
     3
 10
-196.5011862852
 20
99.0209613014
 11
-196.5011862852
 21
94.2709613014
  0
LINE
  8
Layer1$C$L1
  6
DASH
 62
     3
 10
-199.0011862852
 20
99.0209613014
 11
-199.0011862852
 21
94.2709613014
  0
LINE
  8
Layer1$C$L1
  6
DASH
 62
     3
 10
-203.3011893370
 20
99.0209613014
 11
-203.3011893370
 21
94.2709613014
  0
LINE
  8
Layer1$C$L1
  6
DASH
 62
     3
 10
-205.4011801817
 20
99.0209613014
 11
-205.4011801817
 21
94.2709613014
  0
LINE
  8
Layer1$C$L1
  6
DASH
 62
     3
 10
-208.9011801817
 20
98.2209582496
 11
-208.9011801817
 21
94.2709613014
  0
LINE
  8
Layer1$C$L1
  6
DASH
 62
     3
 10
-208.1011771300
 20
99.0209613014
 11
-205.4011801817
 21
99.0209613014
  0
LINE
  8
Layer1$C$L1
  6
DASH
 62
     3
 10
-208.9011801817
 20
94.2709613014
 11
-205.4011801817
 21
94.2709613014
  0
LINE
  8
Layer1$C$L1
  6
DASH
 62
     3
 10
-208.9011801817
 20
87.4709582496
 11
-205.4011801817
 21
87.4709582496
  0
LINE
  8
Layer1$C$L1
  6
DASH
 62
     3
 10
-208.1011771300
 20
82.7209582496
 11
-205.4011801817
 21
82.7209582496
  0
LINE
  8
Layer1$C$L1
  6
DASH
 62
     3
 10
-196.5011862852
 20
99.0209613014
 11
-192.2011832335
 21
99.0209613014
  0
LINE
  8
Layer1$C$L1
  6
DASH
 62
     3
 10
-189.7011832335
 20
99.0209613014
 11
-185.4011801817
 21
99.0209613014
  0
LINE
  8
Layer1$C$L1
  6
DASH
 62
     3
 10
-203.3011893370
 20
99.0209613014
 11
-199.0011862852
 21
99.0209613014
  0
LINE
  8
Layer1$C$L1
  6
DASH
 62
     3
 10
-196.5011862852
 20
94.2709613014
 11
-192.2011832335
 21
94.2709613014
  0
LINE
  8
Layer1$C$L1
  6
DASH
 62
     3
 10
-189.7011832335
 20
94.2709613014
 11
-185.4011801817
 21
94.2709613014
  0
LINE
  8
Layer1$C$L1
  6
DASH
 62
     3
 10
-196.5011862852
 20
93.3709521461
 11
-192.2011832335
 21
93.3709521461
  0
LINE
  8
Layer1$C$L1
  6
DASH
 62
     3
 10
-189.7011832335
 20
93.3709521461
 11
-185.4011801817
 21
93.3709521461
  0
LINE
  8
Layer1$C$L1
  6
DASH
 62
     3
 10
-203.3011893370
 20
93.3709521461
 11
-199.0011862852
 21
93.3709521461
  0
LINE
  8
Layer1$C$L1
  6
DASH
 62
     3
 10
-196.5011862852
 20
88.3709674049
 11
-192.2011832335
 21
88.3709674049
  0
LINE
  8
Layer1$C$L1
  6
DASH
 62
     3
 10
-189.7011832335
 20
88.3709674049
 11
-185.4011801817
 21
88.3709674049
  0
LINE
  8
Layer1$C$L1
  6
DASH
 62
     3
 10
-203.3011893370
 20
88.3709674049
 11
-199.0011862852
 21
88.3709674049
  0
LINE
  8
Layer1$C$L1
  6
DASH
 62
     3
 10
-196.5011862852
 20
87.4709582496
 11
-192.2011832335
 21
87.4709582496
  0
LINE
  8
Layer1$C$L1
  6
DASH
 62
     3
 10
-189.7011832335
 20
87.4709582496
 11
-185.4011801817
 21
87.4709582496
  0
LINE
  8
Layer1$C$L1
  6
DASH
 62
     3
 10
-203.3011893370
 20
87.4709582496
 11
-199.0011862852
 21
87.4709582496
  0
LINE
  8
Layer1$C$L1
  6
DASH
 62
     3
 10
-196.5011862852
 20
82.7209582496
 11
-192.2011832335
 21
82.7209582496
  0
LINE
  8
Layer1$C$L1
  6
DASH
 62
     3
 10
-189.7011832335
 20
82.7209582496
 11
-185.4011801817
 21
82.7209582496
  0
LINE
  8
Layer1$C$L1
  6
DASH
 62
     3
 10
-203.3011893370
 20
82.7209582496
 11
-199.0011862852
 21
82.7209582496
  0
LINE
  8
Layer1$C$L1
  6
DASH
 62
     3
 10
-185.4011801817
 20
93.3709521461
 11
-185.4011801817
 21
88.3709674049
  0
LINE
  8
Layer1$C$L1
  6
DASH
 62
     3
 10
-185.4011801817
 20
87.4709582496
 11
-185.4011801817
 21
82.7209582496
  0
LINE
  8
Layer1$C$L1
  6
DASH
 62
     3
 10
-192.2011832335
 20
93.3709521461
 11
-192.2011832335
 21
88.3709674049
  0
LINE
  8
Layer1$C$L1
  6
DASH
 62
     3
 10
-192.2011832335
 20
87.4709582496
 11
-192.2011832335
 21
82.7209582496
  0
LINE
  8
Layer1$C$L1
  6
DASH
 62
     3
 10
-199.0011862852
 20
93.3709521461
 11
-199.0011862852
 21
88.3709674049
  0
LINE
  8
Layer1$C$L1
  6
DASH
 62
     3
 10
-199.0011862852
 20
87.4709582496
 11
-199.0011862852
 21
82.7209582496
  0
LINE
  8
Layer1$C$L1
  6
DASH
 62
     3
 10
-203.3011893370
 20
93.3709521461
 11
-203.3011893370
 21
88.3709674049
  0
LINE
  8
Layer1$C$L1
  6
DASH
 62
     3
 10
-203.3011893370
 20
87.4709582496
 11
-203.3011893370
 21
82.7209582496
  0
LINE
  8
Layer1$C$L1
  6
DASH
 62
     3
 10
-205.4011801817
 20
93.4709429908
 11
-205.4011801817
 21
88.2709613014
  0
LINE
  8
Layer1$C$L1
  6
DASH
 62
     3
 10
-205.4011801817
 20
87.4709582496
 11
-205.4011801817
 21
82.7209582496
  0
LINE
  8
Layer1$C$L1
  6
DASH
 62
     3
 10
-208.9011801817
 20
93.4709429908
 11
-208.9011801817
 21
88.2709613014
  0
LINE
  8
Layer1$C$L1
  6
DASH
 62
     3
 10
-196.5011862852
 20
93.3709521461
 11
-196.5011862852
 21
88.3709674049
  0
LINE
  8
Layer1$C$L1
  6
DASH
 62
     3
 10
-189.7011832335
 20
87.4709582496
 11
-189.7011832335
 21
82.7209582496
  0
LINE
  8
Layer1$C$L1
  6
DASH
 62
     3
 10
-189.7011832335
 20
93.3709521461
 11
-189.7011832335
 21
88.3709674049
  0
LINE
  8
Layer1$C$L1
  6
DASH
 62
     3
 10
-198.5011862852
 20
79.5709643531
 11
-191.9011801817
 21
79.5709643531
  0
LINE
  8
Layer1$C$L1
  6
DASH
 62
     3
 10
-197.4011801817
 20
80.5709643531
 11
-192.9011801817
 21
80.5709643531
  0
LINE
  8
Layer1$C$L1
  6
DASH
 62
     3
 10
-199.0011862852
 20
81.7709613014
 11
-199.0011862852
 21
80.0709643531
  0
LINE
  8
Layer1$C$L1
  6
DASH
 62
     3
 10
-191.4011801817
 20
81.7709613014
 11
-191.4011801817
 21
80.0709643531
  0
LINE
  8
Layer1$C$L1
  6
DASH
 62
     3
 10
-197.4011801817
 20
81.7709613014
 11
-197.4011801817
 21
80.5709643531
  0
LINE
  8
Layer1$C$L1
  6
DASH
 62
     3
 10
-192.9011801817
 20
81.7709613014
 11
-192.9011801817
 21
80.5709643531
  0
LINE
  8
Layer1$C$L1
  6
DASH
 62
     3
 10
-208.4011801817
 20
81.7709613014
 11
-184.2011832335
 21
81.7709613014
  0
ARC
  8
Layer1$C$L1
  6
DASH
 62
     3
 10
-184.2011832335
 20
98.9709582496
 40
1.0000000000
 50
0.0000000000
 51
89.9999820139
  0
ARC
  8
Layer1$C$L1
  6
DASH
 62
     3
 10
-208.4011801817
 20
98.9709582496
 40
1.0000000000
 50
89.9999820139
 51
179.9999640278
  0
ARC
  8
Layer1$C$L1
  6
DASH
 62
     3
 10
-208.4011801817
 20
82.7709613014
 40
1.0000000000
 50
179.9999640278
 51
270.0000006832
  0
ARC
  8
Layer1$C$L1
  6
DASH
 62
     3
 10
-184.2011832335
 20
82.7709613014
 40
1.0000000000
 50
270.0000179861
 51
360.0000000000
  0
ARC
  8
Layer1$C$L1
  6
DASH
 62
     3
 10
-208.1011771300
 20
98.2209582496
 40
0.7999999523
 50
89.9999820139
 51
179.9999640278
  0
ARC
  8
Layer1$C$L1
  6
DASH
 62
     3
 10
-208.1011771300
 20
83.5209613014
 40
0.7999999523
 50
179.9999640278
 51
270.0000006832
  0
ARC
  8
Layer1$C$L1
  6
DASH
 62
     3
 10
-191.9011801817
 20
80.0709643531
 40
0.5000000000
 50
270.0000179861
 51
360.0000000000
  0
ARC
  8
Layer1$C$L1
  6
DASH
 62
     3
 10
-198.5011862852
 20
80.0709643531
 40
0.5000000000
 50
179.9999640278
 51
270.0000006832
  0
LINE
  8
Layer1$C$L1
  6
DASH
 62
     3
 10
-208.9011801817
 20
87.4709582496
 11
-208.9011801817
 21
83.5209613014
  0
LINE
  8
Layer1$C$L1
  6
DASH
 62
     3
 10
-196.5011862852
 20
87.4709582496
 11
-196.5011862852
 21
82.7209582496
  0
LINE
  8
Layer1$C$L1
  6
DASH
 62
     3
 10
-209.4011801817
 20
98.9709582496
 11
-209.4011801817
 21
82.7709613014
  0
LINE
  8
Layer1$C$L1
  6
DASH
 62
     3
 10
-203.3011893370
 20
94.2709613014
 11
-199.0011862852
 21
94.2709613014
  0
LINE
  8
Layer1$C$L1
  6
CENTER
 62
     3
 10
-196.3011893370
 20
109.0710101295
 11
-196.3011893370
 21
75.0710101295
  0
ARC
  8
Layer1$C$L1
 62
     3
 10
-137.1264680106
 20
101.7710681129
 40
0.5000000000
 50
89.9999820139
 51
179.9999640278
  0
ARC
  8
Layer1$C$L1
 62
     3
 10
-137.1264680106
 20
82.3710589576
 40
0.5000000000
 50
180.0000359722
 51
270.0000179861
  0
ARC
  8
Layer1$C$L1
 62
     3
 10
-134.5266144949
 20
80.2710681129
 40
1.0000000000
 50
180.0000359722
 51
270.0000179861
  0
ARC
  8
Layer1$C$L1
 62
     3
 10
-134.5266144949
 20
103.8710589576
 40
1.0000000000
 50
89.9999820139
 51
179.9999640278
  0
LINE
  8
Layer1$C$L1
 62
     3
 10
-129.7769044119
 20
102.1460070777
 11
-131.0269044119
 21
102.1460070777
  0
LINE
  8
Layer1$C$L1
 62
     3
 10
-129.7769044119
 20
106.6813616920
 11
-131.0269044119
 21
106.6813616920
  0
LINE
  8
Layer1$C$L1
 62
     3
 10
-129.7769044119
 20
108.4813647437
 11
-131.0269044119
 21
108.4813647437
  0
LINE
  8
Layer1$C$L1
 62
     3
 10
-129.7768738943
 20
108.4814410377
 11
-129.7768738943
 21
97.8653216529
  0
LINE
  8
Layer1$C$L1
 62
     3
 10
-131.0268738943
 20
108.4814410377
 11
-131.0268738943
 21
97.8653216529
  0
LINE
  8
Layer1$C$L1
 62
     3
 10
-134.3265412527
 20
103.2710528541
 11
-131.8265565115
 21
103.2710528541
  0
LINE
  8
Layer1$C$L1
 62
     3
 10
-134.3265412527
 20
92.6710620094
 11
-134.3265412527
 21
104.8710589576
  0
LINE
  8
Layer1$C$L1
 62
     3
 10
-131.8265565115
 20
92.6710620094
 11
-134.3265412527
 21
92.6710620094
  0
LINE
  8
Layer1$C$L1
 62
     3
 10
-131.8265565115
 20
104.8710589576
 11
-131.8265565115
 21
92.6710620094
  0
LINE
  8
Layer1$C$L1
 62
     3
 10
-131.8265565115
 20
80.8710589576
 11
-134.3265412527
 21
80.8710589576
  0
LINE
  8
Layer1$C$L1
 62
     3
 10
-134.3265412527
 20
79.2710528541
 11
-134.3265412527
 21
91.4710498023
  0
LINE
  8
Layer1$C$L1
 62
     3
 10
-134.3265412527
 20
91.4710498023
 11
-131.8265565115
 21
91.4710498023
  0
LINE
  8
Layer1$C$L1
 62
     3
 10
-131.8265565115
 20
91.4710498023
 11
-131.8265565115
 21
79.2710528541
  0
LINE
  8
Layer1$C$L1
 62
     3
 10
-128.1768830496
 20
103.3443560768
 11
-128.1768830496
 21
97.8653369117
  0
LINE
  8
Layer1$C$L1
 62
     3
 10
-128.9768861014
 20
103.3443560768
 11
-128.9768861014
 21
97.8653369117
  0
LINE
  8
Layer1$C$L1
 62
     3
 10
-131.0268738943
 20
97.8653369117
 11
-127.0268738943
 21
97.8653369117
  0
LINE
  8
Layer1$C$L1
 62
     3
 10
-129.7768738943
 20
103.3443560768
 11
-127.0268738943
 21
103.3443560768
  0
LINE
  8
Layer1$C$L1
 62
     3
 10
-151.3265412527
 20
98.9710650611
 11
-151.3265412527
 21
82.7710681129
  0
LINE
  8
Layer1$C$L1
 62
     3
 10
-135.5266144949
 20
98.9710650611
 11
-151.3265412527
 21
98.9710650611
  0
LINE
  8
Layer1$C$L1
 62
     3
 10
-151.3265412527
 20
82.7710681129
 11
-135.5266144949
 21
82.7710681129
  0
LINE
  8
Layer1$C$L1
 62
     3
 10
-137.6264680106
 20
82.3710589576
 11
-137.6264680106
 21
82.7710681129
  0
LINE
  8
Layer1$C$L1
 62
     3
 10
-135.5266144949
 20
102.2710681129
 11
-137.1264680106
 21
102.2710681129
  0
LINE
  8
Layer1$C$L1
 62
     3
 10
-135.5266144949
 20
81.8710589576
 11
-137.1264680106
 21
81.8710589576
  0
LINE
  8
Layer1$C$L1
 62
     3
 10
-137.6264680106
 20
98.9710650611
 11
-137.6264680106
 21
101.7710681129
  0
LINE
  8
Layer1$C$L1
 62
     3
 10
-130.0266450125
 20
79.2709918189
 11
-134.5266297537
 21
79.2709918189
  0
LINE
  8
Layer1$C$L1
 62
     3
 10
-127.0268738943
 20
79.2710528541
 11
-130.0266297537
 21
79.2710528541
  0
LINE
  8
Layer1$C$L1
 62
     3
 10
-134.5266297537
 20
104.8709674049
 11
-131.0268738943
 21
104.8709674049
  0
LINE
  8
Layer1$C$L1
 62
     3
 10
-135.5266144949
 20
80.2710681129
 11
-135.5266144949
 21
103.8710589576
  0
LINE
  8
Layer1$C$L1
 62
     3
 10
-127.0268738943
 20
79.2710528541
 11
-127.0268738943
 21
104.8710589576
  0
LINE
  8
Layer1$C$L1
 62
     3
 10
-129.7768738943
 20
104.8710589576
 11
-127.0268738943
 21
104.8710589576
  0
LINE
  8
Layer1$C$L1
 62
     3
 10
-160.3265259940
 20
85.7710040260
 11
-160.3265259940
 21
83.9710314918
  0
LINE
  8
Layer1$C$L1
 62
     3
 10
-159.8265259940
 20
83.4710314918
 11
-151.3265259940
 21
83.4710314918
  0
LINE
  8
Layer1$C$L1
 62
     3
 10
-159.8265259940
 20
86.2710192848
 11
-151.3265259940
 21
86.2710192848
  0
LINE
  8
Layer1$C$L1
 62
     3
 10
-159.8264834544
 20
86.2709737984
 11
-160.3264872725
 21
85.7709549336
  0
LINE
  8
Layer1$C$L1
 62
     3
 10
-160.3265228901
 20
83.9710036226
 11
-159.8265223593
 21
83.4710030918
  0
LINE
  8
Layer1$C$L1
 62
     3
 10
-160.3265259940
 20
97.7710040260
 11
-160.3265259940
 21
95.9710314918
  0
LINE
  8
Layer1$C$L1
 62
     3
 10
-159.8265259940
 20
95.4710314918
 11
-151.3265259940
 21
95.4710314918
  0
LINE
  8
Layer1$C$L1
 62
     3
 10
-159.8265259940
 20
98.2710192848
 11
-151.3265259940
 21
98.2710192848
  0
LINE
  8
Layer1$C$L1
 62
     3
 10
-159.8265129571
 20
98.2709654664
 11
-160.3265167752
 21
97.7709466015
  0
LINE
  8
Layer1$C$L1
 62
     3
 10
-160.3265444693
 20
95.9709947825
 11
-159.8265439385
 21
95.4709942517
  0
LINE
  8
Layer1$C$L1
 62
     3
 10
-160.3265259940
 20
91.7710040260
 11
-160.3265259940
 21
89.9710314918
  0
LINE
  8
Layer1$C$L1
 62
     3
 10
-159.8265259940
 20
89.4710314918
 11
-151.3265259940
 21
89.4710314918
  0
LINE
  8
Layer1$C$L1
 62
     3
 10
-159.8265259940
 20
92.2710192848
 11
-151.3265259940
 21
92.2710192848
  0
LINE
  8
Layer1$C$L1
 62
     3
 10
-159.8264982057
 20
92.2709696324
 11
-160.3265020238
 21
91.7709507676
  0
LINE
  8
Layer1$C$L1
 62
     3
 10
-160.3265336797
 20
89.9709992026
 11
-159.8265331489
 21
89.4709986718
  0
LINE
  8
Layer1$C$L1
  6
CENTER
 62
     3
 10
-160.8265259940
 20
96.8710101295
 11
-155.5542608495
 21
96.8710101295
  0
LINE
  8
Layer1$C$L1
 62
     3
 10
-158.7265259940
 20
96.2710101295
 11
-157.3265259940
 21
96.2710101295
  0
LINE
  8
Layer1$C$L1
 62
     3
 10
-158.7265259940
 20
97.4710101295
 11
-157.3265259940
 21
97.4710101295
  0
ARC
  8
Layer1$C$L1
 62
     3
 10
-158.7265259940
 20
96.8710101295
 40
0.6000000000
 50
90.0000000000
 51
270.0000000000
  0
ARC
  8
Layer1$C$L1
 62
     3
 10
-157.3265259940
 20
96.8710101295
 40
0.6000000000
 50
270.0000000000
 51
450.0000000000
  0
ARC
  8
Layer1$C$L1
 62
     3
 10
-157.3265259940
 20
90.8710101295
 40
0.6000000000
 50
270.0000000000
 51
450.0000000000
  0
ARC
  8
Layer1$C$L1
 62
     3
 10
-158.7265259940
 20
90.8710101295
 40
0.6000000000
 50
90.0000000000
 51
270.0000000000
  0
LINE
  8
Layer1$C$L1
 62
     3
 10
-158.7265259940
 20
91.4710101295
 11
-157.3265259940
 21
91.4710101295
  0
LINE
  8
Layer1$C$L1
 62
     3
 10
-158.7265259940
 20
90.2710101295
 11
-157.3265259940
 21
90.2710101295
  0
LINE
  8
Layer1$C$L1
  6
CENTER
 62
     3
 10
-160.8265259940
 20
90.8710101295
 11
-155.5542608495
 21
90.8710101295
  0
LINE
  8
Layer1$C$L1
  6
CENTER
 62
     3
 10
-160.8265259940
 20
84.8710101295
 11
-155.5542608495
 21
84.8710101295
  0
LINE
  8
Layer1$C$L1
 62
     3
 10
-158.7265259940
 20
84.2710101295
 11
-157.3265259940
 21
84.2710101295
  0
LINE
  8
Layer1$C$L1
 62
     3
 10
-158.7265259940
 20
85.4710101295
 11
-157.3265259940
 21
85.4710101295
  0
ARC
  8
Layer1$C$L1
 62
     3
 10
-158.7265259940
 20
84.8710101295
 40
0.6000000000
 50
90.0000000000
 51
270.0000000000
  0
ARC
  8
Layer1$C$L1
 62
     3
 10
-157.3265259940
 20
84.8710101295
 40
0.6000000000
 50
270.0000000000
 51
450.0000000000
  0
LINE
  8
Layer1$C$L1
  6
DASH
 62
     3
 10
-162.3767579276
 20
99.6709399391
 11
-162.3767579276
 21
82.0709643531
  0
LINE
  8
Layer1$C$L1
  6
DASH
 62
     3
 10
-147.5768311697
 20
99.9709735084
 11
-147.5768311697
 21
79.5709948707
  0
LINE
  8
Layer1$C$L1
  6
DASH
 62
     3
 10
-162.0767853934
 20
99.9709735084
 11
-147.5768464285
 21
99.9709735084
  0
LINE
  8
Layer1$C$L1
  6
DASH
 62
     3
 10
-162.0767853934
 20
81.7710070777
 11
-147.5768311697
 21
81.7710070777
  0
LINE
  8
Layer1$C$L1
  6
DASH
 62
     3
 10
-149.0768464285
 20
79.5710101295
 11
-147.5768311697
 21
79.5710101295
  0
LINE
  8
Layer1$C$L1
  6
DASH
 62
     3
 10
-149.5768311697
 20
81.7709918189
 11
-149.5768311697
 21
80.0709796119
  0
ARC
  8
Layer1$C$L1
  6
DASH
 62
     3
 10
-149.0768311697
 20
80.0710253883
 40
0.5000000000
 50
180.0017845006
 51
270.0000179861
  0
ARC
  8
Layer1$C$L1
  6
DASH
 62
     3
 10
-162.0768311697
 20
99.6710467506
 40
0.2999999523
 50
89.9999820139
 51
180.0029146695
  0
ARC
  8
Layer1$C$L1
  6
DASH
 62
     3
 10
-162.0768311697
 20
82.0710559059
 40
0.2999999523
 50
180.0029866139
 51
270.0000179861
  0
LINE
  8
Layer1$C$L1
 62
     3
 10
-128.2270814139
 20
147.8066209936
 11
-128.6770783621
 21
147.8066209936
  0
LINE
  8
Layer1$C$L1
 62
     3
 10
-128.6764302428
 20
147.8069935121
 11
-127.9764144923
 21
145.8069394710
  0
LINE
  8
Layer1$C$L1
 62
     3
 10
-127.9768628800
 20
145.8070068425
 11
-127.2768805608
 21
147.8069434799
  0
LINE
  8
Layer1$C$L1
 62
     3
 10
-128.2270814139
 20
147.8066209936
 11
-128.2270814139
 21
151.8066209936
  0
LINE
  8
Layer1$C$L1
 62
     3
 10
-127.7270814139
 20
147.8066209936
 11
-127.7270814139
 21
151.8066209936
  0
LINE
  8
Layer1$C$L1
 62
     3
 10
-127.7270814139
 20
147.8066209936
 11
-127.2770615775
 21
147.8066209936
  0
LINE
  8
Layer1$C$L1
 62
     3
 10
-128.2270814139
 20
151.8066209936
 11
-127.7270814139
 21
151.8066209936
  0
TEXT
  8
Layer8$C$L8
 62
     3
 10
-142.3269807059
 20
149.3886519125
 40
3.0000000000
  1
俹
 41
0.8666655909
 50
270.0000000000
 72
     5
 11
-142.3269807059
 21
146.7886551399
  0
TEXT
  8
Layer8$C$L8
 62
     3
 10
-142.3269654471
 20
154.6386366537
 40
3.0000000000
  1
俿
 41
0.8666655909
 50
270.0000000000
 72
     5
 11
-142.3269654471
 21
152.0386398811
  0
TEXT
  8
Layer8$C$L8
 62
     3
 10
-142.3269807059
 20
152.0136366537
 40
3.0000000000
  1
俷
 41
0.8666655909
 50
270.0000000000
 72
     5
 11
-142.3269807059
 21
149.4136398811
  0
ARC
  8
Layer1$C$L1
 62
     3
 10
-137.2270356375
 20
157.9066881323
 40
0.5000000000
 50
89.9999273724
 51
179.9999640278
  0
ARC
  8
Layer1$C$L1
 62
     3
 10
-137.2270356375
 20
143.7066301489
 40
0.5000000000
 50
179.9999640278
 51
269.9999460417
  0
ARC
  8
Layer1$C$L1
 62
     3
 10
-134.5270539481
 20
162.6066393042
 40
1.0000000000
 50
89.9999820139
 51
179.9999640278
  0
ARC
  8
Layer1$C$L1
 62
     3
 10
-134.5270539481
 20
139.0066789770
 40
1.0000000000
 50
179.9999640278
 51
270.0000006832
  0
LINE
  8
Layer1$C$L1
 62
     3
 10
-134.3269959647
 20
162.0065874243
 11
-131.8269959647
 21
162.0065874243
  0
LINE
  8
Layer1$C$L1
 62
     3
 10
-134.3269959647
 20
151.4065965796
 11
-134.3269959647
 21
163.6065935278
  0
LINE
  8
Layer1$C$L1
 62
     3
 10
-131.8269959647
 20
151.4065965796
 11
-134.3269959647
 21
151.4065965796
  0
LINE
  8
Layer1$C$L1
 62
     3
 10
-131.8269959647
 20
163.6065935278
 11
-131.8269959647
 21
151.4065965796
  0
LINE
  8
Layer1$C$L1
 62
     3
 10
-131.8269959647
 20
139.6065935278
 11
-134.3269959647
 21
139.6065935278
  0
LINE
  8
Layer1$C$L1
 62
     3
 10
-134.3269959647
 20
138.0065874243
 11
-134.3269959647
 21
150.2065843725
  0
LINE
  8
Layer1$C$L1
 62
     3
 10
-134.3269959647
 20
150.2065843725
 11
-131.8269959647
 21
150.2065843725
  0
LINE
  8
Layer1$C$L1
 62
     3
 10
-131.8269959647
 20
150.2065843725
 11
-131.8269959647
 21
138.0065874243
  0
LINE
  8
Layer1$C$L1
 62
     3
 10
-129.7770076859
 20
141.8474681506
 11
-131.0270076859
 21
141.8474834094
  0
LINE
  8
Layer1$C$L1
 62
     3
 10
-129.7770870315
 20
135.3474681506
 11
-131.0270870315
 21
135.3474834094
  0
LINE
  8
Layer1$C$L1
 62
     3
 10
-129.7770844656
 20
138.0066332007
 11
-127.0270997244
 21
138.0066332007
  0
LINE
  8
Layer1$C$L1
 62
     3
 10
-128.1770783621
 20
139.3931688452
 11
-128.1770783621
 21
144.7441209936
  0
LINE
  8
Layer1$C$L1
 62
     3
 10
-128.9770814139
 20
139.3931688452
 11
-128.9770814139
 21
144.7441209936
  0
LINE
  8
Layer1$C$L1
 62
     3
 10
-129.7770844656
 20
144.7441209936
 11
-129.7770844656
 21
135.3474535132
  0
LINE
  8
Layer1$C$L1
 62
     3
 10
-149.6770301041
 20
151.0075690668
 11
-148.0271735367
 21
151.0075797765
  0
LINE
  8
Layer1$C$L1
 62
     3
 10
-148.0271760184
 20
144.1067308569
 11
-148.0271760184
 21
141.7067064429
  0
LINE
  8
Layer1$C$L1
 62
     3
 10
-148.0271760184
 20
157.7065691138
 11
-148.0271760184
 21
155.3066667700
  0
LINE
  8
Layer1$C$L1
 62
     3
 10
-148.0271760184
 20
151.0072282934
 11
-148.0271760184
 21
148.5066332007
  0
LINE
  8
Layer1$C$L1
 62
     3
 10
-149.6770478562
 20
151.0075689826
 11
-149.6770312706
 21
148.5075689826
  0
LINE
  8
Layer1$C$L1
 62
     3
 10
-149.6771546561
 20
148.5066332007
 11
-148.0271760184
 21
148.5066332007
  0
LINE
  8
Layer1$C$L1
 62
     3
 10
-149.6769362647
 20
157.7075202411
 11
-148.0272017676
 21
157.7075309500
  0
LINE
  8
Layer1$C$L1
 62
     3
 10
-149.6770770466
 20
157.7075201546
 11
-149.6770611243
 21
155.3074957405
  0
LINE
  8
Layer1$C$L1
 62
     3
 10
-149.6771546561
 20
155.3066667700
 11
-148.0271760184
 21
155.3066667700
  0
LINE
  8
Layer1$C$L1
 62
     3
 10
-149.6769853146
 20
144.1076667230
 11
-148.0271134884
 21
144.1076774329
  0
LINE
  8
Layer1$C$L1
 62
     3
 10
-149.6770020805
 20
144.1076666388
 11
-149.6769861581
 21
141.7076422248
  0
LINE
  8
Layer1$C$L1
 62
     3
 10
-149.6771546561
 20
141.7067064429
 11
-148.0271760184
 21
141.7067064429
  0
LINE
  8
Layer1$C$L1
 62
     3
 10
-131.0270997244
 20
144.7441820288
 11
-127.0270997244
 21
144.7441820288
  0
LINE
  8
Layer1$C$L1
 62
     3
 10
-129.7770844656
 20
139.3932298804
 11
-127.0270997244
 21
139.3932298804
  0
LINE
  8
Layer1$C$L1
 62
     3
 10
-131.0270997244
 20
135.3475298071
 11
-131.0270997244
 21
144.7441820288
  0
LINE
  8
Layer1$C$L1
 62
     3
 10
-128.8270875174
 20
148.7065843725
 11
-129.9270783621
 21
148.7065843725
  0
LINE
  8
Layer1$C$L1
 62
     3
 10
-129.9270783621
 20
152.9066423559
 11
-128.8270875174
 21
152.9066423559
  0
LINE
  8
Layer1$C$L1
 62
     3
 10
-137.2270661551
 20
158.4066423559
 11
-135.5270844656
 21
158.4066423559
  0
LINE
  8
Layer1$C$L1
 62
     3
 10
-135.5270844656
 20
143.2065843725
 11
-137.2270661551
 21
143.2065843725
  0
LINE
  8
Layer1$C$L1
 62
     3
 10
-137.7270661551
 20
143.7065843725
 11
-137.7270661551
 21
157.9066423559
  0
LINE
  8
Layer1$C$L1
 62
     3
 10
-129.9270783621
 20
148.7065843725
 11
-129.9270783621
 21
152.9066423559
  0
LINE
  8
Layer1$C$L1
 62
     3
 10
-128.8270875174
 20
152.9066423559
 11
-128.8270875174
 21
148.7065843725
  0
LINE
  8
Layer1$C$L1
 62
     3
 10
-135.2411500174
 20
138.3065599585
 11
-151.3269501883
 21
138.3065599585
  0
LINE
  8
Layer1$C$L1
 62
     3
 10
-151.3269501883
 20
138.3065599585
 11
-151.3269501883
 21
163.3065446997
  0
LINE
  8
Layer1$C$L1
 62
     3
 10
-151.3269501883
 20
163.3065446997
 11
-135.2412720877
 21
163.3065446997
  0
LINE
  8
Layer1$C$L1
 62
     3
 10
-134.5270844656
 20
163.6065935278
 11
-127.0270997244
 21
163.6065935278
  0
LINE
  8
Layer1$C$L1
 62
     3
 10
-127.0270997244
 20
163.6065935278
 11
-127.0270997244
 21
138.0066332007
  0
LINE
  8
Layer1$C$L1
 62
     3
 10
-135.5270844656
 20
139.0066332007
 11
-135.5270844656
 21
162.6065935278
  0
LINE
  8
Layer1$C$L1
 62
     3
 10
-134.5270844656
 20
138.0066332007
 11
-131.0270844656
 21
138.0066332007
  0
TEXT
  8
Layer8$C$L8
 62
     3
 10
-131.1648896295
 20
152.5850334561
 40
0.8999999762
  1
LOCK
 50
270.0000000000
 72
     5
 11
-131.1648896295
 21
149.1050316215
  0
ARC
  8
Layer1$C$L1
  6
DASH
 62
     3
 10
-162.0770417410
 20
163.6065324927
 40
0.2999999523
 50
89.9999820139
 51
179.9999640278
  0
ARC
  8
Layer1$C$L1
  6
DASH
 62
     3
 10
-162.0770417410
 20
138.0065263891
 40
0.2999999523
 50
179.9999640278
 51
269.9999460417
  0
ARC
  8
Layer1$C$L1
  6
DASH
 62
     3
 10
-151.4770508963
 20
157.9065355444
 40
0.4000000954
 50
89.9999820139
 51
269.9999460417
  0
ARC
  8
Layer1$C$L1
  6
DASH
 62
     3
 10
-151.4770508963
 20
153.9065355444
 40
0.4000000954
 50
89.9999820139
 51
269.9999460417
  0
ARC
  8
Layer1$C$L1
  6
DASH
 62
     3
 10
-151.4770508963
 20
145.5065416479
 40
0.4000000954
 50
89.9999820139
 51
269.9999460417
  0
ARC
  8
Layer1$C$L1
  6
DASH
 62
     3
 10
-151.4770508963
 20
141.5065416479
 40
0.4000000954
 50
89.9999820139
 51
269.9999460417
  0
LINE
  8
Layer1$C$L1
 62
     3
 10
-160.3267060477
 20
155.9065813208
 11
-160.3267060477
 21
155.4065813208
  0
LINE
  8
Layer1$C$L1
 62
     3
 10
-160.3267060477
 20
155.9065813208
 11
-151.3269501883
 21
155.9065813208
  0
LINE
  8
Layer1$C$L1
 62
     3
 10
-160.3267060477
 20
155.4065813208
 11
-151.3269501883
 21
155.4065813208
  0
LINE
  8
Layer1$C$L1
  6
DASH
 62
     3
 10
-147.5770417410
 20
153.5064806128
 11
-147.5770417410
 21
145.9064745093
  0
LINE
  8
Layer1$C$L1
  6
DASH
 62
     3
 10
-147.5770417410
 20
157.5064806128
 11
-147.5770417410
 21
154.3064836645
  0
LINE
  8
Layer1$C$L1
  6
DASH
 62
     3
 10
-147.5770417410
 20
141.1064714575
 11
-147.5770417410
 21
137.7064775610
  0
LINE
  8
Layer1$C$L1
  6
DASH
 62
     3
 10
-147.5770417410
 20
145.1064714575
 11
-147.5770417410
 21
141.9064745093
  0
LINE
  8
Layer1$C$L1
  6
DASH
 62
     3
 10
-147.5770417410
 20
141.1064714575
 11
-151.4770508963
 21
141.1064714575
  0
LINE
  8
Layer1$C$L1
  6
DASH
 62
     3
 10
-147.5770417410
 20
141.9064745093
 11
-151.4770508963
 21
141.9064745093
  0
LINE
  8
Layer1$C$L1
  6
DASH
 62
     3
 10
-147.5770417410
 20
145.1064714575
 11
-151.4770508963
 21
145.1064714575
  0
LINE
  8
Layer1$C$L1
  6
DASH
 62
     3
 10
-147.5770417410
 20
145.9064745093
 11
-151.4770508963
 21
145.9064745093
  0
LINE
  8
Layer1$C$L1
  6
DASH
 62
     3
 10
-147.5770417410
 20
158.3064836645
 11
-151.4770508963
 21
158.3064836645
  0
LINE
  8
Layer1$C$L1
  6
DASH
 62
     3
 10
-147.5770417410
 20
157.5064806128
 11
-151.4770508963
 21
157.5064806128
  0
LINE
  8
Layer1$C$L1
  6
DASH
 62
     3
 10
-147.5770417410
 20
154.3064836645
 11
-151.4770508963
 21
154.3064836645
  0
LINE
  8
Layer1$C$L1
  6
DASH
 62
     3
 10
-147.5770417410
 20
153.5064806128
 11
-151.4770508963
 21
153.5064806128
  0
LINE
  8
Layer1$C$L1
  6
DASH
 62
     3
 10
-147.5770417410
 20
163.9064745093
 11
-147.5770417410
 21
158.3064836645
  0
LINE
  8
Layer1$C$L1
  6
DASH
 62
     3
 10
-162.3769837576
 20
163.6064714575
 11
-162.3769837576
 21
138.0064653540
  0
LINE
  8
Layer1$C$L1
  6
DASH
 62
     3
 10
-147.5770417410
 20
137.7064775610
 11
-162.0769959647
 21
137.7064775610
  0
LINE
  8
Layer1$C$L1
  6
DASH
 62
     3
 10
-147.5770417410
 20
163.9064745093
 11
-162.0769959647
 21
163.9064745093
  0
LINE
  8
Layer1$C$L1
 62
     3
 10
-160.3267365652
 20
149.1065782690
 11
-160.3267365652
 21
148.6065782690
  0
LINE
  8
Layer1$C$L1
 62
     3
 10
-160.3267213065
 20
142.3065904761
 11
-160.3267213065
 21
141.8065904761
  0
LINE
  8
Layer1$C$L1
 62
     3
 10
-160.3267365652
 20
148.6065782690
 11
-151.3269807059
 21
148.6065782690
  0
LINE
  8
Layer1$C$L1
 62
     3
 10
-160.3267365652
 20
149.1065782690
 11
-151.3269807059
 21
149.1065782690
  0
LINE
  8
Layer1$C$L1
 62
     3
 10
-160.3267213065
 20
142.3065904761
 11
-151.3269654471
 21
142.3065904761
  0
LINE
  8
Layer1$C$L1
 62
     3
 10
-160.3267213065
 20
141.8065904761
 11
-151.3269654471
 21
141.8065904761
  0
LINE
  8
Layer1$C$L1
 62
     3
 10
-70.7017609385
 20
107.0933643308
 11
-71.7409887615
 21
106.4933658566
  0
LINE
  8
Layer1$C$L1
 62
     3
 10
-71.7409887615
 20
106.4933658566
 11
-71.3816715085
 21
105.8710101295
  0
ARC
  8
Layer1$C$L1
 62
     3
 10
-71.9048161109
 20
106.3771319557
 40
1.0000000000
 50
122.6974089671
 51
210.4058500348
  0
ARC
  8
Layer1$C$L1
 62
     3
 10
-62.7214054663
 20
92.0710101295
 40
18.0000000000
 50
117.3028709191
 51
122.6974089671
  0
LINE
  8
Layer1$C$L1
 62
     3
 10
-69.6531618308
 20
107.6771312638
 11
-68.6103972890
 21
105.8710101295
  0
LINE
  8
Layer1$C$L1
 62
     3
 10
-70.7017609385
 20
107.0933643308
 11
-69.9960343987
 21
105.8710101295
  0
ARC
  8
Layer1$C$L1
 62
     3
 10
-70.5191807349
 20
107.1771350074
 40
1.0000000000
 50
30.0000004453
 51
117.3028709191
  0
LINE
  8
Layer1$C$L1
  6
CENTER
 62
     3
 10
-78.9268738943
 20
150.8065141821
 11
-155.8646851736
 21
150.8065141821
  0
INSERT
  8
Layer6$C$L6
 62
     3
  2
*X0
 10
0.000000
 20
0.000000
  0
ENDSEC
  0
EOF
