  0
SECTION
  2
HEADER
  9
$ACADVER
  1
AC1015
  9
$ACADMAINTVER
 70
    13
  9
$DWGCODEPAGE
  3
ANSI_932
  9
$INSBASE
 10
0.0
 20
0.0
 30
0.0
  9
$EXTMIN
 10
-0.0227841962072262
 20
-0.0006861695501357
 30
-0.0000000000112498
  9
$EXTMAX
 10
210.0067808168283
 20
297.0014252377497
 30
0.0000000000002956
  9
$LIMMIN
 10
-188.7725189209
 20
-3.174999999999998
  9
$LIMMAX
 10
3.174999999999998
 20
291.2585876465
  9
$ORTHOMODE
 70
     0
  9
$REGENMODE
 70
     1
  9
$FILLMODE
 70
     1
  9
$QTEXTMODE
 70
     0
  9
$MIRRTEXT
 70
     0
  9
$LTSCALE
 40
1.0
  9
$ATTMODE
 70
     1
  9
$TEXTSIZE
 40
2.999994039499997
  9
$TRACEWID
 40
0.05
  9
$TEXTSTYLE
  7
STANDARD
  9
$CLAYER
  8
0
  9
$CELTYPE
  6
ByLayer
  9
$CECOLOR
 62
   256
  9
$CELTSCALE
 40
1.0
  9
$DISPSILH
 70
     0
  9
$DIMSCALE
 40
1.0
  9
$DIMASZ
 40
1.9727878465
  9
$DIMEXO
 40
2.539999961899999
  9
$DIMDLI
 40
0.38
  9
$DIMRND
 40
0.0
  9
$DIMDLE
 40
0.0
  9
$DIMEXE
 40
3.809999942799997
  9
$DIMTP
 40
0.0
  9
$DIMTM
 40
0.0
  9
$DIMTXT
 40
2.999994039499997
  9
$DIMCEN
 40
0.09
  9
$DIMTSZ
 40
0.0
  9
$DIMTOL
 70
     0
  9
$DIMLIM
 70
     0
  9
$DIMTIH
 70
     0
  9
$DIMTOH
 70
     1
  9
$DIMSE1
 70
     0
  9
$DIMSE2
 70
     0
  9
$DIMTAD
 70
     0
  9
$DIMZIN
 70
     0
  9
$DIMBLK
  1

  9
$DIMASO
 70
     1
  9
$DIMSHO
 70
     0
  9
$DIMPOST
  1

  9
$DIMAPOST
  1

  9
$DIMALT
 70
     0
  9
$DIMALTD
 70
     2
  9
$DIMALTF
 40
25.4
  9
$DIMLFAC
 40
1.0
  9
$DIMTOFL
 70
     0
  9
$DIMTVP
 40
0.0
  9
$DIMTIX
 70
     0
  9
$DIMSOXD
 70
     0
  9
$DIMSAH
 70
     0
  9
$DIMBLK1
  1

  9
$DIMBLK2
  1

  9
$DIMSTYLE
  2
Standard
  9
$DIMCLRD
 70
     0
  9
$DIMCLRE
 70
     0
  9
$DIMCLRT
 70
     0
  9
$DIMTFAC
 40
1.0
  9
$DIMGAP
 40
0.09
  9
$DIMJUST
 70
     0
  9
$DIMSD1
 70
     0
  9
$DIMSD2
 70
     0
  9
$DIMTOLJ
 70
     1
  9
$DIMTZIN
 70
     0
  9
$DIMALTZ
 70
     0
  9
$DIMALTTZ
 70
     0
  9
$DIMUPT
 70
     0
  9
$DIMDEC
 70
     4
  9
$DIMTDEC
 70
     4
  9
$DIMALTU
 70
     2
  9
$DIMALTTD
 70
     2
  9
$DIMTXSTY
  7
STANDARD
  9
$DIMAUNIT
 70
     0
  9
$DIMADEC
 70
     0
  9
$DIMALTRND
 40
0.0
  9
$DIMAZIN
 70
     0
  9
$DIMDSEP
 70
    46
  9
$DIMATFIT
 70
     3
  9
$DIMFRAC
 70
     0
  9
$DIMLDRBLK
  1

  9
$DIMLUNIT
 70
     2
  9
$DIMLWD
 70
    -2
  9
$DIMLWE
 70
    -2
  9
$DIMTMOVE
 70
     0
  9
$LUNITS
 70
     2
  9
$LUPREC
 70
     3
  9
$SKETCHINC
 40
0.1
  9
$FILLETRAD
 40
0.0625
  9
$AUNITS
 70
     0
  9
$AUPREC
 70
     0
  9
$MENU
  1
ACAD
  9
$ELEVATION
 40
0.0
  9
$PELEVATION
 40
0.0
  9
$THICKNESS
 40
0.0
  9
$LIMCHECK
 70
     0
  9
$CHAMFERA
 40
0.0
  9
$CHAMFERB
 40
0.0
  9
$CHAMFERC
 40
0.0
  9
$CHAMFERD
 40
0.0
  9
$SKPOLY
 70
     0
  9
$TDCREATE
 40
2452506.701307870
  9
$TDUCREATE
 40
2452506.326307870
  9
$TDUPDATE
 40
2453318.578673854
  9
$TDUUPDATE
 40
2453318.203673854
  9
$TDINDWG
 40
0.0051119560
  9
$TDUSRTIMER
 40
0.0051068866
  9
$USRTIMER
 70
     1
  9
$ANGBASE
 50
0.0
  9
$ANGDIR
 70
     0
  9
$PDMODE
 70
     0
  9
$PDSIZE
 40
0.0
  9
$PLINEWID
 40
0.0
  9
$SPLFRAME
 70
     0
  9
$SPLINETYPE
 70
     6
  9
$SPLINESEGS
 70
     8
  9
$HANDSEED
  5
232
  9
$SURFTAB1
 70
     6
  9
$SURFTAB2
 70
     6
  9
$SURFTYPE
 70
     6
  9
$SURFU
 70
     6
  9
$SURFV
 70
     6
  9
$UCSBASE
  2

  9
$UCSNAME
  2

  9
$UCSORG
 10
0.0
 20
0.0
 30
0.0
  9
$UCSXDIR
 10
1.0
 20
0.0
 30
0.0
  9
$UCSYDIR
 10
0.0
 20
1.0
 30
0.0
  9
$UCSORTHOREF
  2

  9
$UCSORTHOVIEW
 70
     0
  9
$UCSORGTOP
 10
0.0
 20
0.0
 30
0.0
  9
$UCSORGBOTTOM
 10
0.0
 20
0.0
 30
0.0
  9
$UCSORGLEFT
 10
0.0
 20
0.0
 30
0.0
  9
$UCSORGRIGHT
 10
0.0
 20
0.0
 30
0.0
  9
$UCSORGFRONT
 10
0.0
 20
0.0
 30
0.0
  9
$UCSORGBACK
 10
0.0
 20
0.0
 30
0.0
  9
$PUCSBASE
  2

  9
$PUCSNAME
  2

  9
$PUCSORG
 10
0.0
 20
0.0
 30
0.0
  9
$PUCSXDIR
 10
1.0
 20
0.0
 30
0.0
  9
$PUCSYDIR
 10
0.0
 20
1.0
 30
0.0
  9
$PUCSORTHOREF
  2

  9
$PUCSORTHOVIEW
 70
     0
  9
$PUCSORGTOP
 10
0.0
 20
0.0
 30
0.0
  9
$PUCSORGBOTTOM
 10
0.0
 20
0.0
 30
0.0
  9
$PUCSORGLEFT
 10
0.0
 20
0.0
 30
0.0
  9
$PUCSORGRIGHT
 10
0.0
 20
0.0
 30
0.0
  9
$PUCSORGFRONT
 10
0.0
 20
0.0
 30
0.0
  9
$PUCSORGBACK
 10
0.0
 20
0.0
 30
0.0
  9
$USERI1
 70
     9
  9
$USERI2
 70
     0
  9
$USERI3
 70
     0
  9
$USERI4
 70
     0
  9
$USERI5
 70
     0
  9
$USERR1
 40
0.0
  9
$USERR2
 40
0.0
  9
$USERR3
 40
0.0
  9
$USERR4
 40
0.0
  9
$USERR5
 40
0.0
  9
$WORLDVIEW
 70
     1
  9
$SHADEDGE
 70
     3
  9
$SHADEDIF
 70
    70
  9
$TILEMODE
 70
     1
  9
$MAXACTVP
 70
    64
  9
$PINSBASE
 10
0.0
 20
0.0
 30
0.0
  9
$PLIMCHECK
 70
     0
  9
$PEXTMIN
 10
1.000000000000000E+20
 20
1.000000000000000E+20
 30
1.000000000000000E+20
  9
$PEXTMAX
 10
-1.000000000000000E+20
 20
-1.000000000000000E+20
 30
-1.000000000000000E+20
  9
$PLIMMIN
 10
0.0
 20
0.0
  9
$PLIMMAX
 10
12.0
 20
9.0
  9
$UNITMODE
 70
     0
  9
$VISRETAIN
 70
     1
  9
$PLINEGEN
 70
     0
  9
$PSLTSCALE
 70
     1
  9
$TREEDEPTH
 70
  3020
  9
$CMLSTYLE
  2
Standard
  9
$CMLJUST
 70
     0
  9
$CMLSCALE
 40
1.0
  9
$PROXYGRAPHICS
 70
     1
  9
$MEASUREMENT
 70
     0
  9
$CELWEIGHT
370
    -1
  9
$ENDCAPS
280
     0
  9
$JOINSTYLE
280
     0
  9
$LWDISPLAY
290
     0
  9
$INSUNITS
 70
     0
  9
$HYPERLINKBASE
  1

  9
$STYLESHEET
  1
ものくろ0.2.CTB
  9
$XEDIT
290
     1
  9
$CEPSNTYPE
380
     0
  9
$PSTYLEMODE
290
     1
  9
$FINGERPRINTGUID
  2
{7899F7B4-91F5-4480-A988-FA89C0541BF0}
  9
$VERSIONGUID
  2
{4ACF2311-208B-4742-8C13-6207600468F6}
  9
$EXTNAMES
290
     1
  9
$PSVPSCALE
 40
0.0
  9
$OLESTARTUP
290
     0
  0
ENDSEC
  0
SECTION
  2
CLASSES
  0
CLASS
  1
ACDBDICTIONARYWDFLT
  2
AcDbDictionaryWithDefault
  3
AutoCAD 2000
 90
        0
280
     0
281
     0
  0
CLASS
  1
ACDBPLACEHOLDER
  2
AcDbPlaceHolder
  3
AutoCAD 2000
 90
        0
280
     0
281
     0
  0
CLASS
  1
LAYOUT
  2
AcDbLayout
  3
AutoCAD 2000
 90
        0
280
     0
281
     0
  0
CLASS
  1
DICTIONARYVAR
  2
AcDbDictionaryVar
  3
AutoCAD 2000
 90
        0
280
     0
281
     0
  0
ENDSEC
  0
SECTION
  2
TABLES
  0
TABLE
  2
VPORT
  5
19
330
0
100
AcDbSymbolTable
 70
     2
  0
VPORT
  5
231
330
19
100
AcDbSymbolTableRecord
100
AcDbViewportTableRecord
  2
*Active
 70
     0
 10
0.0
 20
0.0
 11
1.0
 21
1.0
 12
104.9919983103105
 22
148.5003695340997
 13
0.0
 23
0.0
 14
1.0
 24
1.0
 15
0.0
 25
0.0
 16
0.0
 26
0.0
 36
1.0
 17
0.0
 27
0.0
 37
0.0
 40
300.6763643319262
 41
2.072314049586776
 42
50.0
 43
0.0
 44
0.0
 50
0.0
 51
0.0
 71
     0
 72
   100
 73
     1
 74
     1
 75
     0
 76
     0
 77
     0
 78
     0
281
     0
 65
     1
110
0.0
120
0.0
130
0.0
111
1.0
121
0.0
131
0.0
112
0.0
122
1.0
132
0.0
 79
     0
146
0.0
  0
ENDTAB
  0
TABLE
  2
LTYPE
  5
14
330
0
100
AcDbSymbolTable
 70
     3
  0
LTYPE
  5
15
330
14
100
AcDbSymbolTableRecord
100
AcDbLinetypeTableRecord
  2
ByBlock
 70
     0
  3

 72
    65
 73
     0
 40
0.0
  0
LTYPE
  5
16
330
14
100
AcDbSymbolTableRecord
100
AcDbLinetypeTableRecord
  2
ByLayer
 70
     0
  3

 72
    65
 73
     0
 40
0.0
  0
LTYPE
  5
8
330
14
100
AcDbSymbolTableRecord
100
AcDbLinetypeTableRecord
  2
Continuous
 70
     0
  3
Solid line
 72
    65
 73
     0
 40
0.0
  0
LTYPE
  5
84
330
14
100
AcDbSymbolTableRecord
100
AcDbLinetypeTableRecord
  2
DASH
 70
     0
  3
Dash
 72
    65
 73
     2
 40
1.9999960661
 49
0.9999980329999999
 74
     0
 49
-0.9999980329999999
 74
     0
  0
LTYPE
  5
28
330
14
100
AcDbSymbolTableRecord
100
AcDbLinetypeTableRecord
  2
CENTER
 70
     0
  3
Center
 72
    65
 73
     4
 40
9.100006759199999
 49
6.5000119209
 74
     0
 49
-0.7999984026000001
 74
     0
 49
0.9999980329999999
 74
     0
 49
-0.7999984026000001
 74
     0
  0
ENDTAB
  0
TABLE
  2
LAYER
  5
10
330
0
100
AcDbSymbolTable
 70
     1
  0
LAYER
  5
4
330
10
100
AcDbSymbolTableRecord
100
AcDbLayerTableRecord
  2
0
 70
     0
 62
     7
  6
Continuous
370
    -3
390
5
  0
ENDTAB
  0
TABLE
  2
STYLE
  5
11
330
0
100
AcDbSymbolTable
 70
     1
  0
STYLE
  5
12
330
11
100
AcDbSymbolTableRecord
100
AcDbTextStyleTableRecord
  2
STANDARD
 70
     0
 40
0.0
 41
1.0
 50
0.0
 71
     0
 42
2.999994039499997
  3
romans.shx
  4
bigfont.shx
  0
ENDTAB
  0
TABLE
  2
VIEW
  5
17
330
0
100
AcDbSymbolTable
 70
     0
  0
ENDTAB
  0
TABLE
  2
UCS
  5
18
330
0
100
AcDbSymbolTable
 70
     0
  0
ENDTAB
  0
TABLE
  2
APPID
  5
1B
330
0
100
AcDbSymbolTable
 70
     1
  0
APPID
  5
1C
330
1B
100
AcDbSymbolTableRecord
100
AcDbRegAppTableRecord
  2
ACAD
 70
     0
  0
ENDTAB
  0
TABLE
  2
DIMSTYLE
  5
1D
330
0
100
AcDbSymbolTable
 70
     1
100
AcDbDimStyleTable
 71
     0
  0
DIMSTYLE
105
23
330
1D
100
AcDbSymbolTableRecord
100
AcDbDimStyleTableRecord
  2
Standard
 70
     0
340
12
  0
ENDTAB
  0
TABLE
  2
BLOCK_RECORD
  5
1
330
0
100
AcDbSymbolTable
 70
     1
  0
BLOCK_RECORD
  5
2
330
1
100
AcDbSymbolTableRecord
100
AcDbBlockTableRecord
  2
*Model_Space
340
A
  0
BLOCK_RECORD
  5
C
330
1
100
AcDbSymbolTableRecord
100
AcDbBlockTableRecord
  2
*Paper_Space
340
F
  0
BLOCK_RECORD
  5
21A
330
1
100
AcDbSymbolTableRecord
100
AcDbBlockTableRecord
  2
new block
340
0
102
{BLKREFS
331
21E
102
}
  0
ENDTAB
  0
ENDSEC
  0
SECTION
  2
BLOCKS
  0
BLOCK
  5
3
330
2
100
AcDbEntity
  8
0
100
AcDbBlockBegin
  2
*Model_Space
 70
     2
 10
0.0
 20
0.0
 30
0.0
  3
*Model_Space
  1

  0
ENDBLK
  5
9
330
2
100
AcDbEntity
  8
0
100
AcDbBlockEnd
  0
BLOCK
  5
D
330
C
100
AcDbEntity
 67
     1
  8
0
100
AcDbBlockBegin
  2
*Paper_Space
 70
     0
 10
0.0
 20
0.0
 30
0.0
  3
*Paper_Space
  1

  0
ENDBLK
  5
E
330
C
100
AcDbEntity
 67
     1
  8
0
100
AcDbBlockEnd
  0
BLOCK
  5
21C
330
21A
100
AcDbEntity
  8
0
100
AcDbBlockBegin
  2
new block
 70
     0
 10
0.0
 20
0.0
 30
0.0
  3
new block
  1

  0
LINE
  5
21B
330
21A
100
AcDbEntity
  8
0
100
AcDbLine
 10
-250.0
 20
168.5
 30
0.0
 11
40.0
 21
168.5
 31
0.0
  0
ENDBLK
  5
21D
330
21A
100
AcDbEntity
  8
0
100
AcDbBlockEnd
  0
ENDSEC
  0
SECTION
  2
ENTITIES
  0
LINE
  5
24
330
2
100
AcDbEntity
  8
0
100
AcDbLine
 10
0.0
 20
297.0
 30
0.0
 11
0.0
 21
0.0
 31
0.0
  0
LINE
  5
25
330
2
100
AcDbEntity
  8
0
100
AcDbLine
 10
210.0
 20
0.0
 30
0.0
 11
210.0
 21
297.0
 31
0.0
  0
LINE
  5
26
330
2
100
AcDbEntity
  8
0
100
AcDbLine
 10
0.0
 20
0.0
 30
0.0
 11
210.0
 21
0.0
 31
0.0
  0
LINE
  5
27
330
2
100
AcDbEntity
  8
0
  6
CENTER
 62
     3
100
AcDbLine
 10
50.81414276789999
 20
183.7116699217999
 30
0.0
 11
50.81414276789999
 21
153.2940063475999
 31
0.0
  0
ARC
  5
29
330
2
100
AcDbEntity
  8
0
 62
     3
100
AcDbCircle
 10
50.8141580267
 20
168.5001220703
 30
0.0
 40
12.7999954224
100
AcDbArc
 50
32.6198155136
 51
147.3800733821
  0
ARC
  5
2A
330
2
100
AcDbEntity
  8
0
 62
     3
100
AcDbCircle
 10
50.8141580267
 20
168.5001220703
 30
0.0
 40
12.7999954224
100
AcDbArc
 50
226.5990835468999
 51
313.4010173121
  0
LINE
  5
2B
330
2
100
AcDbEntity
  8
0
 62
     3
100
AcDbLine
 10
53.01413971619999
 20
174.2001190184999
 30
0.0
 11
59.3141580267
 21
174.2001190184999
 31
0.0
  0
LINE
  5
2C
330
2
100
AcDbEntity
  8
0
 62
     3
100
AcDbLine
 10
53.01413971619999
 20
160.4001159667999
 30
0.0
 11
59.3141580267
 21
160.4001159667999
 31
0.0
  0
LINE
  5
2D
330
2
100
AcDbEntity
  8
0
 62
     3
100
AcDbLine
 10
39.31414276789999
 20
159.2001190184999
 30
0.0
 11
62.31414276789998
 21
159.2001190184999
 31
0.0
  0
LINE
  5
2E
330
2
100
AcDbEntity
  8
0
  6
CENTER
 62
     3
100
AcDbLine
 10
34.23801666929998
 20
168.5001220703
 30
0.0
 11
67.21708161069996
 21
168.5001220703
 31
0.0
  0
LINE
  5
2F
330
2
100
AcDbEntity
  8
0
 62
     3
100
AcDbLine
 10
39.31414276789999
 20
175.4001159668
 30
0.0
 11
62.31414276789998
 21
175.4001159668
 31
0.0
  0
ARC
  5
30
330
2
100
AcDbEntity
  8
0
 62
     3
100
AcDbCircle
 10
50.81414276789999
 20
168.5001220703
 30
0.0
 40
12.9
100
AcDbArc
 50
226.1313552156
 51
313.8686447843998
  0
ARC
  5
31
330
2
100
AcDbEntity
  8
0
 62
     3
100
AcDbCircle
 10
50.8141580267
 20
168.5001220703
 30
0.0
 40
10.25
100
AcDbArc
 50
42.31218179499999
 51
137.6877071008
  0
ARC
  5
32
330
2
100
AcDbEntity
  8
0
 62
     3
100
AcDbCircle
 10
50.81414276789999
 20
168.5001220703
 30
0.0
 40
12.9
100
AcDbArc
 50
66.677217
 51
147.6640060869
  0
LINE
  5
33
330
2
100
AcDbEntity
  8
0
 62
     3
100
AcDbLine
 10
53.91424042419997
 20
160.4001464842999
 30
0.0
 11
53.91424042419997
 21
174.2001190184999
 31
0.0
  0
ARC
  5
34
330
2
100
AcDbEntity
  8
0
 62
     3
100
AcDbCircle
 10
50.8141580267
 20
168.5001220703
 30
0.0
 40
12.7999954224
100
AcDbArc
 50
167.5708229082998
 51
192.4291597888
  0
ARC
  5
35
330
2
100
AcDbEntity
  8
0
 62
     3
100
AcDbCircle
 10
50.81414276789999
 20
168.5001220703
 30
0.0
 40
12.9
100
AcDbArc
 50
165.6945536393
 51
194.3054463606999
  0
LINE
  5
36
330
2
100
AcDbEntity
  8
0
 62
     3
100
AcDbLine
 10
41.91424042419995
 20
160.4001464842999
 30
0.0
 11
41.91424042419995
 21
174.2001190184999
 31
0.0
  0
LINE
  5
37
330
2
100
AcDbEntity
  8
0
 62
     3
100
AcDbLine
 10
38.31414276789999
 20
174.4001159668
 30
0.0
 11
38.31414276789999
 21
160.2001190184999
 31
0.0
  0
LINE
  5
38
330
2
100
AcDbEntity
  8
0
 62
     3
100
AcDbLine
 10
48.71416718199998
 20
160.4001464842999
 30
0.0
 11
48.71416718199998
 21
174.2001190184999
 31
0.0
  0
LINE
  5
39
330
2
100
AcDbEntity
  8
0
 62
     3
100
AcDbLine
 10
47.11419159609997
 20
160.4001464842999
 30
0.0
 11
47.11419159609997
 21
174.2001190184999
 31
0.0
  0
LINE
  5
3A
330
2
100
AcDbEntity
  8
0
 62
     3
100
AcDbLine
 10
39.31414276789999
 20
160.4001159667999
 30
0.0
 11
45.71415192319998
 21
160.4001159667999
 31
0.0
  0
LINE
  5
3B
330
2
100
AcDbEntity
  8
0
 62
     3
100
AcDbLine
 10
39.31414276789999
 20
162.8001556395999
 30
0.0
 11
39.31414276789999
 21
160.4001159667999
 31
0.0
  0
LINE
  5
3C
330
2
100
AcDbEntity
  8
0
 62
     3
100
AcDbLine
 10
39.81414276789996
 20
162.7001190185
 30
0.0
 11
39.81414276789996
 21
160.4001159667999
 31
0.0
  0
ARC
  5
3D
330
2
100
AcDbEntity
  8
0
 62
     3
100
AcDbCircle
 10
39.31414276789999
 20
160.2001190184999
 30
0.0
 40
1.0
100
AcDbArc
 50
180.0000359722
 51
270.0000179861
  0
LINE
  5
3E
330
2
100
AcDbEntity
  8
0
 62
     3
100
AcDbLine
 10
39.81414276789996
 20
162.7001190185
 30
0.0
 11
39.31414276789999
 21
162.7001190185
 31
0.0
  0
LINE
  5
3F
330
2
100
AcDbEntity
  8
0
 62
     3
100
AcDbLine
 10
38.31422502679996
 20
162.8001261650998
 30
0.0
 11
39.31422502679996
 21
162.8001316149999
 31
0.0
  0
LINE
  5
40
330
2
100
AcDbEntity
  8
0
 62
     3
100
AcDbLine
 10
39.81414276789996
 20
166.1501007079998
 30
0.0
 11
39.81414276789996
 21
168.4501190185
 31
0.0
  0
LINE
  5
41
330
2
100
AcDbEntity
  8
0
 62
     3
100
AcDbLine
 10
39.31414276789999
 20
165.8001556395999
 30
0.0
 11
39.31414276789999
 21
168.8001403808
 31
0.0
  0
LINE
  5
42
330
2
100
AcDbEntity
  8
0
 62
     3
100
AcDbLine
 10
39.31414276789999
 20
166.1501007079998
 30
0.0
 11
39.81414276789996
 21
166.1501007079998
 31
0.0
  0
LINE
  5
43
330
2
100
AcDbEntity
  8
0
 62
     3
100
AcDbLine
 10
38.31422393579996
 20
165.8001261652
 30
0.0
 11
39.31422393579996
 21
165.8001316150999
 31
0.0
  0
LINE
  5
44
330
2
100
AcDbEntity
  8
0
 62
     3
100
AcDbLine
 10
38.31422284479993
 20
168.8001109064998
 30
0.0
 11
39.31422284479996
 21
168.8001163563999
 31
0.0
  0
LINE
  5
45
330
2
100
AcDbEntity
  8
0
 62
     3
100
AcDbLine
 10
39.31414276789999
 20
168.4501190185
 30
0.0
 11
39.81414276789996
 21
168.4501190185
 31
0.0
  0
LINE
  5
46
330
2
100
AcDbEntity
  8
0
 62
     3
100
AcDbLine
 10
46.21415192319997
 20
160.4001159667999
 30
0.0
 11
52.51413971619999
 21
160.4001159667999
 31
0.0
  0
ARC
  5
47
330
2
100
AcDbEntity
  8
0
 62
     3
100
AcDbCircle
 10
50.8141580267
 20
168.5001220703
 30
0.0
 40
10.25
100
AcDbArc
 50
245.1373097845
 51
294.8627808291
  0
LINE
  5
48
330
2
100
AcDbEntity
  8
0
 62
     3
100
AcDbLine
 10
45.71415192319998
 20
162.7001190185
 30
0.0
 11
45.71415192319998
 21
159.9001159668
 31
0.0
  0
LINE
  5
49
330
2
100
AcDbEntity
  8
0
 62
     3
100
AcDbLine
 10
46.21415192319997
 20
162.7001190185
 30
0.0
 11
46.21415192319997
 21
159.9001159668
 31
0.0
  0
LINE
  5
4A
330
2
100
AcDbEntity
  8
0
 62
     3
100
AcDbLine
 10
45.71418244079999
 20
161.8999633789
 30
0.0
 11
46.21418244079999
 21
161.8999633789
 31
0.0
  0
LINE
  5
4B
330
2
100
AcDbEntity
  8
0
 62
     3
100
AcDbLine
 10
46.21415192319997
 20
159.9001159668
 30
0.0
 11
45.71415192319998
 21
159.9001159668
 31
0.0
  0
LINE
  5
4C
330
2
100
AcDbEntity
  8
0
 62
     3
100
AcDbLine
 10
46.21415192319997
 20
162.7001190185
 30
0.0
 11
45.71415192319998
 21
162.7001190185
 31
0.0
  0
LINE
  5
4D
330
2
100
AcDbEntity
  8
0
 62
     3
100
AcDbLine
 10
52.51413971619999
 20
162.7001190185
 30
0.0
 11
52.51413971619999
 21
159.9001159668
 31
0.0
  0
LINE
  5
4E
330
2
100
AcDbEntity
  8
0
 62
     3
100
AcDbLine
 10
53.01413971619999
 20
162.7001190185
 30
0.0
 11
53.01413971619999
 21
159.9001159668
 31
0.0
  0
LINE
  5
4F
330
2
100
AcDbEntity
  8
0
 62
     3
100
AcDbLine
 10
52.51417023379997
 20
161.8999633789
 30
0.0
 11
53.01417023379997
 21
161.8999633789
 31
0.0
  0
LINE
  5
50
330
2
100
AcDbEntity
  8
0
 62
     3
100
AcDbLine
 10
53.01413971619999
 20
159.9001159668
 30
0.0
 11
52.51413971619999
 21
159.9001159668
 31
0.0
  0
LINE
  5
51
330
2
100
AcDbEntity
  8
0
 62
     3
100
AcDbLine
 10
53.01413971619999
 20
162.7001190185
 30
0.0
 11
52.51413971619999
 21
162.7001190185
 31
0.0
  0
LINE
  5
52
330
2
100
AcDbEntity
  8
0
 62
     3
100
AcDbLine
 10
45.71415192319998
 20
165.9001159668
 30
0.0
 11
45.71415192319998
 21
168.7001190185
 31
0.0
  0
LINE
  5
53
330
2
100
AcDbEntity
  8
0
 62
     3
100
AcDbLine
 10
46.21415192319997
 20
165.9001159668
 30
0.0
 11
46.21415192319997
 21
168.7001190185
 31
0.0
  0
LINE
  5
54
330
2
100
AcDbEntity
  8
0
 62
     3
100
AcDbLine
 10
45.71418244079999
 20
166.9000396728
 30
0.0
 11
46.21418244079999
 21
166.9000396728
 31
0.0
  0
LINE
  5
55
330
2
100
AcDbEntity
  8
0
 62
     3
100
AcDbLine
 10
45.71418244079999
 20
167.7000427245999
 30
0.0
 11
46.21418244079999
 21
167.7000427245999
 31
0.0
  0
LINE
  5
56
330
2
100
AcDbEntity
  8
0
 62
     3
100
AcDbLine
 10
46.21415192319997
 20
165.9001159668
 30
0.0
 11
45.71415192319998
 21
165.9001159668
 31
0.0
  0
LINE
  5
57
330
2
100
AcDbEntity
  8
0
 62
     3
100
AcDbLine
 10
46.21415192319997
 20
168.7001190185
 30
0.0
 11
45.71415192319998
 21
168.7001190185
 31
0.0
  0
LINE
  5
58
330
2
100
AcDbEntity
  8
0
 62
     3
100
AcDbLine
 10
52.51413971619999
 20
165.9001159668
 30
0.0
 11
52.51413971619999
 21
168.7001190185
 31
0.0
  0
LINE
  5
59
330
2
100
AcDbEntity
  8
0
 62
     3
100
AcDbLine
 10
53.01413971619999
 20
165.9001159668
 30
0.0
 11
53.01413971619999
 21
168.7001190185
 31
0.0
  0
LINE
  5
5A
330
2
100
AcDbEntity
  8
0
 62
     3
100
AcDbLine
 10
52.51417023379997
 20
166.9000396728
 30
0.0
 11
53.01417023379997
 21
166.9000396728
 31
0.0
  0
LINE
  5
5B
330
2
100
AcDbEntity
  8
0
 62
     3
100
AcDbLine
 10
52.51417023379997
 20
167.7000427245999
 30
0.0
 11
53.01417023379997
 21
167.7000427245999
 31
0.0
  0
LINE
  5
5C
330
2
100
AcDbEntity
  8
0
 62
     3
100
AcDbLine
 10
53.01413971619999
 20
165.9001159668
 30
0.0
 11
52.51413971619999
 21
165.9001159668
 31
0.0
  0
LINE
  5
5D
330
2
100
AcDbEntity
  8
0
 62
     3
100
AcDbLine
 10
53.01413971619999
 20
168.7001190185
 30
0.0
 11
52.51413971619999
 21
168.7001190185
 31
0.0
  0
LINE
  5
5E
330
2
100
AcDbEntity
  8
0
 62
     3
100
AcDbLine
 10
39.31414276789999
 20
174.2001190184999
 30
0.0
 11
45.71415192319998
 21
174.2001190184999
 31
0.0
  0
ARC
  5
5F
330
2
100
AcDbEntity
  8
0
 62
     3
100
AcDbCircle
 10
39.3141580267
 20
174.4001159668
 30
0.0
 40
1.0
100
AcDbArc
 50
89.99992737239997
 51
179.9999093863
  0
LINE
  5
60
330
2
100
AcDbEntity
  8
0
 62
     3
100
AcDbLine
 10
39.31414276789999
 20
171.9001007079999
 30
0.0
 11
39.81414276789996
 21
171.9001007079999
 31
0.0
  0
LINE
  5
61
330
2
100
AcDbEntity
  8
0
 62
     3
100
AcDbLine
 10
38.31422120879997
 20
171.9001017512999
 30
0.0
 11
39.31422120879997
 21
171.9001072012
 31
0.0
  0
LINE
  5
62
330
2
100
AcDbEntity
  8
0
 62
     3
100
AcDbLine
 10
39.81414276789996
 20
174.2001190184999
 30
0.0
 11
39.81414276789996
 21
171.9001159668
 31
0.0
  0
LINE
  5
63
330
2
100
AcDbEntity
  8
0
 62
     3
100
AcDbLine
 10
39.31414276789999
 20
171.9001159668
 30
0.0
 11
39.31414276789999
 21
174.2001190184999
 31
0.0
  0
LINE
  5
64
330
2
100
AcDbEntity
  8
0
 62
     3
100
AcDbLine
 10
46.21415192319997
 20
174.2001190184999
 30
0.0
 11
52.51413971619999
 21
174.2001190184999
 31
0.0
  0
LINE
  5
65
330
2
100
AcDbEntity
  8
0
 62
     3
100
AcDbLine
 10
46.21415192319997
 20
174.7001190184999
 30
0.0
 11
45.71415192319998
 21
174.7001190184999
 31
0.0
  0
LINE
  5
66
330
2
100
AcDbEntity
  8
0
 62
     3
100
AcDbLine
 10
45.71418244079999
 20
172.7000579833999
 30
0.0
 11
46.21418244079999
 21
172.7000579833999
 31
0.0
  0
LINE
  5
67
330
2
100
AcDbEntity
  8
0
 62
     3
100
AcDbLine
 10
46.21415192319997
 20
171.9001159668
 30
0.0
 11
45.71415192319998
 21
171.9001159668
 31
0.0
  0
LINE
  5
68
330
2
100
AcDbEntity
  8
0
 62
     3
100
AcDbLine
 10
45.71415192319998
 20
171.9001159668
 30
0.0
 11
45.71415192319998
 21
174.7001190184999
 31
0.0
  0
LINE
  5
69
330
2
100
AcDbEntity
  8
0
 62
     3
100
AcDbLine
 10
46.21415192319997
 20
174.7001190184999
 30
0.0
 11
46.21415192319997
 21
171.9001159668
 31
0.0
  0
LINE
  5
6A
330
2
100
AcDbEntity
  8
0
 62
     3
100
AcDbLine
 10
53.01413971619999
 20
174.7001190184999
 30
0.0
 11
52.51413971619999
 21
174.7001190184999
 31
0.0
  0
LINE
  5
6B
330
2
100
AcDbEntity
  8
0
 62
     3
100
AcDbLine
 10
52.51417023379997
 20
172.7000579833999
 30
0.0
 11
53.01417023379997
 21
172.7000579833999
 31
0.0
  0
LINE
  5
6C
330
2
100
AcDbEntity
  8
0
 62
     3
100
AcDbLine
 10
53.01413971619999
 20
171.9001159668
 30
0.0
 11
52.51413971619999
 21
171.9001159668
 31
0.0
  0
LINE
  5
6D
330
2
100
AcDbEntity
  8
0
 62
     3
100
AcDbLine
 10
52.51413971619999
 20
171.9001159668
 30
0.0
 11
52.51413971619999
 21
174.7001190184999
 31
0.0
  0
LINE
  5
6E
330
2
100
AcDbEntity
  8
0
 62
     3
100
AcDbLine
 10
53.01413971619999
 20
174.7001190184999
 30
0.0
 11
53.01413971619999
 21
171.9001159668
 31
0.0
  0
ARC
  5
6F
330
2
100
AcDbEntity
  8
0
 62
     3
100
AcDbCircle
 10
50.8141580267
 20
168.5001220703
 30
0.0
 40
12.7999954224
100
AcDbArc
 50
347.5707871634999
 51
12.42912062889995
  0
ARC
  5
70
330
2
100
AcDbEntity
  8
0
 62
     3
100
AcDbCircle
 10
50.81414276789999
 20
168.5001220703
 30
0.0
 40
12.9
100
AcDbArc
 50
345.6945536393
 51
14.30544636069994
  0
LINE
  5
71
330
2
100
AcDbEntity
  8
0
 62
     3
100
AcDbLine
 10
55.51421601009996
 20
160.4001464842999
 30
0.0
 11
55.51421601009996
 21
174.2001190184999
 31
0.0
  0
LINE
  5
72
330
2
100
AcDbEntity
  8
0
 62
     3
100
AcDbLine
 10
60.71416718199998
 20
160.4001464842999
 30
0.0
 11
60.71416718199998
 21
174.2001190184999
 31
0.0
  0
LINE
  5
73
330
2
100
AcDbEntity
  8
0
 62
     3
100
AcDbLine
 10
63.31414276789999
 20
174.4001159668
 30
0.0
 11
63.31414276789999
 21
160.2001190184999
 31
0.0
  0
LINE
  5
74
330
2
100
AcDbEntity
  8
0
 62
     3
100
AcDbLine
 10
62.31414276789998
 20
173.9997100829999
 30
0.0
 11
62.31414276789998
 21
160.600112915
 31
0.0
  0
LINE
  5
75
330
2
100
AcDbEntity
  8
0
 62
     3
100
AcDbLine
 10
59.81415802669999
 20
160.4001159667999
 30
0.0
 11
62.11010224059998
 21
160.4001159667999
 31
0.0
  0
LINE
  5
76
330
2
100
AcDbEntity
  8
0
 62
     3
100
AcDbLine
 10
59.3141580267
 20
162.7001190185
 30
0.0
 11
59.3141580267
 21
159.9001159668
 31
0.0
  0
LINE
  5
77
330
2
100
AcDbEntity
  8
0
 62
     3
100
AcDbLine
 10
59.81415802669999
 20
162.7001190185
 30
0.0
 11
59.81415802669999
 21
159.9001159668
 31
0.0
  0
LINE
  5
78
330
2
100
AcDbEntity
  8
0
 62
     3
100
AcDbLine
 10
59.3141580267
 20
161.8999633789
 30
0.0
 11
59.81415802669999
 21
161.8999633789
 31
0.0
  0
LINE
  5
79
330
2
100
AcDbEntity
  8
0
 62
     3
100
AcDbLine
 10
59.81415802669999
 20
159.9001159668
 30
0.0
 11
59.3141580267
 21
159.9001159668
 31
0.0
  0
LINE
  5
7A
330
2
100
AcDbEntity
  8
0
 62
     3
100
AcDbLine
 10
59.81415802669999
 20
162.7001190185
 30
0.0
 11
59.3141580267
 21
162.7001190185
 31
0.0
  0
ARC
  5
7B
330
2
100
AcDbEntity
  8
0
 62
     3
100
AcDbCircle
 10
62.31414276789998
 20
160.2001037596998
 30
0.0
 40
1.0
100
AcDbArc
 50
270.0000179861
 51
0.0
  0
LINE
  5
7C
330
2
100
AcDbEntity
  8
0
 62
     3
100
AcDbLine
 10
62.31411135339996
 20
160.5999995483998
 30
0.0
 11
62.11411270899997
 21
160.400006383
 31
0.0
  0
LINE
  5
7D
330
2
100
AcDbEntity
  8
0
 62
     3
100
AcDbLine
 10
59.3141580267
 20
165.9001159668
 30
0.0
 11
59.3141580267
 21
168.7001190185
 31
0.0
  0
LINE
  5
7E
330
2
100
AcDbEntity
  8
0
 62
     3
100
AcDbLine
 10
59.81415802669999
 20
165.9001159668
 30
0.0
 11
59.81415802669999
 21
168.7001190185
 31
0.0
  0
LINE
  5
7F
330
2
100
AcDbEntity
  8
0
 62
     3
100
AcDbLine
 10
59.3141580267
 20
166.9000396728
 30
0.0
 11
59.81415802669999
 21
166.9000396728
 31
0.0
  0
LINE
  5
80
330
2
100
AcDbEntity
  8
0
 62
     3
100
AcDbLine
 10
59.3141580267
 20
167.7000427245999
 30
0.0
 11
59.81415802669999
 21
167.7000427245999
 31
0.0
  0
LINE
  5
81
330
2
100
AcDbEntity
  8
0
 62
     3
100
AcDbLine
 10
59.81415802669999
 20
165.9001159668
 30
0.0
 11
59.3141580267
 21
165.9001159668
 31
0.0
  0
LINE
  5
82
330
2
100
AcDbEntity
  8
0
 62
     3
100
AcDbLine
 10
59.81415802669999
 20
168.7001190185
 30
0.0
 11
59.3141580267
 21
168.7001190185
 31
0.0
  0
ARC
  5
83
330
2
100
AcDbEntity
  8
0
  6
DASH
 62
     3
100
AcDbCircle
 10
50.81414276789999
 20
168.5001373290999
 30
0.0
 40
18.0
100
AcDbArc
 50
32.30256688709998
 51
37.6971049351
  0
LINE
  5
85
330
2
100
AcDbEntity
  8
0
  6
DASH
 62
     3
100
AcDbLine
 10
63.69188939019998
 20
179.7145637693999
 30
0.0
 11
60.59798797019997
 21
177.5481906538999
 31
0.0
  0
LINE
  5
86
330
2
100
AcDbEntity
  8
0
 62
     3
100
AcDbLine
 10
60.86359483199998
 20
182.3061620723999
 30
0.0
 11
58.97515749159999
 21
179.0352620511
 31
0.0
  0
LINE
  5
87
330
2
100
AcDbEntity
  8
0
 62
     3
100
AcDbLine
 10
59.81415802669999
 20
174.2001190184999
 30
0.0
 11
62.11377960879997
 21
174.2001190184999
 31
0.0
  0
LINE
  5
88
330
2
100
AcDbEntity
  8
0
  6
DASH
 62
     3
100
AcDbLine
 10
60.52432114159998
 20
177.1303276196999
 30
0.0
 11
60.69639386009999
 21
176.8845781258
 31
0.0
  0
LINE
  5
89
330
2
100
AcDbEntity
  8
0
  6
DASH
 62
     3
100
AcDbLine
 10
60.69638922429996
 20
176.8846197343999
 30
0.0
 11
60.56482192449998
 21
176.7924953184999
 31
0.0
  0
LINE
  5
8A
330
2
100
AcDbEntity
  8
0
  6
DASH
 62
     3
100
AcDbLine
 10
60.59806436289997
 20
177.5481532834999
 30
0.0
 11
60.52439321569999
 21
177.1303432893999
 31
0.0
  0
LINE
  5
8B
330
2
100
AcDbEntity
  8
0
  6
DASH
 62
     3
100
AcDbLine
 10
60.52431453869997
 20
177.1303678513999
 30
0.0
 11
60.36668626429996
 21
177.0199953443999
 31
0.0
  0
LINE
  5
8C
330
2
100
AcDbEntity
  8
0
 62
     3
100
AcDbLine
 10
59.81415802669999
 20
174.7001190184999
 30
0.0
 11
59.3141580267
 21
174.7001190184999
 31
0.0
  0
LINE
  5
8D
330
2
100
AcDbEntity
  8
0
 62
     3
100
AcDbLine
 10
58.97515284279998
 20
179.0352879309999
 30
0.0
 11
58.56535221259996
 21
178.9254877961
 31
0.0
  0
LINE
  5
8E
330
2
100
AcDbEntity
  8
0
 62
     3
100
AcDbLine
 10
58.30557104629997
 20
179.0754125606
 30
0.0
 11
58.56536596339997
 21
178.9254149627999
 31
0.0
  0
LINE
  5
8F
330
2
100
AcDbEntity
  8
0
 62
     3
100
AcDbLine
 10
58.3054829717
 20
179.0754258671999
 30
0.0
 11
58.22517596489999
 21
178.9363300536999
 31
0.0
  0
LINE
  5
90
330
2
100
AcDbEntity
  8
0
 62
     3
100
AcDbLine
 10
58.5652932311
 20
178.9254243413999
 30
0.0
 11
58.4690789366
 21
178.7587762979999
 31
0.0
  0
ARC
  5
91
330
2
100
AcDbEntity
  8
0
 62
     3
100
AcDbCircle
 10
50.81414276789999
 20
168.5001220703
 30
0.0
 40
12.9
100
AcDbArc
 50
41.6772164055
 51
53.32240652619999
  0
LINE
  5
92
330
2
100
AcDbEntity
  8
0
 62
     3
100
AcDbLine
 10
59.3141580267
 20
172.7000579833999
 30
0.0
 11
59.81415802669999
 21
172.7000579833999
 31
0.0
  0
LINE
  5
93
330
2
100
AcDbEntity
  8
0
 62
     3
100
AcDbLine
 10
59.81415802669999
 20
171.9001159668
 30
0.0
 11
59.3141580267
 21
171.9001159668
 31
0.0
  0
LINE
  5
94
330
2
100
AcDbEntity
  8
0
 62
     3
100
AcDbLine
 10
59.3141580267
 20
171.9001159668
 30
0.0
 11
59.3141580267
 21
174.7001190184999
 31
0.0
  0
LINE
  5
95
330
2
100
AcDbEntity
  8
0
 62
     3
100
AcDbLine
 10
59.81415802669999
 20
174.7001190184999
 30
0.0
 11
59.81415802669999
 21
171.9001159668
 31
0.0
  0
ARC
  5
96
330
2
100
AcDbEntity
  8
0
  6
DASH
 62
     3
100
AcDbCircle
 10
65.18317658139998
 20
177.5847930908
 30
0.0
 40
1.0
100
AcDbArc
 50
304.9998641424
 51
32.30256688709998
  0
LINE
  5
97
330
2
100
AcDbEntity
  8
0
 62
     3
100
AcDbLine
 10
62.11400819479999
 20
174.1998682931999
 30
0.0
 11
62.31410371549998
 21
173.999734633
 31
0.0
  0
ARC
  5
98
330
2
100
AcDbEntity
  8
0
 62
     3
100
AcDbCircle
 10
62.31415802669999
 20
174.400100708
 30
0.0
 40
1.0
100
AcDbArc
 50
0.0
 51
89.99992737239997
  0
LINE
  5
99
330
2
100
AcDbEntity
  8
0
  6
DASH
 62
     3
100
AcDbLine
 10
64.39554973009999
 20
178.7423648632
 30
0.0
 11
61.93809355859997
 21
177.0216355120999
 31
0.0
  0
LINE
  5
9A
330
2
100
AcDbEntity
  8
0
  6
DASH
 62
     3
100
AcDbLine
 10
61.93809355859997
 20
177.0216355120999
 30
0.0
 11
62.62639230059996
 21
176.0386430440999
 31
0.0
  0
LINE
  5
9B
330
2
100
AcDbEntity
  8
0
  6
DASH
 62
     3
100
AcDbLine
 10
65.75671475060001
 20
176.7656120493999
 30
0.0
 11
63.1538744749
 21
174.9430678737998
 31
0.0
  0
LINE
  5
9C
330
2
100
AcDbEntity
  8
0
  6
DASH
 62
     3
100
AcDbLine
 10
65.08384847219996
 20
177.7593723951999
 30
0.0
 11
62.62639230059996
 21
176.0386430440999
 31
0.0
  0
LINE
  5
9D
330
2
100
AcDbEntity
  8
0
  6
DASH
 62
     3
100
AcDbLine
 10
64.39554973009999
 20
178.7423648632
 30
0.0
 11
65.08384847219996
 21
177.7593723951999
 31
0.0
  0
ARC
  5
9E
330
2
100
AcDbEntity
  8
0
 62
     3
100
AcDbCircle
 10
59.9975534125
 20
182.8062286376998
 30
0.0
 40
1.0
100
AcDbArc
 50
329.9998249954
 51
57.30250041920001
  0
ARC
  5
9F
330
2
100
AcDbEntity
  8
0
 62
     3
100
AcDbCircle
 10
50.81414276789999
 20
168.5001220703
 30
0.0
 40
18.0
100
AcDbArc
 50
57.30250041920001
 51
62.69703846720001
  0
ARC
  5
A0
330
2
100
AcDbEntity
  8
0
 62
     3
100
AcDbCircle
 10
58.61191803649996
 20
183.6062316893999
 30
0.0
 40
1.0
100
AcDbArc
 50
62.69703846720001
 51
149.9999700232
  0
LINE
  5
A1
330
2
100
AcDbEntity
  8
0
 62
     3
100
AcDbLine
 10
58.79449382189998
 20
183.5224234965999
 30
0.0
 11
59.83373485939996
 21
182.9224173929999
 31
0.0
  0
LINE
  5
A2
330
2
100
AcDbEntity
  8
0
 62
     3
100
AcDbLine
 10
55.96725178119999
 20
180.4254252663
 30
0.0
 11
56.22706084249998
 21
180.2754216662
 31
0.0
  0
LINE
  5
A3
330
2
100
AcDbEntity
  8
0
 62
     3
100
AcDbLine
 10
56.2270273257
 20
180.2754228154999
 30
0.0
 11
56.14672031889996
 21
180.1363270018999
 31
0.0
  0
LINE
  5
A4
330
2
100
AcDbEntity
  8
0
 62
     3
100
AcDbLine
 10
55.85748319689997
 20
180.8352780369999
 30
0.0
 11
55.96728856629997
 21
180.4254788229
 31
0.0
  0
LINE
  5
A5
330
2
100
AcDbEntity
  8
0
 62
     3
100
AcDbLine
 10
55.9672170664
 20
180.4254243414
 30
0.0
 11
55.87100277189996
 21
180.258776298
 31
0.0
  0
LINE
  5
A6
330
2
100
AcDbEntity
  8
0
 62
     3
100
AcDbLine
 10
57.29450145129999
 20
180.9243605463
 30
0.0
 11
58.33374248879997
 21
180.3243544427999
 31
0.0
  0
LINE
  5
A7
330
2
100
AcDbEntity
  8
0
 62
     3
100
AcDbLine
 10
59.83373485939996
 20
182.9224173929999
 30
0.0
 11
58.33374248879997
 21
180.3243544427999
 31
0.0
  0
LINE
  5
A8
330
2
100
AcDbEntity
  8
0
 62
     3
100
AcDbLine
 10
58.79449382189998
 20
183.5224234965999
 30
0.0
 11
57.29450145129999
 21
180.9243605463
 31
0.0
  0
LINE
  5
A9
330
2
100
AcDbEntity
  8
0
 62
     3
100
AcDbLine
 10
57.74585132599996
 20
184.1061152793
 30
0.0
 11
55.85740070349999
 21
180.8352229120998
 31
0.0
  0
ARC
  5
AA
330
2
100
AcDbEntity
  8
0
  6
DASH
 62
     3
100
AcDbCircle
 10
64.26545197199999
 20
178.8954315184999
 30
0.0
 40
1.0
100
AcDbArc
 50
37.6971049351
 51
125.0000002335999
  0
CIRCLE
  5
AB
330
2
100
AcDbEntity
  8
0
 62
     3
100
AcDbCircle
 10
174.8139901799999
 20
168.5000534057
 30
0.0
 40
10.4999952316
  0
ARC
  5
AC
330
2
100
AcDbEntity
  8
0
 62
     3
100
AcDbCircle
 10
174.8139901799999
 20
168.5000534057
 30
0.0
 40
12.0999984741
100
AcDbArc
 50
279.5140890093
 51
260.4859296599999
  0
CIRCLE
  5
AD
330
2
100
AcDbEntity
  8
0
 62
     3
100
AcDbCircle
 10
174.8139901799999
 20
168.5000534057
 30
0.0
 40
12.3999938965
  0
CIRCLE
  5
AE
330
2
100
AcDbEntity
  8
0
 62
     3
100
AcDbCircle
 10
174.8139901799999
 20
168.5000534057
 30
0.0
 40
10.7999954224
  0
LINE
  5
AF
330
2
100
AcDbEntity
  8
0
  6
CENTER
 62
     3
100
AcDbLine
 10
159.4140878362999
 20
168.5000534057
 30
0.0
 11
190.2140145940999
 21
168.5000534057
 31
0.0
  0
TEXT
  5
B0
330
2
100
AcDbEntity
  8
0
 62
     5
100
AcDbText
 10
145.0
 20
10.0
 30
0.0
 40
5.0
  1
ＭＡ４－Ｈ０１５７９
 41
0.8460446051551707
 72
     5
 11
194.0705870989999
 21
10.0
 31
0.0
100
AcDbText
  0
CIRCLE
  5
B1
330
2
100
AcDbEntity
  8
0
 62
     3
100
AcDbCircle
 10
174.8139901799999
 20
168.5000534057
 30
0.0
 40
12.8999938965
  0
LINE
  5
B2
330
2
100
AcDbEntity
  8
0
 62
     3
100
AcDbLine
 10
130.0138955755999
 20
178.1373901367
 30
0.0
 11
125.5139260930999
 21
178.1373901367
 31
0.0
  0
LINE
  5
B3
330
2
100
AcDbEntity
  8
0
 62
     3
100
AcDbLine
 10
126.0139318604998
 20
176.0255639586
 30
0.0
 11
129.5139013429998
 21
176.0255776523
 31
0.0
  0
LINE
  5
B4
330
2
100
AcDbEntity
  8
0
 62
     3
100
AcDbLine
 10
129.5138803168
 20
178.8540496825999
 30
0.0
 11
126.0139260930998
 21
178.8540496825999
 31
0.0
  0
LINE
  5
B5
330
2
100
AcDbEntity
  8
0
 62
     3
100
AcDbLine
 10
129.5138803168
 20
181.1428070067998
 30
0.0
 11
126.0139108343
 21
181.1428070067998
 31
0.0
  0
LINE
  5
B6
330
2
100
AcDbEntity
  8
0
 62
     3
100
AcDbLine
 10
130.0138803167999
 20
170.5000305175
 30
0.0
 11
125.5139108342999
 21
170.5000305175
 31
0.0
  0
LINE
  5
B7
330
2
100
AcDbEntity
  8
0
 62
     3
100
AcDbLine
 10
125.5138955755999
 20
166.4999542235999
 30
0.0
 11
130.0138497991996
 21
166.4999542235999
 31
0.0
  0
LINE
  5
B8
330
2
100
AcDbEntity
  8
0
 62
     3
100
AcDbLine
 10
126.0138955755998
 20
158.1459045409999
 30
0.0
 11
129.5138497991999
 21
158.1459045409999
 31
0.0
  0
LINE
  5
B9
330
2
100
AcDbEntity
  8
0
 62
     3
100
AcDbLine
 10
125.5139108342999
 20
158.8625793457
 30
0.0
 11
130.0138650579999
 21
158.8625793457
 31
0.0
  0
LINE
  5
BA
330
2
100
AcDbEntity
  8
0
 62
     3
100
AcDbLine
 10
129.5138336779998
 20
160.974380031
 30
0.0
 11
126.0138947130998
 21
160.9743938817
 31
0.0
  0
LINE
  5
BB
330
2
100
AcDbEntity
  8
0
 62
     3
100
AcDbLine
 10
126.0138803167999
 20
155.8571472167999
 30
0.0
 11
129.5138803168
 21
155.8571472167999
 31
0.0
  0
LINE
  5
BC
330
2
100
AcDbEntity
  8
0
  6
CENTER
 62
     3
100
AcDbLine
 10
86.87262970639999
 20
168.5000610351
 30
0.0
 11
149.6141000432999
 21
168.5000610351
 31
0.0
  0
LINE
  5
BD
330
2
100
AcDbEntity
  8
0
 62
     3
100
AcDbLine
 10
97.51444489199998
 20
159.2001190184999
 30
0.0
 11
113.3143716498
 21
159.2001190184999
 31
0.0
  0
LINE
  5
BE
330
2
100
AcDbEntity
  8
0
 62
     3
100
AcDbLine
 10
113.3143716498
 20
175.4001159668
 30
0.0
 11
97.51444489199998
 21
175.4001159668
 31
0.0
  0
LINE
  5
BF
330
2
100
AcDbEntity
  8
0
 62
     3
100
AcDbLine
 10
97.51444489199998
 20
175.4001159668
 30
0.0
 11
97.51444489199998
 21
159.2001190184999
 31
0.0
  0
LINE
  5
C0
330
2
100
AcDbEntity
  8
0
  6
CENTER
 62
     3
100
AcDbLine
 10
94.5144601508
 20
167.3000183104998
 30
0.0
 11
89.51450592709999
 21
167.3000183104998
 31
0.0
  0
LINE
  5
C1
330
2
100
AcDbEntity
  8
0
  6
CENTER
 62
     3
100
AcDbLine
 10
89.51452118589998
 20
162.3000183104998
 30
0.0
 11
94.5144601508
 21
162.3000183104998
 31
0.0
  0
LINE
  5
C2
330
2
100
AcDbEntity
  8
0
 62
     3
100
AcDbLine
 10
97.5140481634
 20
159.8999938965
 30
0.0
 11
95.51444489200001
 21
159.8999938965
 31
0.0
  0
LINE
  5
C3
330
2
100
AcDbEntity
  8
0
 62
     3
100
AcDbLine
 10
92.21450287540001
 20
162.6999969482
 30
0.0
 11
97.5140481634
 21
162.6999969482
 31
0.0
  0
LINE
  5
C4
330
2
100
AcDbEntity
  8
0
 62
     3
100
AcDbLine
 10
95.51446015080001
 20
161.8999786377
 30
0.0
 11
95.51446015080001
 21
159.8999786377
 31
0.0
  0
ARC
  5
C5
330
2
100
AcDbEntity
  8
0
 62
     3
100
AcDbCircle
 10
92.21447235779995
 20
162.4999847411999
 30
0.0
 40
0.1999999881
100
AcDbArc
 50
89.99998201389999
 51
179.9955927068
  0
LINE
  5
C6
330
2
100
AcDbEntity
  8
0
 62
     3
100
AcDbLine
 10
92.01452118589998
 20
162.4999694823999
 30
0.0
 11
92.01452118589998
 21
162.0999908446998
 31
0.0
  0
ARC
  5
C7
330
2
100
AcDbEntity
  8
0
 62
     3
100
AcDbCircle
 10
92.21447235779995
 20
162.1000061034999
 30
0.0
 40
0.1999999881
100
AcDbArc
 50
179.9956473483
 51
270.0000006831999
  0
LINE
  5
C8
330
2
100
AcDbEntity
  8
0
 62
     3
100
AcDbLine
 10
95.51444489200001
 20
161.8999786377
 30
0.0
 11
92.21450287540001
 21
161.8999786377
 31
0.0
  0
LINE
  5
C9
330
2
100
AcDbEntity
  8
0
 62
     3
100
AcDbLine
 10
97.5140481634
 20
168.7000732421998
 30
0.0
 11
95.51442963319999
 21
168.7000732421998
 31
0.0
  0
LINE
  5
CA
330
2
100
AcDbEntity
  8
0
 62
     3
100
AcDbLine
 10
95.51442963319999
 20
165.9000701904
 30
0.0
 11
97.5140481634
 21
165.9000701904
 31
0.0
  0
LINE
  5
CB
330
2
100
AcDbEntity
  8
0
 62
     3
100
AcDbLine
 10
95.51444489200001
 20
168.7000579833999
 30
0.0
 11
95.51444489200001
 21
167.7000427245999
 31
0.0
  0
LINE
  5
CC
330
2
100
AcDbEntity
  8
0
 62
     3
100
AcDbLine
 10
95.51444489200001
 20
166.9000091551999
 30
0.0
 11
95.51444489200001
 21
165.900024414
 31
0.0
  0
LINE
  5
CD
330
2
100
AcDbEntity
  8
0
 62
     3
100
AcDbLine
 10
92.01450592709999
 20
167.4999847411999
 30
0.0
 11
92.01450592709999
 21
167.0999908446999
 31
0.0
  0
ARC
  5
CE
330
2
100
AcDbEntity
  8
0
 62
     3
100
AcDbCircle
 10
92.21445709900001
 20
167.1000213622999
 30
0.0
 40
0.1999999881
100
AcDbArc
 50
180.0044072931999
 51
270.0000179861
  0
ARC
  5
CF
330
2
100
AcDbEntity
  8
0
 62
     3
100
AcDbCircle
 10
92.21445709900001
 20
167.5000152588
 30
0.0
 40
0.1999999881
100
AcDbArc
 50
89.99992737239997
 51
180.0043353488999
  0
LINE
  5
D0
330
2
100
AcDbEntity
  8
0
 62
     3
100
AcDbLine
 10
92.21445709900001
 20
166.9000396728
 30
0.0
 11
95.51442963319999
 21
166.9000396728
 31
0.0
  0
LINE
  5
D1
330
2
100
AcDbEntity
  8
0
 62
     3
100
AcDbLine
 10
92.21445709900001
 20
167.7000427245999
 30
0.0
 11
95.51442963319999
 21
167.7000427245999
 31
0.0
  0
LINE
  5
D2
330
2
100
AcDbEntity
  8
0
  6
CENTER
 62
     3
100
AcDbLine
 10
94.5144601508
 20
172.3000030516999
 30
0.0
 11
89.51450592709999
 21
172.3000030516999
 31
0.0
  0
LINE
  5
D3
330
2
100
AcDbEntity
  8
0
 62
     3
100
AcDbLine
 10
95.51442963319999
 20
174.7000427246
 30
0.0
 11
97.5140481634
 21
174.7000427246
 31
0.0
  0
LINE
  5
D4
330
2
100
AcDbEntity
  8
0
 62
     3
100
AcDbLine
 10
97.5140481634
 20
171.9000396727999
 30
0.0
 11
92.21445709900001
 21
171.9000396727999
 31
0.0
  0
LINE
  5
D5
330
2
100
AcDbEntity
  8
0
 62
     3
100
AcDbLine
 10
92.01447540949995
 20
172.5000305175
 30
0.0
 11
92.01447540949995
 21
172.1000518798
 31
0.0
  0
ARC
  5
D6
330
2
100
AcDbEntity
  8
0
 62
     3
100
AcDbCircle
 10
92.21445709900001
 20
172.5000305175
 30
0.0
 40
0.1999999881
100
AcDbArc
 50
89.99998201389999
 51
180.0043353488999
  0
ARC
  5
D7
330
2
100
AcDbEntity
  8
0
 62
     3
100
AcDbCircle
 10
92.21445709900001
 20
172.1000518798
 30
0.0
 40
0.1999999881
100
AcDbArc
 50
180.0044072931999
 51
270.0000179861
  0
LINE
  5
D8
330
2
100
AcDbEntity
  8
0
 62
     3
100
AcDbLine
 10
92.21445709900001
 20
172.7000579833999
 30
0.0
 11
95.51442963319999
 21
172.7000579833999
 31
0.0
  0
LINE
  5
D9
330
2
100
AcDbEntity
  8
0
 62
     3
100
AcDbLine
 10
95.51444489200001
 20
174.7000427246
 30
0.0
 11
95.51444489200001
 21
172.7000427245999
 31
0.0
  0
LINE
  5
DA
330
2
100
AcDbEntity
  8
0
 62
     3
100
AcDbLine
 10
126.0139108343
 20
176.0255737303998
 30
0.0
 11
126.0139108343
 21
170.5000305175
 31
0.0
  0
LINE
  5
DB
330
2
100
AcDbEntity
  8
0
 62
     3
100
AcDbLine
 10
125.5139201183999
 20
156.3635797789
 30
0.0
 11
125.5139501348997
 21
180.6363611509999
 31
0.0
  0
LINE
  5
DC
330
2
100
AcDbEntity
  8
0
 62
     3
100
AcDbLine
 10
117.0144296331999
 20
181.3001098632
 30
0.0
 11
117.0144296331999
 21
169.100112915
 31
0.0
  0
LINE
  5
DD
330
2
100
AcDbEntity
  8
0
 62
     3
100
AcDbLine
 10
114.5144448919999
 20
169.100112915
 30
0.0
 11
114.5144448919999
 21
181.3001098632
 31
0.0
  0
LINE
  5
DE
330
2
100
AcDbEntity
  8
0
 62
     3
100
AcDbLine
 10
113.3143716498
 20
156.7001190185
 30
0.0
 11
113.3143716498
 21
180.3001098632
 31
0.0
  0
LINE
  5
DF
330
2
100
AcDbEntity
  8
0
 62
     3
100
AcDbLine
 10
121.8141122503999
 20
155.7001037596998
 30
0.0
 11
121.8141122503999
 21
181.3001098632
 31
0.0
  0
LINE
  5
E0
330
2
100
AcDbEntity
  8
0
 62
     3
100
AcDbLine
 10
122.5141091985999
 20
158.0196685790999
 30
0.0
 11
122.5141091985999
 21
178.9802856444999
 31
0.0
  0
LINE
  5
E1
330
2
100
AcDbEntity
  8
0
 62
     3
100
AcDbLine
 10
122.8141275091999
 20
174.2619934082
 30
0.0
 11
122.8141275091999
 21
157.5002593994
 31
0.0
  0
LINE
  5
E2
330
2
100
AcDbEntity
  8
0
 62
     3
100
AcDbLine
 10
114.5144448919999
 20
167.900100708
 30
0.0
 11
117.0144296331999
 21
167.900100708
 31
0.0
  0
LINE
  5
E3
330
2
100
AcDbEntity
  8
0
 62
     3
100
AcDbLine
 10
117.0144296331999
 20
169.100112915
 30
0.0
 11
114.5144448919999
 21
169.100112915
 31
0.0
  0
LINE
  5
E4
330
2
100
AcDbEntity
  8
0
 62
     3
100
AcDbLine
 10
117.0144296331999
 20
157.3001098631999
 30
0.0
 11
114.5144448919999
 21
157.3001098631999
 31
0.0
  0
LINE
  5
E5
330
2
100
AcDbEntity
  8
0
 62
     3
100
AcDbLine
 10
118.8143411321999
 20
155.7000427246
 30
0.0
 11
114.3143563909999
 21
155.7000427246
 31
0.0
  0
LINE
  5
E6
330
2
100
AcDbEntity
  8
0
 62
     3
100
AcDbLine
 10
114.5144448919999
 20
155.7001037596998
 30
0.0
 11
114.5144448919999
 21
167.900100708
 31
0.0
  0
ARC
  5
E7
330
2
100
AcDbEntity
  8
0
 62
     3
100
AcDbCircle
 10
114.3143716498
 20
156.7001190185
 30
0.0
 40
1.0
100
AcDbArc
 50
180.0000359722
 51
270.0000179861
  0
ARC
  5
E8
330
2
100
AcDbEntity
  8
0
 62
     3
100
AcDbCircle
 10
111.7145181341999
 20
158.8001098631998
 30
0.0
 40
0.5
100
AcDbArc
 50
180.0000359722
 51
270.0000179861
  0
LINE
  5
E9
330
2
100
AcDbEntity
  8
0
 62
     3
100
AcDbLine
 10
111.2145181342
 20
158.8001098631998
 30
0.0
 11
111.2145181342
 21
159.2001190184999
 31
0.0
  0
LINE
  5
EA
330
2
100
AcDbEntity
  8
0
 62
     3
100
AcDbLine
 10
113.3143716498
 20
158.3001098631999
 30
0.0
 11
111.7145181341999
 21
158.3001098631999
 31
0.0
  0
LINE
  5
EB
330
2
100
AcDbEntity
  8
0
 62
     3
100
AcDbLine
 10
126.0138955755998
 20
166.4999542235999
 30
0.0
 11
126.0138955755998
 21
160.9743804930998
 31
0.0
  0
LINE
  5
EC
330
2
100
AcDbEntity
  8
0
 62
     3
100
AcDbLine
 10
117.0144296331999
 20
167.900100708
 30
0.0
 11
117.0144296331999
 21
155.7001037596998
 31
0.0
  0
LINE
  5
ED
330
2
100
AcDbEntity
  8
0
 62
     3
100
AcDbLine
 10
121.8141122503999
 20
155.7001037596998
 30
0.0
 11
118.8143563909999
 21
155.7001037596998
 31
0.0
  0
LINE
  5
EE
330
2
100
AcDbEntity
  8
0
 62
     3
100
AcDbLine
 10
126.0139050036999
 20
158.1459432828
 30
0.0
 11
125.5139199037999
 21
158.5039800817999
 31
0.0
  0
LINE
  5
EF
330
2
100
AcDbEntity
  8
0
 62
     3
100
AcDbLine
 10
126.0139321136999
 20
160.9744108374
 30
0.0
 11
125.5139537926999
 21
161.3324046517
 31
0.0
  0
LINE
  5
F0
330
2
100
AcDbEntity
  8
0
 62
     3
100
AcDbLine
 10
126.0139528902999
 20
155.8571534008999
 30
0.0
 11
125.5139561035999
 21
156.3635464187999
 31
0.0
  0
LINE
  5
F1
330
2
100
AcDbEntity
  8
0
 62
     3
100
AcDbLine
 10
126.013902861
 20
155.8571750235
 30
0.0
 11
126.0139105931999
 21
158.1459323477
 31
0.0
  0
LINE
  5
F2
330
2
100
AcDbEntity
  8
0
 62
     3
100
AcDbLine
 10
122.5141091985999
 20
158.3000488280999
 30
0.0
 11
121.8140969915999
 21
158.3000488280999
 31
0.0
  0
LINE
  5
F3
330
2
100
AcDbEntity
  8
0
 62
     3
100
AcDbLine
 10
122.5137170337999
 20
158.0202895390999
 30
0.0
 11
122.8137047909999
 21
157.5006954136
 31
0.0
  0
LINE
  5
F4
330
2
100
AcDbEntity
  8
0
 62
     3
100
AcDbLine
 10
122.5254769964999
 20
158.0002746582
 30
0.0
 11
125.5139871282999
 21
158.0002746582
 31
0.0
  0
LINE
  5
F5
330
2
100
AcDbEntity
  8
0
 62
     3
100
AcDbLine
 10
125.5139566106999
 20
157.5000762938999
 30
0.0
 11
122.8141427678999
 21
157.5000762938999
 31
0.0
  0
LINE
  5
F6
330
2
100
AcDbEntity
  8
0
 62
     3
100
AcDbLine
 10
114.3143563909999
 20
181.3000183104999
 30
0.0
 11
117.8141122503999
 21
181.3000183104999
 31
0.0
  0
LINE
  5
F7
330
2
100
AcDbEntity
  8
0
 62
     3
100
AcDbLine
 10
114.5144448919999
 20
179.7001037597
 30
0.0
 11
117.0144296331999
 21
179.7001037597
 31
0.0
  0
ARC
  5
F8
330
2
100
AcDbEntity
  8
0
 62
     3
100
AcDbCircle
 10
111.7145181341999
 20
178.2001190184999
 30
0.0
 40
0.5
100
AcDbArc
 50
89.99998201389999
 51
179.9999640277999
  0
LINE
  5
F9
330
2
100
AcDbEntity
  8
0
 62
     3
100
AcDbLine
 10
111.2145181342
 20
175.4001159668
 30
0.0
 11
111.2145181342
 21
178.2001190184999
 31
0.0
  0
LINE
  5
FA
330
2
100
AcDbEntity
  8
0
 62
     3
100
AcDbLine
 10
113.3143716498
 20
178.7001190184999
 30
0.0
 11
111.7145181341999
 21
178.7001190184999
 31
0.0
  0
ARC
  5
FB
330
2
100
AcDbEntity
  8
0
 62
     3
100
AcDbCircle
 10
114.3143716498
 20
180.3001098632
 30
0.0
 40
1.0
100
AcDbArc
 50
89.99998201389999
 51
179.9999640277999
  0
LINE
  5
FC
330
2
100
AcDbEntity
  8
0
 62
     3
100
AcDbLine
 10
126.0139362311999
 20
178.8539949742999
 30
0.0
 11
126.0139286018999
 21
181.1427522985999
 31
0.0
  0
LINE
  5
FD
330
2
100
AcDbEntity
  8
0
 62
     3
100
AcDbLine
 10
119.8641000432999
 20
179.7734069823999
 30
0.0
 11
119.8641000432999
 21
174.2943878173
 31
0.0
  0
LINE
  5
FE
330
2
100
AcDbEntity
  8
0
 62
     3
100
AcDbLine
 10
120.6641030950999
 20
179.7734069823999
 30
0.0
 11
120.6641030950999
 21
174.2943878173
 31
0.0
  0
LINE
  5
FF
330
2
100
AcDbEntity
  8
0
 62
     3
100
AcDbLine
 10
122.8136864459999
 20
179.500237614
 30
0.0
 11
122.5136834300996
 21
178.9806170593999
 31
0.0
  0
LINE
  5
100
330
2
100
AcDbEntity
  8
0
 62
     3
100
AcDbLine
 10
122.8141275091999
 20
179.5000152587999
 30
0.0
 11
122.8141275091999
 21
177.8702850341
 31
0.0
  0
LINE
  5
101
330
2
100
AcDbEntity
  8
0
 62
     3
100
AcDbLine
 10
117.8141122503999
 20
184.9104919432999
 30
0.0
 11
117.8141122503999
 21
174.2943725586
 31
0.0
  0
LINE
  5
102
330
2
100
AcDbEntity
  8
0
 62
     3
100
AcDbLine
 10
119.0641122503999
 20
184.9104919432999
 30
0.0
 11
119.0641122503999
 21
174.2943725586
 31
0.0
  0
LINE
  5
103
330
2
100
AcDbEntity
  8
0
 62
     3
100
AcDbLine
 10
117.8141122503999
 20
174.2943878173
 30
0.0
 11
121.8141122503999
 21
174.2943878173
 31
0.0
  0
LINE
  5
104
330
2
100
AcDbEntity
  8
0
 62
     3
100
AcDbLine
 10
119.0640817327997
 20
178.5750579834
 30
0.0
 11
117.8140817327999
 21
178.5750579834
 31
0.0
  0
LINE
  5
105
330
2
100
AcDbEntity
  8
0
 62
     3
100
AcDbLine
 10
125.5139851088999
 20
178.495916768
 30
0.0
 11
126.0139950573997
 21
178.8539712980998
 31
0.0
  0
LINE
  5
106
330
2
100
AcDbEntity
  8
0
 62
     3
100
AcDbLine
 10
125.5139847729997
 20
175.6674648930999
 30
0.0
 11
126.0140003499996
 21
176.025485357
 31
0.0
  0
LINE
  5
107
330
2
100
AcDbEntity
  8
0
 62
     3
100
AcDbLine
 10
122.5141091985999
 20
178.7000122069999
 30
0.0
 11
121.8140969915999
 21
178.7000122069999
 31
0.0
  0
LINE
  5
108
330
2
100
AcDbEntity
  8
0
 62
     3
100
AcDbLine
 10
125.5139871282999
 20
174.2620239257
 30
0.0
 11
122.5141244573999
 21
174.2620239257
 31
0.0
  0
LINE
  5
109
330
2
100
AcDbEntity
  8
0
 62
     3
100
AcDbLine
 10
125.5139718694999
 20
177.8703155516999
 30
0.0
 11
122.5141244573999
 21
177.8703155516999
 31
0.0
  0
LINE
  5
10A
330
2
100
AcDbEntity
  8
0
 62
     3
100
AcDbLine
 10
125.5139566106999
 20
179.0000305174999
 30
0.0
 11
122.5254769964999
 21
179.0000305174999
 31
0.0
  0
LINE
  5
10B
330
2
100
AcDbEntity
  8
0
 62
     3
100
AcDbLine
 10
119.0641122503999
 20
179.7734069823999
 30
0.0
 11
121.8141122503999
 21
179.7734069823999
 31
0.0
  0
LINE
  5
10C
330
2
100
AcDbEntity
  8
0
 62
     3
100
AcDbLine
 10
119.0641122503999
 20
181.3001098632
 30
0.0
 11
121.8141122503999
 21
181.3001098632
 31
0.0
  0
LINE
  5
10D
330
2
100
AcDbEntity
  8
0
 62
     3
100
AcDbLine
 10
119.0640817327997
 20
184.9104156494
 30
0.0
 11
117.8140817327999
 21
184.9104156494
 31
0.0
  0
LINE
  5
10E
330
2
100
AcDbEntity
  8
0
 62
     3
100
AcDbLine
 10
119.0640817327997
 20
183.1104125975999
 30
0.0
 11
117.8140817327999
 21
183.1104125975999
 31
0.0
  0
LINE
  5
10F
330
2
100
AcDbEntity
  8
0
 62
     3
100
AcDbLine
 10
125.5139830837999
 20
180.6363433018
 30
0.0
 11
126.0139902142999
 21
181.1427467534999
 31
0.0
  0
LINE
  5
110
330
2
100
AcDbEntity
  8
0
 62
     3
100
AcDbLine
 10
122.8141427678999
 20
179.4998321533
 30
0.0
 11
125.5139871282999
 21
179.4998321533
 31
0.0
  0
LINE
  5
111
330
2
100
AcDbEntity
  8
0
 62
     3
100
AcDbLine
 10
129.5138849127
 20
176.0255452045999
 30
0.0
 11
129.5139154302999
 21
170.4999714741999
 31
0.0
  0
LINE
  5
112
330
2
100
AcDbEntity
  8
0
 62
     3
100
AcDbLine
 10
130.0138890998
 20
180.6364013626
 30
0.0
 11
130.0138590831998
 21
156.3635589552999
 31
0.0
  0
LINE
  5
113
330
2
100
AcDbEntity
  8
0
 62
     3
100
AcDbLine
 10
133.1141397161996
 20
156.6500549316
 30
0.0
 11
133.1141397161996
 21
180.3500518797999
 31
0.0
  0
LINE
  5
114
330
2
100
AcDbEntity
  8
0
 62
     3
100
AcDbLine
 10
132.2141061468
 20
157.4985198973999
 30
0.0
 11
132.2141061468
 21
179.4998321533
 31
0.0
  0
LINE
  5
115
330
2
100
AcDbEntity
  8
0
 62
     3
100
AcDbLine
 10
142.2138925237999
 20
156.2000274657999
 30
0.0
 11
142.2138925237999
 21
180.8000183104999
 31
0.0
  0
LINE
  5
116
330
2
100
AcDbEntity
  8
0
 62
     3
100
AcDbLine
 10
138.5139413518999
 20
156.1000213623
 30
0.0
 11
138.5139413518999
 21
180.9000091551998
 31
0.0
  0
LINE
  5
117
330
2
100
AcDbEntity
  8
0
 62
     3
100
AcDbLine
 10
138.1140847845
 20
181.2998504637998
 30
0.0
 11
138.1140847845
 21
155.6999816893999
 31
0.0
  0
LINE
  5
118
330
2
100
AcDbEntity
  8
0
 62
     3
100
AcDbLine
 10
142.5141091985999
 20
180.5922088623
 30
0.0
 11
142.5141091985999
 21
156.4000396728
 31
0.0
  0
LINE
  5
119
330
2
100
AcDbEntity
  8
0
 62
     3
100
AcDbLine
 10
145.8140969915999
 20
157.7001495361
 30
0.0
 11
145.8140969915999
 21
179.3001403807999
 31
0.0
  0
LINE
  5
11A
330
2
100
AcDbEntity
  8
0
 62
     3
100
AcDbLine
 10
146.1141000432999
 20
158.0001373291
 30
0.0
 11
146.1141000432999
 21
179.0001373290999
 31
0.0
  0
LINE
  5
11B
330
2
100
AcDbEntity
  8
0
 62
     3
100
AcDbLine
 10
133.5140939397998
 20
155.6000366211
 30
0.0
 11
133.5140939397998
 21
181.3999481200999
 31
0.0
  0
LINE
  5
11C
330
2
100
AcDbEntity
  8
0
 62
     3
100
AcDbLine
 10
138.5138729235
 20
156.0999998275
 30
0.0
 11
142.2138158267
 21
156.1999980761
 31
0.0
  0
LINE
  5
11D
330
2
100
AcDbEntity
  8
0
 62
     3
100
AcDbLine
 10
129.5138718913999
 20
166.4999709523999
 30
0.0
 11
129.5138411256999
 21
160.9743972219
 31
0.0
  0
LINE
  5
11E
330
2
100
AcDbEntity
  8
0
 62
     3
100
AcDbLine
 10
133.1141397161996
 20
157.5000610351
 30
0.0
 11
130.0138604885999
 21
157.5000610351
 31
0.0
  0
LINE
  5
11F
330
2
100
AcDbEntity
  8
0
 62
     3
100
AcDbLine
 10
130.0139008330999
 20
158.5039900980999
 30
0.0
 11
129.5139124385999
 21
158.1459055098999
 31
0.0
  0
LINE
  5
120
330
2
100
AcDbEntity
  8
0
 62
     3
100
AcDbLine
 10
130.0139576336997
 20
161.3323917164999
 30
0.0
 11
129.5139713077999
 21
160.9743304184999
 31
0.0
  0
LINE
  5
121
330
2
100
AcDbEntity
  8
0
 62
     3
100
AcDbLine
 10
130.0138611072
 20
158.0002746582
 30
0.0
 11
132.2141214056
 21
158.0002746582
 31
0.0
  0
LINE
  5
122
330
2
100
AcDbEntity
  8
0
 62
     3
100
AcDbLine
 10
130.0139407342999
 20
156.3635573763999
 30
0.0
 11
129.5139460479999
 21
155.8572052461
 31
0.0
  0
LINE
  5
123
330
2
100
AcDbEntity
  8
0
 62
     3
100
AcDbLine
 10
129.5138648186999
 20
158.1459205262999
 30
0.0
 11
129.5138570864999
 21
155.8571784609
 31
0.0
  0
LINE
  5
124
330
2
100
AcDbEntity
  8
0
 62
     3
100
AcDbLine
 10
138.1138743359999
 20
155.6999362096999
 30
0.0
 11
138.5139410132
 21
156.1000257856
 31
0.0
  0
LINE
  5
125
330
2
100
AcDbEntity
  8
0
 62
     3
100
AcDbLine
 10
133.1141397161996
 20
156.6500549316
 30
0.0
 11
133.5140634221999
 21
156.6500549316
 31
0.0
  0
LINE
  5
126
330
2
100
AcDbEntity
  8
0
 62
     3
100
AcDbLine
 10
138.113906628
 20
155.6999439791
 30
0.0
 11
133.5139334019999
 21
155.5999893545999
 31
0.0
  0
LINE
  5
127
330
2
100
AcDbEntity
  8
0
 62
     3
100
AcDbLine
 10
142.5141091985999
 20
157.7001495361
 30
0.0
 11
145.8140969915999
 21
157.7001495361
 31
0.0
  0
LINE
  5
128
330
2
100
AcDbEntity
  8
0
 62
     3
100
AcDbLine
 10
142.2138802259999
 20
156.1999875075999
 30
0.0
 11
142.5139269147998
 21
156.3999906279
 31
0.0
  0
LINE
  5
129
330
2
100
AcDbEntity
  8
0
 62
     3
100
AcDbLine
 10
146.1141003903999
 20
158.0001358808999
 30
0.0
 11
145.8141065709999
 21
157.7001420108999
 31
0.0
  0
LINE
  5
12A
330
2
100
AcDbEntity
  8
0
 62
     3
100
AcDbLine
 10
142.2138398252999
 20
180.7999790447999
 30
0.0
 11
138.5139274284
 21
180.8999764688
 31
0.0
  0
LINE
  5
12B
330
2
100
AcDbEntity
  8
0
 62
     3
100
AcDbLine
 10
129.5138675640999
 20
181.1427487039999
 30
0.0
 11
129.5138751934999
 21
178.8540066385998
 31
0.0
  0
LINE
  5
12C
330
2
100
AcDbEntity
  8
0
 62
     3
100
AcDbLine
 10
129.5140004946998
 20
178.8539657882999
 30
0.0
 11
130.0139888892996
 21
178.4958811634999
 31
0.0
  0
LINE
  5
12D
330
2
100
AcDbEntity
  8
0
 62
     3
100
AcDbLine
 10
129.5140034549999
 20
176.0255349941999
 30
0.0
 11
130.0139897442999
 21
175.6674736595
 31
0.0
  0
LINE
  5
12E
330
2
100
AcDbEntity
  8
0
 62
     3
100
AcDbLine
 10
132.2141214056
 20
179.0000305174999
 30
0.0
 11
130.0138870761999
 21
179.0000305174999
 31
0.0
  0
LINE
  5
12F
330
2
100
AcDbEntity
  8
0
 62
     3
100
AcDbLine
 10
130.0138856791999
 20
177.8703155516999
 30
0.0
 11
132.2141214056
 21
177.8703155516999
 31
0.0
  0
LINE
  5
130
330
2
100
AcDbEntity
  8
0
 62
     3
100
AcDbLine
 10
130.0138812171
 20
174.2620239257
 30
0.0
 11
132.2141214056
 21
174.2620239257
 31
0.0
  0
LINE
  5
131
330
2
100
AcDbEntity
  8
0
 62
     3
100
AcDbLine
 10
130.0138876942999
 20
179.4998168944998
 30
0.0
 11
133.1141397161996
 21
179.4998168944998
 31
0.0
  0
LINE
  5
132
330
2
100
AcDbEntity
  8
0
 62
     3
100
AcDbLine
 10
129.5139572150999
 20
181.1426933907999
 30
0.0
 11
130.0139411378999
 21
180.6363520756
 31
0.0
  0
LINE
  5
133
330
2
100
AcDbEntity
  8
0
 62
     3
100
AcDbLine
 10
138.5139394232999
 20
180.8999297828998
 30
0.0
 11
138.1139710686999
 21
181.2998371183
 31
0.0
  0
LINE
  5
134
330
2
100
AcDbEntity
  8
0
 62
     3
100
AcDbLine
 10
133.1141397161996
 20
180.3500518797999
 30
0.0
 11
133.5140634221999
 21
180.3500518797999
 31
0.0
  0
LINE
  5
135
330
2
100
AcDbEntity
  8
0
 62
     3
100
AcDbLine
 10
133.5140549934999
 20
181.3998196075999
 30
0.0
 11
138.1139208846998
 21
181.2998444217998
 31
0.0
  0
LINE
  5
136
330
2
100
AcDbEntity
  8
0
 62
     3
100
AcDbLine
 10
146.1140948941998
 20
179.0001279943999
 30
0.0
 11
145.8141003413999
 21
179.3001211563999
 31
0.0
  0
LINE
  5
137
330
2
100
AcDbEntity
  8
0
 62
     3
100
AcDbLine
 10
142.5141091985999
 20
179.3001403807999
 30
0.0
 11
145.8140969915999
 21
179.3001403807999
 31
0.0
  0
LINE
  5
138
330
2
100
AcDbEntity
  8
0
 62
     3
100
AcDbLine
 10
142.2138886024999
 20
180.7999854922999
 30
0.0
 11
142.5139452843
 21
180.5921782355999
 31
0.0
  0
ARC
  5
139
330
2
100
AcDbEntity
  8
0
 62
     3
100
AcDbCircle
 10
163.3139901799999
 20
160.2001037596998
 30
0.0
 40
1.0
100
AcDbArc
 50
180.0
 51
269.9999820138998
  0
LINE
  5
13A
330
2
100
AcDbEntity
  8
0
 62
     3
100
AcDbLine
 10
162.3139901799999
 20
165.3126026171999
 30
0.0
 11
162.3139901799999
 21
160.2001190184999
 31
0.0
  0
LINE
  5
13B
330
2
100
AcDbEntity
  8
0
 62
     3
100
AcDbLine
 10
165.8741320758998
 20
159.2001190184999
 30
0.0
 11
163.3139901799999
 21
159.2001190184999
 31
0.0
  0
LINE
  5
13C
330
2
100
AcDbEntity
  8
0
 62
     3
100
AcDbLine
 10
172.8139937412999
 20
156.5623894001999
 30
0.0
 11
172.5140572687998
 21
156.3623860045
 31
0.0
  0
LINE
  5
13D
330
2
100
AcDbEntity
  8
0
 62
     3
100
AcDbLine
 10
172.5140634221999
 20
157.9477767943999
 30
0.0
 11
172.5140634221999
 21
156.3152084349999
 31
0.0
  0
LINE
  5
13E
330
2
100
AcDbEntity
  8
0
 62
     3
100
AcDbLine
 10
172.8139901799999
 20
157.8868484496998
 30
0.0
 11
172.8139901799999
 21
156.5624008178
 31
0.0
  0
ARC
  5
13F
330
2
100
AcDbEntity
  8
0
 62
     3
100
AcDbCircle
 10
163.3139749212999
 20
174.400100708
 30
0.0
 40
1.0
100
AcDbArc
 50
90.00007262760002
 51
180.0
  0
LINE
  5
140
330
2
100
AcDbEntity
  8
0
 62
     3
100
AcDbLine
 10
162.3139901799999
 20
174.4001159668
 30
0.0
 11
162.3139901799999
 21
171.6875041943
 31
0.0
  0
LINE
  5
141
330
2
100
AcDbEntity
  8
0
 62
     3
100
AcDbLine
 10
164.7645839402999
 20
182.3061764166999
 30
0.0
 11
166.6529978509998
 21
179.0353169772999
 31
0.0
  0
LINE
  5
142
330
2
100
AcDbEntity
  8
0
 62
     3
100
AcDbLine
 10
167.0628604723999
 20
178.9255136374999
 30
0.0
 11
167.1087463515999
 21
178.8460369649
 31
0.0
  0
LINE
  5
143
330
2
100
AcDbEntity
  8
0
 62
     3
100
AcDbLine
 10
166.6529978509998
 20
179.0353169772999
 30
0.0
 11
167.0627504563999
 21
178.9255297099999
 31
0.0
  0
LINE
  5
144
330
2
100
AcDbEntity
  8
0
 62
     3
100
AcDbLine
 10
167.3226575172996
 20
179.0755075339999
 30
0.0
 11
167.3527590814998
 21
179.0233700962998
 31
0.0
  0
LINE
  5
145
330
2
100
AcDbEntity
  8
0
 62
     3
100
AcDbLine
 10
167.3226190943998
 20
179.0754969347999
 30
0.0
 11
167.0628241773
 21
178.925499337
 31
0.0
  0
LINE
  5
146
330
2
100
AcDbEntity
  8
0
 62
     3
100
AcDbLine
 10
163.9144957337999
 20
175.4001159668
 30
0.0
 11
163.3139901799999
 21
175.4001159668
 31
0.0
  0
LINE
  5
147
330
2
100
AcDbEntity
  8
0
 62
     3
100
AcDbLine
 10
168.3336169335998
 20
180.9244294513
 30
0.0
 11
167.2944112146999
 21
180.324443739
 31
0.0
  0
LINE
  5
148
330
2
100
AcDbEntity
  8
0
 62
     3
100
AcDbLine
 10
166.8336617228999
 20
183.5224280386999
 30
0.0
 11
168.3336169335998
 21
180.9244294513
 31
0.0
  0
LINE
  5
149
330
2
100
AcDbEntity
  8
0
 62
     3
100
AcDbLine
 10
167.8823042187999
 20
184.1061198213999
 30
0.0
 11
169.7706449916998
 21
180.8354177193999
 31
0.0
  0
ARC
  5
14A
330
2
100
AcDbEntity
  8
0
 62
     3
100
AcDbCircle
 10
167.0162759466998
 20
183.6062393188
 30
0.0
 40
1.0
100
AcDbArc
 50
29.9999735141
 51
117.3028709191
  0
ARC
  5
14B
330
2
100
AcDbEntity
  8
0
 62
     3
100
AcDbCircle
 10
165.6306405707
 20
182.8062362670999
 30
0.0
 40
1.0
100
AcDbArc
 50
122.6974089670999
 51
210.0001219569997
  0
ARC
  5
14C
330
2
100
AcDbEntity
  8
0
 62
     3
100
AcDbCircle
 10
174.8140512151999
 20
168.5001144408998
 30
0.0
 40
18.0
100
AcDbArc
 50
117.3028709191
 51
122.6974089670999
  0
LINE
  5
14D
330
2
100
AcDbEntity
  8
0
 62
     3
100
AcDbLine
 10
166.8336617228999
 20
183.5224280386999
 30
0.0
 11
165.7943944628998
 21
182.9224067956
 31
0.0
  0
LINE
  5
14E
330
2
100
AcDbEntity
  8
0
 62
     3
100
AcDbLine
 10
165.7944341063999
 20
182.9224296837999
 30
0.0
 11
167.2943893170999
 21
180.3244310963999
 31
0.0
  0
LINE
  5
14F
330
2
100
AcDbEntity
  8
0
 62
     3
100
AcDbLine
 10
169.6609366370999
 20
180.4255136374999
 30
0.0
 11
169.7068280575999
 21
180.3460273670999
 31
0.0
  0
LINE
  5
150
330
2
100
AcDbEntity
  8
0
 62
     3
100
AcDbLine
 10
169.7706449916998
 20
180.8354177193999
 30
0.0
 11
169.6608180575998
 21
180.4255380245
 31
0.0
  0
LINE
  5
151
330
2
100
AcDbEntity
  8
0
 62
     3
100
AcDbLine
 10
169.4011263777998
 20
180.2755121116998
 30
0.0
 11
169.4312316512999
 21
180.2233682490999
 31
0.0
  0
LINE
  5
152
330
2
100
AcDbEntity
  8
0
 62
     3
100
AcDbLine
 10
169.6609033529998
 20
180.4255104929
 30
0.0
 11
169.4010942917
 21
180.2755068928
 31
0.0
  0
LINE
  5
153
330
2
100
AcDbEntity
  8
0
  6
CENTER
 62
     3
100
AcDbLine
 10
174.8139901799999
 20
183.8999557495
 30
0.0
 11
174.8139901799999
 21
153.1000442504999
 31
0.0
  0
LINE
  5
154
330
2
100
AcDbEntity
  8
0
 62
     3
100
AcDbLine
 10
186.3139901799999
 20
159.2001190184999
 30
0.0
 11
183.7538482841999
 21
159.2001190184999
 31
0.0
  0
LINE
  5
155
330
2
100
AcDbEntity
  8
0
 62
     3
100
AcDbLine
 10
177.1138722424999
 20
156.3623481406
 30
0.0
 11
176.8139611603998
 21
156.5623346056
 31
0.0
  0
LINE
  5
156
330
2
100
AcDbEntity
  8
0
 62
     3
100
AcDbLine
 10
177.1139169378998
 20
156.3152084349999
 30
0.0
 11
177.1139169378998
 21
157.9477767943999
 31
0.0
  0
LINE
  5
157
330
2
100
AcDbEntity
  8
0
 62
     3
100
AcDbLine
 10
176.8139901799999
 20
157.8868484496998
 30
0.0
 11
176.8139901799999
 21
156.5664749145
 31
0.0
  0
LINE
  5
158
330
2
100
AcDbEntity
  8
0
 62
     3
100
AcDbLine
 10
187.3139901799999
 20
165.3126026171999
 30
0.0
 11
187.3139901799999
 21
160.2001190184999
 31
0.0
  0
ARC
  5
159
330
2
100
AcDbEntity
  8
0
 62
     3
100
AcDbCircle
 10
186.3139901799999
 20
160.2001190184999
 30
0.0
 40
1.0
100
AcDbArc
 50
269.9999820138998
 51
359.9999640277999
  0
LINE
  5
15A
330
2
100
AcDbEntity
  8
0
 62
     3
100
AcDbLine
 10
186.3139901799999
 20
175.4001159668
 30
0.0
 11
185.7134846262999
 21
175.4001159668
 31
0.0
  0
ARC
  5
15B
330
2
100
AcDbEntity
  8
0
 62
     3
100
AcDbCircle
 10
186.3139749212998
 20
174.4001159668
 30
0.0
 40
1.0
100
AcDbArc
 50
0.000090613692046
 51
90.00007262760002
  0
LINE
  5
15C
330
2
100
AcDbEntity
  8
0
 62
     3
100
AcDbLine
 10
187.3139901799999
 20
174.4001159668
 30
0.0
 11
187.3139901799999
 21
171.6875041943
 31
0.0
  0
LINE
  5
15D
330
2
100
AcDbEntity
  8
0
100
AcDbLine
 10
210.0
 20
297.0
 30
0.0
 11
0.0
 21
297.0
 31
0.0
  0
LINE
  5
160
330
2
100
AcDbEntity
  8
0
 62
     3
100
AcDbLine
 10
126.0137319311999
 20
231.0255334410999
 30
0.0
 11
129.5137014135999
 21
231.0255471347999
 31
0.0
  0
LINE
  5
161
330
2
100
AcDbEntity
  8
0
 62
     3
100
AcDbLine
 10
130.0136819524996
 20
233.1373748778998
 30
0.0
 11
125.5137124700999
 21
233.1373748778998
 31
0.0
  0
LINE
  5
162
330
2
100
AcDbEntity
  8
0
 62
     3
100
AcDbLine
 10
129.5136819524999
 20
233.8540344238
 30
0.0
 11
126.0137277288998
 21
233.8540344238
 31
0.0
  0
LINE
  5
163
330
2
100
AcDbEntity
  8
0
 62
     3
100
AcDbLine
 10
129.5136819524999
 20
236.1427917479999
 30
0.0
 11
126.0136972112999
 21
236.1427917479999
 31
0.0
  0
LINE
  5
164
330
2
100
AcDbEntity
  8
0
 62
     3
100
AcDbLine
 10
130.0136819524996
 20
225.5000152587999
 30
0.0
 11
125.5137124700999
 21
225.5000152587999
 31
0.0
  0
LINE
  5
165
330
2
100
AcDbEntity
  8
0
 62
     3
100
AcDbLine
 10
125.5136819524999
 20
221.4999237059998
 30
0.0
 11
130.0136361760999
 21
221.4999237059998
 31
0.0
  0
LINE
  5
166
330
2
100
AcDbEntity
  8
0
 62
     3
100
AcDbLine
 10
129.5136393483999
 20
215.9743647736998
 30
0.0
 11
126.0136851248
 21
215.9743786244999
 31
0.0
  0
LINE
  5
167
330
2
100
AcDbEntity
  8
0
 62
     3
100
AcDbLine
 10
125.5136819524999
 20
213.8625793456998
 30
0.0
 11
130.0136361760999
 21
213.8625793456998
 31
0.0
  0
LINE
  5
168
330
2
100
AcDbEntity
  8
0
 62
     3
100
AcDbLine
 10
126.0136666936999
 20
213.1459045409999
 30
0.0
 11
129.5136361760999
 21
213.1459045409999
 31
0.0
  0
LINE
  5
169
330
2
100
AcDbEntity
  8
0
 62
     3
100
AcDbLine
 10
126.0136666936999
 20
210.8571472167998
 30
0.0
 11
129.5136666936999
 21
210.8571472167998
 31
0.0
  0
LINE
  5
16A
330
2
100
AcDbEntity
  8
0
  6
CENTER
 62
     3
100
AcDbLine
 10
149.6141000432999
 20
223.5000457762998
 30
0.0
 11
89.47629791929998
 21
223.5000457762998
 31
0.0
  0
LINE
  5
16B
330
2
100
AcDbEntity
  8
0
 62
     3
100
AcDbLine
 10
126.0136819524999
 20
221.4999237059998
 30
0.0
 11
126.0136819524999
 21
215.9743804931
 31
0.0
  0
LINE
  5
16C
330
2
100
AcDbEntity
  8
0
 62
     3
100
AcDbLine
 10
120.1645528501999
 20
220.5005251062999
 30
0.0
 11
120.8645686007
 21
218.5004710652
 31
0.0
  0
LINE
  5
16D
330
2
100
AcDbEntity
  8
0
 62
     3
100
AcDbLine
 10
120.8641202128999
 20
218.5005384366998
 30
0.0
 11
121.5641025320999
 21
220.5004750740999
 31
0.0
  0
LINE
  5
16E
330
2
100
AcDbEntity
  8
0
 62
     3
100
AcDbLine
 10
122.8138833684996
 20
221.2138977049999
 30
0.0
 11
122.8138833684996
 21
217.7379455565999
 31
0.0
  0
LINE
  5
16F
330
2
100
AcDbEntity
  8
0
 62
     3
100
AcDbLine
 10
111.1139169378999
 20
216.4001159667999
 30
0.0
 11
111.1139169378999
 21
230.6001739502
 31
0.0
  0
LINE
  5
170
330
2
100
AcDbEntity
  8
0
 62
     3
100
AcDbLine
 10
113.3138986272999
 20
211.7001647948999
 30
0.0
 11
113.3138986272999
 21
235.3001251219998
 31
0.0
  0
LINE
  5
171
330
2
100
AcDbEntity
  8
0
 62
     3
100
AcDbLine
 10
114.5139871282996
 20
210.7001190184999
 30
0.0
 11
114.5139871282996
 21
222.9001159667999
 31
0.0
  0
LINE
  5
172
330
2
100
AcDbEntity
  8
0
 62
     3
100
AcDbLine
 10
117.0139871283
 20
222.9001159667999
 30
0.0
 11
117.0139871283
 21
210.7001190184999
 31
0.0
  0
LINE
  5
173
330
2
100
AcDbEntity
  8
0
 62
     3
100
AcDbLine
 10
122.5138650579999
 20
233.9803771971999
 30
0.0
 11
122.5138650579999
 21
213.0195617674996
 31
0.0
  0
LINE
  5
174
330
2
100
AcDbEntity
  8
0
 62
     3
100
AcDbLine
 10
121.8138833684996
 20
236.300125122
 30
0.0
 11
121.8138833684996
 21
210.7001647948999
 31
0.0
  0
LINE
  5
175
330
2
100
AcDbEntity
  8
0
 62
     3
100
AcDbLine
 10
125.5136982161999
 20
211.3635645205
 30
0.0
 11
125.5137282326999
 21
235.6363458924999
 31
0.0
  0
LINE
  5
176
330
2
100
AcDbEntity
  8
0
 62
     3
100
AcDbLine
 10
97.51403290469999
 20
211.0000915526998
 30
0.0
 11
97.51403290469999
 21
236.0000762938999
 31
0.0
  0
LINE
  5
177
330
2
100
AcDbEntity
  8
0
 62
     3
100
AcDbLine
 10
113.5998330755999
 20
211.0000915526998
 30
0.0
 11
97.51403290469999
 21
211.0000915526998
 31
0.0
  0
LINE
  5
178
330
2
100
AcDbEntity
  8
0
 62
     3
100
AcDbLine
 10
92.01404816339998
 20
214.5000610350999
 30
0.0
 11
97.51401764589994
 21
214.5000610350999
 31
0.0
  0
LINE
  5
179
330
2
100
AcDbEntity
  8
0
 62
     3
100
AcDbLine
 10
92.01404816339998
 20
215.0000610350999
 30
0.0
 11
97.51401764589994
 21
215.0000610350999
 31
0.0
  0
LINE
  5
17A
330
2
100
AcDbEntity
  8
0
 62
     3
100
AcDbLine
 10
95.51442963319999
 20
215.0000610350999
 30
0.0
 11
95.51442963319999
 21
214.5000610350999
 31
0.0
  0
LINE
  5
17B
330
2
100
AcDbEntity
  8
0
 62
     3
100
AcDbLine
 10
92.01407868099995
 20
214.5000610350999
 30
0.0
 11
92.01407868099995
 21
215.0000610350999
 31
0.0
  0
LINE
  5
17C
330
2
100
AcDbEntity
  8
0
 62
     3
100
AcDbLine
 10
100.8138070745999
 20
216.8002624510998
 30
0.0
 11
100.8138070745999
 21
214.4002380370999
 31
0.0
  0
LINE
  5
17D
330
2
100
AcDbEntity
  8
0
 62
     3
100
AcDbLine
 10
99.16398101250001
 20
216.8011982329999
 30
0.0
 11
99.16399693489999
 21
214.4011738189998
 31
0.0
  0
LINE
  5
17E
330
2
100
AcDbEntity
  8
0
 62
     3
100
AcDbLine
 10
99.16399777839998
 20
216.8011983171998
 30
0.0
 11
100.8138696045999
 21
216.8012090270999
 31
0.0
  0
LINE
  5
17F
330
2
100
AcDbEntity
  8
0
 62
     3
100
AcDbLine
 10
99.16382843690001
 20
214.4002380370999
 30
0.0
 11
100.8138070745999
 21
214.4002380370999
 31
0.0
  0
LINE
  5
180
330
2
100
AcDbEntity
  8
0
 62
     3
100
AcDbLine
 10
117.0139871283
 20
212.3001251219998
 30
0.0
 11
114.5139871282996
 21
212.3001251219998
 31
0.0
  0
LINE
  5
181
330
2
100
AcDbEntity
  8
0
 62
     3
100
AcDbLine
 10
114.3138986272999
 20
210.7001647948999
 30
0.0
 11
117.8138986272999
 21
210.7001647948999
 31
0.0
  0
ARC
  5
182
330
2
100
AcDbEntity
  8
0
 62
     3
100
AcDbCircle
 10
114.3139291448999
 20
211.7002105712999
 30
0.0
 40
1.0
100
AcDbArc
 50
179.9999640277999
 51
270.0000006831999
  0
ARC
  5
183
330
2
100
AcDbEntity
  8
0
 62
     3
100
AcDbCircle
 10
111.6139474553999
 20
216.4001617430999
 30
0.0
 40
0.5
100
AcDbArc
 50
179.9999640277999
 51
269.9999460416999
  0
LINE
  5
184
330
2
100
AcDbEntity
  8
0
 62
     3
100
AcDbLine
 10
113.3138986272999
 20
215.9001159668
 30
0.0
 11
111.6139169378999
 21
215.9001159668
 31
0.0
  0
LINE
  5
185
330
2
100
AcDbEntity
  8
0
 62
     3
100
AcDbLine
 10
126.0136919395999
 20
210.8571750247999
 30
0.0
 11
126.0136996716999
 21
213.1459323489997
 31
0.0
  0
LINE
  5
186
330
2
100
AcDbEntity
  8
0
 62
     3
100
AcDbLine
 10
117.8138833684996
 20
208.0410614013
 30
0.0
 11
117.8138833684996
 21
217.4377136229999
 31
0.0
  0
LINE
  5
187
330
2
100
AcDbEntity
  8
0
 62
     3
100
AcDbLine
 10
119.0638986273
 20
217.4376525878999
 30
0.0
 11
119.0638986273
 21
208.0409851073998
 31
0.0
  0
LINE
  5
188
330
2
100
AcDbEntity
  8
0
 62
     3
100
AcDbLine
 10
119.0638986273
 20
210.7001647948999
 30
0.0
 11
121.8138833684996
 21
210.7001647948999
 31
0.0
  0
LINE
  5
189
330
2
100
AcDbEntity
  8
0
 62
     3
100
AcDbLine
 10
119.0638960613999
 20
208.0409997447999
 30
0.0
 11
117.8138960613999
 21
208.0410150035998
 31
0.0
  0
LINE
  5
18A
330
2
100
AcDbEntity
  8
0
 62
     3
100
AcDbLine
 10
126.0137126754999
 20
210.8571767577999
 30
0.0
 11
125.5137266095999
 21
211.3635589176999
 31
0.0
  0
LINE
  5
18B
330
2
100
AcDbEntity
  8
0
 62
     3
100
AcDbLine
 10
117.8138833684996
 20
217.4377136229999
 30
0.0
 11
121.8138833684996
 21
217.4377136229999
 31
0.0
  0
LINE
  5
18C
330
2
100
AcDbEntity
  8
0
 62
     3
100
AcDbLine
 10
119.0638986273
 20
212.0867614745999
 30
0.0
 11
121.8138833684996
 21
212.0867614745999
 31
0.0
  0
LINE
  5
18D
330
2
100
AcDbEntity
  8
0
 62
     3
100
AcDbLine
 10
119.0639754070999
 20
214.5409997447997
 30
0.0
 11
117.8139754070999
 21
214.5410150035996
 31
0.0
  0
LINE
  5
18E
330
2
100
AcDbEntity
  8
0
 62
     3
100
AcDbLine
 10
120.6639047307999
 20
212.0867004393999
 30
0.0
 11
120.6639047307999
 21
217.4376525878999
 31
0.0
  0
LINE
  5
18F
330
2
100
AcDbEntity
  8
0
 62
     3
100
AcDbLine
 10
119.8639016790999
 20
212.0867004393999
 30
0.0
 11
119.8639016790999
 21
217.4376525878999
 31
0.0
  0
LINE
  5
190
330
2
100
AcDbEntity
  8
0
 62
     3
100
AcDbLine
 10
126.0137157349999
 20
215.9743784353998
 30
0.0
 11
125.513737414
 21
216.3323722497
 31
0.0
  0
LINE
  5
191
330
2
100
AcDbEntity
  8
0
 62
     3
100
AcDbLine
 10
125.5137124700999
 20
214.1296997069999
 30
0.0
 11
122.5138955755999
 21
214.1296997069999
 31
0.0
  0
LINE
  5
192
330
2
100
AcDbEntity
  8
0
 62
     3
100
AcDbLine
 10
125.5137124700999
 20
217.7379760741998
 30
0.0
 11
122.5138955755999
 21
217.7379760741998
 31
0.0
  0
LINE
  5
193
330
2
100
AcDbEntity
  8
0
 62
     3
100
AcDbLine
 10
126.0137505824999
 20
213.1459271539998
 30
0.0
 11
125.5137778885996
 21
213.5039550690998
 31
0.0
  0
LINE
  5
194
330
2
100
AcDbEntity
  8
0
 62
     3
100
AcDbLine
 10
122.5138650579999
 20
213.2999572754
 30
0.0
 11
121.8138681096998
 21
213.2999572754
 31
0.0
  0
LINE
  5
195
330
2
100
AcDbEntity
  8
0
 62
     3
100
AcDbLine
 10
122.5135290634999
 20
213.0194059741999
 30
0.0
 11
122.8135320794999
 21
212.4997854196998
 31
0.0
  0
LINE
  5
196
330
2
100
AcDbEntity
  8
0
 62
     3
100
AcDbLine
 10
122.5252328557999
 20
213.0000610350999
 30
0.0
 11
125.5137124700999
 21
213.0000610350999
 31
0.0
  0
LINE
  5
197
330
2
100
AcDbEntity
  8
0
 62
     3
100
AcDbLine
 10
122.8139138860999
 20
212.5000610350999
 30
0.0
 11
125.5137124700999
 21
212.5000610350999
 31
0.0
  0
LINE
  5
198
330
2
100
AcDbEntity
  8
0
 62
     3
100
AcDbLine
 10
122.8138833684996
 20
214.1296691893999
 30
0.0
 11
122.8138833684996
 21
212.5000305174999
 31
0.0
  0
LINE
  5
199
330
2
100
AcDbEntity
  8
0
 62
     3
100
AcDbLine
 10
97.51403290469999
 20
236.0000762938999
 30
0.0
 11
113.5997110051996
 21
236.0000762938999
 31
0.0
  0
LINE
  5
19A
330
2
100
AcDbEntity
  8
0
 62
     3
100
AcDbLine
 10
100.8138070745999
 20
230.4001007079999
 30
0.0
 11
100.8138070745999
 21
228.0001983641999
 31
0.0
  0
LINE
  5
19B
330
2
100
AcDbEntity
  8
0
 62
     3
100
AcDbLine
 10
95.51442963319999
 20
228.6000518797999
 30
0.0
 11
95.51442963319999
 21
228.1000518797998
 31
0.0
  0
LINE
  5
19C
330
2
100
AcDbEntity
  8
0
 62
     3
100
AcDbLine
 10
92.01407868099995
 20
228.1000366210998
 30
0.0
 11
92.01407868099995
 21
228.6000366210998
 31
0.0
  0
LINE
  5
19D
330
2
100
AcDbEntity
  8
0
 62
     3
100
AcDbLine
 10
99.16390604629999
 20
230.4010517487999
 30
0.0
 11
99.16392196870001
 21
228.0010273346999
 31
0.0
  0
LINE
  5
19E
330
2
100
AcDbEntity
  8
0
 62
     3
100
AcDbLine
 10
92.01404816339998
 20
228.1000518797998
 30
0.0
 11
97.51403290469999
 21
228.1000518797998
 31
0.0
  0
LINE
  5
19F
330
2
100
AcDbEntity
  8
0
 62
     3
100
AcDbLine
 10
92.01404816339998
 20
221.8000488280999
 30
0.0
 11
97.51400238709996
 21
221.8000488280999
 31
0.0
  0
LINE
  5
1A0
330
2
100
AcDbEntity
  8
0
 62
     3
100
AcDbLine
 10
92.01404816339998
 20
221.3000488280999
 30
0.0
 11
97.51400238709996
 21
221.3000488280999
 31
0.0
  0
LINE
  5
1A1
330
2
100
AcDbEntity
  8
0
 62
     3
100
AcDbLine
 10
95.51442963319999
 20
221.8000488280999
 30
0.0
 11
95.51442963319999
 21
221.3000488280999
 31
0.0
  0
LINE
  5
1A2
330
2
100
AcDbEntity
  8
0
 62
     3
100
AcDbLine
 10
92.01407868099995
 20
221.3000488280999
 30
0.0
 11
92.01407868099995
 21
221.8000488280999
 31
0.0
  0
LINE
  5
1A3
330
2
100
AcDbEntity
  8
0
 62
     3
100
AcDbLine
 10
100.8138070745999
 20
223.7007598876998
 30
0.0
 11
100.8138070745999
 21
221.2001647948998
 31
0.0
  0
LINE
  5
1A4
330
2
100
AcDbEntity
  8
0
 62
     3
100
AcDbLine
 10
99.1639352367
 20
223.7011005767998
 30
0.0
 11
99.1639518224
 21
221.2011005768
 31
0.0
  0
LINE
  5
1A5
330
2
100
AcDbEntity
  8
0
 62
     3
100
AcDbLine
 10
99.1639529889
 20
223.7011006609999
 30
0.0
 11
100.8138095561999
 21
223.7011113707999
 31
0.0
  0
LINE
  5
1A6
330
2
100
AcDbEntity
  8
0
 62
     3
100
AcDbLine
 10
99.16382843690001
 20
221.2001647948998
 30
0.0
 11
100.8138070745999
 21
221.2001647948998
 31
0.0
  0
LINE
  5
1A7
330
2
100
AcDbEntity
  8
0
 62
     3
100
AcDbLine
 10
99.16382843690001
 20
228.0001983641999
 30
0.0
 11
100.8138070745999
 21
228.0001983641999
 31
0.0
  0
LINE
  5
1A8
330
2
100
AcDbEntity
  8
0
 62
     3
100
AcDbLine
 10
92.01404816339998
 20
235.1000518797997
 30
0.0
 11
97.51403290469999
 21
235.1000518797997
 31
0.0
  0
LINE
  5
1A9
330
2
100
AcDbEntity
  8
0
 62
     3
100
AcDbLine
 10
92.01404816339998
 20
234.6000518797999
 30
0.0
 11
97.51403290469999
 21
234.6000518797999
 31
0.0
  0
LINE
  5
1AA
330
2
100
AcDbEntity
  8
0
 62
     3
100
AcDbLine
 10
92.01404816339998
 20
228.6000518797999
 30
0.0
 11
97.51403290469999
 21
228.6000518797999
 31
0.0
  0
LINE
  5
1AB
330
2
100
AcDbEntity
  8
0
 62
     3
100
AcDbLine
 10
95.51442963319999
 20
235.1000518797997
 30
0.0
 11
95.51442963319999
 21
234.6000518797999
 31
0.0
  0
LINE
  5
1AC
330
2
100
AcDbEntity
  8
0
 62
     3
100
AcDbLine
 10
92.01407868099995
 20
234.6000366210998
 30
0.0
 11
92.01407868099995
 21
235.1000366210998
 31
0.0
  0
LINE
  5
1AD
330
2
100
AcDbEntity
  8
0
 62
     3
100
AcDbLine
 10
99.16404682829998
 20
230.4010518352999
 30
0.0
 11
100.8137813252999
 21
230.4010625442999
 31
0.0
  0
ARC
  5
1AE
330
2
100
AcDbEntity
  8
0
 62
     3
100
AcDbCircle
 10
114.3139291448999
 20
235.3001708984
 30
0.0
 40
1.0
100
AcDbArc
 50
89.99998201389999
 51
179.9999640277999
  0
LINE
  5
1AF
330
2
100
AcDbEntity
  8
0
 62
     3
100
AcDbLine
 10
114.5139871282996
 20
234.7001190184999
 30
0.0
 11
117.0139871283
 21
234.7001190184999
 31
0.0
  0
LINE
  5
1B0
330
2
100
AcDbEntity
  8
0
 62
     3
100
AcDbLine
 10
114.3138986272999
 20
236.300125122
 30
0.0
 11
121.8138833684996
 21
236.300125122
 31
0.0
  0
LINE
  5
1B1
330
2
100
AcDbEntity
  8
0
 62
     3
100
AcDbLine
 10
117.0139871283
 20
224.1001281738
 30
0.0
 11
114.5139871282996
 21
224.1001281738
 31
0.0
  0
LINE
  5
1B2
330
2
100
AcDbEntity
  8
0
 62
     3
100
AcDbLine
 10
114.5139871282996
 20
222.9001159667999
 30
0.0
 11
117.0139871283
 21
222.9001159667999
 31
0.0
  0
LINE
  5
1B3
330
2
100
AcDbEntity
  8
0
 62
     3
100
AcDbLine
 10
114.5139871282996
 20
224.1001281738
 30
0.0
 11
114.5139871282996
 21
236.300125122
 31
0.0
  0
ARC
  5
1B4
330
2
100
AcDbEntity
  8
0
 62
     3
100
AcDbCircle
 10
111.6139474553999
 20
230.6002197264998
 30
0.0
 40
0.5
100
AcDbArc
 50
89.99992737239997
 51
179.9999640277999
  0
LINE
  5
1B5
330
2
100
AcDbEntity
  8
0
 62
     3
100
AcDbLine
 10
111.6139169378999
 20
231.1001739501998
 30
0.0
 11
113.3138986272999
 21
231.1001739501998
 31
0.0
  0
LINE
  5
1B6
330
2
100
AcDbEntity
  8
0
 62
     3
100
AcDbLine
 10
126.0137124700999
 20
231.0255584715999
 30
0.0
 11
126.0137124700999
 21
225.5000152587999
 31
0.0
  0
LINE
  5
1B7
330
2
100
AcDbEntity
  8
0
 62
     3
100
AcDbLine
 10
117.0139871283
 20
236.300125122
 30
0.0
 11
117.0139871283
 21
224.1001281738
 31
0.0
  0
LINE
  5
1B8
330
2
100
AcDbEntity
  8
0
 62
     3
100
AcDbLine
 10
122.8138833684996
 20
234.5000305174999
 30
0.0
 11
122.8138833684996
 21
225.7860412597
 31
0.0
  0
LINE
  5
1B9
330
2
100
AcDbEntity
  8
0
 62
     3
100
AcDbLine
 10
120.6139016790997
 20
224.5001525879
 30
0.0
 11
121.1139016790999
 21
224.5001525879
 31
0.0
  0
LINE
  5
1BA
330
2
100
AcDbEntity
  8
0
 62
     3
100
AcDbLine
 10
118.9139047307999
 20
225.6001739501999
 30
0.0
 11
120.0138955755999
 21
225.6001739501999
 31
0.0
  0
LINE
  5
1BB
330
2
100
AcDbEntity
  8
0
 62
     3
100
AcDbLine
 10
120.6139016790997
 20
220.5001525879
 30
0.0
 11
120.1639047308
 21
220.5001525879
 31
0.0
  0
LINE
  5
1BC
330
2
100
AcDbEntity
  8
0
 62
     3
100
AcDbLine
 10
120.0138955755999
 20
221.4001159668
 30
0.0
 11
118.9139047307999
 21
221.4001159668
 31
0.0
  0
LINE
  5
1BD
330
2
100
AcDbEntity
  8
0
 62
     3
100
AcDbLine
 10
118.9139047307999
 20
221.4001159668
 30
0.0
 11
118.9139047307999
 21
225.6001739501999
 31
0.0
  0
LINE
  5
1BE
330
2
100
AcDbEntity
  8
0
 62
     3
100
AcDbLine
 10
120.0138955755999
 20
225.6001739501999
 30
0.0
 11
120.0138955755999
 21
221.4001159668
 31
0.0
  0
LINE
  5
1BF
330
2
100
AcDbEntity
  8
0
 62
     3
100
AcDbLine
 10
120.6139016790997
 20
220.5001525879
 30
0.0
 11
120.6139016790997
 21
224.5001525879
 31
0.0
  0
LINE
  5
1C0
330
2
100
AcDbEntity
  8
0
 62
     3
100
AcDbLine
 10
121.1139016790999
 20
220.5001525879
 30
0.0
 11
121.5639215154999
 21
220.5001525879
 31
0.0
  0
LINE
  5
1C1
330
2
100
AcDbEntity
  8
0
 62
     3
100
AcDbLine
 10
121.1139016790999
 20
220.5001525879
 30
0.0
 11
121.1139016790999
 21
224.5001525879
 31
0.0
  0
LINE
  5
1C2
330
2
100
AcDbEntity
  8
0
 62
     3
100
AcDbLine
 10
125.5137277288999
 20
225.1000213623
 30
0.0
 11
122.5138955755999
 21
225.1000213623
 31
0.0
  0
LINE
  5
1C3
330
2
100
AcDbEntity
  8
0
 62
     3
100
AcDbLine
 10
122.5138955755999
 20
221.2139282225999
 30
0.0
 11
125.5137277288999
 21
221.2139282225999
 31
0.0
  0
LINE
  5
1C4
330
2
100
AcDbEntity
  8
0
 62
     3
100
AcDbLine
 10
122.5138955755999
 20
221.8999633788999
 30
0.0
 11
125.5137277288999
 21
221.8999633788999
 31
0.0
  0
LINE
  5
1C5
330
2
100
AcDbEntity
  8
0
 62
     3
100
AcDbLine
 10
125.5137277288999
 20
225.7860565184999
 30
0.0
 11
122.5138955755999
 21
225.7860565184999
 31
0.0
  0
LINE
  5
1C6
330
2
100
AcDbEntity
  8
0
 62
     3
100
AcDbLine
 10
125.5137188543999
 20
230.6674692253998
 30
0.0
 11
126.0137344312999
 21
231.0254896893999
 31
0.0
  0
LINE
  5
1C7
330
2
100
AcDbEntity
  8
0
 62
     3
100
AcDbLine
 10
126.0137223760999
 20
233.8539949742998
 30
0.0
 11
126.0137147467
 21
236.1427675573
 31
0.0
  0
LINE
  5
1C8
330
2
100
AcDbEntity
  8
0
 62
     3
100
AcDbLine
 10
125.5137588988999
 20
233.4958872797998
 30
0.0
 11
126.0137688473997
 21
233.8539418098999
 31
0.0
  0
LINE
  5
1C9
330
2
100
AcDbEntity
  8
0
 62
     3
100
AcDbLine
 10
125.5137627366996
 20
235.6363173650998
 30
0.0
 11
126.0137702440997
 21
236.1427211984997
 31
0.0
  0
LINE
  5
1CA
330
2
100
AcDbEntity
  8
0
 62
     3
100
AcDbLine
 10
122.5138650579999
 20
233.6999816893999
 30
0.0
 11
121.8138681096998
 21
233.6999816893999
 31
0.0
  0
LINE
  5
1CB
330
2
100
AcDbEntity
  8
0
 62
     3
100
AcDbLine
 10
122.8136980648999
 20
234.4995439623
 30
0.0
 11
122.5137103076999
 21
233.9799498367998
 31
0.0
  0
LINE
  5
1CC
330
2
100
AcDbEntity
  8
0
 62
     3
100
AcDbLine
 10
125.5137429876999
 20
234.5000457762998
 30
0.0
 11
122.8139138860999
 21
234.5000457762998
 31
0.0
  0
LINE
  5
1CD
330
2
100
AcDbEntity
  8
0
 62
     3
100
AcDbLine
 10
125.5137429876999
 20
234.0000457763
 30
0.0
 11
122.5252328557999
 21
234.0000457763
 31
0.0
  0
LINE
  5
1CE
330
2
100
AcDbEntity
  8
0
 62
     3
100
AcDbLine
 10
129.513674584
 20
221.4999556962998
 30
0.0
 11
129.5136438182999
 21
215.9743819658
 31
0.0
  0
LINE
  5
1CF
330
2
100
AcDbEntity
  8
0
 62
     3
100
AcDbLine
 10
133.5138345403999
 20
236.3999023436999
 30
0.0
 11
133.5138345403999
 21
210.5999908446999
 31
0.0
  0
LINE
  5
1D0
330
2
100
AcDbEntity
  8
0
 62
     3
100
AcDbLine
 10
130.0136824563999
 20
235.6363861040998
 30
0.0
 11
130.0136524397998
 21
211.3635284380999
 31
0.0
  0
LINE
  5
1D1
330
2
100
AcDbEntity
  8
0
 62
     3
100
AcDbLine
 10
133.1138345403999
 20
211.6500396727999
 30
0.0
 11
133.1138345403999
 21
235.3500061034999
 31
0.0
  0
LINE
  5
1D2
330
2
100
AcDbEntity
  8
0
 62
     3
100
AcDbLine
 10
142.2140145940999
 20
235.7996063231998
 30
0.0
 11
142.2140145940999
 21
211.1996154784999
 31
0.0
  0
LINE
  5
1D3
330
2
100
AcDbEntity
  8
0
 62
     3
100
AcDbLine
 10
138.5140634221999
 20
235.8996582030999
 30
0.0
 11
138.5140634221999
 21
211.0996398924999
 31
0.0
  0
LINE
  5
1D4
330
2
100
AcDbEntity
  8
0
 62
     3
100
AcDbLine
 10
138.1140390082
 20
210.6998443602999
 30
0.0
 11
138.1140390082
 21
236.2998046874999
 31
0.0
  0
LINE
  5
1D5
330
2
100
AcDbEntity
  8
0
 62
     3
100
AcDbLine
 10
142.5141091985999
 20
211.4076080321999
 30
0.0
 11
142.5141091985999
 21
235.5996551512999
 31
0.0
  0
LINE
  5
1D6
330
2
100
AcDbEntity
  8
0
 62
     3
100
AcDbLine
 10
145.8140969915999
 20
212.7001342772998
 30
0.0
 11
145.8140969915999
 21
234.300125122
 31
0.0
  0
LINE
  5
1D7
330
2
100
AcDbEntity
  8
0
 62
     3
100
AcDbLine
 10
146.1141000432999
 20
213.0001220702999
 30
0.0
 11
146.1141000432999
 21
234.0001220702998
 31
0.0
  0
LINE
  5
1D8
330
2
100
AcDbEntity
  8
0
 62
     3
100
AcDbLine
 10
132.2138314885999
 20
221.2138977049999
 30
0.0
 11
132.2138314885999
 21
212.5000305174999
 31
0.0
  0
LINE
  5
1D9
330
2
100
AcDbEntity
  8
0
 62
     3
100
AcDbLine
 10
142.2136630908999
 20
211.1996546747997
 30
0.0
 11
138.5139642391999
 21
211.0996630221999
 31
0.0
  0
LINE
  5
1DA
330
2
100
AcDbEntity
  8
0
 62
     3
100
AcDbLine
 10
129.5136538990999
 20
213.1459205275999
 30
0.0
 11
129.5136461668999
 21
210.8571784621
 31
0.0
  0
LINE
  5
1DB
330
2
100
AcDbEntity
  8
0
 62
     3
100
AcDbLine
 10
130.0137482422
 20
211.3635351561999
 30
0.0
 11
129.5137535557999
 21
210.8571830258999
 31
0.0
  0
LINE
  5
1DC
330
2
100
AcDbEntity
  8
0
 62
     3
100
AcDbLine
 10
138.5139995719999
 20
211.0997628979998
 30
0.0
 11
138.1139772652999
 21
210.6998016186999
 31
0.0
  0
LINE
  5
1DD
330
2
100
AcDbEntity
  8
0
 62
     3
100
AcDbLine
 10
133.5138192815997
 20
211.6500396727999
 30
0.0
 11
133.1138345403999
 21
211.6500396727999
 31
0.0
  0
LINE
  5
1DE
330
2
100
AcDbEntity
  8
0
 62
     3
100
AcDbLine
 10
133.5141352655
 20
210.5998837755998
 30
0.0
 11
138.1139859014998
 21
210.6998586297998
 31
0.0
  0
LINE
  5
1DF
330
2
100
AcDbEntity
  8
0
 62
     3
100
AcDbLine
 10
130.0136538452999
 20
212.5000610350999
 30
0.0
 11
133.1138345403999
 21
212.5000610350999
 31
0.0
  0
LINE
  5
1E0
330
2
100
AcDbEntity
  8
0
 62
     3
100
AcDbLine
 10
130.0137141864998
 20
216.3324001829999
 30
0.0
 11
129.5137154548999
 21
215.9743300007999
 31
0.0
  0
LINE
  5
1E1
330
2
100
AcDbEntity
  8
0
 62
     3
100
AcDbLine
 10
132.2138620061999
 20
214.1296997069999
 30
0.0
 11
130.0136558604999
 21
214.1296997069999
 31
0.0
  0
LINE
  5
1E2
330
2
100
AcDbEntity
  8
0
 62
     3
100
AcDbLine
 10
132.2138620061999
 20
217.7379760741998
 30
0.0
 11
130.0136603226997
 21
217.7379760741998
 31
0.0
  0
LINE
  5
1E3
330
2
100
AcDbEntity
  8
0
 62
     3
100
AcDbLine
 10
130.0137172299999
 20
213.5039744219998
 30
0.0
 11
129.5137288354996
 21
213.1458898337999
 31
0.0
  0
LINE
  5
1E4
330
2
100
AcDbEntity
  8
0
 62
     3
100
AcDbLine
 10
130.0136544635999
 20
213.0000610350999
 30
0.0
 11
132.2138620061999
 21
213.0000610350999
 31
0.0
  0
LINE
  5
1E5
330
2
100
AcDbEntity
  8
0
 62
     3
100
AcDbLine
 10
142.213960159
 20
211.1997103445999
 30
0.0
 11
142.5140168407999
 21
211.4075176013999
 31
0.0
  0
LINE
  5
1E6
330
2
100
AcDbEntity
  8
0
 62
     3
100
AcDbLine
 10
142.5141091985999
 20
212.7001342772998
 30
0.0
 11
145.8140969915999
 21
212.7001342772998
 31
0.0
  0
LINE
  5
1E7
330
2
100
AcDbEntity
  8
0
 62
     3
100
AcDbLine
 10
146.1141003903999
 20
213.0001206220999
 30
0.0
 11
145.8141065709999
 21
212.7001267520999
 31
0.0
  0
LINE
  5
1E8
330
2
100
AcDbEntity
  8
0
 62
     3
100
AcDbLine
 10
138.1137155653999
 20
236.2995919247
 30
0.0
 11
133.5137270840999
 21
236.3995468805998
 31
0.0
  0
LINE
  5
1E9
330
2
100
AcDbEntity
  8
0
 62
     3
100
AcDbLine
 10
138.5136815192999
 20
235.8995675198999
 30
0.0
 11
142.2136244225999
 21
235.7995692714
 31
0.0
  0
LINE
  5
1EA
330
2
100
AcDbEntity
  8
0
 62
     3
100
AcDbLine
 10
132.2138314885999
 20
234.4999999999999
 30
0.0
 11
132.2138314885999
 21
225.7860107422
 31
0.0
  0
LINE
  5
1EB
330
2
100
AcDbEntity
  8
0
 62
     3
100
AcDbLine
 10
129.5136879610999
 20
231.0255299464998
 30
0.0
 11
129.5137184785999
 21
225.4999562160998
 31
0.0
  0
LINE
  5
1EC
330
2
100
AcDbEntity
  8
0
 62
     3
100
AcDbLine
 10
133.0138650579999
 20
225.1000213623
 30
0.0
 11
130.0136694267999
 21
225.1000213623
 31
0.0
  0
LINE
  5
1ED
330
2
100
AcDbEntity
  8
0
 62
     3
100
AcDbLine
 10
133.0138345403999
 20
225.7860565184999
 30
0.0
 11
130.0136702751996
 21
225.7860565184999
 31
0.0
  0
LINE
  5
1EE
330
2
100
AcDbEntity
  8
0
 62
     3
100
AcDbLine
 10
130.0136654694999
 20
221.8999633788999
 30
0.0
 11
133.0138650579999
 21
221.8999633788999
 31
0.0
  0
LINE
  5
1EF
330
2
100
AcDbEntity
  8
0
 62
     3
100
AcDbLine
 10
130.0136646210999
 20
221.2139282225999
 30
0.0
 11
133.0138345403999
 21
221.2139282225999
 31
0.0
  0
LINE
  5
1F0
330
2
100
AcDbEntity
  8
0
 62
     3
100
AcDbLine
 10
133.0138345403999
 20
221.2139282225999
 30
0.0
 11
133.0138345403999
 21
225.7860565184999
 31
0.0
  0
LINE
  5
1F1
330
2
100
AcDbEntity
  8
0
 62
     3
100
AcDbLine
 10
133.1138345403999
 20
234.5000457762998
 30
0.0
 11
130.0136810511999
 21
234.5000457762998
 31
0.0
  0
LINE
  5
1F2
330
2
100
AcDbEntity
  8
0
 62
     3
100
AcDbLine
 10
129.5137741609996
 20
231.0255248496999
 30
0.0
 11
130.0137728559999
 21
230.6674546307998
 31
0.0
  0
LINE
  5
1F3
330
2
100
AcDbEntity
  8
0
 62
     3
100
AcDbLine
 10
129.5137763550999
 20
233.8539801032998
 30
0.0
 11
130.0137523441996
 21
233.4959043630998
 31
0.0
  0
LINE
  5
1F4
330
2
100
AcDbEntity
  8
0
 62
     3
100
AcDbLine
 10
129.5137855390999
 20
236.1427097525999
 30
0.0
 11
130.0137694618999
 21
235.6363684373997
 31
0.0
  0
LINE
  5
1F5
330
2
100
AcDbEntity
  8
0
 62
     3
100
AcDbLine
 10
129.5136842246997
 20
236.1427639627998
 30
0.0
 11
129.5136918540999
 21
233.8540218973998
 31
0.0
  0
LINE
  5
1F6
330
2
100
AcDbEntity
  8
0
 62
     3
100
AcDbLine
 10
132.2138620061999
 20
234.0000457763
 30
0.0
 11
130.0136804329
 21
234.0000457763
 31
0.0
  0
LINE
  5
1F7
330
2
100
AcDbEntity
  8
0
 62
     3
100
AcDbLine
 10
138.1137562307999
 20
236.2999154941999
 30
0.0
 11
138.5138229079998
 21
235.8998259182999
 31
0.0
  0
LINE
  5
1F8
330
2
100
AcDbEntity
  8
0
 62
     3
100
AcDbLine
 10
133.5138192815997
 20
235.3500213622999
 30
0.0
 11
133.1138345403999
 21
235.3500213622999
 31
0.0
  0
LINE
  5
1F9
330
2
100
AcDbEntity
  8
0
 62
     3
100
AcDbLine
 10
142.5141091985999
 20
234.300125122
 30
0.0
 11
145.8140969915999
 21
234.300125122
 31
0.0
  0
LINE
  5
1FA
330
2
100
AcDbEntity
  8
0
 62
     3
100
AcDbLine
 10
142.2138803552999
 20
235.7997334479999
 30
0.0
 11
142.5139270440999
 21
235.5997303276998
 31
0.0
  0
LINE
  5
1FB
330
2
100
AcDbEntity
  8
0
 62
     3
100
AcDbLine
 10
146.1140948941998
 20
234.0001127355999
 30
0.0
 11
145.8141003413999
 21
234.3001058975999
 31
0.0
  0
TEXT
  5
21F
330
2
100
AcDbEntity
  8
0
 62
     7
100
AcDbText
 10
108.0
 20
75.00000295525
 30
0.0
 40
2.999994089499998
  1
LW1L-M2C34V*  LW1L-A2C34V*
 11
108.0
 21
76.5
 31
0.0
100
AcDbText
 73
     2
  0
TEXT
  5
220
330
2
100
AcDbEntity
  8
0
 62
     7
100
AcDbText
 10
108.0
 20
80.00000295525
 30
0.0
 40
2.999994089499998
  1
LW1L-M2C33V*  LW1L-A2C33V*
 11
108.0
 21
81.5
 31
0.0
100
AcDbText
 73
     2
  0
TEXT
  5
221
330
2
100
AcDbEntity
  8
0
 62
     7
100
AcDbText
 10
108.0
 20
85.00000295525
 30
0.0
 40
2.999994089499998
  1
LW1L-M2C32V*  LW1L-A2C32V*
 11
108.0
 21
86.5
 31
0.0
100
AcDbText
 73
     2
  0
TEXT
  5
222
330
2
100
AcDbEntity
  8
0
 62
     7
100
AcDbText
 10
108.0
 20
90.00000295525
 30
0.0
 40
2.999994089499998
  1
LW1L-M2C24V*  LW1L-A2C24V*
 11
108.0
 21
91.5
 31
0.0
100
AcDbText
 73
     2
  0
TEXT
  5
223
330
2
100
AcDbEntity
  8
0
 62
     7
100
AcDbText
 10
108.0
 20
95.00000295525
 30
0.0
 40
2.999994089499998
  1
LW1L-M2C23V*  LW1L-A2C23V*
 11
108.0
 21
96.5
 31
0.0
100
AcDbText
 73
     2
  0
TEXT
  5
224
330
2
100
AcDbEntity
  8
0
 62
     7
100
AcDbText
 10
108.0
 20
100.00000295525
 30
0.0
 40
2.999994089499998
  1
LW1L-M2C22V*  LW1L-A2C22V*
 11
108.0
 21
101.5
 31
0.0
100
AcDbText
 73
     2
  0
TEXT
  5
225
330
2
100
AcDbEntity
  8
0
 62
     7
100
AcDbText
 10
108.0
 20
105.0000029552498
 30
0.0
 40
2.999994089499998
  1
LW1L-M2C14V*  LW1L-A2C14V*
 11
108.0
 21
106.4999999999999
 31
0.0
100
AcDbText
 73
     2
  0
TEXT
  5
226
330
2
100
AcDbEntity
  8
0
 62
     7
100
AcDbText
 10
108.0
 20
110.0000029552498
 30
0.0
 40
2.999994089499998
  1
LW1L-M2C13V*  LW1L-A2C13V*
 11
108.0
 21
111.4999999999999
 31
0.0
100
AcDbText
 73
     2
  0
TEXT
  5
227
330
2
100
AcDbEntity
  8
0
 62
     7
100
AcDbText
 10
108.0
 20
115.0000029552499
 30
0.0
 40
2.999994089499998
  1
LW1L-M2C12V*  LW1L-A2C12V*
 11
108.0
 21
116.5
 31
0.0
100
AcDbText
 73
     2
  0
ENDSEC
  0
SECTION
  2
OBJECTS
  0
DICTIONARY
  5
7
330
0
100
AcDbDictionary
281
     1
  3
ACAD_GROUP
350
1F
  3
ACAD_LAYOUT
350
B
  3
ACAD_MLINESTYLE
350
20
  3
ACAD_PLOTSETTINGS
350
21
  3
ACAD_PLOTSTYLENAME
350
6
  3
AcDbVariableDictionary
350
228
  0
DICTIONARY
  5
1F
102
{ACAD_REACTORS
330
7
102
}
330
7
100
AcDbDictionary
281
     1
  0
DICTIONARY
  5
B
102
{ACAD_REACTORS
330
7
102
}
330
7
100
AcDbDictionary
281
     1
  3
Model
350
A
  3
ﾚｲｱｳﾄ1
350
F
  0
DICTIONARY
  5
20
102
{ACAD_REACTORS
330
7
102
}
330
7
100
AcDbDictionary
281
     1
  3
Standard
350
22
  0
DICTIONARY
  5
21
102
{ACAD_REACTORS
330
7
102
}
330
7
100
AcDbDictionary
281
     1
  0
ACDBDICTIONARYWDFLT
  5
6
102
{ACAD_REACTORS
330
7
102
}
330
7
100
AcDbDictionary
281
     1
  3
Normal
350
5
100
AcDbDictionaryWithDefault
340
5
  0
DICTIONARY
  5
228
102
{ACAD_REACTORS
330
7
102
}
330
7
100
AcDbDictionary
281
     1
  3
DIMASSOC
350
229
  0
LAYOUT
  5
A
102
{ACAD_REACTORS
330
B
102
}
330
B
100
AcDbPlotSettings
  1

  2
none_device
  4
Letter_(8.50_x_11.00_Inches)
  6

 40
6.349999904632567
 41
6.349999904632567
 42
6.350006103515625
 43
6.350006103515625
 44
215.8999938964842
 45
279.3999938964843
 46
0.0
 47
0.0
 48
0.0
 49
0.0
140
0.0
141
0.0
142
1.0
143
1.0
 70
 11952
 72
     0
 73
     1
 74
     0
  7

 75
     0
147
1.0
148
1151.81230860496
149
46.68507562292598
100
AcDbLayout
  1
Model
 70
     1
 71
     0
 10
0.0
 20
0.0
 11
12.0
 21
9.0
 12
0.0
 22
0.0
 32
0.0
 14
0.0
 24
0.0
 34
0.0
 15
0.0
 25
0.0
 35
0.0
146
0.0
 13
0.0
 23
0.0
 33
0.0
 16
1.0
 26
0.0
 36
0.0
 17
0.0
 27
1.0
 37
0.0
 76
     0
330
2
  0
LAYOUT
  5
F
102
{ACAD_REACTORS
330
B
102
}
330
B
100
AcDbPlotSettings
  1

  2
C:\Program Files\AutoCAD 2000i\plotters\DWF Classic.pc3
  4

  6

 40
0.0
 41
0.0
 42
0.0
 43
0.0
 44
0.0
 45
0.0
 46
0.0
 47
0.0
 48
0.0
 49
0.0
140
0.0
141
0.0
142
1.0
143
1.0
 70
   688
 72
     0
 73
     0
 74
     5
  7

 75
    16
147
1.0
148
0.0
149
0.0
100
AcDbLayout
  1
ﾚｲｱｳﾄ1
 70
     1
 71
     1
 10
0.0
 20
0.0
 11
12.0
 21
9.0
 12
0.0
 22
0.0
 32
0.0
 14
1.000000000000000E+20
 24
1.000000000000000E+20
 34
1.000000000000000E+20
 15
-1.000000000000000E+20
 25
-1.000000000000000E+20
 35
-1.000000000000000E+20
146
0.0
 13
0.0
 23
0.0
 33
0.0
 16
1.0
 26
0.0
 36
0.0
 17
0.0
 27
1.0
 37
0.0
 76
     0
330
C
  0
MLINESTYLE
  5
22
102
{ACAD_REACTORS
330
20
102
}
330
20
100
AcDbMlineStyle
  2
STANDARD
 70
     0
  3

 62
   256
 51
90.0
 52
90.0
 71
     2
 49
0.5
 62
   256
  6
BYLAYER
 49
-0.5
 62
   256
  6
BYLAYER
  0
ACDBPLACEHOLDER
  5
5
102
{ACAD_REACTORS
330
6
102
}
330
6
  0
DICTIONARYVAR
  5
229
102
{ACAD_REACTORS
330
228
102
}
330
228
100
DictionaryVariables
280
     0
  1
1
  0
ENDSEC
  0
EOF
