  0
SECTION
  2
HEADER
  9
$ACADVER
  1
AC1004
  9
$ANGBASE
 50
0.0000000000
  9
$ANGDIR
 70
     0
  9
$ATTDIA
 70
     0
  9
$ATTMODE
 70
     1
  9
$ATTREQ
 70
     1
  9
$AUNITS
 70
     0
  9
$AUPREC
 70
     0
  9
$AXISMODE
 70
     0
  9
$AXISUNIT
 10
0.0000000000
 20
0.0000000000
  9
$BLIPMODE
 70
     1
  9
$CECOLOR
 62
   256
  9
$CELTYPE
  6
BYLAYER
  9
$CHAMFERA
 40
0.0000000000
  9
$CHAMFERB
 40
0.0000000000
  9
$CLAYER
  8
0
  9
$COORDS
 70
     0
  9
$DIMALT
 70
     0
  9
$DIMALTD
 70
     2
  9
$DIMALTF
 40
25.4000000000
  9
$DIMAPOST
  1

  9
$DIMASO
 70
     1
  9
$DIMASZ
 40
1.9727878460
  9
$DIMBLK
  1

  9
$DIMBLK1
  1

  9
$DIMBLK2
  1

  9
$DIMCEN
 40
9.0000000000E-02
  9
$DIMDLE
 40
0.0000000000
  9
$DIMDLI
 40
0.3800000000
  9
$DIMEXE
 40
3.8099999428
  9
$DIMEXO
 40
2.5399999619
  9
$DIMLFAC
 40
1.0000000000
  9
$DIMLIM
 70
     0
  9
$DIMPOST
  1

  9
$DIMRND
 40
0.0000000000
  9
$DIMSCALE
 40
1.0000000000
  9
$DIMSE1
 70
     0
  9
$DIMSE2
 70
     0
  9
$DIMSHO
 70
     0
  9
$DIMTAD
 70
     0
  9
$DIMTIH
 70
     0
  9
$DIMTM
 40
0.0000000000
  9
$DIMTOH
 70
     1
  9
$DIMTOL
 70
     0
  9
$DIMTP
 40
0.0000000000
  9
$DIMTSZ
 40
0.0000000000
  9
$DIMTXT
 40
2.9999940395
  9
$DIMZIN
 70
     0
  9
$DRAGMODE
 70
     1
  9
$ELEVATION
 40
0.0000000000
  9
$EXTMAX
 10
3.1750000000
 20
254.1680877686
 30
0.0000000000
  9
$EXTMIN
 10
-190.6686218262
 20
-3.8870035887
 30
0.0000000000
  9
$FASTZOOM
 70
     1
  9
$FILLETRAD
 40
6.2500000000E-02
  9
$FILLMODE
 70
     1
  9
$GRIDMODE
 70
     0
  9
$GRIDUNIT
 10
0.0000000000
 20
0.0000000000
  9
$INSBASE
 10
0.0000000000
 20
0.0000000000
 30
0.0000000000
  9
$LIMCHECK
 70
     0
  9
$LIMMAX
 10
3.1750000000
 20
254.1680877686
  9
$LIMMIN
 10
-190.6686218262
 20
-3.8870035887
  9
$LTSCALE
 40
1.0000000000
  9
$LUNITS
 70
     2
  9
$LUPREC
 70
     3
  9
$MEASUREMENT
 70
     0
  9
$MENU
  1
ACAD
  9
$MIRRTEXT
 70
     0
  9
$ORTHOMODE
 70
     0
  9
$OSMODE
 70
     0
  9
$PDMODE
 70
     0
  9
$PDSIZE
 40
0.0000000000
  9
$PLINEWID
 40
0.0000000000
  9
$PROXYGRAPHICS
 70
     0
  9
$QTEXTMODE
 70
     0
  9
$REGENMODE
 70
     1
  9
$SKETCHINC
 40
0.1000000000
  9
$SKPOLY
 70
     0
  9
$SNAPANG
 50
0.0000000000
  9
$SNAPBASE
 10
0.0000000000
 20
0.0000000000
  9
$SNAPISOPAIR
 70
     0
  9
$SNAPMODE
 70
     0
  9
$SNAPSTYLE
 70
     0
  9
$SNAPUNIT
 10
1.0000000000
 20
1.0000000000
  9
$SPLFRAME
 70
     0
  9
$SPLINESEGS
 70
     8
  9
$TDCREATE
 40
2454736.6459375048
  9
$TDINDWG
 40
0.0000000000
  9
$TDUPDATE
 40
2454736.6459375048
  9
$TDUSRTIMER
 40
0.0000000000
  9
$TEXTSIZE
 40
2.9999940395
  9
$TEXTSTYLE
  7
STANDARD
  9
$THICKNESS
 40
0.0000000000
  9
$TRACEWID
 40
5.0000000000E-02
  9
$USERI1
 70
     0
  9
$USERI2
 70
     0
  9
$USERI3
 70
     0
  9
$USERI4
 70
     0
  9
$USERI5
 70
     0
  9
$USERR1
 40
0.0000000000
  9
$USERR2
 40
0.0000000000
  9
$USERR3
 40
0.0000000000
  9
$USERR4
 40
0.0000000000
  9
$USERR5
 40
0.0000000000
  9
$USRTIMER
 70
     1
  9
$VIEWCTR
 10
-93.7468109131
 20
125.1405420899
  9
$VIEWDIR
 10
0.0000000000
 20
0.0000000000
 30
1.0000000000
  9
$VIEWSIZE
 40
258.0550913572
  0
ENDSEC
  0
SECTION
  2
TABLES
  0
TABLE
  2
LTYPE
 70
     5
  0
LTYPE
  2
SOLID
  3
Solid
 70
    64
 72
    65
 73
     0
 40
0.0000000000
  0
LTYPE
  2
CENTERLINE
  3
Centerline
 70
    64
 72
    65
 73
     4
 40
25.4000000000
 49
19.0500000000
 49
-1.5875000000
 49
3.1750000000
 49
-1.5875000000
  0
LTYPE
  2
DASH
  3
Dash
 70
    64
 72
    65
 73
     2
 40
2.0000000000
 49
1.0000000000
 49
-1.0000000000
  0
LTYPE
  2
CENTER
  3
Center
 70
    64
 72
    65
 73
     4
 40
9.1000000238
 49
6.5000000000
 49
-0.8000000119
 49
1.0000000000
 49
-0.8000000119
  0
LTYPE
  2
PHANTOM
  3
Phantom
 70
    64
 72
    65
 73
     6
 40
9.5000001192
 49
4.8000001907
 49
-0.8999999762
 49
1.0000000000
 49
-0.8999999762
 49
1.0000000000
 49
-0.8999999762
  0
ENDTAB
  0
TABLE
  2
LAYER
 70
     6
  0
LAYER
  2
Layer0$C$L0
 70
     0
  6
SOLID
 62
     3
  0
LAYER
  2
Layer1$C$L1
 70
     0
  6
SOLID
 62
     3
  0
LAYER
  2
Layer1$C$L1$B
 70
     0
  6
SOLID
 62
    -3
  0
LAYER
  2
Layer3$C$L3
 70
     0
  6
SOLID
 62
     3
  0
LAYER
  2
Layer6$C$L6
 70
     0
  6
SOLID
 62
    31
  0
LAYER
  2
Layer8$C$L8
 70
     0
  6
SOLID
 62
     7
  0
ENDTAB
  0
TABLE
  2
STYLE
 70
     1
  0
STYLE
  2
STANDARD
  3
txt
  4

 40
0.0000000000
 41
1.0000000000
 42
3.0000000000
 50
0.0000000000
 70
     0
 71
     0
  0
ENDTAB
  0
ENDSEC
  0
SECTION
  2
BLOCKS
  0
BLOCK
  8
Layer6$C$L6
  2
*X0
 70
     1
 10
0.0000000000
 20
0.0000000000
  0
LINE
  8
0
  6
SOLID
 62
     7
 10
-120.3359545470
 20
175.9029412347
 11
-117.9610466712
 21
178.2778491104
  0
LINE
  8
0
  6
SOLID
 62
     7
 10
-119.3201682325
 20
178.3329411115
 11
-121.7501681093
 21
175.9029412347
  0
LINE
  8
0
  6
SOLID
 62
     7
 10
-123.1643816717
 20
175.9029412347
 11
-120.7343817949
 21
178.3329411115
  0
LINE
  8
0
  6
SOLID
 62
     7
 10
-122.1485953573
 20
178.3329411115
 11
-124.5785952341
 21
175.9029412347
  0
LINE
  8
0
  6
SOLID
 62
     7
 10
-125.9928087965
 20
175.9029412347
 11
-123.5628089197
 21
178.3329411115
  0
LINE
  8
0
  6
SOLID
 62
     7
 10
-124.9770224820
 20
178.3329411115
 11
-127.4070223588
 21
175.9029412347
  0
LINE
  8
0
  6
SOLID
 62
     7
 10
-128.8212359212
 20
175.9029412347
 11
-126.3912360444
 21
178.3329411115
  0
LINE
  8
0
  6
SOLID
 62
     7
 10
-127.8054496068
 20
178.3329411115
 11
-130.2354494836
 21
175.9029412347
  0
LINE
  8
0
  6
SOLID
 62
     7
 10
-131.6496630460
 20
175.9029412347
 11
-129.2196631692
 21
178.3329411115
  0
LINE
  8
0
  6
SOLID
 62
     7
 10
-130.6338767315
 20
178.3329411115
 11
-133.0638766083
 21
175.9029412347
  0
LINE
  8
0
  6
SOLID
 62
     7
 10
-134.4780901707
 20
175.9029412347
 11
-132.0480902939
 21
178.3329411115
  0
LINE
  8
0
  6
SOLID
 62
     7
 10
-133.4623038563
 20
178.3329411115
 11
-135.8923037331
 21
175.9029412347
  0
LINE
  8
0
  6
SOLID
 62
     7
 10
-137.3065172954
 20
175.9029412347
 11
-134.8765174186
 21
178.3329411115
  0
LINE
  8
0
  6
SOLID
 62
     7
 10
-136.2907309810
 20
178.3329411115
 11
-138.7207308578
 21
175.9029412347
  0
LINE
  8
0
  6
SOLID
 62
     7
 10
-140.1349444202
 20
175.9029412347
 11
-137.7049445434
 21
178.3329411115
  0
LINE
  8
0
  6
SOLID
 62
     7
 10
-139.1191581058
 20
178.3329411115
 11
-141.5491579826
 21
175.9029412347
  0
LINE
  8
0
  6
SOLID
 62
     7
 10
-142.9633715449
 20
175.9029412347
 11
-140.5333716681
 21
178.3329411115
  0
LINE
  8
0
  6
SOLID
 62
     7
 10
-141.9475852305
 20
178.3329411115
 11
-144.3775851073
 21
175.9029412347
  0
LINE
  8
0
  6
SOLID
 62
     7
 10
-145.7917986697
 20
175.9029412347
 11
-143.3617987929
 21
178.3329411115
  0
LINE
  8
0
  6
SOLID
 62
     7
 10
-144.7760123553
 20
178.3329411115
 11
-147.2060122321
 21
175.9029412347
  0
LINE
  8
0
  6
SOLID
 62
     7
 10
-148.6202257944
 20
175.9029412347
 11
-146.1902259176
 21
178.3329411115
  0
LINE
  8
0
  6
SOLID
 62
     7
 10
-147.6044394800
 20
178.3329411115
 11
-150.0059857772
 21
175.9313948143
  0
LINE
  8
0
  6
SOLID
 62
     7
 10
-150.4345354966
 20
176.9170586572
 11
-149.0186530424
 21
178.3329411115
  0
LINE
  8
0
  6
SOLID
 62
     7
 10
-150.4328666047
 20
178.3329411115
 11
-150.8630855881
 21
177.9027221281
  0
ENDBLK
  8
0
  0
BLOCK
  8
Layer6$C$L6
  2
*X1
 70
     1
 10
0.0000000000
 20
0.0000000000
  0
LINE
  8
0
  6
SOLID
 62
     7
 10
-177.1402454566
 20
227.9930946278
 11
-176.7936147357
 21
228.3397253487
  0
LINE
  8
0
  6
SOLID
 62
     7
 10
-176.7936147357
 20
229.7539389110
 11
-178.2524225953
 21
228.2951310514
  0
LINE
  8
0
  6
SOLID
 62
     7
 10
-178.2936147357
 20
229.6681524734
 11
-176.7936147357
 21
231.1681524734
  0
LINE
  8
0
  6
SOLID
 62
     7
 10
-176.7936147357
 20
232.5823660358
 11
-178.2936147357
 21
231.0823660358
  0
LINE
  8
0
  6
SOLID
 62
     7
 10
-178.2936147357
 20
232.4965795982
 11
-176.7970997061
 21
233.9930946278
  0
ENDBLK
  8
0
  0
BLOCK
  8
Layer6$C$L6
  2
*X2
 70
     1
 10
0.0000000000
 20
0.0000000000
  0
LINE
  8
0
  6
SOLID
 62
     7
 10
-118.3036941232
 20
213.4930946278
 11
-117.9936147357
 21
213.8031740153
  0
LINE
  8
0
  6
SOLID
 62
     7
 10
-117.9936147357
 20
215.2173875777
 11
-119.7179076856
 21
213.4930946278
  0
LINE
  8
0
  6
SOLID
 62
     7
 10
-121.1321212480
 20
213.4930946278
 11
-117.9936147357
 21
216.6316011401
  0
LINE
  8
0
  6
SOLID
 62
     7
 10
-117.9936147357
 20
218.0458147024
 11
-122.5463348103
 21
213.4930946278
  0
LINE
  8
0
  6
SOLID
 62
     7
 10
-123.9605483727
 20
213.4930946278
 11
-117.9936147357
 21
219.4600282648
  0
LINE
  8
0
  6
SOLID
 62
     7
 10
-117.9936147357
 20
220.8742418272
 11
-125.3747619351
 21
213.4930946278
  0
LINE
  8
0
  6
SOLID
 62
     7
 10
-126.7889754974
 20
213.4930946278
 11
-117.9936147357
 21
222.2884553896
  0
LINE
  8
0
  6
SOLID
 62
     7
 10
-117.9936147357
 20
223.7026689519
 11
-128.2031890598
 21
213.4930946278
  0
LINE
  8
0
  6
SOLID
 62
     7
 10
-129.6174026222
 20
213.4930946278
 11
-117.9936147357
 21
225.1168825143
  0
LINE
  8
0
  6
SOLID
 62
     7
 10
-117.9936147357
 20
226.5310960767
 11
-131.0316161846
 21
213.4930946278
  0
LINE
  8
0
  6
SOLID
 62
     7
 10
-132.4458297469
 20
213.4930946278
 11
-117.9936147357
 21
227.9453096390
  0
LINE
  8
0
  6
SOLID
 62
     7
 10
-117.9936147357
 20
229.3595232014
 11
-133.8600433093
 21
213.4930946278
  0
LINE
  8
0
  6
SOLID
 62
     7
 10
-135.2742568717
 20
213.4930946278
 11
-117.9936147357
 21
230.7737367638
  0
LINE
  8
0
  6
SOLID
 62
     7
 10
-117.9936147357
 20
232.1879503262
 11
-136.6884704341
 21
213.4930946278
  0
LINE
  8
0
  6
SOLID
 62
     7
 10
-138.1026839964
 20
213.4930946278
 11
-117.9936147357
 21
233.6021638885
  0
LINE
  8
0
  6
SOLID
 62
     7
 10
-117.9936147357
 20
235.0163774509
 11
-139.5168975588
 21
213.4930946278
  0
LINE
  8
0
  6
SOLID
 62
     7
 10
-140.9311111212
 20
213.4930946278
 11
-117.9936147357
 21
236.4305910133
  0
LINE
  8
0
  6
SOLID
 62
     7
 10
-117.9936147357
 20
237.8448045757
 11
-142.3453246836
 21
213.4930946278
  0
LINE
  8
0
  6
SOLID
 62
     7
 10
-143.7595382459
 20
213.4930946278
 11
-117.9936147357
 21
239.2590181380
  0
LINE
  8
0
  6
SOLID
 62
     7
 10
-117.9936147357
 20
240.6732317004
 11
-145.1737518083
 21
213.4930946278
  0
LINE
  8
0
  6
SOLID
 62
     7
 10
-146.5879653707
 20
213.4930946278
 11
-117.9936147357
 21
242.0874452628
  0
LINE
  8
0
  6
SOLID
 62
     7
 10
-117.9936147357
 20
243.5016588252
 11
-148.0021789330
 21
213.4930946278
  0
LINE
  8
0
  6
SOLID
 62
     7
 10
-149.4163924954
 20
213.4930946278
 11
-117.9936147357
 21
244.9158723875
  0
LINE
  8
0
  6
SOLID
 62
     7
 10
-117.9936147357
 20
246.3300859499
 11
-150.8306060578
 21
213.4930946278
  0
LINE
  8
0
  6
SOLID
 62
     7
 10
-151.9936147357
 20
213.7442995123
 11
-117.9936147357
 21
247.7442995123
  0
LINE
  8
0
  6
SOLID
 62
     7
 10
-118.6590331825
 20
248.4930946278
 11
-151.9936147357
 21
215.1585130746
  0
LINE
  8
0
  6
SOLID
 62
     7
 10
-151.9936147357
 20
216.5727266370
 11
-120.0732467449
 21
248.4930946278
  0
LINE
  8
0
  6
SOLID
 62
     7
 10
-121.4874603073
 20
248.4930946278
 11
-151.9936147357
 21
217.9869401994
  0
LINE
  8
0
  6
SOLID
 62
     7
 10
-151.9936147357
 20
219.4011537618
 11
-122.9016738697
 21
248.4930946278
  0
LINE
  8
0
  6
SOLID
 62
     7
 10
-124.3158874320
 20
248.4930946278
 11
-151.9936147357
 21
220.8153673241
  0
LINE
  8
0
  6
SOLID
 62
     7
 10
-151.9936147357
 20
222.2295808865
 11
-125.7301009944
 21
248.4930946278
  0
LINE
  8
0
  6
SOLID
 62
     7
 10
-127.1443145568
 20
248.4930946278
 11
-151.9936147357
 21
223.6437944489
  0
LINE
  8
0
  6
SOLID
 62
     7
 10
-151.9936147357
 20
225.0580080113
 11
-128.5585281192
 21
248.4930946278
  0
LINE
  8
0
  6
SOLID
 62
     7
 10
-129.9727416815
 20
248.4930946278
 11
-151.9936147357
 21
226.4722215736
  0
LINE
  8
0
  6
SOLID
 62
     7
 10
-151.9936147357
 20
227.8864351360
 11
-131.3869552439
 21
248.4930946278
  0
LINE
  8
0
  6
SOLID
 62
     7
 10
-132.8011688063
 20
248.4930946278
 11
-151.9936147357
 21
229.3006486984
  0
LINE
  8
0
  6
SOLID
 62
     7
 10
-151.9936147357
 20
230.7148622607
 11
-134.2153823686
 21
248.4930946278
  0
LINE
  8
0
  6
SOLID
 62
     7
 10
-135.6295959310
 20
248.4930946278
 11
-151.9936147357
 21
232.1290758231
  0
LINE
  8
0
  6
SOLID
 62
     7
 10
-151.9936147357
 20
233.5432893855
 11
-137.0438094934
 21
248.4930946278
  0
LINE
  8
0
  6
SOLID
 62
     7
 10
-138.4580230558
 20
248.4930946278
 11
-151.9936147357
 21
234.9575029479
  0
LINE
  8
0
  6
SOLID
 62
     7
 10
-151.9936147357
 20
236.3717165102
 11
-139.8722366181
 21
248.4930946278
  0
LINE
  8
0
  6
SOLID
 62
     7
 10
-141.2864501805
 20
248.4930946278
 11
-151.9936147357
 21
237.7859300726
  0
LINE
  8
0
  6
SOLID
 62
     7
 10
-151.9936147357
 20
239.2001436350
 11
-142.7006637429
 21
248.4930946278
  0
LINE
  8
0
  6
SOLID
 62
     7
 10
-144.1148773053
 20
248.4930946278
 11
-151.9936147357
 21
240.6143571974
  0
LINE
  8
0
  6
SOLID
 62
     7
 10
-151.9936147357
 20
242.0285707597
 11
-145.5290908676
 21
248.4930946278
  0
LINE
  8
0
  6
SOLID
 62
     7
 10
-146.9433044300
 20
248.4930946278
 11
-151.9936147357
 21
243.4427843221
  0
LINE
  8
0
  6
SOLID
 62
     7
 10
-151.9936147357
 20
244.8569978845
 11
-148.3575179924
 21
248.4930946278
  0
LINE
  8
0
  6
SOLID
 62
     7
 10
-149.7717315547
 20
248.4930946278
 11
-151.9936147357
 21
246.2712114469
  0
LINE
  8
0
  6
SOLID
 62
     7
 10
-151.9936147357
 20
247.6854250092
 11
-151.1859451171
 21
248.4930946278
  0
ENDBLK
  8
0
  0
ENDSEC
  0
SECTION
  2
ENTITIES
  0
TEXT
  8
Layer8$C$L8
 10
-43.3076430598
 20
-0.7120036070
 40
2.9999941014
  1
MA4-S00745B
 41
0.8524508279
 72
     5
 11
-17.7341685042
 21
-0.7120036070
  0
TEXT
  8
Layer8$C$L8
 10
-42.2798253376
 20
10.2513854302
 40
2.9999941014
  1
LH1D-H2HQ4C##
 41
0.8418761343
 72
     5
 11
-11.9723440924
 21
10.2513854302
  0
CIRCLE
  8
Layer1$C$L1
 62
     7
 10
-101.3936148180
 20
74.3598432923
 40
1.7500000000
  0
CIRCLE
  8
Layer1$C$L1
 62
     7
 10
-101.3936148180
 20
44.3598432923
 40
1.7500000000
  0
LINE
  8
Layer0$C$L0
 62
     7
 10
-184.3936147357
 20
246.9930946278
 11
-184.4936147357
 21
246.9930946278
  0
LINE
  8
Layer0$C$L0
 62
     7
 10
-184.4936147357
 20
244.9930946278
 11
-184.3936147357
 21
244.9930946278
  0
LINE
  8
Layer0$C$L0
 62
     7
 10
-184.3936147357
 20
216.9930946278
 11
-184.4936147357
 21
216.9930946278
  0
LINE
  8
Layer0$C$L0
 62
     7
 10
-184.4936147357
 20
214.9930946278
 11
-184.3936147357
 21
214.9930946278
  0
LINE
  8
Layer0$C$L0
 62
     7
 10
-184.3936147357
 20
231.9930946278
 11
-184.4936147357
 21
231.9930946278
  0
LINE
  8
Layer0$C$L0
 62
     7
 10
-184.4936147357
 20
229.9930946278
 11
-184.3936147357
 21
229.9930946278
  0
LINE
  8
Layer0$C$L0
 62
     7
 10
-184.3936147357
 20
249.4930946278
 11
-184.4936147357
 21
249.4930946278
  0
LINE
  8
Layer0$C$L0
 62
     7
 10
-184.4936147357
 20
242.4930946278
 11
-184.3936147357
 21
242.4930946278
  0
LINE
  8
Layer0$C$L0
 62
     7
 10
-184.3936147357
 20
219.4930946278
 11
-184.4936147357
 21
219.4930946278
  0
LINE
  8
Layer0$C$L0
 62
     7
 10
-184.4936147357
 20
212.4930946278
 11
-184.3936147357
 21
212.4930946278
  0
LINE
  8
Layer0$C$L0
 62
     7
 10
-184.3936147357
 20
249.2859878467
 11
-184.3936147357
 21
250.4930946278
  0
LINE
  8
Layer0$C$L0
 62
     7
 10
-184.3936147357
 20
250.4930946278
 11
-183.8936147357
 21
250.9930946278
  0
LINE
  8
Layer0$C$L0
 62
     7
 10
-183.8936147357
 20
250.9930946278
 11
-183.8936147357
 21
249.4930946278
  0
LINE
  8
Layer0$C$L0
 62
     7
 10
-184.3936147357
 20
249.2859878467
 11
-183.8936147357
 21
249.4930946278
  0
LINE
  8
Layer0$C$L0
 62
     7
 10
-175.7453658426
 20
250.9930946278
 11
-176.2600274678
 21
249.4930946278
  0
LINE
  8
Layer0$C$L0
 62
     7
 10
-176.2600274678
 20
249.4930946278
 11
-183.8936147357
 21
249.4930946278
  0
LINE
  8
Layer0$C$L0
 62
     7
 10
-183.8936147357
 20
250.9930946278
 11
-175.7453658426
 21
250.9930946278
  0
LINE
  8
Layer0$C$L0
 62
     7
 10
-175.7453658426
 20
250.9930946278
 11
-174.4695800011
 21
250.0008167511
  0
LINE
  8
Layer0$C$L0
 62
     7
 10
-174.4695800011
 20
250.0008167511
 11
-175.8809315123
 21
249.1982422180
  0
LINE
  8
Layer0$C$L0
 62
     7
 10
-175.8809315123
 20
249.1982422180
 11
-176.2600274678
 21
249.4930946278
  0
LINE
  8
Layer0$C$L0
 62
     7
 10
-174.4695800011
 20
250.0008167511
 11
-174.0757575928
 21
246.8502374850
  0
LINE
  8
Layer0$C$L0
 62
     7
 10
-174.0757588581
 20
246.8493907404
 11
-175.5936147357
 21
246.8997080054
  0
LINE
  8
Layer0$C$L0
 62
     7
 10
-175.5936147357
 20
246.8997080054
 11
-175.8809315123
 21
249.1982422180
  0
LINE
  8
Layer0$C$L0
 62
     7
 10
-183.8936147357
 20
249.4930946278
 11
-183.8936147357
 21
246.7228713848
  0
LINE
  8
Layer0$C$L0
 62
     7
 10
-175.5936147357
 20
215.0864812503
 11
-175.5936147357
 21
246.8997080054
  0
LINE
  8
Layer0$C$L0
 62
     7
 10
-175.8809315123
 20
212.7879470377
 11
-175.5936147357
 21
215.0864812503
  0
LINE
  8
Layer0$C$L0
 62
     7
 10
-176.2600274678
 20
212.4930946278
 11
-175.8809315123
 21
212.7879470377
  0
LINE
  8
Layer0$C$L0
 62
     7
 10
-183.8936147357
 20
212.4930946278
 11
-176.2600274678
 21
212.4930946278
  0
LINE
  8
Layer0$C$L0
 62
     7
 10
-183.8936147357
 20
215.2633178708
 11
-183.8936147357
 21
212.4930946278
  0
LINE
  8
Layer0$C$L0
 62
     7
 10
-183.8936147357
 20
215.2633178708
 11
-176.3936147357
 21
217.9930946278
  0
LINE
  8
Layer0$C$L0
 62
     7
 10
-176.3936147357
 20
217.9930946278
 11
-176.3936147357
 21
243.9930946278
  0
LINE
  8
Layer0$C$L0
 62
     7
 10
-176.3936147357
 20
243.9930946278
 11
-183.8936147357
 21
246.7228713848
  0
LINE
  8
Layer0$C$L0
 62
     7
 10
-184.0936147357
 20
215.1905238240
 11
-184.0936147357
 21
246.7956654317
  0
LINE
  8
Layer0$C$L0
 62
     7
 10
-184.0936147357
 20
215.1905238240
 11
-183.8936147357
 21
215.2633178708
  0
LINE
  8
Layer0$C$L0
 62
     7
 10
-184.3936147357
 20
212.7002014090
 11
-183.8936147357
 21
212.4930946278
  0
LINE
  8
Layer0$C$L0
 62
     7
 10
-184.3936147357
 20
212.7002014090
 11
-184.3936147357
 21
249.2859878467
  0
LINE
  8
Layer0$C$L0
 62
     7
 10
-183.8936147357
 20
246.7228713848
 11
-184.0936147357
 21
246.7956654317
  0
LINE
  8
Layer0$C$L0
 62
     7
 10
-174.0757588581
 20
246.8493907404
 11
-174.0757588581
 21
215.1367985153
  0
LINE
  8
Layer0$C$L0
 62
     7
 10
-174.0757588581
 20
215.1367985153
 11
-175.5936147357
 21
215.0864812503
  0
LINE
  8
Layer0$C$L0
 62
     7
 10
-174.0757575928
 20
215.1359517707
 11
-174.4695800011
 21
211.9853725046
  0
LINE
  8
Layer0$C$L0
 62
     7
 10
-174.4695800011
 20
211.9853725046
 11
-175.8809315123
 21
212.7879470377
  0
LINE
  8
Layer0$C$L0
 62
     7
 10
-175.7453658426
 20
210.9930946278
 11
-176.2600274678
 21
212.4930946278
  0
LINE
  8
Layer0$C$L0
 62
     7
 10
-175.7453658426
 20
210.9930946278
 11
-183.8936147357
 21
210.9930946278
  0
LINE
  8
Layer0$C$L0
 62
     7
 10
-183.8936147357
 20
212.4930946278
 11
-183.8936147357
 21
210.9930946278
  0
LINE
  8
Layer0$C$L0
 62
     7
 10
-184.3936147357
 20
211.4930946278
 11
-184.3936147357
 21
212.7002014090
  0
LINE
  8
Layer0$C$L0
 62
     7
 10
-184.3936147357
 20
211.4930946278
 11
-183.8936147357
 21
210.9930946278
  0
LINE
  8
Layer0$C$L0
 62
     7
 10
-174.4695800011
 20
211.9853725046
 11
-175.7453658426
 21
210.9930946278
  0
LINE
  8
Layer0$C$L0
 62
     7
 10
-174.0757575928
 20
246.8502374850
 11
-173.5936147357
 21
242.9930946278
  0
LINE
  8
Layer0$C$L0
 62
     7
 10
-173.5936147357
 20
242.9930946278
 11
-173.5936147357
 21
218.9930946278
  0
LINE
  8
Layer0$C$L0
 62
     7
 10
-173.5936147357
 20
218.9930946278
 11
-174.0757575928
 21
215.1359517707
  0
LINE
  8
Layer0$C$L0
 62
     7
 10
-184.4936147357
 20
245.9930946278
 11
-184.4936147357
 21
246.9930946278
  0
LINE
  8
Layer0$C$L0
 62
     7
 10
-184.4936147357
 20
244.9930946278
 11
-184.4936147357
 21
245.9930946278
  0
LINE
  8
Layer0$C$L0
 62
     7
 10
-184.4936147357
 20
215.9930946278
 11
-184.4936147357
 21
216.9930946278
  0
LINE
  8
Layer0$C$L0
 62
     7
 10
-184.4936147357
 20
214.9930946278
 11
-184.4936147357
 21
215.9930946278
  0
LINE
  8
Layer0$C$L0
 62
     7
 10
-184.4936147357
 20
230.9930946278
 11
-184.4936147357
 21
231.9930946278
  0
LINE
  8
Layer0$C$L0
 62
     7
 10
-184.4936147357
 20
229.9930946278
 11
-184.4936147357
 21
230.9930946278
  0
LINE
  8
Layer0$C$L0
 62
     7
 10
-184.4936147357
 20
246.9930946278
 11
-184.4936147357
 21
249.4930946278
  0
LINE
  8
Layer0$C$L0
 62
     7
 10
-184.4936147357
 20
242.4930946278
 11
-184.4936147357
 21
244.9930946278
  0
LINE
  8
Layer0$C$L0
 62
     7
 10
-184.4936147357
 20
212.4930946278
 11
-184.4936147357
 21
214.9930946278
  0
LINE
  8
Layer0$C$L0
 62
     7
 10
-184.4936147357
 20
216.9930946278
 11
-184.4936147357
 21
219.4930946278
  0
LINE
  8
Layer3$C$L3
  6
CENTERLINE
 62
     7
 10
-32.6021999482
 20
222.7217990453
 11
-32.6021999482
 21
237.9517604284
  0
LINE
  8
Layer1$C$L1
  6
DASH
 62
    31
 10
-29.7021999772
 20
212.9930946278
 11
-29.7021999772
 21
218.9930945235
  0
LINE
  8
Layer1$C$L1
  6
DASH
 62
    31
 10
-36.7522002789
 20
212.9930946278
 11
-29.7021999772
 21
212.9930946278
  0
LINE
  8
Layer1$C$L1
  6
DASH
 62
    31
 10
-29.7021999772
 20
214.2930946278
 11
-26.6021999772
 21
214.2930946278
  0
LINE
  8
Layer1$C$L1
  6
DASH
 62
    31
 10
-26.6021999772
 20
217.6930946278
 11
-29.7021999772
 21
217.6930946278
  0
LINE
  8
Layer1$C$L1
  6
DASH
 62
    31
 10
-26.6021999772
 20
244.2930946278
 11
-29.7021999772
 21
244.2930946278
  0
LINE
  8
Layer1$C$L1
  6
DASH
 62
    31
 10
-29.7021999772
 20
247.6930946278
 11
-26.6021999772
 21
247.6930946278
  0
LINE
  8
Layer1$C$L1
  6
DASH
 62
    31
 10
-36.7522002789
 20
248.9930946278
 11
-29.7021999772
 21
248.9930946278
  0
LINE
  8
Layer1$C$L1
  6
DASH
 62
    31
 10
-29.7021999772
 20
248.9930946278
 11
-29.7021999772
 21
242.9930946278
  0
LINE
  8
Layer1$C$L1
  6
CENTER
 62
     7
 10
-101.3936153586
 20
211.9930953085
 11
-101.3936153586
 21
219.9930945235
  0
LINE
  8
Layer1$C$L1
  6
CENTER
 62
     7
 10
-101.3936153586
 20
241.9930947320
 11
-101.3936153586
 21
249.9930941660
  0
LINE
  8
Layer0$C$L0
 62
     7
 10
-117.9370937110
 20
178.3329411115
 11
-151.0501366664
 21
178.3329411115
  0
LINE
  8
Layer0$C$L0
 62
     7
 10
-118.9936154420
 20
175.9029412347
 11
-149.9936149354
 21
175.9029412347
  0
POLYLINE
  8
Layer0$C$L0
 62
     7
 66
     1
  0
VERTEX
  8
Layer0$C$L0
 62
     7
 10
-117.9370937110
 20
178.3329411115
  0
VERTEX
  8
Layer0$C$L0
 62
     7
 10
-118.1674559499
 20
177.8031061108
  0
VERTEX
  8
Layer0$C$L0
 62
     7
 10
-118.3598001386
 20
177.3607171777
  0
VERTEX
  8
Layer0$C$L0
 62
     7
 10
-118.5647991384
 20
176.8892188262
  0
VERTEX
  8
Layer0$C$L0
 62
     7
 10
-118.9936157289
 20
175.9029412347
  0
SEQEND
  8
Layer0$C$L0
 62
     7
  0
POLYLINE
  8
Layer0$C$L0
 62
     7
 66
     1
  0
VERTEX
  8
Layer0$C$L0
 62
     7
 10
-149.9936146485
 20
175.9029412347
  0
VERTEX
  8
Layer0$C$L0
 62
     7
 10
-150.4224312390
 20
176.8892188262
  0
VERTEX
  8
Layer0$C$L0
 62
     7
 10
-150.6274302389
 20
177.3607171777
  0
VERTEX
  8
Layer0$C$L0
 62
     7
 10
-150.8197744275
 20
177.8031061108
  0
VERTEX
  8
Layer0$C$L0
 62
     7
 10
-151.0501366664
 20
178.3329411115
  0
SEQEND
  8
Layer0$C$L0
 62
     7
  0
LINE
  8
Layer1$C$L1
 62
     7
 10
-177.7936147357
 20
227.9930946278
 11
-176.7936147357
 21
227.9930946278
  0
LINE
  8
Layer1$C$L1
 62
     7
 10
-177.7936147357
 20
233.9930946278
 11
-176.7936147357
 21
233.9930946278
  0
ARC
  8
Layer1$C$L1
 62
     7
 10
-177.7936147357
 20
233.4930946278
 40
0.5000000000
 50
90.0000000000
 51
180.0000000000
  0
ARC
  8
Layer1$C$L1
 62
     7
 10
-177.7936147357
 20
228.4930946278
 40
0.5000000000
 50
180.0000000000
 51
270.0000000000
  0
LINE
  8
Layer0$C$L0
 62
     7
 10
-176.7936147357
 20
233.9930946278
 11
-176.7936147357
 21
227.9930946278
  0
LINE
  8
Layer0$C$L0
 62
     7
 10
-178.2936147357
 20
233.4930946278
 11
-178.2936147357
 21
228.4930946278
  0
LINE
  8
Layer1$C$L1
  6
CENTER
 62
     7
 10
-187.4936147357
 20
230.9930946278
 11
-170.6936146882
 21
230.9930946278
  0
LINE
  8
Layer1$C$L1
 62
     7
 10
-151.9936147357
 20
248.4930946278
 11
-117.9936147357
 21
248.4930946278
  0
LINE
  8
Layer1$C$L1
 62
     7
 10
-151.9936147357
 20
213.4930946278
 11
-117.9936147357
 21
213.4930946278
  0
LINE
  8
Layer0$C$L0
 62
     7
 10
-117.9936147357
 20
213.4930946278
 11
-117.9936147357
 21
248.4930946278
  0
LINE
  8
Layer0$C$L0
 62
     7
 10
-151.9936147357
 20
213.4930946278
 11
-151.9936147357
 21
248.4930946278
  0
LINE
  8
Layer0$C$L0
 62
     7
 10
-154.0936154211
 20
246.8502379553
 11
-113.5936153019
 21
242.9930947321
  0
LINE
  8
Layer1$C$L1
  6
CENTER
 62
     7
 10
-158.5936147357
 20
230.9930946278
 11
-67.7936153586
 21
230.9930946278
  0
LINE
  8
Layer0$C$L0
 62
     7
 10
-154.0937215919
 20
246.8493904518
 11
-154.0937215919
 21
215.1367988037
  0
LINE
  8
Layer0$C$L0
 62
     7
 10
-155.5936147357
 20
215.0864813076
 11
-155.5936147357
 21
246.8997079479
  0
LINE
  8
Layer0$C$L0
 62
     7
 10
-113.5936153019
 20
218.9930945234
 11
-154.0936154211
 21
215.1359513002
  0
LINE
  8
Layer0$C$L0
 62
     7
 10
-154.0936154211
 20
211.9853727119
 11
-105.3936161930
 21
211.9853727119
  0
LINE
  8
Layer0$C$L0
 62
     7
 10
-105.3936161930
 20
210.9930950748
 11
-154.0936154211
 21
210.9930950748
  0
LINE
  8
Layer1$C$L1
  6
CENTER
 62
     7
 10
-40.5021999482
 20
230.9930946278
 11
-23.7021999007
 21
230.9930946278
  0
LINE
  8
Layer1$C$L1
  6
CENTER
 62
     7
 10
-158.5936141951
 20
59.3598432923
 11
-93.3936160398
 21
59.3598432923
  0
LINE
  8
Layer1$C$L1
  6
CENTER
 62
     7
 10
-158.5936147357
 20
111.9029411765
 11
-67.7936153586
 21
111.9029411765
  0
LINE
  8
Layer0$C$L0
 62
     7
 10
-90.3936153586
 20
109.8529411766
 11
-70.5217520199
 21
109.8529411766
  0
LINE
  8
Layer0$C$L0
 62
     7
 10
-71.0654786973
 20
113.9529411766
 11
-90.3936153586
 21
113.9529411766
  0
LINE
  8
Layer0$C$L0
 62
     7
 10
-90.3936153586
 20
173.8529411766
 11
-69.5504608614
 21
173.8529411766
  0
LINE
  8
Layer0$C$L0
 62
     7
 10
-70.0380328845
 20
177.9529411766
 11
-90.3936153586
 21
177.9529411766
  0
LINE
  8
Layer0$C$L0
 62
     7
 10
-90.3936153586
 20
228.9430946278
 11
-70.5491978327
 21
228.9430946278
  0
LINE
  8
Layer0$C$L0
 62
     7
 10
-71.0380328845
 20
233.0430946278
 11
-90.3936153586
 21
233.0430946278
  0
LINE
  8
Layer1$C$L1
  6
CENTER
 62
     7
 10
-103.8936148180
 20
44.3598432923
 11
-98.8936148180
 21
44.3598432923
  0
LINE
  8
Layer1$C$L1
  6
CENTER
 62
     7
 10
-101.3936148180
 20
41.8598432923
 11
-101.3936148180
 21
46.8598432923
  0
LINE
  8
Layer1$C$L1
  6
CENTER
 62
     7
 10
-103.8936148180
 20
74.3598432923
 11
-98.8936148180
 21
74.3598432923
  0
LINE
  8
Layer1$C$L1
  6
CENTER
 62
     7
 10
-101.3936148180
 20
71.8598432923
 11
-101.3936148180
 21
76.8598432923
  0
LINE
  8
Layer1$C$L1
  6
CENTER
 62
     7
 10
-105.8936153586
 20
96.9029411766
 11
-96.8936153586
 21
96.9029411766
  0
LINE
  8
Layer1$C$L1
  6
CENTER
 62
     7
 10
-101.3936153586
 20
92.4029411766
 11
-101.3936153586
 21
101.4029411766
  0
LINE
  8
Layer1$C$L1
  6
CENTER
 62
     7
 10
-101.3936153586
 20
122.4029411766
 11
-101.3936153586
 21
131.4029411766
  0
LINE
  8
Layer1$C$L1
  6
CENTER
 62
     7
 10
-105.8936153586
 20
126.9029411766
 11
-96.8936153586
 21
126.9029411766
  0
LINE
  8
Layer1$C$L1
  6
CENTER
 62
     7
 10
-105.3936153586
 20
245.9930946278
 11
-97.3936153586
 21
245.9930946278
  0
LINE
  8
Layer1$C$L1
  6
CENTER
 62
     7
 10
-105.3936153586
 20
215.9930946278
 11
-97.3936153586
 21
215.9930946278
  0
LINE
  8
Layer0$C$L0
  6
PHANTOM
 62
     7
 10
-98.1884311033
 20
39.3598437393
 11
-154.0936148805
 21
39.3598437393
  0
LINE
  8
Layer0$C$L0
  6
PHANTOM
 62
     7
 10
-154.0936148805
 20
39.3598437393
 11
-155.5936141951
 21
40.8598430539
  0
LINE
  8
Layer0$C$L0
  6
PHANTOM
 62
     7
 10
-155.5936141951
 20
77.8598435307
 11
-154.0936148805
 21
79.3598428452
  0
LINE
  8
Layer0$C$L0
  6
PHANTOM
 62
     7
 10
-154.0936148805
 20
79.3598428452
 11
-98.1884311033
 21
79.3598428452
  0
LINE
  8
Layer0$C$L0
  6
PHANTOM
 62
     7
 10
-155.5936141951
 20
77.8598435307
 11
-155.5936141951
 21
40.8598430539
  0
LINE
  8
Layer0$C$L0
  6
PHANTOM
 62
     7
 10
-98.1884311033
 20
39.3598437393
 11
-97.5194434715
 21
39.8543108338
  0
LINE
  8
Layer0$C$L0
  6
PHANTOM
 62
     7
 10
-96.3936160398
 20
47.3598431880
 11
-97.5194434715
 21
39.8543108338
  0
LINE
  8
Layer0$C$L0
  6
PHANTOM
 62
     7
 10
-96.3936160398
 20
71.3598433966
 11
-96.3936160398
 21
47.3598431880
  0
LINE
  8
Layer0$C$L0
  6
PHANTOM
 62
     7
 10
-97.5194434715
 20
78.8653757507
 11
-96.3936160398
 21
71.3598433966
  0
LINE
  8
Layer0$C$L0
  6
PHANTOM
 62
     7
 10
-97.5194434715
 20
78.8653757507
 11
-98.1884311033
 21
79.3598428452
  0
LINE
  8
Layer0$C$L0
 62
     7
 10
-104.3936160291
 20
131.9029407295
 11
-105.3936161930
 21
131.9029407295
  0
LINE
  8
Layer0$C$L0
 62
     7
 10
-105.3936161930
 20
91.9029416236
 11
-104.3936160291
 21
91.9029416236
  0
LINE
  8
Layer0$C$L0
 62
     7
 10
-96.3936165804
 20
100.9029412362
 11
-96.3936165804
 21
105.0029412563
  0
LINE
  8
Layer0$C$L0
 62
     7
 10
-96.3936165804
 20
118.8029410968
 11
-96.3936165804
 21
122.9029411170
  0
LINE
  8
Layer0$C$L0
 62
     7
 10
-102.8936148519
 20
107.1414576563
 11
-102.8936148519
 21
106.4029412064
  0
LINE
  8
Layer0$C$L0
 62
     7
 10
-102.8936148519
 20
117.4029411468
 11
-102.8936148519
 21
116.6644246968
  0
LINE
  8
Layer0$C$L0
 62
     7
 10
-102.2936158712
 20
107.8717989567
 11
-102.2936158712
 21
106.4029412064
  0
LINE
  8
Layer0$C$L0
 62
     7
 10
-102.2936158712
 20
117.4029411468
 11
-102.2936158712
 21
115.9340833965
  0
LINE
  8
Layer0$C$L0
 62
     7
 10
-99.3936153586
 20
115.9029411766
 11
-100.8936153586
 21
115.9029411766
  0
LINE
  8
Layer0$C$L0
 62
     7
 10
-99.3936152095
 20
117.4029411468
 11
-99.3936152095
 21
117.2029410209
  0
LINE
  8
Layer0$C$L0
 62
     7
 10
-100.8936145241
 20
117.4029411468
 11
-100.8936153586
 21
115.9029411766
  0
LINE
  8
Layer0$C$L0
 62
     7
 10
-99.3936152095
 20
106.6029413323
 11
-99.3936152095
 21
106.4029412064
  0
LINE
  8
Layer0$C$L0
 62
     7
 10
-99.3936153586
 20
107.9029411766
 11
-100.8936153586
 21
107.9029411766
  0
LINE
  8
Layer0$C$L0
 62
     7
 10
-100.8936153586
 20
107.9029411766
 11
-100.8936145241
 21
106.4029412064
  0
LINE
  8
Layer0$C$L0
 62
     7
 10
-93.3936153586
 20
116.9029411766
 11
-93.3936153586
 21
106.9029411766
  0
LINE
  8
Layer0$C$L0
 62
     7
 10
-93.6936153586
 20
106.6029411766
 11
-93.6936153586
 21
117.2029411766
  0
LINE
  8
Layer0$C$L0
 62
     7
 10
-97.6936162347
 20
117.1611986774
 11
-97.6936162347
 21
117.4029411468
  0
LINE
  8
Layer0$C$L0
 62
     7
 10
-97.6936162347
 20
106.4029412064
 11
-97.6936162347
 21
106.6446836757
  0
LINE
  8
Layer0$C$L0
 62
     7
 10
-97.5194440121
 20
131.4084736350
 11
-98.1884316439
 21
131.9029407295
  0
LINE
  8
Layer0$C$L0
 62
     7
 10
-104.3936160291
 20
131.4029415789
 11
-104.3936160291
 21
131.9029407295
  0
LINE
  8
Layer0$C$L0
 62
     7
 10
-98.0242096717
 20
131.4029415789
 11
-98.1884316439
 21
131.9029407295
  0
LINE
  8
Layer0$C$L0
 62
     7
 10
-104.3936160291
 20
131.9029407295
 11
-98.1884316439
 21
131.9029407295
  0
LINE
  8
Layer0$C$L0
 62
     7
 10
-97.5194440121
 20
131.4084736350
 11
-96.3936165804
 21
123.9029412809
  0
LINE
  8
Layer0$C$L0
 62
     7
 10
-98.0242096717
 20
131.4029415789
 11
-97.5194440121
 21
131.4084736350
  0
LINE
  8
Layer0$C$L0
 62
     7
 10
-96.3936165804
 20
122.9029411170
 11
-96.8936138684
 21
122.9029411170
  0
LINE
  8
Layer0$C$L0
 62
     7
 10
-96.3936165804
 20
123.9029412809
 11
-96.3936165804
 21
122.9029411170
  0
LINE
  8
Layer0$C$L0
 62
     7
 10
-96.8936138684
 20
123.8656501937
 11
-96.3936165804
 21
123.9029412809
  0
LINE
  8
Layer0$C$L0
 62
     7
 10
-104.3936160291
 20
130.6029410752
 11
-104.3936160291
 21
131.4029415789
  0
LINE
  8
Layer0$C$L0
 62
     7
 10
-104.3936160291
 20
130.6029410752
 11
-105.3936161930
 21
130.6029410752
  0
LINE
  8
Layer0$C$L0
 62
     7
 10
-105.3936161930
 20
130.6029410752
 11
-105.3936153586
 21
125.3692488347
  0
ARC
  8
Layer0$C$L0
 62
     7
 10
-104.3936153586
 20
125.3692488347
 40
1.0000000000
 50
180.0000000000
 51
230.0000000000
  0
LINE
  8
Layer0$C$L0
 62
     7
 10
-105.0364029682
 20
124.6032043916
 11
-103.0101084048
 21
122.9029411170
  0
LINE
  8
Layer0$C$L0
 62
     7
 10
-103.0101084048
 20
122.9029411170
 11
-96.8936138684
 21
122.9029411170
  0
LINE
  8
Layer0$C$L0
 62
     7
 10
-96.8936138684
 20
122.9029411170
 11
-96.8936138684
 21
123.8656501937
  0
LINE
  8
Layer0$C$L0
 62
     7
 10
-96.8936138684
 20
123.8656501937
 11
-98.0242096717
 21
131.4029415789
  0
LINE
  8
Layer0$C$L0
 62
     7
 10
-98.0242096717
 20
131.4029415789
 11
-104.3936160291
 21
131.4029415789
  0
LINE
  8
Layer0$C$L0
 62
     7
 10
-96.6936142082
 20
104.7029413002
 11
-96.8936138684
 21
104.7029413002
  0
LINE
  8
Layer0$C$L0
 62
     7
 10
-96.3936165804
 20
105.0029412563
 11
-96.6936142082
 21
104.7029413002
  0
LINE
  8
Layer0$C$L0
 62
     7
 10
-96.3936153586
 20
109.7863401277
 11
-96.3936165804
 21
105.0029412563
  0
LINE
  8
Layer0$C$L0
 62
     7
 10
-96.3936153586
 20
114.0195422254
 11
-96.3936153586
 21
109.7863401277
  0
LINE
  8
Layer0$C$L0
 62
     7
 10
-96.3936165804
 20
118.8029410968
 11
-96.3936153586
 21
114.0195422254
  0
LINE
  8
Layer0$C$L0
 62
     7
 10
-96.6936142082
 20
119.1029410529
 11
-96.3936165804
 21
118.8029410968
  0
LINE
  8
Layer0$C$L0
 62
     7
 10
-96.8936138684
 20
119.1029410529
 11
-96.6936142082
 21
119.1029410529
  0
LINE
  8
Layer0$C$L0
 62
     7
 10
-102.8936148519
 20
104.7029413002
 11
-96.8936138684
 21
104.7029413002
  0
LINE
  8
Layer0$C$L0
 62
     7
 10
-96.8936138684
 20
104.7029413002
 11
-96.8936138684
 21
119.1029410529
  0
LINE
  8
Layer0$C$L0
 62
     7
 10
-102.8936148519
 20
119.1029410529
 11
-96.8936138684
 21
119.1029410529
  0
LINE
  8
Layer0$C$L0
 62
     7
 10
-102.8936148519
 20
119.1029410529
 11
-102.8936148519
 21
117.4029411468
  0
LINE
  8
Layer0$C$L0
 62
     7
 10
-97.1936152215
 20
117.4029411468
 11
-102.8936148519
 21
117.4029411468
  0
LINE
  8
Layer0$C$L0
 62
     7
 10
-97.1936152215
 20
106.4029412064
 11
-97.1936152215
 21
117.4029411468
  0
LINE
  8
Layer0$C$L0
 62
     7
 10
-102.8936148519
 20
106.4029412064
 11
-97.1936152215
 21
106.4029412064
  0
LINE
  8
Layer0$C$L0
 62
     7
 10
-102.8936148519
 20
106.4029412064
 11
-102.8936148519
 21
104.7029413002
  0
LINE
  8
Layer0$C$L0
 62
     7
 10
-96.8936138684
 20
100.9029412362
 11
-96.3936165804
 21
100.9029412362
  0
LINE
  8
Layer0$C$L0
 62
     7
 10
-96.3936165804
 20
100.9029412362
 11
-96.3936165804
 21
99.9029410723
  0
LINE
  8
Layer0$C$L0
 62
     7
 10
-96.3936165804
 20
99.9029410723
 11
-96.8936138684
 21
99.9402321595
  0
LINE
  8
Layer0$C$L0
 62
     7
 10
-96.3936165804
 20
99.9029410723
 11
-97.5194440121
 21
92.3974087181
  0
LINE
  8
Layer0$C$L0
 62
     7
 10
-98.1884316439
 20
91.9029416236
 11
-97.5194440121
 21
92.3974087181
  0
LINE
  8
Layer0$C$L0
 62
     7
 10
-97.5194440121
 20
92.3974087181
 11
-98.0242096717
 21
92.4029407742
  0
LINE
  8
Layer0$C$L0
 62
     7
 10
-104.3936160291
 20
91.9029416236
 11
-104.3936160291
 21
92.4029407742
  0
LINE
  8
Layer0$C$L0
 62
     7
 10
-98.1884316439
 20
91.9029416236
 11
-104.3936160291
 21
91.9029416236
  0
LINE
  8
Layer0$C$L0
 62
     7
 10
-98.1884316439
 20
91.9029416236
 11
-98.0242096717
 21
92.4029407742
  0
LINE
  8
Layer0$C$L0
 62
     7
 10
-104.3936160291
 20
93.2029412779
 11
-104.3936160291
 21
92.4029407742
  0
LINE
  8
Layer0$C$L0
 62
     7
 10
-104.3936160291
 20
92.4029407742
 11
-98.0242096717
 21
92.4029407742
  0
LINE
  8
Layer0$C$L0
 62
     7
 10
-98.0242096717
 20
92.4029407742
 11
-96.8936138684
 21
99.9402321595
  0
LINE
  8
Layer0$C$L0
 62
     7
 10
-96.8936138684
 20
99.9402321595
 11
-96.8936138684
 21
100.9029412362
  0
LINE
  8
Layer0$C$L0
 62
     7
 10
-103.0101084048
 20
100.9029412362
 11
-96.8936138684
 21
100.9029412362
  0
LINE
  8
Layer0$C$L0
 62
     7
 10
-103.0101084048
 20
100.9029412362
 11
-105.0364029682
 21
99.2026779615
  0
ARC
  8
Layer0$C$L0
 62
     7
 10
-104.3936153586
 20
98.4366335184
 40
1.0000000000
 50
130.0000000000
 51
180.0000000000
  0
LINE
  8
Layer0$C$L0
 62
     7
 10
-105.3936153586
 20
98.4366335184
 11
-105.3936161930
 21
93.2029412779
  0
LINE
  8
Layer0$C$L0
 62
     7
 10
-105.3936161930
 20
93.2029412779
 11
-104.3936160291
 21
93.2029412779
  0
CIRCLE
  8
Layer0$C$L0
 62
     7
 10
-101.3936153586
 20
126.9029411766
 40
3.5000000000
  0
CIRCLE
  8
Layer0$C$L0
 62
     7
 10
-101.3936153586
 20
126.9029411766
 40
1.7000000000
  0
CIRCLE
  8
Layer0$C$L0
 62
     7
 10
-101.3936153586
 20
96.9029411766
 40
3.5000000000
  0
CIRCLE
  8
Layer0$C$L0
 62
     7
 10
-101.3936153586
 20
96.9029411766
 40
1.7000000000
  0
LINE
  8
Layer0$C$L0
 62
     7
 10
-155.5936147357
 20
124.9029414448
 11
-155.5936147357
 21
98.9029409083
  0
LINE
  8
Layer0$C$L0
 62
     7
 10
-155.5936147357
 20
127.6327186915
 11
-155.5936147357
 21
124.9029414448
  0
LINE
  8
Layer0$C$L0
 62
     7
 10
-155.4936149056
 20
124.9029414448
 11
-155.5936147357
 21
124.9029414448
  0
LINE
  8
Layer0$C$L0
 62
     7
 10
-155.4936149056
 20
98.9029409083
 11
-155.5936147357
 21
98.9029409083
  0
LINE
  8
Layer0$C$L0
 62
     7
 10
-155.5936147357
 20
98.9029409083
 11
-155.5936147357
 21
96.1731636616
  0
LINE
  8
Layer0$C$L0
 62
     7
 10
-105.3936161930
 20
131.9029407295
 11
-105.3936161930
 21
131.4029415789
  0
LINE
  8
Layer0$C$L0
 62
     7
 10
-154.0936154211
 20
131.9029407295
 11
-105.3936161930
 21
131.9029407295
  0
LINE
  8
Layer0$C$L0
 62
     7
 10
-153.8865079070
 20
131.4029415789
 11
-154.0936154211
 21
131.9029407295
  0
LINE
  8
Layer0$C$L0
 62
     7
 10
-155.5936147357
 20
130.4029414150
 11
-154.0936154211
 21
131.9029407295
  0
LINE
  8
Layer0$C$L0
 62
     7
 10
-98.8936141963
 20
120.0100483092
 11
-98.8936141963
 21
119.1029410529
  0
LINE
  8
Layer0$C$L0
 62
     7
 10
-102.8936148519
 20
118.0029410588
 11
-102.9936165447
 21
118.0029410588
  0
LINE
  8
Layer0$C$L0
 62
     7
 10
-99.3936152095
 20
119.1029410529
 11
-99.3936152095
 21
119.3029411788
  0
LINE
  8
Layer0$C$L0
 62
     7
 10
-102.9936165447
 20
105.8029412943
 11
-102.8936148519
 21
105.8029412943
  0
LINE
  8
Layer0$C$L0
 62
     7
 10
-98.8936141963
 20
104.7029413002
 11
-98.8936141963
 21
103.7958340439
  0
LINE
  8
Layer0$C$L0
 62
     7
 10
-99.3936152095
 20
104.5029411743
 11
-99.3936152095
 21
104.7029413002
  0
LINE
  8
Layer0$C$L0
 62
     7
 10
-155.5936147357
 20
96.1731636616
 11
-155.3936150754
 21
96.1003696266
  0
LINE
  8
Layer0$C$L0
 62
     7
 10
-155.5936147357
 20
93.4029409382
 11
-155.5936147357
 21
96.1731636616
  0
LINE
  8
Layer0$C$L0
 62
     7
 10
-155.0936155851
 20
130.1958339008
 11
-155.5936147357
 21
130.4029414150
  0
LINE
  8
Layer0$C$L0
 62
     7
 10
-155.5936147357
 20
127.6327186915
 11
-155.5936147357
 21
130.4029414150
  0
LINE
  8
Layer0$C$L0
 62
     7
 10
-155.3936150754
 20
127.7055127266
 11
-155.5936147357
 21
127.6327186915
  0
LINE
  8
Layer0$C$L0
 62
     7
 10
-155.3936150754
 20
127.7055127266
 11
-155.3936150754
 21
96.1003696266
  0
LINE
  8
Layer0$C$L0
 62
     7
 10
-155.0936155851
 20
93.6100484523
 11
-155.5936147357
 21
93.4029409382
  0
LINE
  8
Layer0$C$L0
 62
     7
 10
-154.0936154211
 20
91.9029416236
 11
-155.5936147357
 21
93.4029409382
  0
LINE
  8
Layer0$C$L0
 62
     7
 10
-153.8865079070
 20
92.4029407742
 11
-154.0936154211
 21
91.9029416236
  0
LINE
  8
Layer0$C$L0
 62
     7
 10
-105.3936161930
 20
91.9029416236
 11
-154.0936154211
 21
91.9029416236
  0
LINE
  8
Layer0$C$L0
 62
     7
 10
-105.3936161930
 20
92.4029407742
 11
-105.3936161930
 21
91.9029416236
  0
LINE
  8
Layer0$C$L0
 62
     7
 10
-103.0936145122
 20
101.0029410663
 11
-99.3936152095
 21
101.0029410663
  0
LINE
  8
Layer0$C$L0
 62
     7
 10
-99.3936152095
 20
101.0029410663
 11
-98.8936141963
 21
101.5029411483
  0
LINE
  8
Layer0$C$L0
 62
     7
 10
-98.8936141963
 20
103.7958340439
 11
-98.8936141963
 21
101.5029411483
  0
LINE
  8
Layer0$C$L0
 62
     7
 10
-98.8936141963
 20
103.7958340439
 11
-99.3936152095
 21
104.5029411743
  0
LINE
  8
Layer0$C$L0
 62
     7
 10
-99.3936152095
 20
104.5029411743
 11
-102.9936165447
 21
104.5029411743
  0
LINE
  8
Layer0$C$L0
 62
     7
 10
-102.9936165447
 20
104.5029411743
 11
-102.9936153586
 21
106.6029411766
  0
ARC
  8
Layer0$C$L0
 62
     7
 10
-101.4936153586
 20
106.6029411766
 40
1.5000000000
 50
90.0000000000
 51
180.0000000000
  0
LINE
  8
Layer0$C$L0
 62
     7
 10
-99.3936152095
 20
108.1029411125
 11
-101.4936153586
 21
108.1029411766
  0
LINE
  8
Layer0$C$L0
 62
     7
 10
-99.3936152095
 20
106.6029413323
 11
-99.3936152095
 21
108.1029411125
  0
LINE
  8
Layer0$C$L0
 62
     7
 10
-99.3936152095
 20
106.6029413323
 11
-97.8936153586
 21
106.6029411766
  0
ARC
  8
Layer0$C$L0
 62
     7
 10
-97.8936153586
 20
107.1029411766
 40
0.5000000000
 50
270.0000000000
 51
360.0000000000
  0
LINE
  8
Layer0$C$L0
 62
     7
 10
-97.3936153586
 20
107.1029411766
 11
-97.3936153586
 21
116.7029411766
  0
ARC
  8
Layer0$C$L0
 62
     7
 10
-97.8936153586
 20
116.7029411766
 40
0.5000000000
 50
0.0000000000
 51
90.0000000000
  0
LINE
  8
Layer0$C$L0
 62
     7
 10
-97.8936153586
 20
117.2029411766
 11
-99.3936152095
 21
117.2029410209
  0
LINE
  8
Layer0$C$L0
 62
     7
 10
-99.3936152095
 20
115.7029412406
 11
-99.3936152095
 21
117.2029410209
  0
LINE
  8
Layer0$C$L0
 62
     7
 10
-101.4936153586
 20
115.7029411766
 11
-99.3936152095
 21
115.7029412406
  0
ARC
  8
Layer0$C$L0
 62
     7
 10
-101.4936153586
 20
117.2029411766
 40
1.5000000000
 50
180.0000000000
 51
270.0000000000
  0
LINE
  8
Layer0$C$L0
 62
     7
 10
-102.9936153586
 20
117.2029411766
 11
-102.9936165447
 21
119.3029411788
  0
LINE
  8
Layer0$C$L0
 62
     7
 10
-102.9936165447
 20
119.3029411788
 11
-99.3936152095
 21
119.3029411788
  0
LINE
  8
Layer0$C$L0
 62
     7
 10
-99.3936152095
 20
119.3029411788
 11
-98.8936141963
 21
120.0100483092
  0
LINE
  8
Layer0$C$L0
 62
     7
 10
-98.8936141963
 20
122.3029412049
 11
-98.8936141963
 21
120.0100483092
  0
LINE
  8
Layer0$C$L0
 62
     7
 10
-98.8936141963
 20
122.3029412049
 11
-99.3936152095
 21
122.8029412868
  0
LINE
  8
Layer0$C$L0
 62
     7
 10
-99.3936152095
 20
122.8029412868
 11
-103.0936145122
 21
122.8029412868
  0
LINE
  8
Layer0$C$L0
 62
     7
 10
-103.0936145122
 20
122.8029412868
 11
-105.3936161930
 21
124.8029416147
  0
LINE
  8
Layer0$C$L0
 62
     7
 10
-105.3936161930
 20
124.8029416147
 11
-105.3936161930
 21
131.4029415789
  0
LINE
  8
Layer0$C$L0
 62
     7
 10
-153.8865079070
 20
131.4029415789
 11
-155.0936155851
 21
130.1958339008
  0
LINE
  8
Layer0$C$L0
 62
     7
 10
-155.0936155851
 20
130.1958339008
 11
-155.0936155851
 21
93.6100484523
  0
LINE
  8
Layer0$C$L0
 62
     7
 10
-155.0936155851
 20
93.6100484523
 11
-153.8865079070
 21
92.4029407742
  0
LINE
  8
Layer0$C$L0
 62
     7
 10
-153.8865079070
 20
92.4029407742
 11
-105.3936161930
 21
92.4029407742
  0
LINE
  8
Layer0$C$L0
 62
     7
 10
-105.3936161930
 20
92.4029407742
 11
-105.3936161930
 21
99.0029407385
  0
LINE
  8
Layer0$C$L0
 62
     7
 10
-105.3936161930
 20
99.0029407385
 11
-103.0936145122
 21
101.0029410663
  0
CIRCLE
  8
Layer0$C$L0
 62
     7
 10
-150.3936153586
 20
126.9029411766
 40
1.0000000000
  0
CIRCLE
  8
Layer0$C$L0
 62
     7
 10
-150.3936153586
 20
96.9029411766
 40
1.0000000000
  0
CIRCLE
  8
Layer0$C$L0
 62
     7
 10
-99.3936153586
 20
111.9029411766
 40
1.0000000000
  0
LINE
  8
Layer0$C$L0
 62
     7
 10
-90.3936153586
 20
116.1029411766
 11
-90.3936153586
 21
114.2245785298
  0
LINE
  8
Layer0$C$L0
 62
     7
 10
-90.3936153586
 20
109.5813038233
 11
-90.3936153586
 21
107.7029411766
  0
LINE
  8
Layer0$C$L0
 62
     7
 10
-90.3936153586
 20
114.2245785298
 11
-90.3936153586
 21
109.5813038233
  0
LINE
  8
Layer0$C$L0
 62
     7
 10
-90.8936153586
 20
114.2245785298
 11
-90.3936153586
 21
114.2245785298
  0
LINE
  8
Layer0$C$L0
 62
     7
 10
-90.8936153586
 20
114.2245785298
 11
-93.3936142261
 21
114.2245786450
  0
LINE
  8
Layer0$C$L0
 62
     7
 10
-90.8936153586
 20
109.5813038233
 11
-90.3936153586
 21
109.5813038233
  0
LINE
  8
Layer0$C$L0
 62
     7
 10
-93.3936142261
 20
109.5813037082
 11
-90.8936153586
 21
109.5813038233
  0
LINE
  8
Layer0$C$L0
 62
     7
 10
-155.4936153586
 20
126.4029411766
 11
-155.4936153586
 21
126.9029411766
  0
LINE
  8
Layer0$C$L0
 62
     7
 10
-155.4936153586
 20
126.9029411766
 11
-155.3936150754
 21
126.9029408413
  0
LINE
  8
Layer0$C$L0
 62
     7
 10
-155.4936153586
 20
97.4029411766
 11
-155.4936153586
 21
126.4029411766
  0
LINE
  8
Layer0$C$L0
 62
     7
 10
-155.3936150754
 20
126.4029407593
 11
-155.4936153586
 21
126.4029411766
  0
LINE
  8
Layer0$C$L0
 62
     7
 10
-155.4936153586
 20
96.9029411766
 11
-155.4936153586
 21
97.4029411766
  0
LINE
  8
Layer0$C$L0
 62
     7
 10
-155.3936150754
 20
96.9029415118
 11
-155.4936153586
 21
96.9029411766
  0
LINE
  8
Layer0$C$L0
 62
     7
 10
-155.4936153586
 20
97.4029411766
 11
-155.3936150754
 21
97.4029415938
  0
LINE
  8
Layer0$C$L0
 62
     7
 10
-93.3936153586
 20
116.9029411766
 11
-93.6936153586
 21
117.2029411766
  0
LINE
  8
Layer0$C$L0
 62
     7
 10
-93.6936153586
 20
106.6029411766
 11
-93.3936153586
 21
106.9029411766
  0
LINE
  8
Layer0$C$L0
 62
     7
 10
-93.6936153586
 20
117.2029411766
 11
-95.8936153586
 21
117.2029411766
  0
LINE
  8
Layer0$C$L0
 62
     7
 10
-95.8936153586
 20
106.6029411766
 11
-93.6936153586
 21
106.6029411766
  0
ARC
  8
Layer0$C$L0
 62
     7
 10
-95.8936153586
 20
117.7029411766
 40
0.5000000000
 50
180.0000000000
 51
270.0000000000
  0
ARC
  8
Layer0$C$L0
 62
     7
 10
-95.8936153586
 20
106.1029411766
 40
0.5000000000
 50
90.0000000000
 51
180.0000000000
  0
LINE
  8
Layer0$C$L0
 62
     7
 10
-90.8936153586
 20
116.6029411766
 11
-93.3936142261
 21
116.6029411088
  0
ARC
  8
Layer0$C$L0
 62
     7
 10
-90.8936153586
 20
116.1029411766
 40
0.5000000000
 50
0.0000000000
 51
90.0000000000
  0
ARC
  8
Layer0$C$L0
 62
     7
 10
-90.8936153586
 20
107.7029411766
 40
0.5000000000
 50
270.0000000000
 51
360.0000000000
  0
LINE
  8
Layer0$C$L0
 62
     7
 10
-93.3936142261
 20
107.2029412444
 11
-90.8936153586
 21
107.2029411766
  0
ARC
  8
Layer0$C$L0
 62
     7
 10
-96.3413394799
 20
170.9763997423
 40
0.4477943353
 50
305.5792124570
 51
358.9838452915
  0
LINE
  8
Layer0$C$L0
 62
     7
 10
-96.8936138684
 20
180.8029412928
 11
-96.6487728889
 21
180.8029412928
  0
LINE
  8
Layer0$C$L0
 62
     7
 10
-93.3936153586
 20
180.5029411766
 11
-93.6936153586
 21
180.8029411766
  0
LINE
  8
Layer0$C$L0
 62
     7
 10
-93.3936153586
 20
180.5029411766
 11
-93.3936153586
 21
170.9029411766
  0
LINE
  8
Layer0$C$L0
 62
     7
 10
-93.6936153586
 20
180.8029411766
 11
-96.6487728889
 21
180.8029412928
  0
LINE
  8
Layer0$C$L0
 62
     7
 10
-93.6936153586
 20
170.6029411766
 11
-93.6936153586
 21
180.8029411766
  0
POLYLINE
  8
Layer0$C$L0
 62
     7
 66
     1
  0
VERTEX
  8
Layer0$C$L0
 62
     7
 10
-96.6487728889
 20
180.8029412928
  0
VERTEX
  8
Layer0$C$L0
 62
     7
 10
-96.4356304044
 20
180.6081719402
  0
VERTEX
  8
Layer0$C$L0
 62
     7
 10
-96.1832680637
 20
180.3775671575
  0
VERTEX
  8
Layer0$C$L0
 62
     7
 10
-95.8936155672
 20
180.1128834191
  0
SEQEND
  8
Layer0$C$L0
 62
     7
  0
POLYLINE
  8
Layer0$C$L0
 62
     7
 66
     1
  0
VERTEX
  8
Layer0$C$L0
 62
     7
 10
-96.3936165804
 20
180.3029412109
  0
VERTEX
  8
Layer0$C$L0
 62
     7
 10
-96.3774190182
 20
180.2867464426
  0
VERTEX
  8
Layer0$C$L0
 62
     7
 10
-96.3478029604
 20
180.2571303847
  0
VERTEX
  8
Layer0$C$L0
 62
     7
 10
-96.3075064952
 20
180.2168329883
  0
SEQEND
  8
Layer0$C$L0
 62
     7
  0
ARC
  8
Layer0$C$L0
 62
     7
 10
-95.9102610345
 20
170.4850586907
 40
0.4836862271
 50
88.0278467265
 51
177.8812231775
  0
LINE
  8
Layer0$C$L0
 62
     7
 10
-95.8936153586
 20
180.1128835801
 11
-95.8936153586
 21
170.9684584180
  0
ARC
  8
Layer0$C$L0
 62
     7
 10
-95.9922951061
 20
180.5959353553
 40
0.4930282187
 50
230.2575697425
 51
281.5457237604
  0
LINE
  8
Layer0$C$L0
 62
     7
 10
-97.8936153586
 20
169.9029411766
 11
-104.8936153586
 21
169.9029411766
  0
LINE
  8
Layer0$C$L0
 62
     7
 10
-104.3936160291
 20
170.0029411291
 11
-105.3936161930
 21
170.0029411291
  0
LINE
  8
Layer0$C$L0
 62
     7
 10
-96.9086863930
 20
180.8029412928
 11
-96.8936138684
 21
180.8029412928
  0
LINE
  8
Layer0$C$L0
 62
     7
 10
-96.3936165804
 20
180.3029412109
 11
-96.3936165804
 21
180.2991358268
  0
LINE
  8
Layer0$C$L0
 62
     7
 10
-96.3936165804
 20
180.3029412109
 11
-96.8936138684
 21
180.8029412928
  0
LINE
  8
Layer0$C$L0
 62
     7
 10
-105.3936161930
 20
179.9269756007
 11
-105.3936161930
 21
180.8029412928
  0
LINE
  8
Layer0$C$L0
 62
     7
 10
-97.9492493803
 20
179.9358054701
 11
-96.9086863930
 21
180.8029412928
  0
LINE
  8
Layer0$C$L0
 62
     7
 10
-101.3936155374
 20
180.8029412928
 11
-96.9086863930
 21
180.8029412928
  0
POLYLINE
  8
Layer0$C$L0
 62
     7
 66
     1
 70
     1
  0
VERTEX
  8
Layer0$C$L0
 62
     7
 10
-101.3936155374
 20
180.8029412928
  0
VERTEX
  8
Layer0$C$L0
 62
     7
 10
-101.9145601327
 20
180.7972443926
  0
VERTEX
  8
Layer0$C$L0
 62
     7
 10
-102.4196759696
 20
180.7803259867
  0
VERTEX
  8
Layer0$C$L0
 62
     7
 10
-102.8936148519
 20
180.7527010965
  0
VERTEX
  8
Layer0$C$L0
 62
     7
 10
-103.3219785328
 20
180.7152079123
  0
VERTEX
  8
Layer0$C$L0
 62
     7
 10
-103.6917489851
 20
180.6689863730
  0
VERTEX
  8
Layer0$C$L0
 62
     7
 10
-103.9916907335
 20
180.6154409128
  0
VERTEX
  8
Layer0$C$L0
 62
     7
 10
-104.2126935805
 20
180.5561985526
  0
VERTEX
  8
Layer0$C$L0
 62
     7
 10
-104.3480389649
 20
180.4930595386
  0
VERTEX
  8
Layer0$C$L0
 62
     7
 10
-104.3936160291
 20
180.4279414642
  0
VERTEX
  8
Layer0$C$L0
 62
     7
 10
-104.3480389649
 20
180.3628233898
  0
VERTEX
  8
Layer0$C$L0
 62
     7
 10
-104.2126935805
 20
180.2996834445
  0
VERTEX
  8
Layer0$C$L0
 62
     7
 10
-103.9916907335
 20
180.2404410842
  0
VERTEX
  8
Layer0$C$L0
 62
     7
 10
-103.6917489851
 20
180.1868956241
  0
VERTEX
  8
Layer0$C$L0
 62
     7
 10
-103.3219785328
 20
180.1406740847
  0
VERTEX
  8
Layer0$C$L0
 62
     7
 10
-102.8936148519
 20
180.1031818318
  0
VERTEX
  8
Layer0$C$L0
 62
     7
 10
-102.4196759696
 20
180.0755560103
  0
VERTEX
  8
Layer0$C$L0
 62
     7
 10
-101.9145601327
 20
180.0586385357
  0
VERTEX
  8
Layer0$C$L0
 62
     7
 10
-101.3936155374
 20
180.0529416356
  0
VERTEX
  8
Layer0$C$L0
 62
     7
 10
-100.8726709420
 20
180.0586385357
  0
VERTEX
  8
Layer0$C$L0
 62
     7
 10
-100.3675551052
 20
180.0755560103
  0
VERTEX
  8
Layer0$C$L0
 62
     7
 10
-99.8936162228
 20
180.1031818318
  0
VERTEX
  8
Layer0$C$L0
 62
     7
 10
-99.4652525420
 20
180.1406740847
  0
VERTEX
  8
Layer0$C$L0
 62
     7
 10
-99.0954802270
 20
180.1868956241
  0
VERTEX
  8
Layer0$C$L0
 62
     7
 10
-98.7955384786
 20
180.2404410842
  0
VERTEX
  8
Layer0$C$L0
 62
     7
 10
-98.5745393569
 20
180.2996834445
  0
VERTEX
  8
Layer0$C$L0
 62
     7
 10
-98.4391921098
 20
180.3628233898
  0
VERTEX
  8
Layer0$C$L0
 62
     7
 10
-98.3936169083
 20
180.4279414642
  0
VERTEX
  8
Layer0$C$L0
 62
     7
 10
-98.4391921098
 20
180.4930595386
  0
VERTEX
  8
Layer0$C$L0
 62
     7
 10
-98.5745393569
 20
180.5561985526
  0
VERTEX
  8
Layer0$C$L0
 62
     7
 10
-98.7955384786
 20
180.6154409128
  0
VERTEX
  8
Layer0$C$L0
 62
     7
 10
-99.0954802270
 20
180.6689863730
  0
VERTEX
  8
Layer0$C$L0
 62
     7
 10
-99.4652525420
 20
180.7152079123
  0
VERTEX
  8
Layer0$C$L0
 62
     7
 10
-99.8936162228
 20
180.7527010965
  0
VERTEX
  8
Layer0$C$L0
 62
     7
 10
-100.3675551052
 20
180.7803259867
  0
VERTEX
  8
Layer0$C$L0
 62
     7
 10
-100.8726709420
 20
180.7972443926
  0
SEQEND
  8
Layer0$C$L0
 62
     7
  0
LINE
  8
Layer0$C$L0
 62
     7
 10
-105.3936161930
 20
180.8029412928
 11
-101.3936155374
 21
180.8029412928
  0
LINE
  8
Layer0$C$L0
 62
     7
 10
-96.8936138684
 20
170.0029411291
 11
-96.3936153586
 21
170.5029411766
  0
LINE
  8
Layer0$C$L0
 62
     7
 10
-96.8936138684
 20
170.0029411291
 11
-98.0242096717
 21
170.0029411291
  0
LINE
  8
Layer0$C$L0
 62
     7
 10
-97.5194440121
 20
170.5029411528
 11
-96.3936153586
 21
170.5029411766
  0
LINE
  8
Layer0$C$L0
 62
     7
 10
-96.3936165804
 20
180.2991358268
 11
-96.3936153586
 21
170.5029411766
  0
LINE
  8
Layer0$C$L0
 62
     7
 10
-96.3936165804
 20
180.2991358268
 11
-97.4053569967
 21
179.4560169506
  0
LINE
  8
Layer0$C$L0
 62
     7
 10
-98.0179474587
 20
179.9269756007
 11
-97.9492493803
 21
179.9358054701
  0
LINE
  8
Layer0$C$L0
 62
     7
 10
-97.4053569967
 20
179.4560169506
 11
-97.5194440121
 21
178.4781263846
  0
LINE
  8
Layer0$C$L0
 62
     7
 10
-97.4053569967
 20
179.4560169506
 11
-97.9492493803
 21
179.9358054701
  0
LINE
  8
Layer0$C$L0
 62
     7
 10
-98.0242096717
 20
170.0029411291
 11
-97.5194440121
 21
170.5029411528
  0
LINE
  8
Layer0$C$L0
 62
     7
 10
-97.5194440121
 20
170.5029411528
 11
-98.1884316439
 21
170.5029411528
  0
LINE
  8
Layer0$C$L0
 62
     7
 10
-97.5194440121
 20
178.4781263846
 11
-97.5194440121
 21
170.5029411528
  0
LINE
  8
Layer0$C$L0
 62
     7
 10
-97.5194440121
 20
178.4781263846
 11
-98.1640905971
 21
178.6743225235
  0
LINE
  8
Layer0$C$L0
 62
     7
 10
-104.3936160291
 20
170.0029411291
 11
-104.3936160291
 21
170.5029411528
  0
LINE
  8
Layer0$C$L0
 62
     7
 10
-98.0242096717
 20
170.0029411291
 11
-104.3936160291
 21
170.0029411291
  0
LINE
  8
Layer0$C$L0
 62
     7
 10
-98.0242096717
 20
170.0029411291
 11
-98.1884316439
 21
170.5029411528
  0
LINE
  8
Layer0$C$L0
 62
     7
 10
-105.3936161930
 20
178.0029413927
 11
-105.3936161930
 21
178.6511898677
  0
LINE
  8
Layer0$C$L0
 62
     7
 10
-104.3936160291
 20
178.0029413927
 11
-105.3936161930
 21
178.0029413927
  0
LINE
  8
Layer0$C$L0
 62
     7
 10
-104.3936160291
 20
170.5029411528
 11
-104.3936160291
 21
178.0029413927
  0
LINE
  8
Layer0$C$L0
 62
     7
 10
-104.3936160291
 20
170.5029411528
 11
-98.1884316439
 21
170.5029411528
  0
LINE
  8
Layer0$C$L0
 62
     7
 10
-98.1884316439
 20
170.5029411528
 11
-98.1884316439
 21
178.6511898677
  0
LINE
  8
Layer0$C$L0
 62
     7
 10
-98.1884316439
 20
178.6511898677
 11
-105.3936161930
 21
178.6511898677
  0
LINE
  8
Layer0$C$L0
 62
     7
 10
-98.1884316439
 20
178.6511898677
 11
-98.1640905971
 21
178.6743225235
  0
LINE
  8
Layer0$C$L0
 62
     7
 10
-98.1640905971
 20
178.6743225235
 11
-98.0179474587
 21
179.9269756007
  0
LINE
  8
Layer0$C$L0
 62
     7
 10
-105.3936161930
 20
179.9269756007
 11
-98.0179474587
 21
179.9269756007
  0
LINE
  8
Layer0$C$L0
 62
     7
 10
-105.3936161930
 20
178.6511898677
 11
-105.3936161930
 21
179.9269756007
  0
LINE
  8
Layer0$C$L0
 62
     7
 10
-149.3936153586
 20
169.9029411766
 11
-151.3936153586
 21
169.9029411766
  0
LINE
  8
Layer0$C$L0
 62
     7
 10
-105.3936161930
 20
180.8029412928
 11
-105.3936161930
 21
179.9269756007
  0
LINE
  8
Layer0$C$L0
 62
     7
 10
-113.5936153019
 20
180.8029412928
 11
-154.0936154211
 21
180.3207983899
  0
LINE
  8
Layer0$C$L0
 62
     7
 10
-113.5936153019
 20
180.8029412928
 11
-105.3936161930
 21
180.8029412928
  0
LINE
  8
Layer0$C$L0
 62
     7
 10
-154.0937215919
 20
180.3207974586
 11
-155.5936147357
 21
178.8029409650
  0
LINE
  8
Layer0$C$L0
 62
     7
 10
-155.5936147357
 20
178.5156242254
 11
-155.5936147357
 21
178.8029409650
  0
LINE
  8
Layer0$C$L0
 62
     7
 10
-154.0936154211
 20
180.3207983899
 11
-154.0936154211
 21
179.9269756007
  0
LINE
  8
Layer0$C$L0
 62
     7
 10
-155.5936147357
 20
170.5029411528
 11
-155.5936147357
 21
178.1365284401
  0
LINE
  8
Layer0$C$L0
 62
     7
 10
-105.3936161930
 20
170.5029411528
 11
-105.3936161930
 21
170.0029411291
  0
LINE
  8
Layer0$C$L0
 62
     7
 10
-105.3936161930
 20
170.0029411291
 11
-153.8865079070
 21
170.0029411291
  0
LINE
  8
Layer0$C$L0
 62
     7
 10
-154.0936154211
 20
179.9269756007
 11
-155.5936147357
 21
178.5156242254
  0
LINE
  8
Layer0$C$L0
 62
     7
 10
-155.5936147357
 20
178.1365284401
 11
-155.5936147357
 21
178.5156242254
  0
LINE
  8
Layer0$C$L0
 62
     7
 10
-154.0936154211
 20
178.6511898677
 11
-155.5936147357
 21
178.1365284401
  0
LINE
  8
Layer0$C$L0
 62
     7
 10
-153.8865079070
 20
170.0029411291
 11
-154.0936154211
 21
170.5029411528
  0
LINE
  8
Layer0$C$L0
 62
     7
 10
-155.5936147357
 20
170.5029411528
 11
-154.0936154211
 21
170.5029411528
  0
LINE
  8
Layer0$C$L0
 62
     7
 10
-155.0936155851
 20
170.0029411291
 11
-155.5936147357
 21
170.5029411528
  0
LINE
  8
Layer0$C$L0
 62
     7
 10
-153.8865079070
 20
170.0029411291
 11
-155.0936155851
 21
170.0029411291
  0
LINE
  8
Layer0$C$L0
 62
     7
 10
-154.0936154211
 20
179.9269756007
 11
-105.3936161930
 21
179.9269756007
  0
LINE
  8
Layer0$C$L0
 62
     7
 10
-154.0936154211
 20
179.9269756007
 11
-154.0936154211
 21
178.6511898677
  0
LINE
  8
Layer0$C$L0
 62
     7
 10
-105.3936161930
 20
179.9269756007
 11
-105.3936161930
 21
178.6511898677
  0
LINE
  8
Layer0$C$L0
 62
     7
 10
-154.0936154211
 20
178.6511898677
 11
-154.0936154211
 21
170.5029411528
  0
LINE
  8
Layer0$C$L0
 62
     7
 10
-154.0936154211
 20
170.5029411528
 11
-105.3936161930
 21
170.5029411528
  0
LINE
  8
Layer0$C$L0
 62
     7
 10
-105.3936161930
 20
170.5029411528
 11
-105.3936161930
 21
178.6511898677
  0
LINE
  8
Layer0$C$L0
 62
     7
 10
-105.3936161930
 20
178.6511898677
 11
-154.0936154211
 21
178.6511898677
  0
LINE
  8
Layer0$C$L0
 62
     7
 10
-90.8936153586
 20
171.9029411766
 11
-93.3936142261
 21
171.9029411611
  0
ARC
  8
Layer0$C$L0
 62
     7
 10
-90.8936153586
 20
172.4029411766
 40
0.5000000000
 50
270.0000000000
 51
360.0000000000
  0
LINE
  8
Layer0$C$L0
 62
     7
 10
-93.3936142261
 20
179.9029409590
 11
-90.8936153586
 21
179.9029411766
  0
ARC
  8
Layer0$C$L0
 62
     7
 10
-90.8936153586
 20
179.4029411766
 40
0.5000000000
 50
0.0000000000
 51
90.0000000000
  0
LINE
  8
Layer0$C$L0
 62
     7
 10
-90.3936153586
 20
179.4029411766
 11
-90.3936153586
 21
172.4029411766
  0
ARC
  8
Layer0$C$L0
 62
     7
 10
-96.1213081640
 20
170.1736440415
 40
0.4245538747
 50
84.5127908879
 51
122.9031063816
  0
LINE
  8
Layer0$C$L0
 62
     7
 10
-93.6936153586
 20
170.6029411766
 11
-93.3936153586
 21
170.9029411766
  0
LINE
  8
Layer0$C$L0
 62
     7
 10
-96.0808002288
 20
170.6029411867
 11
-93.6936153586
 21
170.6029411766
  0
LINE
  8
Layer0$C$L0
 62
     7
 10
-97.8936153586
 20
169.9029411766
 11
-97.8936158950
 21
170.0029411291
  0
LINE
  8
Layer0$C$L0
 62
     7
 10
-104.8936151797
 20
170.0029411291
 11
-104.8936153586
 21
169.9029411766
  0
LINE
  8
Layer0$C$L0
 62
     7
 10
-149.3936153586
 20
169.9029411766
 11
-149.3936150233
 21
170.0029411291
  0
LINE
  8
Layer0$C$L0
 62
     7
 10
-151.3936162824
 20
170.0029411291
 11
-151.3936153586
 21
169.9029411766
  0
CIRCLE
  8
Layer0$C$L0
 62
     7
 10
-101.3936153586
 20
215.9930946278
 40
1.7000000000
  0
CIRCLE
  8
Layer0$C$L0
 62
     7
 10
-101.3936153586
 20
245.9930946278
 40
1.7000000000
  0
LINE
  8
Layer0$C$L0
 62
     7
 10
-105.3936161930
 20
210.9930950748
 11
-105.3936161930
 21
211.9853727119
  0
LINE
  8
Layer0$C$L0
 62
     7
 10
-98.1884316439
 20
210.9930950748
 11
-105.3936161930
 21
210.9930950748
  0
LINE
  8
Layer0$C$L0
 62
     7
 10
-98.1884316439
 20
210.9930950748
 11
-98.1640905971
 21
211.0110863643
  0
LINE
  8
Layer0$C$L0
 62
     7
 10
-105.3936161930
 20
250.0008165436
 11
-105.3936161930
 21
250.9930941807
  0
LINE
  8
Layer0$C$L0
 62
     7
 10
-98.1640905971
 20
250.9751028912
 11
-98.1884316439
 21
250.9930941807
  0
LINE
  8
Layer0$C$L0
 62
     7
 10
-105.3936161930
 20
250.9930941807
 11
-98.1884316439
 21
250.9930941807
  0
LINE
  8
Layer0$C$L0
 62
     7
 10
-97.4053569967
 20
212.2481435137
 11
-97.5194440121
 21
211.4875621693
  0
LINE
  8
Layer0$C$L0
 62
     7
 10
-98.1640905971
 20
211.0110863643
 11
-98.0179474587
 21
211.9853727119
  0
LINE
  8
Layer0$C$L0
 62
     7
 10
-97.5194440121
 20
211.4875621693
 11
-98.1640905971
 21
211.0110863643
  0
LINE
  8
Layer0$C$L0
 62
     7
 10
-97.5194440121
 20
250.4986270862
 11
-97.4053569967
 21
249.7380457418
  0
LINE
  8
Layer0$C$L0
 62
     7
 10
-98.1640905971
 20
250.9751028912
 11
-97.5194440121
 21
250.4986270862
  0
LINE
  8
Layer0$C$L0
 62
     7
 10
-98.0179474587
 20
250.0008165436
 11
-98.1640905971
 21
250.9751028912
  0
LINE
  8
Layer0$C$L0
 62
     7
 10
-105.3936161930
 20
211.9853727119
 11
-105.3936161930
 21
218.9930945234
  0
LINE
  8
Layer0$C$L0
 62
     7
 10
-105.3936161930
 20
211.9853727119
 11
-98.0179474587
 21
211.9853727119
  0
LINE
  8
Layer0$C$L0
 62
     7
 10
-98.0179474587
 20
211.9853727119
 11
-97.9492493803
 21
212.0560060786
  0
CIRCLE
  8
Layer0$C$L0
 62
     7
 10
-101.3936172736
 20
215.9930949160
 40
2.9999996075
  0
LINE
  8
Layer0$C$L0
 62
     7
 10
-97.9492493803
 20
212.0560060786
 11
-96.9086863930
 21
218.9930945234
  0
LINE
  8
Layer0$C$L0
 62
     7
 10
-97.4053569967
 20
212.2481435137
 11
-97.9492493803
 21
212.0560060786
  0
LINE
  8
Layer0$C$L0
 62
     7
 10
-96.3936165804
 20
218.9930945234
 11
-97.4053569967
 21
212.2481435137
  0
LINE
  8
Layer0$C$L0
 62
     7
 10
-96.3936165804
 20
219.0071006836
 11
-96.3936165804
 21
218.9930945234
  0
LINE
  8
Layer0$C$L0
 62
     7
 10
-96.3936165804
 20
227.2142060166
 11
-96.3936165804
 21
219.0071006836
  0
ARC
  8
Layer0$C$L0
 62
     7
 10
-95.8988386305
 20
227.2662577049
 40
0.4975083899
 50
145.2281082125
 51
186.0055469372
  0
LINE
  8
Layer0$C$L0
 62
     7
 10
-96.3936165804
 20
219.0071006836
 11
-96.8936138684
 21
219.0473515140
  0
ARC
  8
Layer0$C$L0
 62
     7
 10
-91.6401314160
 20
230.9930486217
 40
5.7999162698
 50
205.0706588333
 51
216.4156712306
  0
LINE
  8
Layer0$C$L0
 62
     7
 10
-93.3936153586
 20
232.9526864220
 11
-93.3936153586
 21
229.0335028335
  0
LINE
  8
Layer0$C$L0
 62
     7
 10
-93.3936153586
 20
229.0335028335
 11
-93.6936153586
 21
228.9731936401
  0
LINE
  8
Layer0$C$L0
 62
     7
 10
-93.6936153586
 20
233.0129956154
 11
-93.3936153586
 21
232.9526864220
  0
LINE
  8
Layer0$C$L0
 62
     7
 10
-93.3936153586
 20
235.9930946278
 11
-93.3936153586
 21
232.9526864220
  0
LINE
  8
Layer0$C$L0
 62
     7
 10
-93.3936153586
 20
229.0335028335
 11
-93.3936153586
 21
225.9930946278
  0
LINE
  8
Layer0$C$L0
 62
     7
 10
-93.6936153586
 20
225.6930946278
 11
-93.6936153586
 21
228.9731936401
  0
LINE
  8
Layer0$C$L0
 62
     7
 10
-93.6936153586
 20
233.0129956154
 11
-93.6936153586
 21
236.2930946278
  0
ARC
  8
Layer0$C$L0
 62
     7
 10
-91.6401314160
 20
230.9931406338
 40
5.7999162698
 50
143.5843287694
 51
154.9293411667
  0
ARC
  8
Layer0$C$L0
 62
     7
 10
-95.8848028221
 20
234.7235309400
 40
0.5111155114
 50
174.5603547521
 51
214.2059900983
  0
LINE
  8
Layer0$C$L0
 62
     7
 10
-96.3936165804
 20
242.9790885719
 11
-96.3936165804
 21
234.7719832389
  0
LINE
  8
Layer0$C$L0
 62
     7
 10
-105.3936161930
 20
218.9930945234
 11
-105.3936161930
 21
242.9930947321
  0
LINE
  8
Layer0$C$L0
 62
     7
 10
-100.3936135108
 20
231.9930946753
 11
-100.3936135108
 21
233.9930946538
  0
LINE
  8
Layer0$C$L0
 62
     7
 10
-102.3936138386
 20
231.9930946753
 11
-100.3936135108
 21
231.9930946753
  0
LINE
  8
Layer0$C$L0
 62
     7
 10
-102.3936138386
 20
233.9930946538
 11
-102.3936138386
 21
231.9930946753
  0
LINE
  8
Layer0$C$L0
 62
     7
 10
-100.3936135108
 20
233.9930946538
 11
-102.3936138386
 21
233.9930946538
  0
LINE
  8
Layer0$C$L0
 62
     7
 10
-100.3936135108
 20
235.9930945160
 11
-100.3936135108
 21
237.9930948438
  0
LINE
  8
Layer0$C$L0
 62
     7
 10
-102.3936138386
 20
235.9930945160
 11
-100.3936135108
 21
235.9930945160
  0
LINE
  8
Layer0$C$L0
 62
     7
 10
-102.3936138386
 20
237.9930948438
 11
-102.3936138386
 21
235.9930945160
  0
LINE
  8
Layer0$C$L0
 62
     7
 10
-100.3936135108
 20
237.9930948438
 11
-102.3936138386
 21
237.9930948438
  0
LINE
  8
Layer0$C$L0
 62
     7
 10
-102.3936138386
 20
223.9930944117
 11
-100.3936135108
 21
223.9930944117
  0
LINE
  8
Layer0$C$L0
 62
     7
 10
-102.3936138386
 20
225.9930947395
 11
-102.3936138386
 21
223.9930944117
  0
LINE
  8
Layer0$C$L0
 62
     7
 10
-100.3936135108
 20
225.9930947395
 11
-102.3936138386
 21
225.9930947395
  0
LINE
  8
Layer0$C$L0
 62
     7
 10
-100.3936135108
 20
223.9930944117
 11
-100.3936135108
 21
225.9930947395
  0
LINE
  8
Layer0$C$L0
 62
     7
 10
-102.3936138386
 20
227.9930946017
 11
-100.3936135108
 21
227.9930946017
  0
LINE
  8
Layer0$C$L0
 62
     7
 10
-102.3936138386
 20
229.9930945803
 11
-102.3936138386
 21
227.9930946017
  0
LINE
  8
Layer0$C$L0
 62
     7
 10
-100.3936135108
 20
229.9930945803
 11
-102.3936138386
 21
229.9930945803
  0
LINE
  8
Layer0$C$L0
 62
     7
 10
-100.3936135108
 20
227.9930946017
 11
-100.3936135108
 21
229.9930945803
  0
LINE
  8
Layer0$C$L0
 62
     7
 10
-93.6936153586
 20
228.9731936401
 11
-96.6487728889
 21
228.9731935663
  0
LINE
  8
Layer0$C$L0
 62
     7
 10
-93.6936153586
 20
228.9731936401
 11
-93.6936153586
 21
233.0129956154
  0
LINE
  8
Layer0$C$L0
 62
     7
 10
-93.6936153586
 20
233.0129956154
 11
-96.6487728889
 21
233.0129956892
  0
POLYLINE
  8
Layer0$C$L0
 62
     7
 66
     1
  0
VERTEX
  8
Layer0$C$L0
 62
     7
 10
-96.6487728889
 20
233.0129956892
  0
VERTEX
  8
Layer0$C$L0
 62
     7
 10
-96.7216283912
 20
233.0268824073
  0
VERTEX
  8
Layer0$C$L0
 62
     7
 10
-96.7832521433
 20
233.0685427943
  0
VERTEX
  8
Layer0$C$L0
 62
     7
 10
-96.8339458937
 20
233.1400960749
  0
VERTEX
  8
Layer0$C$L0
 62
     7
 10
-96.8802773292
 20
233.2867919533
  0
VERTEX
  8
Layer0$C$L0
 62
     7
 10
-96.8936138684
 20
233.4507717816
  0
SEQEND
  8
Layer0$C$L0
 62
     7
  0
LINE
  8
Layer0$C$L0
 62
     7
 10
-96.8936138684
 20
233.4507717816
 11
-96.8936138684
 21
242.9388377415
  0
LINE
  8
Layer0$C$L0
 62
     7
 10
-105.3936161930
 20
218.9930945234
 11
-101.3936155374
 21
218.9930945234
  0
LINE
  8
Layer0$C$L0
 62
     7
 10
-101.3936155374
 20
218.9930945234
 11
-96.9086863930
 21
218.9930945234
  0
LINE
  8
Layer0$C$L0
 62
     7
 10
-96.9086863930
 20
218.9930945234
 11
-96.8936138684
 21
219.0473515140
  0
LINE
  8
Layer0$C$L0
 62
     7
 10
-96.8936138684
 20
219.0473515140
 11
-96.8936138684
 21
228.5354174739
  0
POLYLINE
  8
Layer0$C$L0
 62
     7
 66
     1
  0
VERTEX
  8
Layer0$C$L0
 62
     7
 10
-96.8936138684
 20
228.5354174739
  0
VERTEX
  8
Layer0$C$L0
 62
     7
 10
-96.8614310855
 20
228.7777483063
  0
VERTEX
  8
Layer0$C$L0
 62
     7
 10
-96.8275532956
 20
228.8580488013
  0
VERTEX
  8
Layer0$C$L0
 62
     7
 10
-96.7731938595
 20
228.9270395478
  0
VERTEX
  8
Layer0$C$L0
 62
     7
 10
-96.7206709916
 20
228.9596977709
  0
VERTEX
  8
Layer0$C$L0
 62
     7
 10
-96.6601573760
 20
228.9728941461
  0
VERTEX
  8
Layer0$C$L0
 62
     7
 10
-96.6487728889
 20
228.9731935663
  0
SEQEND
  8
Layer0$C$L0
 62
     7
  0
LINE
  8
Layer0$C$L0
 62
     7
 10
-96.9086863930
 20
242.9930947321
 11
-101.3936155374
 21
242.9930947321
  0
LINE
  8
Layer0$C$L0
 62
     7
 10
-97.9492493803
 20
249.9301831769
 11
-98.0179474587
 21
250.0008165436
  0
LINE
  8
Layer0$C$L0
 62
     7
 10
-98.0179474587
 20
250.0008165436
 11
-105.3936161930
 21
250.0008165436
  0
LINE
  8
Layer0$C$L0
 62
     7
 10
-105.3936161930
 20
242.9930947321
 11
-105.3936161930
 21
250.0008165436
  0
LINE
  8
Layer0$C$L0
 62
     7
 10
-101.3936155374
 20
242.9930947321
 11
-105.3936161930
 21
242.9930947321
  0
CIRCLE
  8
Layer0$C$L0
 62
     7
 10
-101.3936137915
 20
245.9930944490
 40
2.9999997170
  0
LINE
  8
Layer0$C$L0
 62
     7
 10
-96.3936165804
 20
242.9930947321
 11
-96.3936165804
 21
242.9790885719
  0
LINE
  8
Layer0$C$L0
 62
     7
 10
-97.4053569967
 20
249.7380457418
 11
-96.3936165804
 21
242.9930947321
  0
LINE
  8
Layer0$C$L0
 62
     7
 10
-97.9492493803
 20
249.9301831769
 11
-97.4053569967
 21
249.7380457418
  0
LINE
  8
Layer0$C$L0
 62
     7
 10
-96.9086863930
 20
242.9930947321
 11
-97.9492493803
 21
249.9301831769
  0
LINE
  8
Layer0$C$L0
 62
     7
 10
-96.8936138684
 20
242.9388377415
 11
-96.9086863930
 21
242.9930947321
  0
LINE
  8
Layer0$C$L0
 62
     7
 10
-96.8936138684
 20
242.9388377415
 11
-96.3936165804
 21
242.9790885719
  0
LINE
  8
Layer0$C$L0
 62
     7
 10
-155.5936147357
 20
212.4930943893
 11
-155.5936147357
 21
212.7879473912
  0
LINE
  8
Layer0$C$L0
 62
     7
 10
-154.0936154211
 20
210.9930950748
 11
-155.5936147357
 21
212.4930943893
  0
LINE
  8
Layer0$C$L0
 62
     7
 10
-105.3936161930
 20
211.9853727119
 11
-105.3936161930
 21
210.9930950748
  0
LINE
  8
Layer0$C$L0
 62
     7
 10
-154.0936154211
 20
211.9853727119
 11
-154.0936154211
 21
210.9930950748
  0
LINE
  8
Layer0$C$L0
 62
     7
 10
-154.0936154211
 20
250.9930941807
 11
-155.5936147357
 21
249.4930948662
  0
LINE
  8
Layer0$C$L0
 62
     7
 10
-155.5936147357
 20
249.1982418643
 11
-155.5936147357
 21
249.4930948662
  0
LINE
  8
Layer0$C$L0
 62
     7
 10
-105.3936161930
 20
250.9930941807
 11
-105.3936161930
 21
250.0008165436
  0
LINE
  8
Layer0$C$L0
 62
     7
 10
-154.0936154211
 20
250.9930941807
 11
-105.3936161930
 21
250.9930941807
  0
LINE
  8
Layer0$C$L0
 62
     7
 10
-154.0936154211
 20
250.9930941807
 11
-154.0936154211
 21
250.0008165436
  0
LINE
  8
Layer0$C$L0
 62
     7
 10
-154.0937215919
 20
215.1367988037
 11
-155.5936147357
 21
215.0864813076
  0
LINE
  8
Layer0$C$L0
 62
     7
 10
-155.5936147357
 20
212.7879473912
 11
-155.5936147357
 21
215.0864813076
  0
LINE
  8
Layer0$C$L0
 62
     7
 10
-154.0936154211
 20
211.9853727119
 11
-155.5936147357
 21
212.7879473912
  0
LINE
  8
Layer0$C$L0
 62
     7
 10
-154.0936154211
 20
250.0008165436
 11
-155.5936147357
 21
249.1982418643
  0
LINE
  8
Layer0$C$L0
 62
     7
 10
-155.5936147357
 20
246.8997079479
 11
-155.5936147357
 21
249.1982418643
  0
LINE
  8
Layer0$C$L0
 62
     7
 10
-154.0937215919
 20
246.8493904518
 11
-155.5936147357
 21
246.8997079479
  0
LINE
  8
Layer0$C$L0
 62
     7
 10
-105.3936161930
 20
218.9930945234
 11
-105.3936161930
 21
211.9853727119
  0
LINE
  8
Layer0$C$L0
 62
     7
 10
-154.0936154211
 20
215.1359513002
 11
-154.0936154211
 21
211.9853727119
  0
LINE
  8
Layer0$C$L0
 62
     7
 10
-105.3936161930
 20
218.9930945234
 11
-105.3936161930
 21
242.9930947321
  0
LINE
  8
Layer0$C$L0
 62
     7
 10
-113.5936153019
 20
218.9930945234
 11
-105.3936161930
 21
218.9930945234
  0
LINE
  8
Layer0$C$L0
 62
     7
 10
-113.5936153019
 20
242.9930947321
 11
-113.5936153019
 21
218.9930945234
  0
LINE
  8
Layer0$C$L0
 62
     7
 10
-105.3936161930
 20
250.0008165436
 11
-154.0936154211
 21
250.0008165436
  0
LINE
  8
Layer0$C$L0
 62
     7
 10
-154.0936154211
 20
250.0008165436
 11
-154.0936154211
 21
246.8502379553
  0
LINE
  8
Layer0$C$L0
 62
     7
 10
-105.3936161930
 20
242.9930947321
 11
-113.5936153019
 21
242.9930947321
  0
LINE
  8
Layer0$C$L0
 62
     7
 10
-105.3936161930
 20
250.0008165436
 11
-105.3936161930
 21
242.9930947321
  0
LINE
  8
Layer0$C$L0
 62
     7
 10
-90.3936153586
 20
228.6714572745
 11
-90.3936153586
 21
226.7930946278
  0
LINE
  8
Layer0$C$L0
 62
     7
 10
-90.3936153586
 20
235.1930946278
 11
-90.3936153586
 21
233.3147319810
  0
LINE
  8
Layer0$C$L0
 62
     7
 10
-90.3936153586
 20
228.6714572745
 11
-90.8936153586
 21
228.6714572745
  0
LINE
  8
Layer0$C$L0
 62
     7
 10
-90.3936153586
 20
233.3147319810
 11
-90.3936153586
 21
228.6714572745
  0
LINE
  8
Layer0$C$L0
 62
     7
 10
-90.3936153586
 20
233.3147319810
 11
-90.8936153586
 21
233.3147319810
  0
LINE
  8
Layer0$C$L0
 62
     7
 10
-93.3936142261
 20
228.6714571593
 11
-90.8936153586
 21
228.6714572745
  0
LINE
  8
Layer0$C$L0
 62
     7
 10
-90.8936153586
 20
233.3147319810
 11
-93.3936142261
 21
233.3147320962
  0
ARC
  8
Layer0$C$L0
 62
     7
 10
-95.8936153586
 20
236.7930946278
 40
0.5000000000
 50
180.0000000000
 51
270.0000000000
  0
ARC
  8
Layer0$C$L0
 62
     7
 10
-95.8936153586
 20
225.1930946278
 40
0.5000000000
 50
90.0000000000
 51
180.0000000000
  0
LINE
  8
Layer0$C$L0
 62
     7
 10
-93.3936153586
 20
235.9930946278
 11
-93.6936153586
 21
236.2930946278
  0
LINE
  8
Layer0$C$L0
 62
     7
 10
-93.6936153586
 20
225.6930946278
 11
-93.3936153586
 21
225.9930946278
  0
LINE
  8
Layer0$C$L0
 62
     7
 10
-93.6936153586
 20
236.2930946278
 11
-95.8936153586
 21
236.2930946278
  0
LINE
  8
Layer0$C$L0
 62
     7
 10
-95.8936153586
 20
225.6930946278
 11
-93.6936153586
 21
225.6930946278
  0
ARC
  8
Layer0$C$L0
 62
     7
 10
-90.8936153586
 20
226.7930946278
 40
0.5000000000
 50
270.0000000000
 51
360.0000000000
  0
LINE
  8
Layer0$C$L0
 62
     7
 10
-93.3936142261
 20
226.2930946956
 11
-90.8936153586
 21
226.2930946278
  0
LINE
  8
Layer0$C$L0
 62
     7
 10
-90.8936153586
 20
235.6930946278
 11
-93.3936142261
 21
235.6930945600
  0
ARC
  8
Layer0$C$L0
 62
     7
 10
-90.8936153586
 20
235.1930946278
 40
0.5000000000
 50
0.0000000000
 51
90.0000000000
  0
LINE
  8
Layer0$C$L0
 62
     7
 10
-26.6021999482
 20
249.4930946279
 11
-26.6021999482
 21
242.4930946279
  0
LINE
  8
Layer0$C$L0
 62
     7
 10
-26.6021999482
 20
219.4930946279
 11
-26.6021999482
 21
215.9930946279
  0
LINE
  8
Layer0$C$L0
 62
     7
 10
-26.6021999482
 20
215.9930946279
 11
-26.6021999482
 21
212.4930946279
  0
LINE
  8
Layer0$C$L0
 62
     7
 10
-35.3504486393
 20
210.9930950749
 11
-35.3735812951
 21
211.0110863644
  0
LINE
  8
Layer0$C$L0
 62
     7
 10
-27.2021999245
 20
210.9930950749
 11
-35.3504486393
 21
210.9930950749
  0
LINE
  8
Layer0$C$L0
 62
     7
 10
-27.2021999245
 20
250.9930941808
 11
-26.7021999007
 21
250.4930950302
  0
LINE
  8
Layer0$C$L0
 62
     7
 10
-27.2021999245
 20
211.4875621694
 11
-27.2021999245
 21
210.9930950749
  0
LINE
  8
Layer0$C$L0
 62
     7
 10
-26.7021999007
 20
211.4930942255
 11
-27.2021999245
 21
210.9930950749
  0
LINE
  8
Layer0$C$L0
 62
     7
 10
-27.2021999245
 20
250.9930941808
 11
-27.2021999245
 21
250.4986270863
  0
LINE
  8
Layer0$C$L0
 62
     7
 10
-35.3504486393
 20
250.9930941808
 11
-27.2021999245
 21
250.9930941808
  0
LINE
  8
Layer0$C$L0
 62
     7
 10
-35.3735812951
 20
250.9751028913
 11
-35.3504486393
 21
250.9930941808
  0
LINE
  8
Layer0$C$L0
 62
     7
 10
-36.6262343724
 20
211.9853727120
 11
-36.6350642417
 21
212.0560060787
  0
LINE
  8
Layer0$C$L0
 62
     7
 10
-35.3735812951
 20
211.0110863644
 11
-36.6262343724
 21
211.9853727120
  0
LINE
  8
Layer0$C$L0
 62
     7
 10
-35.1773851563
 20
211.4875621694
 11
-35.3735812951
 21
211.0110863644
  0
LINE
  8
Layer0$C$L0
 62
     7
 10
-36.6350642417
 20
249.9301831770
 11
-36.6262343724
 21
250.0008165437
  0
LINE
  8
Layer0$C$L0
 62
     7
 10
-35.3735812951
 20
250.9751028913
 11
-35.1773851563
 21
250.4986270863
  0
LINE
  8
Layer0$C$L0
 62
     7
 10
-36.6262343724
 20
250.0008165437
 11
-35.3735812951
 21
250.9751028913
  0
LINE
  8
Layer0$C$L0
 62
     7
 10
-37.5022000645
 20
218.9930945235
 11
-37.5022000645
 21
219.0473515141
  0
LINE
  8
Layer0$C$L0
 62
     7
 10
-36.6350642417
 20
212.0560060787
 11
-37.5022000645
 21
218.9930945235
  0
LINE
  8
Layer0$C$L0
 62
     7
 10
-36.1552757222
 20
212.2481435138
 11
-36.6350642417
 21
212.0560060787
  0
LINE
  8
Layer0$C$L0
 62
     7
 10
-37.5022000645
 20
242.9388377416
 11
-37.5022000645
 21
242.9930947322
  0
LINE
  8
Layer0$C$L0
 62
     7
 10
-36.6350642417
 20
249.9301831770
 11
-36.1552757222
 21
249.7380457419
  0
LINE
  8
Layer0$C$L0
 62
     7
 10
-37.5022000645
 20
242.9930947322
 11
-36.6350642417
 21
249.9301831770
  0
LINE
  8
Layer0$C$L0
 62
     7
 10
-28.3021999767
 20
219.9930946875
 11
-27.2021999245
 21
219.9930946875
  0
LINE
  8
Layer0$C$L0
 62
     7
 10
-28.3021999767
 20
224.9930945757
 11
-28.3021999767
 21
219.9930946875
  0
LINE
  8
Layer0$C$L0
 62
     7
 10
-28.1021999381
 20
224.9930945757
 11
-28.3021999767
 21
224.9930945757
  0
LINE
  8
Layer0$C$L0
 62
     7
 10
-27.2021999245
 20
224.0930947076
 11
-28.1021999381
 21
224.9930945757
  0
LINE
  8
Layer0$C$L0
 62
     7
 10
-35.5021999482
 20
225.0601358382
 11
-35.5021999482
 21
221.4930946279
  0
ARC
  8
Layer0$C$L0
 62
     7
 10
-35.0021999482
 20
225.0601358382
 40
0.5000000000
 50
67.9756871630
 51
180.0000000000
  0
ARC
  8
Layer0$C$L0
 62
     7
 10
-32.6021999482
 20
230.9930946279
 40
5.9000000000
 50
247.9756871630
 51
286.3348227807
  0
ARC
  8
Layer0$C$L0
 62
     7
 10
-30.8021999482
 20
224.8514336147
 40
0.5000000000
 50
0.0000000000
 51
106.3348227807
  0
LINE
  8
Layer0$C$L0
 62
     7
 10
-30.3021999482
 20
221.4930946279
 11
-30.3021999482
 21
224.8514336147
  0
ARC
  8
Layer0$C$L0
 62
     7
 10
-30.8021999482
 20
221.4930946279
 40
0.5000000000
 50
270.0000000000
 51
360.0000000000
  0
LINE
  8
Layer0$C$L0
 62
     7
 10
-35.0021999482
 20
220.9930946279
 11
-30.8021999482
 21
220.9930946279
  0
ARC
  8
Layer0$C$L0
 62
     7
 10
-35.0021999482
 20
221.4930946279
 40
0.5000000000
 50
180.0000000000
 51
270.0000000000
  0
LINE
  8
Layer0$C$L0
 62
     7
 10
-37.0021999825
 20
219.0071006837
 11
-36.9983945985
 21
218.9930945235
  0
LINE
  8
Layer0$C$L0
 62
     7
 10
-27.2021999245
 20
241.9930945682
 11
-28.3021999767
 21
241.9930945682
  0
LINE
  8
Layer0$C$L0
 62
     7
 10
-28.3021999767
 20
241.9930945682
 11
-28.3021999767
 21
236.9930946800
  0
LINE
  8
Layer0$C$L0
 62
     7
 10
-35.5021999482
 20
240.4930946279
 11
-35.5021999482
 21
236.9260534175
  0
ARC
  8
Layer0$C$L0
 62
     7
 10
-35.0021999482
 20
240.4930946279
 40
0.5000000000
 50
90.0000000000
 51
180.0000000000
  0
LINE
  8
Layer0$C$L0
 62
     7
 10
-30.8021999482
 20
240.9930946279
 11
-35.0021999482
 21
240.9930946279
  0
ARC
  8
Layer0$C$L0
 62
     7
 10
-30.8021999482
 20
240.4930946279
 40
0.5000000000
 50
0.0000000000
 51
90.0000000000
  0
LINE
  8
Layer0$C$L0
 62
     7
 10
-30.3021999482
 20
237.1347556410
 11
-30.3021999482
 21
240.4930946279
  0
ARC
  8
Layer0$C$L0
 62
     7
 10
-30.8021999482
 20
237.1347556410
 40
0.5000000000
 50
253.6651772193
 51
360.0000000000
  0
ARC
  8
Layer0$C$L0
 62
     7
 10
-32.6021999482
 20
230.9930946279
 40
5.9000000000
 50
73.6651772193
 51
112.0243128370
  0
ARC
  8
Layer0$C$L0
 62
     7
 10
-35.0021999482
 20
236.9260534175
 40
0.5000000000
 50
180.0000000000
 51
292.0243128370
  0
LINE
  8
Layer0$C$L0
 62
     7
 10
-28.1021999381
 20
236.9930946800
 11
-27.2021999245
 21
237.8930945481
  0
LINE
  8
Layer0$C$L0
 62
     7
 10
-28.3021999767
 20
236.9930946800
 11
-28.1021999381
 21
236.9930946800
  0
LINE
  8
Layer0$C$L0
 62
     7
 10
-36.9983945985
 20
242.9930947322
 11
-37.0021999825
 21
242.9790885720
  0
LINE
  8
Layer0$C$L0
 62
     7
 10
-27.2021999245
 20
242.9930947322
 11
-36.9983945985
 21
242.9930947322
  0
LINE
  8
Layer0$C$L0
 62
     7
 10
-27.2021999245
 20
250.4986270863
 11
-35.1773851563
 21
250.4986270863
  0
LINE
  8
Layer0$C$L0
 62
     7
 10
-35.1773851563
 20
250.4986270863
 11
-36.1552757222
 21
249.7380457419
  0
LINE
  8
Layer0$C$L0
 62
     7
 10
-36.1552757222
 20
249.7380457419
 11
-36.9983945985
 21
242.9930947322
  0
LINE
  8
Layer0$C$L0
 62
     7
 10
-35.1773851563
 20
211.4875621694
 11
-27.2021999245
 21
211.4875621694
  0
LINE
  8
Layer0$C$L0
 62
     7
 10
-36.9983945985
 20
218.9930945235
 11
-27.2021999245
 21
218.9930945235
  0
LINE
  8
Layer0$C$L0
 62
     7
 10
-36.9983945985
 20
218.9930945235
 11
-36.1552757222
 21
212.2481435138
  0
LINE
  8
Layer0$C$L0
 62
     7
 10
-36.1552757222
 20
212.2481435138
 11
-35.1773851563
 21
211.4875621694
  0
LINE
  8
Layer0$C$L0
 62
     7
 10
-27.2021999245
 20
237.8930945481
 11
-26.9021999684
 21
238.1930945042
  0
LINE
  8
Layer0$C$L0
 62
     7
 10
-27.2021999482
 20
233.1096956767
 11
-27.2021999245
 21
237.8930945481
  0
LINE
  8
Layer0$C$L0
 62
     7
 10
-27.2021999245
 20
224.0930947076
 11
-27.2021999482
 21
228.8764935790
  0
LINE
  8
Layer0$C$L0
 62
     7
 10
-26.9021999684
 20
223.7930947515
 11
-27.2021999245
 21
224.0930947076
  0
LINE
  8
Layer0$C$L0
 62
     7
 10
-26.7021999007
 20
223.7930947515
 11
-26.9021999684
 21
223.7930947515
  0
LINE
  8
Layer0$C$L0
 62
     7
 10
-26.7021999007
 20
238.1930945042
 11
-26.7021999007
 21
223.7930947515
  0
LINE
  8
Layer0$C$L0
 62
     7
 10
-26.9021999684
 20
238.1930945042
 11
-26.7021999007
 21
238.1930945042
  0
LINE
  8
Layer0$C$L0
 62
     7
 10
-27.2021999245
 20
211.4875621694
 11
-27.2021999245
 21
218.9930945235
  0
LINE
  8
Layer0$C$L0
 62
     7
 10
-26.7021999007
 20
211.4930942255
 11
-27.2021999245
 21
211.4875621694
  0
LINE
  8
Layer0$C$L0
 62
     7
 10
-26.7021999007
 20
219.0303856108
 11
-26.7021999007
 21
211.4930942255
  0
LINE
  8
Layer0$C$L0
 62
     7
 10
-27.2021999245
 20
219.9930946875
 11
-26.7021999007
 21
219.9930946875
  0
LINE
  8
Layer0$C$L0
 62
     7
 10
-27.2021999245
 20
218.9930945235
 11
-27.2021999245
 21
219.9930946875
  0
LINE
  8
Layer0$C$L0
 62
     7
 10
-26.7021999007
 20
219.0303856108
 11
-27.2021999245
 21
218.9930945235
  0
LINE
  8
Layer0$C$L0
 62
     7
 10
-26.7021999007
 20
219.9930946875
 11
-26.7021999007
 21
219.0303856108
  0
LINE
  8
Layer0$C$L0
 62
     7
 10
-26.7021999007
 20
250.4930950302
 11
-26.7021999007
 21
242.9558036450
  0
LINE
  8
Layer0$C$L0
 62
     7
 10
-27.2021999245
 20
250.4986270863
 11
-26.7021999007
 21
250.4930950302
  0
LINE
  8
Layer0$C$L0
 62
     7
 10
-27.2021999245
 20
242.9930947322
 11
-27.2021999245
 21
250.4986270863
  0
LINE
  8
Layer0$C$L0
 62
     7
 10
-26.7021999007
 20
241.9930945682
 11
-27.2021999245
 21
241.9930945682
  0
LINE
  8
Layer0$C$L0
 62
     7
 10
-26.7021999007
 20
242.9558036450
 11
-26.7021999007
 21
241.9930945682
  0
LINE
  8
Layer0$C$L0
 62
     7
 10
-27.2021999245
 20
242.9930947322
 11
-26.7021999007
 21
242.9558036450
  0
LINE
  8
Layer0$C$L0
 62
     7
 10
-27.2021999245
 20
241.9930945682
 11
-27.2021999245
 21
242.9930947322
  0
LINE
  8
Layer0$C$L0
 62
     7
 10
-37.5022000645
 20
233.4507717817
 11
-37.5022000645
 21
242.9388377416
  0
LINE
  8
Layer0$C$L0
 62
     7
 10
-37.0021999825
 20
242.9790885720
 11
-37.0021999482
 21
234.7719833534
  0
LINE
  8
Layer0$C$L0
 62
     7
 10
-37.5022000645
 20
242.9388377416
 11
-37.0021999825
 21
242.9790885720
  0
LINE
  8
Layer0$C$L0
 62
     7
 10
-37.5022000645
 20
219.0473515141
 11
-37.5022000645
 21
228.5354174740
  0
LINE
  8
Layer0$C$L0
 62
     7
 10
-37.0021999482
 20
227.2142059023
 11
-37.0021999825
 21
219.0071006837
  0
LINE
  8
Layer0$C$L0
 62
     7
 10
-37.0021999825
 20
219.0071006837
 11
-37.5022000645
 21
219.0473515141
  0
LINE
  8
Layer0$C$L0
 62
     7
 10
-37.5022000645
 20
228.5354174740
 11
-37.5021999482
 21
228.9731936402
  0
LINE
  8
Layer0$C$L0
 62
     7
 10
-37.5021999482
 20
233.0129956155
 11
-37.5022000645
 21
233.4507717817
  0
ARC
  8
Layer0$C$L0
 62
     7
 10
-36.5074516281
 20
227.2662675614
 40
0.4974799882
 50
145.2272190769
 51
186.0070325035
  0
POLYLINE
  8
Layer0$C$L0
 62
     7
 66
     1
  0
VERTEX
  8
Layer0$C$L0
 62
     7
 10
-36.8121421907
 20
227.7734074808
  0
VERTEX
  8
Layer0$C$L0
 62
     7
 10
-36.8049346853
 20
227.7271170235
  0
VERTEX
  8
Layer0$C$L0
 62
     7
 10
-36.8394178350
 20
227.6491844162
  0
VERTEX
  8
Layer0$C$L0
 62
     7
 10
-36.9160917599
 20
227.5499920427
  0
SEQEND
  8
Layer0$C$L0
 62
     7
  0
ARC
  8
Layer0$C$L0
 62
     7
 10
-36.4934114277
 20
234.7235221321
 40
0.5110912564
 50
174.5591039406
 51
214.2066444791
  0
POLYLINE
  8
Layer0$C$L0
 62
     7
 66
     1
  0
VERTEX
  8
Layer0$C$L0
 62
     7
 10
-36.8121421907
 20
234.2127817749
  0
VERTEX
  8
Layer0$C$L0
 62
     7
 10
-36.8049477238
 20
234.2591439440
  0
VERTEX
  8
Layer0$C$L0
 62
     7
 10
-36.8394494999
 20
234.3370548981
  0
VERTEX
  8
Layer0$C$L0
 62
     7
 10
-36.9160917599
 20
234.4361972130
  0
SEQEND
  8
Layer0$C$L0
 62
     7
  0
LINE
  8
Layer0$C$L0
 62
     7
 10
-27.2021999482
 20
228.8764935790
 11
-27.2021999482
 21
233.1096956767
  0
LINE
  8
Layer0$C$L0
 62
     7
 10
-37.5021999482
 20
228.9731936402
 11
-37.5021999482
 21
233.0129956155
  0
LINE
  8
Layer0$C$L0
 62
     7
 10
-37.2021999482
 20
232.9526864221
 11
-37.2021999482
 21
229.0335028336
  0
LINE
  8
Layer0$C$L0
 62
     7
 10
-37.2021999482
 20
229.0335028336
 11
-37.5021999482
 21
228.9731936402
  0
ARC
  8
Layer0$C$L0
 62
     7
 10
-32.6021999482
 20
230.9930946279
 40
5.3000000000
 50
202.4026659005
 51
517.5973340995
  0
LINE
  8
Layer0$C$L0
 62
     7
 10
-37.5021999482
 20
233.0129956155
 11
-37.2021999482
 21
232.9526864221
  0
ARC
  8
Layer0$C$L0
 62
     7
 10
-32.6021999482
 20
230.9930946279
 40
5.0000000000
 50
203.0739180656
 51
516.9260819344
  0
LINE
  8
Layer0$C$L0
 62
     7
 10
-26.7021999007
 20
241.9930945682
 11
-26.7021999007
 21
241.8930947381
  0
LINE
  8
Layer0$C$L0
 62
     7
 10
-27.8021999457
 20
241.9930945682
 11
-27.8021999457
 21
241.8930947381
  0
LINE
  8
Layer0$C$L0
 62
     7
 10
-26.7021999007
 20
220.0930945176
 11
-26.7021999007
 21
219.9930946875
  0
LINE
  8
Layer0$C$L0
 62
     7
 10
-27.8021999457
 20
220.0930945176
 11
-27.8021999457
 21
219.9930946875
  0
LINE
  8
Layer0$C$L0
 62
     7
 10
-28.1204514450
 20
241.5748431879
 11
-28.1091084308
 21
241.5861857656
  0
LINE
  8
Layer0$C$L0
 62
     7
 10
-28.1091084317
 20
237.0930946279
 11
-28.3021999767
 21
237.0930945101
  0
LINE
  8
Layer0$C$L0
 62
     7
 10
-28.1663648039
 20
241.9930945682
 11
-28.1204514450
 21
241.5748431879
  0
LINE
  8
Layer0$C$L0
 62
     7
 10
-28.1091084308
 20
220.4000034901
 11
-28.1204514450
 21
220.4113460678
  0
LINE
  8
Layer0$C$L0
 62
     7
 10
-28.3021999767
 20
224.8930947456
 11
-28.1091084317
 21
224.8930946279
  0
LINE
  8
Layer0$C$L0
 62
     7
 10
-28.1204514450
 20
220.4113460678
 11
-28.1663648039
 21
219.9930946875
  0
LINE
  8
Layer0$C$L0
 62
     7
 10
-26.7021999007
 20
238.3930946301
 11
-26.7021999007
 21
238.1930945042
  0
LINE
  8
Layer0$C$L0
 62
     7
 10
-26.7021999007
 20
223.7930947515
 11
-26.7021999007
 21
223.5930946256
  0
POLYLINE
  8
Layer0$C$L0
 62
     7
 66
     1
  0
VERTEX
  8
Layer0$C$L0
 62
     7
 10
-28.1091084308
 20
241.5861857656
  0
VERTEX
  8
Layer0$C$L0
 62
     7
 10
-28.1052713818
 20
241.5900228146
  0
VERTEX
  8
Layer0$C$L0
 62
     7
 10
-28.1021999381
 20
241.5930943164
  0
SEQEND
  8
Layer0$C$L0
 62
     7
  0
LINE
  8
Layer0$C$L0
 62
     7
 10
-28.1021999482
 20
237.0930946279
 11
-28.1091084317
 21
237.0930946279
  0
LINE
  8
Layer0$C$L0
 62
     7
 10
-28.1091084317
 20
237.0930946279
 11
-28.1091084308
 21
241.5861857656
  0
POLYLINE
  8
Layer0$C$L0
 62
     7
 66
     1
  0
VERTEX
  8
Layer0$C$L0
 62
     7
 10
-28.1021999381
 20
220.3930949393
  0
VERTEX
  8
Layer0$C$L0
 62
     7
 10
-28.1052713818
 20
220.3961664411
  0
VERTEX
  8
Layer0$C$L0
 62
     7
 10
-28.1091084308
 20
220.4000034901
  0
SEQEND
  8
Layer0$C$L0
 62
     7
  0
LINE
  8
Layer0$C$L0
 62
     7
 10
-28.1091084317
 20
224.8930946279
 11
-28.1021999482
 21
224.8930946279
  0
LINE
  8
Layer0$C$L0
 62
     7
 10
-28.1091084308
 20
220.4000034901
 11
-28.1091084317
 21
224.8930946279
  0
LINE
  8
Layer0$C$L0
 62
     7
 10
-28.0521999358
 20
241.6430942315
 11
-28.1021999381
 21
241.5930943164
  0
LINE
  8
Layer0$C$L0
 62
     7
 10
-28.1021999381
 20
241.5930943164
 11
-28.1021999381
 21
237.2759373459
  0
LINE
  8
Layer0$C$L0
 62
     7
 10
-26.7021999007
 20
241.8930947381
 11
-26.7021999007
 21
241.3930946562
  0
LINE
  8
Layer0$C$L0
 62
     7
 10
-27.8021999457
 20
241.8930947381
 11
-26.7021999007
 21
241.8930947381
  0
LINE
  8
Layer0$C$L0
 62
     7
 10
-28.0521999358
 20
241.6430942315
 11
-27.8021999457
 21
241.8930947381
  0
LINE
  8
Layer0$C$L0
 62
     7
 10
-27.8021999457
 20
241.3930946562
 11
-28.0521999358
 21
241.6430942315
  0
LINE
  8
Layer0$C$L0
 62
     7
 10
-26.7021999007
 20
239.1002017605
 11
-26.7021999007
 21
241.3930946562
  0
LINE
  8
Layer0$C$L0
 62
     7
 10
-26.7021999007
 20
241.3930946562
 11
-27.8021999457
 21
241.3930946562
  0
LINE
  8
Layer0$C$L0
 62
     7
 10
-27.8021999457
 20
241.3930946562
 11
-27.8021999457
 21
238.0002013008
  0
LINE
  8
Layer0$C$L0
 62
     7
 10
-26.7021999007
 20
239.1002017605
 11
-26.7021999007
 21
238.3930946301
  0
LINE
  8
Layer0$C$L0
 62
     7
 10
-28.0021999625
 20
237.0930945101
 11
-28.1021999482
 21
237.0930946279
  0
LINE
  8
Layer0$C$L0
 62
     7
 10
-26.7021999007
 20
238.3930946301
 11
-26.9021999684
 21
238.1930945042
  0
LINE
  8
Layer0$C$L0
 62
     7
 10
-27.8021999457
 20
238.0002013008
 11
-26.7021999007
 21
239.1002017605
  0
LINE
  8
Layer0$C$L0
 62
     7
 10
-28.1021999381
 20
237.2759373459
 11
-27.8021999457
 21
238.0002013008
  0
LINE
  8
Layer0$C$L0
 62
     7
 10
-28.1021999482
 20
237.0930946279
 11
-28.1021999381
 21
237.2759373459
  0
LINE
  8
Layer0$C$L0
 62
     7
 10
-28.1021999381
 20
220.3930949393
 11
-28.1021999381
 21
224.7102519098
  0
LINE
  8
Layer0$C$L0
 62
     7
 10
-28.1021999381
 20
220.3930949393
 11
-28.0521999358
 21
220.3430950242
  0
LINE
  8
Layer0$C$L0
 62
     7
 10
-26.7021999007
 20
223.5930946256
 11
-26.7021999007
 21
222.8859874952
  0
LINE
  8
Layer0$C$L0
 62
     7
 10
-26.9021999684
 20
223.7930947515
 11
-26.7021999007
 21
223.5930946256
  0
LINE
  8
Layer0$C$L0
 62
     7
 10
-28.1021999482
 20
224.8930946279
 11
-28.0021999625
 21
224.8930947456
  0
LINE
  8
Layer0$C$L0
 62
     7
 10
-28.1021999381
 20
224.7102519098
 11
-28.1021999482
 21
224.8930946279
  0
LINE
  8
Layer0$C$L0
 62
     7
 10
-27.8021999457
 20
223.9859879549
 11
-28.1021999381
 21
224.7102519098
  0
LINE
  8
Layer0$C$L0
 62
     7
 10
-26.7021999007
 20
220.5930945995
 11
-26.7021999007
 21
222.8859874952
  0
LINE
  8
Layer0$C$L0
 62
     7
 10
-26.7021999007
 20
222.8859874952
 11
-27.8021999457
 21
223.9859879549
  0
LINE
  8
Layer0$C$L0
 62
     7
 10
-27.8021999457
 20
223.9859879549
 11
-27.8021999457
 21
220.5930945995
  0
LINE
  8
Layer0$C$L0
 62
     7
 10
-26.7021999007
 20
220.5930945995
 11
-26.7021999007
 21
220.0930945176
  0
LINE
  8
Layer0$C$L0
 62
     7
 10
-27.8021999457
 20
220.0930945176
 11
-28.0521999358
 21
220.3430950242
  0
LINE
  8
Layer0$C$L0
 62
     7
 10
-26.7021999007
 20
220.0930945176
 11
-27.8021999457
 21
220.0930945176
  0
LINE
  8
Layer0$C$L0
 62
     7
 10
-27.8021999457
 20
220.5930945995
 11
-26.7021999007
 21
220.5930945995
  0
LINE
  8
Layer0$C$L0
 62
     7
 10
-28.0521999358
 20
220.3430950242
 11
-27.8021999457
 21
220.5930945995
  0
LINE
  8
Layer0$C$L0
 62
     7
 10
-26.6021999482
 20
231.9930946279
 11
-26.6021999482
 21
229.9930946279
  0
ARC
  8
Layer0$C$L0
 62
     7
 10
-36.1021999482
 20
228.6714572746
 40
0.5000000000
 50
180.0000000000
 51
213.5573097619
  0
LINE
  8
Layer0$C$L0
 62
     7
 10
-36.6021999482
 20
228.6714572746
 11
-36.6021999482
 21
233.3147319811
  0
ARC
  8
Layer0$C$L0
 62
     7
 10
-36.1021999482
 20
233.3147319811
 40
0.5000000000
 50
146.4426902381
 51
180.0000000000
  0
CIRCLE
  8
Layer0$C$L0
 62
     7
 10
-32.6021999482
 20
230.9930946279
 40
2.3000000000
  0
LINE
  8
Layer0$C$L0
 62
     7
 10
-28.6021999482
 20
233.3147319811
 11
-28.6021999482
 21
228.6714572746
  0
ARC
  8
Layer0$C$L0
 62
     7
 10
-29.1021999482
 20
228.6714572746
 40
0.5000000000
 50
326.4426902381
 51
360.0000000000
  0
ARC
  8
Layer0$C$L0
 62
     7
 10
-29.1021999482
 20
233.3147319811
 40
0.5000000000
 50
0.0000000000
 51
33.5573097619
  0
ARC
  8
Layer0$C$L0
 62
     7
 10
-32.6021999482
 20
230.9930946279
 40
4.7000000000
 50
213.5573097619
 51
326.4426902381
  0
ARC
  8
Layer0$C$L0
 62
     7
 10
-32.6021999482
 20
230.9930946279
 40
4.7000000000
 50
33.5573097619
 51
146.4426902381
  0
CIRCLE
  8
Layer0$C$L0
 62
     7
 10
-32.6021999482
 20
230.9930946279
 40
2.0500000000
  0
LINE
  8
Layer0$C$L0
 62
     7
 10
-26.6021999482
 20
249.4930946279
 11
-26.7021999007
 21
249.4930948663
  0
LINE
  8
Layer0$C$L0
 62
     7
 10
-26.7021999007
 20
242.4930946502
 11
-26.6021999482
 21
242.4930946279
  0
LINE
  8
Layer0$C$L0
 62
     7
 10
-26.6021999482
 20
219.4930946279
 11
-26.7021999007
 21
219.4930946055
  0
LINE
  8
Layer0$C$L0
 62
     7
 10
-26.7021999007
 20
212.4930943894
 11
-26.6021999482
 21
212.4930946279
  0
LINE
  8
Layer0$C$L0
 62
     7
 10
-26.6021999482
 20
231.9930946279
 11
-26.7021999007
 21
231.9930946754
  0
LINE
  8
Layer0$C$L0
 62
     7
 10
-26.7021999007
 20
229.9930945804
 11
-26.6021999482
 21
229.9930946279
  0
POLYLINE
  8
Layer1$C$L1
 62
     7
 66
     1
 70
     4
  0
VERTEX
  8
Layer1$C$L1
 62
     7
 10
-69.2661695458
 20
178.9529411766
 70
    16
  0
VERTEX
  8
Layer1$C$L1
 62
     7
 10
-69.2661695458
 20
178.9529411766
 70
     8
  0
VERTEX
  8
Layer1$C$L1
 62
     7
 10
-69.4647816493
 20
178.7441728230
 70
     8
  0
VERTEX
  8
Layer1$C$L1
 62
     7
 10
-69.6595903703
 20
178.5157703521
 70
     8
  0
VERTEX
  8
Layer1$C$L1
 62
     7
 10
-69.8419813851
 20
178.2716605873
 70
     8
  0
VERTEX
  8
Layer1$C$L1
 62
     7
 10
-70.0033403703
 20
178.0157703521
 70
     8
  0
VERTEX
  8
Layer1$C$L1
 62
     7
 10
-70.1350530024
 20
177.7520264699
 70
     8
  0
VERTEX
  8
Layer1$C$L1
 62
     7
 10
-70.2285049580
 20
177.4843557643
 70
     8
  0
VERTEX
  8
Layer1$C$L1
 62
     7
 10
-70.2750819136
 20
177.2166850587
 70
     8
  0
VERTEX
  8
Layer1$C$L1
 62
     7
 10
-70.2661695458
 20
176.9529411766
 70
     8
  0
VERTEX
  8
Layer1$C$L1
 62
     7
 10
-70.1972602368
 20
176.6960692355
 70
     8
  0
VERTEX
  8
Layer1$C$L1
 62
     7
 10
-70.0802731927
 20
176.4450875296
 70
     8
  0
VERTEX
  8
Layer1$C$L1
 62
     7
 10
-69.9312343251
 20
176.1980326472
 70
     8
  0
VERTEX
  8
Layer1$C$L1
 62
     7
 10
-69.7661695458
 20
175.9529411766
 70
     8
  0
VERTEX
  8
Layer1$C$L1
 62
     7
 10
-69.6011047664
 20
175.7078497059
 70
     8
  0
VERTEX
  8
Layer1$C$L1
 62
     7
 10
-69.4520658988
 20
175.4607948235
 70
     8
  0
VERTEX
  8
Layer1$C$L1
 62
     7
 10
-69.3350788547
 20
175.2098131176
 70
     8
  0
VERTEX
  8
Layer1$C$L1
 62
     7
 10
-69.2661695458
 20
174.9529411766
 70
     8
  0
VERTEX
  8
Layer1$C$L1
 62
     7
 10
-69.2572571779
 20
174.6891972944
 70
     8
  0
VERTEX
  8
Layer1$C$L1
 62
     7
 10
-69.3038341335
 20
174.4215265888
 70
     8
  0
VERTEX
  8
Layer1$C$L1
 62
     7
 10
-69.3972860891
 20
174.1538558832
 70
     8
  0
VERTEX
  8
Layer1$C$L1
 62
     7
 10
-69.5289987212
 20
173.8901120011
 70
     8
  0
VERTEX
  8
Layer1$C$L1
 62
     7
 10
-69.6903577064
 20
173.6342217659
 70
     8
  0
VERTEX
  8
Layer1$C$L1
 62
     7
 10
-69.8727487212
 20
173.3901120011
 70
     8
  0
VERTEX
  8
Layer1$C$L1
 62
     7
 10
-70.0675574422
 20
173.1617095302
 70
     8
  0
VERTEX
  8
Layer1$C$L1
 62
     7
 10
-70.2661695458
 20
172.9529411766
 70
     8
  0
VERTEX
  8
Layer1$C$L1
 62
     7
 10
-70.2661695458
 20
176.9529411766
 70
    16
  0
VERTEX
  8
Layer1$C$L1
 62
     7
 10
-69.2661695458
 20
174.9529411766
 70
    16
  0
VERTEX
  8
Layer1$C$L1
 62
     7
 10
-70.2661695458
 20
172.9529411766
 70
    16
  0
SEQEND
  8
Layer1$C$L1
 62
     7
  0
POLYLINE
  8
Layer1$C$L1
 62
     7
 66
     1
 70
     4
  0
VERTEX
  8
Layer1$C$L1
 62
     7
 10
-68.2948783873
 20
178.9029411766
 70
    16
  0
VERTEX
  8
Layer1$C$L1
 62
     7
 10
-68.2948783873
 20
178.9029411766
 70
     8
  0
VERTEX
  8
Layer1$C$L1
 62
     7
 10
-68.4934904909
 20
178.6941728230
 70
     8
  0
VERTEX
  8
Layer1$C$L1
 62
     7
 10
-68.6882992118
 20
178.4657703521
 70
     8
  0
VERTEX
  8
Layer1$C$L1
 62
     7
 10
-68.8706902266
 20
178.2216605873
 70
     8
  0
VERTEX
  8
Layer1$C$L1
 62
     7
 10
-69.0320492118
 20
177.9657703521
 70
     8
  0
VERTEX
  8
Layer1$C$L1
 62
     7
 10
-69.1637618439
 20
177.7020264699
 70
     8
  0
VERTEX
  8
Layer1$C$L1
 62
     7
 10
-69.2572137995
 20
177.4343557643
 70
     8
  0
VERTEX
  8
Layer1$C$L1
 62
     7
 10
-69.3037907551
 20
177.1666850587
 70
     8
  0
VERTEX
  8
Layer1$C$L1
 62
     7
 10
-69.2948783873
 20
176.9029411766
 70
     8
  0
VERTEX
  8
Layer1$C$L1
 62
     7
 10
-69.2259690784
 20
176.6460692355
 70
     8
  0
VERTEX
  8
Layer1$C$L1
 62
     7
 10
-69.1089820342
 20
176.3950875296
 70
     8
  0
VERTEX
  8
Layer1$C$L1
 62
     7
 10
-68.9599431666
 20
176.1480326472
 70
     8
  0
VERTEX
  8
Layer1$C$L1
 62
     7
 10
-68.7948783873
 20
175.9029411766
 70
     8
  0
VERTEX
  8
Layer1$C$L1
 62
     7
 10
-68.6298136080
 20
175.6578497059
 70
     8
  0
VERTEX
  8
Layer1$C$L1
 62
     7
 10
-68.4807747404
 20
175.4107948235
 70
     8
  0
VERTEX
  8
Layer1$C$L1
 62
     7
 10
-68.3637876962
 20
175.1598131176
 70
     8
  0
VERTEX
  8
Layer1$C$L1
 62
     7
 10
-68.2948783873
 20
174.9029411766
 70
     8
  0
VERTEX
  8
Layer1$C$L1
 62
     7
 10
-68.2859660194
 20
174.6391972944
 70
     8
  0
VERTEX
  8
Layer1$C$L1
 62
     7
 10
-68.3325429750
 20
174.3715265888
 70
     8
  0
VERTEX
  8
Layer1$C$L1
 62
     7
 10
-68.4259949306
 20
174.1038558832
 70
     8
  0
VERTEX
  8
Layer1$C$L1
 62
     7
 10
-68.5577075628
 20
173.8401120011
 70
     8
  0
VERTEX
  8
Layer1$C$L1
 62
     7
 10
-68.7190665480
 20
173.5842217659
 70
     8
  0
VERTEX
  8
Layer1$C$L1
 62
     7
 10
-68.9014575628
 20
173.3401120011
 70
     8
  0
VERTEX
  8
Layer1$C$L1
 62
     7
 10
-69.0962662837
 20
173.1117095302
 70
     8
  0
VERTEX
  8
Layer1$C$L1
 62
     7
 10
-69.2948783873
 20
172.9029411766
 70
     8
  0
VERTEX
  8
Layer1$C$L1
 62
     7
 10
-69.2948783873
 20
176.9029411766
 70
    16
  0
VERTEX
  8
Layer1$C$L1
 62
     7
 10
-68.2948783873
 20
174.9029411766
 70
    16
  0
VERTEX
  8
Layer1$C$L1
 62
     7
 10
-69.2948783873
 20
172.9029411766
 70
    16
  0
SEQEND
  8
Layer1$C$L1
 62
     7
  0
LINE
  8
Layer1$C$L1
 62
     7
 10
-38.4820495355
 20
179.2029411766
 11
-38.4820495355
 21
178.0029411766
  0
LINE
  8
Layer1$C$L1
 62
     7
 10
-28.4820495355
 20
179.2029411766
 11
-28.4820495355
 21
178.0029411766
  0
LINE
  8
Layer1$C$L1
 62
     7
 10
-28.4820495355
 20
178.0029411766
 11
-38.4820495355
 21
178.0029411766
  0
LINE
  8
Layer1$C$L1
 62
     7
 10
-28.4820495355
 20
179.2029411766
 11
-38.4820495355
 21
179.2029411766
  0
LINE
  8
Layer1$C$L1
 62
     7
 10
-38.4820495355
 20
178.2629411766
 11
-38.4820495355
 21
178.9429411766
  0
LINE
  8
Layer1$C$L1
 62
     7
 10
-38.4820495355
 20
173.5429411766
 11
-38.4820495355
 21
172.8629411766
  0
LINE
  8
Layer1$C$L1
 62
     7
 10
-28.4820495355
 20
173.8029411766
 11
-38.4820495355
 21
173.8029411766
  0
LINE
  8
Layer1$C$L1
 62
     7
 10
-40.4820495355
 20
173.8029411766
 11
-40.4820495355
 21
172.6029411766
  0
LINE
  8
Layer1$C$L1
 62
     7
 10
-58.4546037226
 20
175.9029411766
 11
-52.4282696836
 21
175.9029411766
  0
LINE
  8
Layer1$C$L1
 62
     7
 10
-40.4820495355
 20
173.5429411766
 11
-38.4820495355
 21
173.5429411766
  0
LINE
  8
Layer1$C$L1
 62
     7
 10
-40.4820495355
 20
172.8629411766
 11
-38.4820495355
 21
172.8629411766
  0
LINE
  8
Layer1$C$L1
 62
     7
 10
-39.0051435462
 20
173.5429411766
 11
-38.6125453632
 21
172.8629411766
  0
LINE
  8
Layer1$C$L1
 62
     7
 10
-39.7551435462
 20
173.5429411766
 11
-39.3625453632
 21
172.8629411766
  0
LINE
  8
Layer1$C$L1
 62
     7
 10
-40.4820495355
 20
173.5029411766
 11
-40.1125453632
 21
172.8629411766
  0
LINE
  8
Layer1$C$L1
 62
     7
 10
-40.4820495355
 20
172.6029411766
 11
-44.3186601015
 21
172.6029411766
  0
LINE
  8
Layer1$C$L1
 62
     7
 10
-44.3186601015
 20
173.8029411766
 11
-40.4820495355
 21
173.8029411766
  0
ARC
  8
Layer1$C$L1
 62
     7
 10
-44.3186601015
 20
179.7029411766
 40
7.1000000000
 50
251.5650511771
 51
270.0000000000
  0
ARC
  8
Layer1$C$L1
 62
     7
 10
-44.3186601015
 20
179.7029411766
 40
5.9000000000
 50
251.5650511771
 51
270.0000000000
  0
LINE
  8
Layer1$C$L1
 62
     7
 10
-58.4546037226
 20
174.7029411766
 11
-52.4282696836
 21
174.7029411766
  0
ARC
  8
Layer1$C$L1
 62
     7
 10
-52.4282696836
 20
168.7029411766
 40
6.0000000000
 50
71.5650511771
 51
90.0000000000
  0
LINE
  8
Layer1$C$L1
 62
     7
 10
-46.5638772402
 20
172.9672897604
 11
-50.5309030875
 21
174.3950409649
  0
LINE
  8
Layer1$C$L1
 62
     7
 10
-46.1575091483
 20
174.0963889473
 11
-49.9906327325
 21
175.4759480994
  0
ARC
  8
Layer1$C$L1
 62
     7
 10
-52.4282696836
 20
168.7029411766
 40
7.2000000000
 50
70.2059581666
 51
90.0000000000
  0
ARC
  8
Layer1$C$L1
 62
     7
 10
-52.4282696836
 20
183.1029411766
 40
7.2000000000
 50
270.0000000000
 51
289.7940418334
  0
LINE
  8
Layer1$C$L1
 62
     7
 10
-46.1575091483
 20
177.7094934058
 11
-49.9906327325
 21
176.3299342538
  0
LINE
  8
Layer1$C$L1
 62
     7
 10
-46.5638772402
 20
178.8385925927
 11
-50.5309030875
 21
177.4108413883
  0
ARC
  8
Layer1$C$L1
 62
     7
 10
-52.4282696836
 20
183.1029411766
 40
6.0000000000
 50
270.0000000000
 51
288.4349488229
  0
LINE
  8
Layer1$C$L1
 62
     7
 10
-58.4546037226
 20
177.1029411766
 11
-52.4282696836
 21
177.1029411766
  0
ARC
  8
Layer1$C$L1
 62
     7
 10
-44.3186601015
 20
172.1029411766
 40
5.9000000000
 50
90.0000000000
 51
108.4349488229
  0
ARC
  8
Layer1$C$L1
 62
     7
 10
-44.3186601015
 20
172.1029411766
 40
7.1000000000
 50
90.0000000000
 51
108.4349488229
  0
LINE
  8
Layer1$C$L1
 62
     7
 10
-44.3186601015
 20
178.0029411766
 11
-40.4820495355
 21
178.0029411766
  0
LINE
  8
Layer1$C$L1
 62
     7
 10
-40.4820495355
 20
179.2029411766
 11
-44.3186601015
 21
179.2029411766
  0
LINE
  8
Layer1$C$L1
 62
     7
 10
-40.4820495355
 20
178.3029411766
 11
-40.1125453632
 21
178.9429411766
  0
LINE
  8
Layer1$C$L1
 62
     7
 10
-39.7551435462
 20
178.2629411766
 11
-39.3625453632
 21
178.9429411766
  0
LINE
  8
Layer1$C$L1
 62
     7
 10
-39.0051435462
 20
178.2629411766
 11
-38.6125453632
 21
178.9429411766
  0
LINE
  8
Layer1$C$L1
 62
     7
 10
-40.4820495355
 20
178.9429411766
 11
-38.4820495355
 21
178.9429411766
  0
LINE
  8
Layer1$C$L1
 62
     7
 10
-40.4820495355
 20
178.2629411766
 11
-38.4820495355
 21
178.2629411766
  0
LINE
  8
Layer1$C$L1
 62
     7
 10
-40.4820495355
 20
178.0029411766
 11
-40.4820495355
 21
179.2029411766
  0
LINE
  8
Layer1$C$L1
 62
     7
 10
-28.4820495355
 20
172.6029411766
 11
-38.4820495355
 21
172.6029411766
  0
LINE
  8
Layer1$C$L1
 62
     7
 10
-28.4820495355
 20
173.8029411766
 11
-28.4820495355
 21
172.6029411766
  0
LINE
  8
Layer1$C$L1
 62
     7
 10
-38.4820495355
 20
173.8029411766
 11
-38.4820495355
 21
172.6029411766
  0
LINE
  8
Layer1$C$L1
 62
     7
 10
-58.4546037226
 20
177.9529411766
 11
-69.0392959132
 21
177.9529411766
  0
LINE
  8
Layer1$C$L1
 62
     7
 10
-58.4546037226
 20
173.8529411766
 11
-68.5504608614
 21
173.8529411766
  0
LINE
  8
Layer1$C$L1
 62
     7
 10
-58.4546037226
 20
173.8529411766
 11
-58.4546037226
 21
177.9529411766
  0
POLYLINE
  8
Layer1$C$L1
 62
     7
 66
     1
 70
     4
  0
VERTEX
  8
Layer1$C$L1
 62
     7
 10
-70.2936153586
 20
233.9930946278
 70
    16
  0
VERTEX
  8
Layer1$C$L1
 62
     7
 10
-70.2936153586
 20
233.9930946278
 70
     8
  0
VERTEX
  8
Layer1$C$L1
 62
     7
 10
-70.4922274622
 20
233.7843262742
 70
     8
  0
VERTEX
  8
Layer1$C$L1
 62
     7
 10
-70.6870361831
 20
233.5559238033
 70
     8
  0
VERTEX
  8
Layer1$C$L1
 62
     7
 10
-70.8694271979
 20
233.3118140385
 70
     8
  0
VERTEX
  8
Layer1$C$L1
 62
     7
 10
-71.0307861831
 20
233.0559238033
 70
     8
  0
VERTEX
  8
Layer1$C$L1
 62
     7
 10
-71.1624988153
 20
232.7921799212
 70
     8
  0
VERTEX
  8
Layer1$C$L1
 62
     7
 10
-71.2559507709
 20
232.5245092156
 70
     8
  0
VERTEX
  8
Layer1$C$L1
 62
     7
 10
-71.3025277265
 20
232.2568385099
 70
     8
  0
VERTEX
  8
Layer1$C$L1
 62
     7
 10
-71.2936153586
 20
231.9930946278
 70
     8
  0
VERTEX
  8
Layer1$C$L1
 62
     7
 10
-71.2247060497
 20
231.7362226867
 70
     8
  0
VERTEX
  8
Layer1$C$L1
 62
     7
 10
-71.1077190055
 20
231.4852409809
 70
     8
  0
VERTEX
  8
Layer1$C$L1
 62
     7
 10
-70.9586801379
 20
231.2381860985
 70
     8
  0
VERTEX
  8
Layer1$C$L1
 62
     7
 10
-70.7936153586
 20
230.9930946278
 70
     8
  0
VERTEX
  8
Layer1$C$L1
 62
     7
 10
-70.6285505793
 20
230.7480031571
 70
     8
  0
VERTEX
  8
Layer1$C$L1
 62
     7
 10
-70.4795117117
 20
230.5009482747
 70
     8
  0
VERTEX
  8
Layer1$C$L1
 62
     7
 10
-70.3625246675
 20
230.2499665689
 70
     8
  0
VERTEX
  8
Layer1$C$L1
 62
     7
 10
-70.2936153586
 20
229.9930946278
 70
     8
  0
VERTEX
  8
Layer1$C$L1
 62
     7
 10
-70.2847029907
 20
229.7293507457
 70
     8
  0
VERTEX
  8
Layer1$C$L1
 62
     7
 10
-70.3312799463
 20
229.4616800401
 70
     8
  0
VERTEX
  8
Layer1$C$L1
 62
     7
 10
-70.4247319020
 20
229.1940093345
 70
     8
  0
VERTEX
  8
Layer1$C$L1
 62
     7
 10
-70.5564445341
 20
228.9302654523
 70
     8
  0
VERTEX
  8
Layer1$C$L1
 62
     7
 10
-70.7178035193
 20
228.6743752171
 70
     8
  0
VERTEX
  8
Layer1$C$L1
 62
     7
 10
-70.9001945341
 20
228.4302654523
 70
     8
  0
VERTEX
  8
Layer1$C$L1
 62
     7
 10
-71.0950032550
 20
228.2018629814
 70
     8
  0
VERTEX
  8
Layer1$C$L1
 62
     7
 10
-71.2936153586
 20
227.9930946278
 70
     8
  0
VERTEX
  8
Layer1$C$L1
 62
     7
 10
-71.2936153586
 20
231.9930946278
 70
    16
  0
VERTEX
  8
Layer1$C$L1
 62
     7
 10
-70.2936153586
 20
229.9930946278
 70
    16
  0
VERTEX
  8
Layer1$C$L1
 62
     7
 10
-71.2936153586
 20
227.9930946278
 70
    16
  0
SEQEND
  8
Layer1$C$L1
 62
     7
  0
POLYLINE
  8
Layer1$C$L1
 62
     7
 66
     1
 70
     4
  0
VERTEX
  8
Layer1$C$L1
 62
     7
 10
-70.2936153586
 20
114.9029411765
 70
    16
  0
VERTEX
  8
Layer1$C$L1
 62
     7
 10
-70.2936153586
 20
114.9029411765
 70
     8
  0
VERTEX
  8
Layer1$C$L1
 62
     7
 10
-70.4922274622
 20
114.6941728229
 70
     8
  0
VERTEX
  8
Layer1$C$L1
 62
     7
 10
-70.6870361831
 20
114.4657703520
 70
     8
  0
VERTEX
  8
Layer1$C$L1
 62
     7
 10
-70.8694271979
 20
114.2216605872
 70
     8
  0
VERTEX
  8
Layer1$C$L1
 62
     7
 10
-71.0307861831
 20
113.9657703520
 70
     8
  0
VERTEX
  8
Layer1$C$L1
 62
     7
 10
-71.1624988153
 20
113.7020264699
 70
     8
  0
VERTEX
  8
Layer1$C$L1
 62
     7
 10
-71.2559507709
 20
113.4343557643
 70
     8
  0
VERTEX
  8
Layer1$C$L1
 62
     7
 10
-71.3025277265
 20
113.1666850587
 70
     8
  0
VERTEX
  8
Layer1$C$L1
 62
     7
 10
-71.2936153586
 20
112.9029411765
 70
     8
  0
VERTEX
  8
Layer1$C$L1
 62
     7
 10
-71.2247060497
 20
112.6460692355
 70
     8
  0
VERTEX
  8
Layer1$C$L1
 62
     7
 10
-71.1077190055
 20
112.3950875296
 70
     8
  0
VERTEX
  8
Layer1$C$L1
 62
     7
 10
-70.9586801379
 20
112.1480326472
 70
     8
  0
VERTEX
  8
Layer1$C$L1
 62
     7
 10
-70.7936153586
 20
111.9029411765
 70
     8
  0
VERTEX
  8
Layer1$C$L1
 62
     7
 10
-70.6285505793
 20
111.6578497059
 70
     8
  0
VERTEX
  8
Layer1$C$L1
 62
     7
 10
-70.4795117117
 20
111.4107948235
 70
     8
  0
VERTEX
  8
Layer1$C$L1
 62
     7
 10
-70.3625246675
 20
111.1598131176
 70
     8
  0
VERTEX
  8
Layer1$C$L1
 62
     7
 10
-70.2936153586
 20
110.9029411765
 70
     8
  0
VERTEX
  8
Layer1$C$L1
 62
     7
 10
-70.2847029907
 20
110.6391972944
 70
     8
  0
VERTEX
  8
Layer1$C$L1
 62
     7
 10
-70.3312799463
 20
110.3715265888
 70
     8
  0
VERTEX
  8
Layer1$C$L1
 62
     7
 10
-70.4247319020
 20
110.1038558832
 70
     8
  0
VERTEX
  8
Layer1$C$L1
 62
     7
 10
-70.5564445341
 20
109.8401120010
 70
     8
  0
VERTEX
  8
Layer1$C$L1
 62
     7
 10
-70.7178035193
 20
109.5842217658
 70
     8
  0
VERTEX
  8
Layer1$C$L1
 62
     7
 10
-70.9001945341
 20
109.3401120010
 70
     8
  0
VERTEX
  8
Layer1$C$L1
 62
     7
 10
-71.0950032550
 20
109.1117095301
 70
     8
  0
VERTEX
  8
Layer1$C$L1
 62
     7
 10
-71.2936153586
 20
108.9029411765
 70
     8
  0
VERTEX
  8
Layer1$C$L1
 62
     7
 10
-71.2936153586
 20
112.9029411765
 70
    16
  0
VERTEX
  8
Layer1$C$L1
 62
     7
 10
-70.2936153586
 20
110.9029411765
 70
    16
  0
VERTEX
  8
Layer1$C$L1
 62
     7
 10
-71.2936153586
 20
108.9029411765
 70
    16
  0
SEQEND
  8
Layer1$C$L1
 62
     7
  0
TEXT
  8
Layer8$C$L8
 62
     7
 10
-130.8214492146
 20
33.4491591456
 40
2.5000000000
  1
庢晅寠壛岺恾
 41
0.5306163972
 72
     5
 11
-116.2294982929
 21
33.4491591456
  0
LINE
  8
Layer1$C$L1
 62
     7
 10
-131.9748147072
 20
32.6991591456
 11
-115.4516251685
 21
32.6991591456
  0
LINE
  8
Layer1$C$L1
 62
     7
 10
-58.4546037226
 20
144.8529411765
 11
-68.5230150486
 21
144.8529411765
  0
LINE
  8
Layer1$C$L1
 62
     7
 10
-58.4546037226
 20
148.9529411765
 11
-69.0105870717
 21
148.9529411765
  0
LINE
  8
Layer0$C$L0
 62
     7
 10
-79.3661695457
 20
144.8529411765
 11
-69.5217520199
 21
144.8529411765
  0
LINE
  8
Layer0$C$L0
 62
     7
 10
-70.0105870717
 20
148.9529411765
 11
-79.3661695457
 21
148.9529411765
  0
LINE
  8
Layer1$C$L1
 62
     7
 10
-58.4546037226
 20
144.8529411766
 11
-58.4546037226
 21
148.9529411765
  0
POLYLINE
  8
Layer1$C$L1
 62
     7
 66
     1
 70
     4
  0
VERTEX
  8
Layer1$C$L1
 62
     7
 10
-68.2948783873
 20
149.8529411766
 70
    16
  0
VERTEX
  8
Layer1$C$L1
 62
     7
 10
-68.2948783873
 20
149.8529411766
 70
     8
  0
VERTEX
  8
Layer1$C$L1
 62
     7
 10
-68.4934904909
 20
149.6441728230
 70
     8
  0
VERTEX
  8
Layer1$C$L1
 62
     7
 10
-68.6882992118
 20
149.4157703521
 70
     8
  0
VERTEX
  8
Layer1$C$L1
 62
     7
 10
-68.8706902266
 20
149.1716605873
 70
     8
  0
VERTEX
  8
Layer1$C$L1
 62
     7
 10
-69.0320492118
 20
148.9157703521
 70
     8
  0
VERTEX
  8
Layer1$C$L1
 62
     7
 10
-69.1637618439
 20
148.6520264699
 70
     8
  0
VERTEX
  8
Layer1$C$L1
 62
     7
 10
-69.2572137995
 20
148.3843557643
 70
     8
  0
VERTEX
  8
Layer1$C$L1
 62
     7
 10
-69.3037907551
 20
148.1166850587
 70
     8
  0
VERTEX
  8
Layer1$C$L1
 62
     7
 10
-69.2948783873
 20
147.8529411766
 70
     8
  0
VERTEX
  8
Layer1$C$L1
 62
     7
 10
-69.2259690784
 20
147.5960692355
 70
     8
  0
VERTEX
  8
Layer1$C$L1
 62
     7
 10
-69.1089820342
 20
147.3450875296
 70
     8
  0
VERTEX
  8
Layer1$C$L1
 62
     7
 10
-68.9599431666
 20
147.0980326472
 70
     8
  0
VERTEX
  8
Layer1$C$L1
 62
     7
 10
-68.7948783873
 20
146.8529411766
 70
     8
  0
VERTEX
  8
Layer1$C$L1
 62
     7
 10
-68.6298136080
 20
146.6078497059
 70
     8
  0
VERTEX
  8
Layer1$C$L1
 62
     7
 10
-68.4807747404
 20
146.3607948235
 70
     8
  0
VERTEX
  8
Layer1$C$L1
 62
     7
 10
-68.3637876962
 20
146.1098131176
 70
     8
  0
VERTEX
  8
Layer1$C$L1
 62
     7
 10
-68.2948783873
 20
145.8529411766
 70
     8
  0
VERTEX
  8
Layer1$C$L1
 62
     7
 10
-68.2859660194
 20
145.5891972944
 70
     8
  0
VERTEX
  8
Layer1$C$L1
 62
     7
 10
-68.3325429750
 20
145.3215265888
 70
     8
  0
VERTEX
  8
Layer1$C$L1
 62
     7
 10
-68.4259949306
 20
145.0538558832
 70
     8
  0
VERTEX
  8
Layer1$C$L1
 62
     7
 10
-68.5577075628
 20
144.7901120011
 70
     8
  0
VERTEX
  8
Layer1$C$L1
 62
     7
 10
-68.7190665480
 20
144.5342217659
 70
     8
  0
VERTEX
  8
Layer1$C$L1
 62
     7
 10
-68.9014575628
 20
144.2901120011
 70
     8
  0
VERTEX
  8
Layer1$C$L1
 62
     7
 10
-69.0962662837
 20
144.0617095302
 70
     8
  0
VERTEX
  8
Layer1$C$L1
 62
     7
 10
-69.2948783873
 20
143.8529411766
 70
     8
  0
VERTEX
  8
Layer1$C$L1
 62
     7
 10
-69.2948783873
 20
147.8529411766
 70
    16
  0
VERTEX
  8
Layer1$C$L1
 62
     7
 10
-68.2948783873
 20
145.8529411766
 70
    16
  0
VERTEX
  8
Layer1$C$L1
 62
     7
 10
-69.2948783873
 20
143.8529411766
 70
    16
  0
SEQEND
  8
Layer1$C$L1
 62
     7
  0
POLYLINE
  8
Layer1$C$L1
 62
     7
 66
     1
 70
     4
  0
VERTEX
  8
Layer1$C$L1
 62
     7
 10
-69.2661695458
 20
149.9029411766
 70
    16
  0
VERTEX
  8
Layer1$C$L1
 62
     7
 10
-69.2661695458
 20
149.9029411766
 70
     8
  0
VERTEX
  8
Layer1$C$L1
 62
     7
 10
-69.4647816493
 20
149.6941728230
 70
     8
  0
VERTEX
  8
Layer1$C$L1
 62
     7
 10
-69.6595903703
 20
149.4657703521
 70
     8
  0
VERTEX
  8
Layer1$C$L1
 62
     7
 10
-69.8419813851
 20
149.2216605873
 70
     8
  0
VERTEX
  8
Layer1$C$L1
 62
     7
 10
-70.0033403703
 20
148.9657703521
 70
     8
  0
VERTEX
  8
Layer1$C$L1
 62
     7
 10
-70.1350530024
 20
148.7020264699
 70
     8
  0
VERTEX
  8
Layer1$C$L1
 62
     7
 10
-70.2285049580
 20
148.4343557643
 70
     8
  0
VERTEX
  8
Layer1$C$L1
 62
     7
 10
-70.2750819136
 20
148.1666850587
 70
     8
  0
VERTEX
  8
Layer1$C$L1
 62
     7
 10
-70.2661695458
 20
147.9029411766
 70
     8
  0
VERTEX
  8
Layer1$C$L1
 62
     7
 10
-70.1972602368
 20
147.6460692355
 70
     8
  0
VERTEX
  8
Layer1$C$L1
 62
     7
 10
-70.0802731927
 20
147.3950875296
 70
     8
  0
VERTEX
  8
Layer1$C$L1
 62
     7
 10
-69.9312343251
 20
147.1480326472
 70
     8
  0
VERTEX
  8
Layer1$C$L1
 62
     7
 10
-69.7661695458
 20
146.9029411766
 70
     8
  0
VERTEX
  8
Layer1$C$L1
 62
     7
 10
-69.6011047664
 20
146.6578497059
 70
     8
  0
VERTEX
  8
Layer1$C$L1
 62
     7
 10
-69.4520658988
 20
146.4107948235
 70
     8
  0
VERTEX
  8
Layer1$C$L1
 62
     7
 10
-69.3350788547
 20
146.1598131176
 70
     8
  0
VERTEX
  8
Layer1$C$L1
 62
     7
 10
-69.2661695458
 20
145.9029411766
 70
     8
  0
VERTEX
  8
Layer1$C$L1
 62
     7
 10
-69.2572571779
 20
145.6391972944
 70
     8
  0
VERTEX
  8
Layer1$C$L1
 62
     7
 10
-69.3038341335
 20
145.3715265888
 70
     8
  0
VERTEX
  8
Layer1$C$L1
 62
     7
 10
-69.3972860891
 20
145.1038558832
 70
     8
  0
VERTEX
  8
Layer1$C$L1
 62
     7
 10
-69.5289987212
 20
144.8401120011
 70
     8
  0
VERTEX
  8
Layer1$C$L1
 62
     7
 10
-69.6903577064
 20
144.5842217659
 70
     8
  0
VERTEX
  8
Layer1$C$L1
 62
     7
 10
-69.8727487212
 20
144.3401120011
 70
     8
  0
VERTEX
  8
Layer1$C$L1
 62
     7
 10
-70.0675574422
 20
144.1117095302
 70
     8
  0
VERTEX
  8
Layer1$C$L1
 62
     7
 10
-70.2661695458
 20
143.9029411766
 70
     8
  0
VERTEX
  8
Layer1$C$L1
 62
     7
 10
-70.2661695458
 20
147.9029411766
 70
    16
  0
VERTEX
  8
Layer1$C$L1
 62
     7
 10
-69.2661695458
 20
145.9029411766
 70
    16
  0
VERTEX
  8
Layer1$C$L1
 62
     7
 10
-70.2661695458
 20
143.9029411766
 70
    16
  0
SEQEND
  8
Layer1$C$L1
 62
     7
  0
LINE
  8
Layer1$C$L1
 62
     7
 10
-38.4820495355
 20
142.8029411766
 11
-38.4820495355
 21
141.6029411766
  0
LINE
  8
Layer1$C$L1
 62
     7
 10
-28.4820495355
 20
142.8029411766
 11
-28.4820495355
 21
141.6029411766
  0
LINE
  8
Layer1$C$L1
 62
     7
 10
-28.4820495355
 20
141.6029411766
 11
-38.4820495355
 21
141.6029411766
  0
LINE
  8
Layer1$C$L1
 62
     7
 10
-40.4820495355
 20
151.0029411766
 11
-40.4820495355
 21
152.2029411766
  0
LINE
  8
Layer1$C$L1
 62
     7
 10
-40.4820495355
 20
151.2629411766
 11
-38.4820495355
 21
151.2629411766
  0
LINE
  8
Layer1$C$L1
 62
     7
 10
-40.4820495355
 20
151.9429411766
 11
-38.4820495355
 21
151.9429411766
  0
LINE
  8
Layer1$C$L1
 62
     7
 10
-39.0051435462
 20
151.2629411766
 11
-38.6125453632
 21
151.9429411766
  0
LINE
  8
Layer1$C$L1
 62
     7
 10
-39.7551435462
 20
151.2629411766
 11
-39.3625453632
 21
151.9429411766
  0
LINE
  8
Layer1$C$L1
 62
     7
 10
-40.4820495355
 20
151.3029411766
 11
-40.1125453632
 21
151.9429411766
  0
LINE
  8
Layer1$C$L1
 62
     7
 10
-40.4820495355
 20
152.2029411766
 11
-43.9619317907
 21
152.2029411766
  0
LINE
  8
Layer1$C$L1
 62
     7
 10
-43.9619317907
 20
151.0029411766
 11
-40.4820495355
 21
151.0029411766
  0
LINE
  8
Layer1$C$L1
 62
     7
 10
-58.4546037226
 20
148.1029411766
 11
-56.8398896201
 21
148.1029411766
  0
LINE
  8
Layer1$C$L1
 62
     7
 10
-58.4546037226
 20
145.7029411766
 11
-56.8398896201
 21
145.7029411766
  0
LINE
  8
Layer1$C$L1
 62
     7
 10
-43.9619317907
 20
142.8029411766
 11
-40.4820495355
 21
142.8029411766
  0
LINE
  8
Layer1$C$L1
 62
     7
 10
-40.4820495355
 20
141.6029411766
 11
-43.9619317907
 21
141.6029411766
  0
LINE
  8
Layer1$C$L1
 62
     7
 10
-40.4820495355
 20
142.5029411766
 11
-40.1125453632
 21
141.8629411766
  0
LINE
  8
Layer1$C$L1
 62
     7
 10
-39.7551435462
 20
142.5429411766
 11
-39.3625453632
 21
141.8629411766
  0
LINE
  8
Layer1$C$L1
 62
     7
 10
-39.0051435462
 20
142.5429411766
 11
-38.6125453632
 21
141.8629411766
  0
LINE
  8
Layer1$C$L1
 62
     7
 10
-40.4820495355
 20
141.8629411766
 11
-38.4820495355
 21
141.8629411766
  0
LINE
  8
Layer1$C$L1
 62
     7
 10
-40.4820495355
 20
142.5429411766
 11
-38.4820495355
 21
142.5429411766
  0
LINE
  8
Layer1$C$L1
 62
     7
 10
-58.4546037226
 20
146.9029411766
 11
-56.8398896201
 21
146.9029411766
  0
LINE
  8
Layer1$C$L1
 62
     7
 10
-40.4820495355
 20
142.8029411766
 11
-40.4820495355
 21
141.6029411766
  0
LINE
  8
Layer1$C$L1
 62
     7
 10
-28.4820495355
 20
142.8029411766
 11
-38.4820495355
 21
142.8029411766
  0
LINE
  8
Layer1$C$L1
 62
     7
 10
-38.4820495355
 20
142.5429411766
 11
-38.4820495355
 21
141.8629411766
  0
LINE
  8
Layer1$C$L1
 62
     7
 10
-38.4820495355
 20
151.2629411766
 11
-38.4820495355
 21
151.9429411766
  0
LINE
  8
Layer1$C$L1
 62
     7
 10
-28.4820495355
 20
152.2029411766
 11
-38.4820495355
 21
152.2029411766
  0
LINE
  8
Layer1$C$L1
 62
     7
 10
-28.4820495355
 20
151.0029411766
 11
-38.4820495355
 21
151.0029411766
  0
LINE
  8
Layer1$C$L1
 62
     7
 10
-28.4820495355
 20
152.2029411766
 11
-28.4820495355
 21
151.0029411766
  0
LINE
  8
Layer1$C$L1
 62
     7
 10
-38.4820495355
 20
152.2029411766
 11
-38.4820495355
 21
151.0029411766
  0
LINE
  8
Layer1$C$L1
 62
     7
 10
-56.8685490062
 20
146.9029411766
 11
-56.8398896201
 21
146.9029411766
  0
LINE
  8
Layer1$C$L1
 62
     7
 10
-38.4820495355
 20
147.2429411766
 11
-38.4820495355
 21
146.5629411766
  0
LINE
  8
Layer1$C$L1
 62
     7
 10
-28.4820495355
 20
147.5029411766
 11
-38.4820495355
 21
147.5029411766
  0
LINE
  8
Layer1$C$L1
 62
     7
 10
-40.4820495355
 20
147.5029411766
 11
-40.4820495355
 21
146.3029411766
  0
LINE
  8
Layer1$C$L1
 62
     7
 10
-40.4820495355
 20
147.2429411766
 11
-38.4820495355
 21
147.2429411766
  0
LINE
  8
Layer1$C$L1
 62
     7
 10
-40.4820495355
 20
146.5629411766
 11
-38.4820495355
 21
146.5629411766
  0
LINE
  8
Layer1$C$L1
 62
     7
 10
-39.0051435462
 20
147.2429411766
 11
-38.6125453632
 21
146.5629411766
  0
LINE
  8
Layer1$C$L1
 62
     7
 10
-39.7551435462
 20
147.2429411766
 11
-39.3625453632
 21
146.5629411766
  0
LINE
  8
Layer1$C$L1
 62
     7
 10
-40.4820495355
 20
147.2029411766
 11
-40.1125453632
 21
146.5629411766
  0
LINE
  8
Layer1$C$L1
 62
     7
 10
-40.4820495355
 20
146.3029411766
 11
-53.2232613561
 21
146.3029411766
  0
LINE
  8
Layer1$C$L1
 62
     7
 10
-53.2232613561
 20
147.5029411766
 11
-40.4820495355
 21
147.5029411766
  0
LINE
  8
Layer1$C$L1
 62
     7
 10
-28.4820495355
 20
146.3029411766
 11
-38.4820495355
 21
146.3029411766
  0
LINE
  8
Layer1$C$L1
 62
     7
 10
-28.4820495355
 20
147.5029411766
 11
-28.4820495355
 21
146.3029411766
  0
LINE
  8
Layer1$C$L1
 62
     7
 10
-38.4820495355
 20
147.5029411766
 11
-38.4820495355
 21
146.3029411766
  0
LINE
  8
Layer1$C$L1
 62
     7
 10
-52.3280095513
 20
144.6272304057
 11
-48.4738118595
 21
142.6786519474
  0
LINE
  8
Layer1$C$L1
 62
     7
 10
-52.3280095513
 20
149.1786519474
 11
-48.4738118595
 21
151.1272304057
  0
LINE
  8
Layer1$C$L1
 62
     7
 10
-51.7865839431
 20
148.1077372400
 11
-47.9323862512
 21
150.0563156982
  0
LINE
  8
Layer1$C$L1
 62
     7
 10
-51.7865839431
 20
145.6981451132
 11
-47.9323862512
 21
143.7495666549
  0
ARC
  8
Layer1$C$L1
 62
     7
 10
-56.8398896201
 20
135.7029411766
 40
10.0000000000
 50
63.1800691819
 51
90.0000000000
  0
ARC
  8
Layer1$C$L1
 62
     7
 10
-43.9619317907
 20
151.6029411766
 40
10.0000000000
 50
243.1800691819
 51
270.0000000000
  0
ARC
  8
Layer1$C$L1
 62
     7
 10
-56.8398896201
 20
158.1029411766
 40
10.0000000000
 50
270.0000000000
 51
296.8199308181
  0
ARC
  8
Layer1$C$L1
 62
     7
 10
-43.9619317907
 20
142.2029411766
 40
10.0000000000
 50
90.0000000000
 51
116.8199308181
  0
ARC
  8
Layer1$C$L1
 62
     7
 10
-43.9619317907
 20
142.2029411766
 40
8.8000000000
 50
90.0000000000
 51
116.8199308181
  0
ARC
  8
Layer1$C$L1
 62
     7
 10
-43.9619317907
 20
151.6029411766
 40
8.8000000000
 50
243.1800691819
 51
270.0000000000
  0
ARC
  8
Layer1$C$L1
 62
     7
 10
-56.8398896201
 20
135.7029411766
 40
11.2000000000
 50
63.1800691819
 51
90.0000000000
  0
ARC
  8
Layer1$C$L1
 62
     7
 10
-56.8398896201
 20
158.1029411766
 40
11.2000000000
 50
270.0000000000
 51
296.8199308181
  0
INSERT
  8
Layer6$C$L6
 62
     7
  2
*X0
 10
0.000000
 20
0.000000
  0
INSERT
  8
Layer6$C$L6
 62
     7
  2
*X1
 10
0.000000
 20
0.000000
  0
INSERT
  8
Layer6$C$L6
 62
     7
  2
*X2
 10
0.000000
 20
0.000000
  0
ENDSEC
  0
EOF
