  0
SECTION
  2
HEADER
  9
$ACADVER
  1
AC1004
  9
$ANGBASE
 50
0.0000000000
  9
$ANGDIR
 70
     0
  9
$ATTDIA
 70
     0
  9
$ATTMODE
 70
     1
  9
$ATTREQ
 70
     1
  9
$AUNITS
 70
     0
  9
$AUPREC
 70
     0
  9
$AXISMODE
 70
     0
  9
$AXISUNIT
 10
0.0000000000
 20
0.0000000000
  9
$BLIPMODE
 70
     1
  9
$CECOLOR
 62
   256
  9
$CELTYPE
  6
BYLAYER
  9
$CHAMFERA
 40
0.0000000000
  9
$CHAMFERB
 40
0.0000000000
  9
$CLAYER
  8
0
  9
$COORDS
 70
     0
  9
$DIMALT
 70
     0
  9
$DIMALTD
 70
     2
  9
$DIMALTF
 40
25.4000000000
  9
$DIMAPOST
  1

  9
$DIMASO
 70
     1
  9
$DIMASZ
 40
1.9727878460
  9
$DIMBLK
  1

  9
$DIMBLK1
  1

  9
$DIMBLK2
  1

  9
$DIMCEN
 40
9.0000000000E-02
  9
$DIMDLE
 40
0.0000000000
  9
$DIMDLI
 40
0.3800000000
  9
$DIMEXE
 40
3.8099999428
  9
$DIMEXO
 40
2.5399999619
  9
$DIMLFAC
 40
1.0000000000
  9
$DIMLIM
 70
     0
  9
$DIMPOST
  1

  9
$DIMRND
 40
0.0000000000
  9
$DIMSCALE
 40
1.0000000000
  9
$DIMSE1
 70
     0
  9
$DIMSE2
 70
     0
  9
$DIMSHO
 70
     0
  9
$DIMTAD
 70
     0
  9
$DIMTIH
 70
     0
  9
$DIMTM
 40
0.0000000000
  9
$DIMTOH
 70
     1
  9
$DIMTOL
 70
     0
  9
$DIMTP
 40
0.0000000000
  9
$DIMTSZ
 40
0.0000000000
  9
$DIMTXT
 40
2.9999940395
  9
$DIMZIN
 70
     0
  9
$DRAGMODE
 70
     1
  9
$ELEVATION
 40
0.0000000000
  9
$EXTMAX
 10
3.1750000000
 20
292.8249938965
 30
0.0000000000
  9
$EXTMIN
 10
-207.3249938965
 20
-3.1750000000
 30
0.0000000000
  9
$FASTZOOM
 70
     1
  9
$FILLETRAD
 40
6.2500000000E-02
  9
$FILLMODE
 70
     1
  9
$GRIDMODE
 70
     0
  9
$GRIDUNIT
 10
0.0000000000
 20
0.0000000000
  9
$INSBASE
 10
0.0000000000
 20
0.0000000000
 30
0.0000000000
  9
$LIMCHECK
 70
     0
  9
$LIMMAX
 10
3.1750000000
 20
292.8249938965
  9
$LIMMIN
 10
-207.3249938965
 20
-3.1750000000
  9
$LTSCALE
 40
1.0000000000
  9
$LUNITS
 70
     2
  9
$LUPREC
 70
     3
  9
$MEASUREMENT
 70
     0
  9
$MENU
  1
ACAD
  9
$MIRRTEXT
 70
     0
  9
$ORTHOMODE
 70
     0
  9
$OSMODE
 70
     0
  9
$PDMODE
 70
     0
  9
$PDSIZE
 40
0.0000000000
  9
$PLINEWID
 40
0.0000000000
  9
$PROXYGRAPHICS
 70
     0
  9
$QTEXTMODE
 70
     0
  9
$REGENMODE
 70
     1
  9
$SKETCHINC
 40
0.1000000000
  9
$SKPOLY
 70
     0
  9
$SNAPANG
 50
0.0000000000
  9
$SNAPBASE
 10
0.0000000000
 20
0.0000000000
  9
$SNAPISOPAIR
 70
     0
  9
$SNAPMODE
 70
     0
  9
$SNAPSTYLE
 70
     0
  9
$SNAPUNIT
 10
1.0000000000
 20
1.0000000000
  9
$SPLFRAME
 70
     0
  9
$SPLINESEGS
 70
     8
  9
$TDCREATE
 40
2454656.6497453752
  9
$TDINDWG
 40
0.0000000000
  9
$TDUPDATE
 40
2454656.6497453752
  9
$TDUSRTIMER
 40
0.0000000000
  9
$TEXTSIZE
 40
2.9999940395
  9
$TEXTSTYLE
  7
STANDARD
  9
$THICKNESS
 40
0.0000000000
  9
$TRACEWID
 40
5.0000000000E-02
  9
$USERI1
 70
     0
  9
$USERI2
 70
     0
  9
$USERI3
 70
     0
  9
$USERI4
 70
     0
  9
$USERI5
 70
     0
  9
$USERR1
 40
0.0000000000
  9
$USERR2
 40
0.0000000000
  9
$USERR3
 40
0.0000000000
  9
$USERR4
 40
0.0000000000
  9
$USERR5
 40
0.0000000000
  9
$USRTIMER
 70
     1
  9
$VIEWCTR
 10
-102.0749969482
 20
144.8249969482
  9
$VIEWDIR
 10
0.0000000000
 20
0.0000000000
 30
1.0000000000
  9
$VIEWSIZE
 40
295.9999938965
  0
ENDSEC
  0
SECTION
  2
TABLES
  0
TABLE
  2
LTYPE
 70
     5
  0
LTYPE
  2
SOLID
  3
Solid
 70
    64
 72
    65
 73
     0
 40
0.0000000000
  0
LTYPE
  2
CENTERLINE
  3
Centerline
 70
    64
 72
    65
 73
     4
 40
25.4000000000
 49
19.0500000000
 49
-1.5875000000
 49
3.1750000000
 49
-1.5875000000
  0
LTYPE
  2
DASH
  3
Dash
 70
    64
 72
    65
 73
     2
 40
2.0000000000
 49
1.0000000000
 49
-1.0000000000
  0
LTYPE
  2
CENTER
  3
Center
 70
    64
 72
    65
 73
     4
 40
9.1000000238
 49
6.5000000000
 49
-0.8000000119
 49
1.0000000000
 49
-0.8000000119
  0
LTYPE
  2
PHANTOM
  3
Phantom
 70
    64
 72
    65
 73
     6
 40
9.5000001192
 49
4.8000001907
 49
-0.8999999762
 49
1.0000000000
 49
-0.8999999762
 49
1.0000000000
 49
-0.8999999762
  0
ENDTAB
  0
TABLE
  2
LAYER
 70
     5
  0
LAYER
  2
Layer0$C$L0
 70
     0
  6
SOLID
 62
     3
  0
LAYER
  2
Layer1$C$L1
 70
     0
  6
SOLID
 62
     3
  0
LAYER
  2
Layer3$C$L3
 70
     0
  6
SOLID
 62
     3
  0
LAYER
  2
Layer6$C$L6
 70
     0
  6
SOLID
 62
    31
  0
LAYER
  2
Layer8$C$L8
 70
     0
  6
SOLID
 62
     7
  0
ENDTAB
  0
TABLE
  2
STYLE
 70
     1
  0
STYLE
  2
STANDARD
  3
txt
  4

 40
0.0000000000
 41
1.0000000000
 42
3.0000000000
 50
0.0000000000
 70
     0
 71
     0
  0
ENDTAB
  0
ENDSEC
  0
SECTION
  2
BLOCKS
  0
ENDSEC
  0
SECTION
  2
ENTITIES
  0
TEXT
  8
Layer8$C$L8
 10
-63.8848241394
 20
18.3872464492
 40
2.9999941014
  1
MA4-S00744B
 41
0.8524508279
 72
     5
 11
-38.3113495837
 21
18.3872464492
  0
TEXT
  8
Layer8$C$L8
 10
-63.4894515023
 20
34.9928972049
 40
2.9999941014
  1
LH1D-D2HQ4C##
 41
0.8418761343
 72
     5
 11
-33.1819702571
 21
34.9928972049
  0
CIRCLE
  8
Layer1$C$L1
 62
     3
 10
-118.1883573235
 20
47.5392550571
 40
1.7500000000
  0
CIRCLE
  8
Layer1$C$L1
 62
     3
 10
-118.1883573235
 20
77.5392550571
 40
1.7500000000
  0
LINE
  8
Layer1$C$L1
  6
CENTER
 62
     3
 10
-163.1883573235
 20
62.5392550571
 11
-110.1883573235
 21
62.5392550571
  0
LINE
  8
Layer1$C$L1
  6
CENTER
 62
     3
 10
-163.1883573235
 20
115.0823529412
 11
-88.5234188343
 21
115.0823529412
  0
LINE
  8
Layer0$C$L0
 62
     3
 10
-107.1883573235
 20
113.0323529412
 11
-91.2445929006
 21
113.0323529412
  0
LINE
  8
Layer0$C$L0
 62
     3
 10
-91.7330388104
 20
117.1323529412
 11
-107.1883573235
 21
117.1323529412
  0
LINE
  8
Layer1$C$L1
  6
CENTER
 62
     3
 10
-120.6883573235
 20
47.5392550571
 11
-115.6883573235
 21
47.5392550571
  0
LINE
  8
Layer1$C$L1
  6
CENTER
 62
     3
 10
-118.1883573235
 20
45.0392550571
 11
-118.1883573235
 21
50.0392550571
  0
LINE
  8
Layer1$C$L1
  6
CENTER
 62
     3
 10
-120.6883573235
 20
77.5392550571
 11
-115.6883573235
 21
77.5392550571
  0
LINE
  8
Layer1$C$L1
  6
CENTER
 62
     3
 10
-118.1883573235
 20
75.0392550571
 11
-118.1883573235
 21
80.0392550571
  0
LINE
  8
Layer1$C$L1
  6
CENTER
 62
     3
 10
-122.6883573235
 20
130.0823529412
 11
-113.6883573235
 21
130.0823529412
  0
LINE
  8
Layer1$C$L1
  6
CENTER
 62
     3
 10
-118.1883573235
 20
125.5823529412
 11
-118.1883573235
 21
134.5823529412
  0
LINE
  8
Layer1$C$L1
  6
CENTER
 62
     3
 10
-118.1883573235
 20
95.5823529412
 11
-118.1883573235
 21
104.5823529412
  0
LINE
  8
Layer1$C$L1
  6
CENTER
 62
     3
 10
-122.6883573235
 20
100.0823529412
 11
-113.6883573235
 21
100.0823529412
  0
LINE
  8
Layer0$C$L0
 62
     3
 10
-107.1883573235
 20
119.2823529412
 11
-107.1883573235
 21
117.4039902944
  0
LINE
  8
Layer0$C$L0
 62
     3
 10
-107.1883573235
 20
112.7607155880
 11
-107.1883573235
 21
110.8823529412
  0
LINE
  8
Layer0$C$L0
 62
     3
 10
-107.1883573235
 20
117.4039902944
 11
-107.6883573235
 21
117.4039902944
  0
LINE
  8
Layer0$C$L0
 62
     3
 10
-107.1883573235
 20
117.4039902944
 11
-107.1883573235
 21
112.7607155880
  0
LINE
  8
Layer0$C$L0
 62
     3
 10
-107.6883573235
 20
117.4039902944
 11
-110.1883573235
 21
117.4039904096
  0
LINE
  8
Layer0$C$L0
 62
     3
 10
-107.1883573235
 20
112.7607155880
 11
-107.6883573235
 21
112.7607155880
  0
LINE
  8
Layer0$C$L0
 62
     3
 10
-110.1883573235
 20
112.7607154728
 11
-107.6883573235
 21
112.7607155880
  0
LINE
  8
Layer0$C$L0
 62
     3
 10
-136.6883570105
 20
95.0823533882
 11
-117.6883571558
 21
95.0823533882
  0
LINE
  8
Layer0$C$L0
 62
     3
 10
-138.6883573384
 20
95.0823533882
 11
-136.6883570105
 21
95.0823533882
  0
LINE
  8
Layer0$C$L0
 62
     3
 10
-136.6883570105
 20
95.1823532184
 11
-136.6883570105
 21
95.0823533882
  0
LINE
  8
Layer0$C$L0
 62
     3
 10
-137.3883576841
 20
130.0823526059
 11
-137.3883576841
 21
133.0823521663
  0
LINE
  8
Layer0$C$L0
 62
     3
 10
-142.9883574844
 20
133.0823521663
 11
-142.9883574844
 21
130.0823526059
  0
LINE
  8
Layer0$C$L0
 62
     3
 10
-110.1883573235
 20
120.0823529412
 11
-110.1883573235
 21
110.0823529412
  0
LINE
  8
Layer0$C$L0
 62
     3
 10
-110.4883573235
 20
109.7823529412
 11
-110.4883573235
 21
120.3823529412
  0
LINE
  8
Layer0$C$L0
 62
     3
 10
-140.1883573235
 20
135.0823529412
 11
-114.9831733443
 21
135.0823524942
  0
LINE
  8
Layer0$C$L0
 62
     3
 10
-114.9831733443
 20
135.0823524942
 11
-114.8189509065
 21
134.5823533435
  0
LINE
  8
Layer0$C$L0
 62
     3
 10
-114.9831733443
 20
135.0823524942
 11
-114.3141871095
 21
134.5878853996
  0
LINE
  8
Layer0$C$L0
 62
     3
 10
-114.3141871095
 20
134.5878853996
 11
-113.1883573496
 21
127.0823530455
  0
LINE
  8
Layer0$C$L0
 62
     3
 10
-114.8189509065
 20
134.5823533435
 11
-114.3141871095
 21
134.5878853996
  0
LINE
  8
Layer0$C$L0
 62
     3
 10
-113.1883573235
 20
112.9657518923
 11
-113.1883573496
 21
103.0823528369
  0
LINE
  8
Layer0$C$L0
 62
     3
 10
-113.1883573235
 20
117.1989539901
 11
-113.1883573235
 21
112.9657518923
  0
LINE
  8
Layer0$C$L0
 62
     3
 10
-113.1883573496
 20
127.0823530455
 11
-113.1883573235
 21
117.1989539901
  0
LINE
  8
Layer0$C$L0
 62
     3
 10
-113.6883574315
 20
127.0450619583
 11
-113.1883573496
 21
127.0823530455
  0
LINE
  8
Layer0$C$L0
 62
     3
 10
-113.1883573496
 20
103.0823528369
 11
-114.3141871095
 21
95.5768204828
  0
LINE
  8
Layer0$C$L0
 62
     3
 10
-113.6883574315
 20
103.1196439241
 11
-113.1883573496
 21
103.0823528369
  0
LINE
  8
Layer0$C$L0
 62
     3
 10
-144.1883591712
 20
130.0823526059
 11
-136.1883578599
 21
130.0823526059
  0
LINE
  8
Layer0$C$L0
 62
     3
 10
-144.1883591712
 20
133.0823521663
 11
-144.1883591712
 21
130.0823526059
  0
LINE
  8
Layer0$C$L0
 62
     3
 10
-136.1883578599
 20
133.0823521663
 11
-144.1883591712
 21
133.0823521663
  0
LINE
  8
Layer0$C$L0
 62
     3
 10
-136.1883578599
 20
130.0823526059
 11
-136.1883578599
 21
133.0823521663
  0
ARC
  8
Layer0$C$L0
 62
     3
 10
-140.1883573235
 20
115.0823529412
 40
18.5000000000
 50
306.4837370614
 51
413.5162629386
  0
LINE
  8
Layer0$C$L0
 62
     3
 10
-129.1883573235
 20
131.1835951293
 11
-129.1883573235
 21
129.9568277218
  0
ARC
  8
Layer0$C$L0
 62
     3
 10
-140.1883573235
 20
115.0823529412
 40
19.5000000000
 50
55.6600050563
 51
65.7790568910
  0
LINE
  8
Layer0$C$L0
 62
     3
 10
-132.1883572043
 20
133.5823531796
 11
-132.1883573235
 21
132.8657721850
  0
LINE
  8
Layer0$C$L0
 62
     3
 10
-122.1883573235
 20
133.5823529412
 11
-132.1883572043
 21
133.5823531796
  0
ARC
  8
Layer0$C$L0
 62
     3
 10
-122.1883573235
 20
133.0823529412
 40
0.5000000000
 50
323.1301023542
 51
450.0000000000
  0
ARC
  8
Layer0$C$L0
 62
     3
 10
-118.1883573235
 20
130.0823529412
 40
4.5000000000
 50
143.1301023542
 51
180.0000000000
  0
ARC
  8
Layer0$C$L0
 62
     3
 10
-118.1883573235
 20
130.0823529412
 40
4.5000000000
 50
180.0000000000
 51
270.0000000000
  0
LINE
  8
Layer0$C$L0
 62
     3
 10
-118.1883573235
 20
125.5823529412
 11
-114.6883571298
 21
125.5823527996
  0
LINE
  8
Layer0$C$L0
 62
     3
 10
-114.6883571298
 20
125.5823527996
 11
-114.6883571298
 21
104.5823530828
  0
LINE
  8
Layer0$C$L0
 62
     3
 10
-118.1883573235
 20
104.5823529412
 11
-114.6883571298
 21
104.5823530828
  0
ARC
  8
Layer0$C$L0
 62
     3
 10
-118.1883573235
 20
100.0823529412
 40
4.5000000000
 50
90.0000000000
 51
180.0000000000
  0
ARC
  8
Layer0$C$L0
 62
     3
 10
-118.1883573235
 20
100.0823529412
 40
4.5000000000
 50
180.0000000000
 51
216.8698976458
  0
ARC
  8
Layer0$C$L0
 62
     3
 10
-122.1883573235
 20
97.0823529412
 40
0.5000000000
 50
270.0000000000
 51
396.8698976458
  0
LINE
  8
Layer0$C$L0
 62
     3
 10
-132.1883572043
 20
96.5823527028
 11
-122.1883573235
 21
96.5823529412
  0
LINE
  8
Layer0$C$L0
 62
     3
 10
-132.1883573235
 20
97.2989336974
 11
-132.1883572043
 21
96.5823527028
  0
ARC
  8
Layer0$C$L0
 62
     3
 10
-140.1883573235
 20
115.0823529412
 40
19.5000000000
 50
294.2209431090
 51
304.3399949437
  0
LINE
  8
Layer0$C$L0
 62
     3
 10
-129.1883573235
 20
100.2078781606
 11
-129.1883573235
 21
98.9811107531
  0
LINE
  8
Layer0$C$L0
 62
     3
 10
-113.6883574315
 20
127.0450619583
 11
-114.8189509065
 21
134.5823533435
  0
LINE
  8
Layer0$C$L0
 62
     3
 10
-114.8189509065
 20
134.5823533435
 11
-140.1883573235
 21
134.5823529412
  0
LINE
  8
Layer0$C$L0
 62
     3
 10
-114.8189509065
 20
95.5823525389
 11
-113.6883574315
 21
103.1196439241
  0
LINE
  8
Layer0$C$L0
 62
     3
 10
-113.6883574315
 20
103.1196439241
 11
-113.6883574315
 21
127.0450619583
  0
LINE
  8
Layer0$C$L0
 62
     3
 10
-136.1883578599
 20
125.0823527177
 11
-153.1883587838
 21
125.0823527177
  0
LINE
  8
Layer0$C$L0
 62
     3
 10
-136.1883578599
 20
105.0823531647
 11
-136.1883578599
 21
125.0823527177
  0
LINE
  8
Layer0$C$L0
 62
     3
 10
-153.1883587837
 20
105.0823531647
 11
-136.1883578599
 21
105.0823531647
  0
LINE
  8
Layer0$C$L0
 62
     3
 10
-156.1883574129
 20
122.0823531573
 11
-156.1883574129
 21
108.0823527252
  0
LINE
  8
Layer0$C$L0
 62
     3
 10
-153.1883587838
 20
125.0823527177
 11
-156.1883574129
 21
122.0823531573
  0
LINE
  8
Layer0$C$L0
 62
     3
 10
-137.3883576841
 20
97.0823537161
 11
-137.3883576841
 21
100.0823532765
  0
LINE
  8
Layer0$C$L0
 62
     3
 10
-142.9883574844
 20
97.0823537161
 11
-137.3883576841
 21
97.0823537161
  0
LINE
  8
Layer0$C$L0
 62
     3
 10
-142.9883574844
 20
100.0823532765
 11
-142.9883574844
 21
97.0823537161
  0
LINE
  8
Layer0$C$L0
 62
     3
 10
-137.3883576841
 20
100.0823532765
 11
-142.9883574844
 21
100.0823532765
  0
LINE
  8
Layer0$C$L0
 62
     3
 10
-117.6883571558
 20
95.0823533882
 11
-117.6883571558
 21
95.2823530485
  0
LINE
  8
Layer0$C$L0
 62
     3
 10
-114.9831733443
 20
95.0823533882
 11
-117.6883571558
 21
95.0823533882
  0
LINE
  8
Layer0$C$L0
 62
     3
 10
-140.1883573235
 20
95.5823529412
 11
-114.8189509065
 21
95.5823525389
  0
LINE
  8
Layer0$C$L0
 62
     3
 10
-138.6883573384
 20
95.0823533882
 11
-140.1883573235
 21
95.0823529412
  0
LINE
  8
Layer0$C$L0
 62
     3
 10
-138.6883573384
 20
95.2823530485
 11
-138.6883573384
 21
95.0823533882
  0
LINE
  8
Layer0$C$L0
 62
     3
 10
-138.6883573384
 20
95.2823530485
 11
-117.6883571558
 21
95.2823530485
  0
LINE
  8
Layer0$C$L0
 62
     3
 10
-114.9831733443
 20
95.0823533882
 11
-114.8189509065
 21
95.5823525389
  0
LINE
  8
Layer0$C$L0
 62
     3
 10
-114.9831733443
 20
95.0823533882
 11
-114.3141871095
 21
95.5768204828
  0
LINE
  8
Layer0$C$L0
 62
     3
 10
-114.8189509065
 20
95.5823525389
 11
-114.3141871095
 21
95.5768204828
  0
LINE
  8
Layer0$C$L0
 62
     3
 10
-140.1883573235
 20
95.0823529412
 11
-140.1883573235
 21
95.5823529412
  0
ARC
  8
Layer0$C$L0
 62
     3
 10
-140.1883573235
 20
115.0823529412
 40
19.5000000000
 50
90.0000000000
 51
270.0000000000
  0
LINE
  8
Layer0$C$L0
 62
     3
 10
-140.1883573235
 20
135.0823529412
 11
-140.1883573235
 21
134.5823529412
  0
ARC
  8
Layer0$C$L0
 62
     3
 10
-140.1883573235
 20
115.0823529412
 40
20.0000000000
 50
90.0000000000
 51
270.0000000000
  0
CIRCLE
  8
Layer0$C$L0
 62
     3
 10
-148.1883573235
 20
129.0823529412
 40
1.0000000000
  0
CIRCLE
  8
Layer0$C$L0
 62
     3
 10
-118.1883573235
 20
130.0823529412
 40
3.5000000000
  0
CIRCLE
  8
Layer0$C$L0
 62
     3
 10
-118.1883573235
 20
130.0823529412
 40
1.7000000000
  0
CIRCLE
  8
Layer0$C$L0
 62
     3
 10
-148.1883573235
 20
101.0823529412
 40
1.0000000000
  0
CIRCLE
  8
Layer0$C$L0
 62
     3
 10
-118.1883573235
 20
100.0823529412
 40
3.5000000000
  0
CIRCLE
  8
Layer0$C$L0
 62
     3
 10
-118.1883573235
 20
100.0823529412
 40
1.7000000000
  0
LINE
  8
Layer0$C$L0
 62
     3
 10
-137.1883573235
 20
105.5823529412
 11
-152.6883577519
 21
105.5823532282
  0
ARC
  8
Layer0$C$L0
 62
     3
 10
-137.1883573235
 20
106.0823529412
 40
0.5000000000
 50
270.0000000000
 51
360.0000000000
  0
LINE
  8
Layer0$C$L0
 62
     3
 10
-136.6883573235
 20
124.0823529412
 11
-136.6883573235
 21
106.0823529412
  0
ARC
  8
Layer0$C$L0
 62
     3
 10
-137.1883573235
 20
124.0823529412
 40
0.5000000000
 50
0.0000000000
 51
90.0000000000
  0
LINE
  8
Layer0$C$L0
 62
     3
 10
-152.6883577705
 20
124.5823526357
 11
-137.1883573235
 21
124.5823529412
  0
LINE
  8
Layer0$C$L0
 62
     3
 10
-155.6883563996
 20
121.5823530753
 11
-152.6883577705
 21
124.5823526357
  0
LINE
  8
Layer0$C$L0
 62
     3
 10
-155.6883563996
 20
108.5823528072
 11
-155.6883563996
 21
121.5823530753
  0
LINE
  8
Layer0$C$L0
 62
     3
 10
-118.1883577035
 20
95.1823532184
 11
-138.1883581877
 21
95.1823532184
  0
LINE
  8
Layer0$C$L0
 62
     3
 10
-138.1883581877
 20
95.1823532184
 11
-138.1883581877
 21
95.2823530485
  0
LINE
  8
Layer0$C$L0
 62
     3
 10
-118.1883577035
 20
95.1823532184
 11
-118.1883577035
 21
95.2823530485
  0
LINE
  8
Layer0$C$L0
 62
     3
 10
-107.6883573235
 20
119.7823529412
 11
-110.1883573235
 21
119.7823528734
  0
ARC
  8
Layer0$C$L0
 62
     3
 10
-107.6883573235
 20
119.2823529412
 40
0.5000000000
 50
0.0000000000
 51
90.0000000000
  0
ARC
  8
Layer0$C$L0
 62
     3
 10
-107.6883573235
 20
110.8823529412
 40
0.5000000000
 50
270.0000000000
 51
360.0000000000
  0
LINE
  8
Layer0$C$L0
 62
     3
 10
-110.1883573235
 20
110.3823530090
 11
-107.6883573235
 21
110.3823529412
  0
LINE
  8
Layer0$C$L0
 62
     3
 10
-110.1883573235
 20
120.0823529412
 11
-110.4883573235
 21
120.3823529412
  0
LINE
  8
Layer0$C$L0
 62
     3
 10
-110.4883573235
 20
109.7823529412
 11
-110.1883573235
 21
110.0823529412
  0
LINE
  8
Layer0$C$L0
 62
     3
 10
-112.6883573235
 20
109.7823529412
 11
-110.4883573235
 21
109.7823529412
  0
LINE
  8
Layer0$C$L0
 62
     3
 10
-110.4883573235
 20
120.3823529412
 11
-112.6883573235
 21
120.3823529412
  0
ARC
  8
Layer0$C$L0
 62
     3
 10
-112.6883573235
 20
120.8823529412
 40
0.5000000000
 50
180.0000000000
 51
270.0000000000
  0
ARC
  8
Layer0$C$L0
 62
     3
 10
-112.6883573235
 20
109.2823529412
 40
0.5000000000
 50
90.0000000000
 51
180.0000000000
  0
LINE
  8
Layer0$C$L0
  6
PHANTOM
 62
     3
 10
-113.1883573235
 20
62.5392550571
 11
-113.1883573235
 21
50.5392550570
  0
LINE
  8
Layer0$C$L0
  6
PHANTOM
 62
     3
 10
-113.1883573235
 20
74.5392550570
 11
-113.1883573235
 21
62.5392550571
  0
LINE
  8
Layer0$C$L0
  6
PHANTOM
 62
     3
 10
-113.1883573235
 20
50.5392550570
 11
-115.0670895110
 21
43.0243263071
  0
LINE
  8
Layer0$C$L0
  6
PHANTOM
 62
     3
 10
-115.0670895110
 20
82.0541838069
 11
-113.1883573235
 21
74.5392550570
  0
LINE
  8
Layer0$C$L0
  6
PHANTOM
 62
     3
 10
-115.0670895110
 20
43.0243263071
 11
-115.8755415944
 21
42.5392550570
  0
LINE
  8
Layer0$C$L0
  6
PHANTOM
 62
     3
 10
-115.8755415944
 20
82.5392550570
 11
-115.0670895110
 21
82.0541838069
  0
LINE
  8
Layer0$C$L0
  6
PHANTOM
 62
     3
 10
-140.1883573235
 20
82.5392550570
 11
-115.8755415944
 21
82.5392550570
  0
LINE
  8
Layer0$C$L0
  6
PHANTOM
 62
     3
 10
-115.8755415944
 20
42.5392550570
 11
-140.1883573235
 21
42.5392550570
  0
ARC
  8
Layer0$C$L0
  6
PHANTOM
 62
     3
 10
-140.1883573235
 20
62.5392550570
 40
20.0000000000
 50
90.0000000000
 51
270.0000000000
  0
POLYLINE
  8
Layer1$C$L1
 62
     3
 66
     1
 70
     4
  0
VERTEX
  8
Layer1$C$L1
 62
     3
 10
-91.0044029157
 20
118.0545982764
 70
    16
  0
VERTEX
  8
Layer1$C$L1
 62
     3
 10
-91.0044029157
 20
118.0545982764
 70
     8
  0
VERTEX
  8
Layer1$C$L1
 62
     3
 10
-91.2030150193
 20
117.8458299228
 70
     8
  0
VERTEX
  8
Layer1$C$L1
 62
     3
 10
-91.3978237403
 20
117.6174274519
 70
     8
  0
VERTEX
  8
Layer1$C$L1
 62
     3
 10
-91.5802147550
 20
117.3733176871
 70
     8
  0
VERTEX
  8
Layer1$C$L1
 62
     3
 10
-91.7415737403
 20
117.1174274519
 70
     8
  0
VERTEX
  8
Layer1$C$L1
 62
     3
 10
-91.8732863724
 20
116.8536835697
 70
     8
  0
VERTEX
  8
Layer1$C$L1
 62
     3
 10
-91.9667383280
 20
116.5860128641
 70
     8
  0
VERTEX
  8
Layer1$C$L1
 62
     3
 10
-92.0133152836
 20
116.3183421585
 70
     8
  0
VERTEX
  8
Layer1$C$L1
 62
     3
 10
-92.0044029157
 20
116.0545982764
 70
     8
  0
VERTEX
  8
Layer1$C$L1
 62
     3
 10
-91.9354936068
 20
115.7977263353
 70
     8
  0
VERTEX
  8
Layer1$C$L1
 62
     3
 10
-91.8185065627
 20
115.5467446294
 70
     8
  0
VERTEX
  8
Layer1$C$L1
 62
     3
 10
-91.6694676951
 20
115.2996897470
 70
     8
  0
VERTEX
  8
Layer1$C$L1
 62
     3
 10
-91.5044029157
 20
115.0545982764
 70
     8
  0
VERTEX
  8
Layer1$C$L1
 62
     3
 10
-91.3393381364
 20
114.8095068057
 70
     8
  0
VERTEX
  8
Layer1$C$L1
 62
     3
 10
-91.1902992688
 20
114.5624519233
 70
     8
  0
VERTEX
  8
Layer1$C$L1
 62
     3
 10
-91.0733122247
 20
114.3114702174
 70
     8
  0
VERTEX
  8
Layer1$C$L1
 62
     3
 10
-91.0044029157
 20
114.0545982764
 70
     8
  0
VERTEX
  8
Layer1$C$L1
 62
     3
 10
-90.9954905479
 20
113.7908543942
 70
     8
  0
VERTEX
  8
Layer1$C$L1
 62
     3
 10
-91.0420675035
 20
113.5231836886
 70
     8
  0
VERTEX
  8
Layer1$C$L1
 62
     3
 10
-91.1355194591
 20
113.2555129830
 70
     8
  0
VERTEX
  8
Layer1$C$L1
 62
     3
 10
-91.2672320912
 20
112.9917691009
 70
     8
  0
VERTEX
  8
Layer1$C$L1
 62
     3
 10
-91.4285910764
 20
112.7358788657
 70
     8
  0
VERTEX
  8
Layer1$C$L1
 62
     3
 10
-91.6109820912
 20
112.4917691009
 70
     8
  0
VERTEX
  8
Layer1$C$L1
 62
     3
 10
-91.8057908122
 20
112.2633666300
 70
     8
  0
VERTEX
  8
Layer1$C$L1
 62
     3
 10
-92.0044029157
 20
112.0545982764
 70
     8
  0
VERTEX
  8
Layer1$C$L1
 62
     3
 10
-92.0044029157
 20
116.0545982764
 70
    16
  0
VERTEX
  8
Layer1$C$L1
 62
     3
 10
-91.0044029157
 20
114.0545982764
 70
    16
  0
VERTEX
  8
Layer1$C$L1
 62
     3
 10
-92.0044029157
 20
112.0545982764
 70
    16
  0
SEQEND
  8
Layer1$C$L1
 62
     3
  0
LINE
  8
Layer1$C$L1
  6
CENTER
 62
     3
 10
-140.1883573645
 20
213.1725063925
 11
-140.1883573645
 21
257.1725063925
  0
LINE
  8
Layer0$C$L0
 62
     3
 10
-107.1883573645
 20
233.1225063926
 11
-91.3439398386
 21
233.1225063926
  0
LINE
  8
Layer0$C$L0
 62
     3
 10
-91.8327748904
 20
237.2225063926
 11
-107.1883573645
 21
237.2225063926
  0
LINE
  8
Layer1$C$L1
  6
CENTER
 62
     3
 10
-122.1883573645
 20
220.1725063925
 11
-114.1883573645
 21
220.1725063925
  0
LINE
  8
Layer1$C$L1
  6
CENTER
 62
     3
 10
-122.1883573645
 20
250.1725063925
 11
-114.1883573645
 21
250.1725063925
  0
LINE
  8
Layer0$C$L0
 62
     3
 10
-107.1883573645
 20
232.8508690393
 11
-107.1883573645
 21
230.9725063925
  0
LINE
  8
Layer0$C$L0
 62
     3
 10
-107.1883573645
 20
239.3725063925
 11
-107.1883573645
 21
237.4941437458
  0
LINE
  8
Layer0$C$L0
 62
     3
 10
-110.1883573645
 20
232.8508689241
 11
-107.6883573645
 21
232.8508690393
  0
LINE
  8
Layer0$C$L0
 62
     3
 10
-107.6883573645
 20
232.8508690393
 11
-107.1883573645
 21
232.8508690393
  0
LINE
  8
Layer0$C$L0
 62
     3
 10
-107.1883573645
 20
237.4941437458
 11
-107.1883573645
 21
232.8508690393
  0
LINE
  8
Layer0$C$L0
 62
     3
 10
-107.6883573645
 20
237.4941437458
 11
-107.1883573645
 21
237.4941437458
  0
LINE
  8
Layer0$C$L0
 62
     3
 10
-107.6883573645
 20
237.4941437458
 11
-110.1883573645
 21
237.4941438609
  0
CIRCLE
  8
Layer0$C$L0
 62
     3
 10
-118.1883573645
 20
220.1725063925
 40
1.7000000000
  0
CIRCLE
  8
Layer0$C$L0
 62
     3
 10
-118.1883573645
 20
250.1725063925
 40
1.7000000000
  0
LINE
  8
Layer0$C$L0
 62
     3
 10
-114.9831733853
 20
215.1725068395
 11
-140.1883566939
 21
215.1725068395
  0
LINE
  8
Layer0$C$L0
 62
     3
 10
-114.9831733853
 20
215.1725068395
 11
-114.9588318729
 21
215.1904981290
  0
LINE
  8
Layer0$C$L0
 62
     3
 10
-114.9588318729
 20
255.1545146560
 11
-114.9831733853
 21
255.1725059455
  0
LINE
  8
Layer0$C$L0
 62
     3
 10
-140.1883566939
 20
255.1725059455
 11
-114.9831733853
 21
255.1725059455
  0
LINE
  8
Layer0$C$L0
 62
     3
 10
-114.2001001351
 20
216.4275552784
 11
-114.3141871505
 21
215.6669739341
  0
LINE
  8
Layer0$C$L0
 62
     3
 10
-114.9588318729
 20
215.1904981290
 11
-114.3141871505
 21
215.6669739341
  0
LINE
  8
Layer0$C$L0
 62
     3
 10
-114.9588318729
 20
215.1904981290
 11
-114.8126887345
 21
216.1647844767
  0
LINE
  8
Layer0$C$L0
 62
     3
 10
-114.3141871505
 20
254.6780388509
 11
-114.2001001351
 21
253.9174575066
  0
LINE
  8
Layer0$C$L0
 62
     3
 10
-114.9588318729
 20
255.1545146560
 11
-114.3141871505
 21
254.6780388509
  0
LINE
  8
Layer0$C$L0
 62
     3
 10
-114.8126887345
 20
254.1802283083
 11
-114.9588318729
 21
255.1545146560
  0
ARC
  8
Layer0$C$L0
 62
     3
 10
-140.1883573645
 20
235.1725063925
 40
20.0000000000
 50
58.0428424723
 51
301.9571575277
  0
LINE
  8
Layer0$C$L0
 62
     3
 10
-113.1883573906
 20
223.1725062882
 11
-114.2001001351
 21
216.4275552784
  0
LINE
  8
Layer0$C$L0
 62
     3
 10
-113.1883573906
 20
223.1865124484
 11
-113.1883573906
 21
223.1725062882
  0
LINE
  8
Layer0$C$L0
 62
     3
 10
-114.7439929844
 20
216.2354178434
 11
-114.2001001351
 21
216.4275552784
  0
LINE
  8
Layer0$C$L0
 62
     3
 10
-133.9669021034
 20
216.1647844767
 11
-114.8126887345
 21
216.1647844767
  0
LINE
  8
Layer0$C$L0
 62
     3
 10
-114.8126887345
 20
216.1647844767
 11
-114.7439929844
 21
216.2354178434
  0
LINE
  8
Layer0$C$L0
 62
     3
 10
-114.7439929844
 20
216.2354178434
 11
-113.7034297642
 21
223.1725062882
  0
CIRCLE
  8
Layer0$C$L0
 62
     3
 10
-118.1883590472
 20
220.1725063131
 40
2.9999999751
  0
POLYLINE
  8
Layer0$C$L0
 62
     3
 66
     1
  0
VERTEX
  8
Layer0$C$L0
 62
     3
 10
-127.2862458789
 20
219.9786649724
  0
VERTEX
  8
Layer0$C$L0
 62
     3
 10
-127.8812678718
 20
219.4474171554
  0
VERTEX
  8
Layer0$C$L0
 62
     3
 10
-129.6026574635
 20
218.2036246811
  0
SEQEND
  8
Layer0$C$L0
 62
     3
  0
LINE
  8
Layer0$C$L0
 62
     3
 10
-113.1883573906
 20
231.3936177814
 11
-113.1883573906
 21
223.1865124484
  0
ARC
  8
Layer0$C$L0
 62
     3
 10
-112.6936069304
 20
231.4456787860
 40
0.4974820259
 50
145.2273063071
 51
186.0069452732
  0
LINE
  8
Layer0$C$L0
 62
     3
 10
-113.6883574725
 20
223.2267632788
 11
-113.1883573906
 21
223.1865124484
  0
ARC
  8
Layer0$C$L0
 62
     3
 10
-108.4347751701
 20
235.1725241860
 40
5.8000337467
 50
205.0708117407
 51
216.4155983227
  0
LINE
  8
Layer0$C$L0
 62
     3
 10
-110.1883573645
 20
237.1320981867
 11
-110.1883573645
 21
233.2129145983
  0
ARC
  8
Layer0$C$L0
 62
     3
 10
-108.4347751701
 20
235.1724885990
 40
5.8000337467
 50
143.5844016773
 51
154.9291882593
  0
ARC
  8
Layer0$C$L0
 62
     3
 10
-112.6795692719
 20
238.9029337849
 40
0.5110908328
 50
174.5590868250
 51
214.2066615947
  0
LINE
  8
Layer0$C$L0
 62
     3
 10
-113.1883573906
 20
247.1585003366
 11
-113.1883573906
 21
238.9513950036
  0
LINE
  8
Layer0$C$L0
 62
     3
 10
-110.1883573645
 20
233.2129145983
 11
-110.4883573645
 21
233.1526054048
  0
LINE
  8
Layer0$C$L0
 62
     3
 10
-110.4883573645
 20
229.8725063925
 11
-110.4883573645
 21
233.1526054048
  0
LINE
  8
Layer0$C$L0
 62
     3
 10
-110.4883573645
 20
237.1924073802
 11
-110.4883573645
 21
240.4725063925
  0
LINE
  8
Layer0$C$L0
 62
     3
 10
-110.4883573645
 20
237.1924073802
 11
-110.1883573645
 21
237.1320981867
  0
LINE
  8
Layer0$C$L0
 62
     3
 10
-110.1883573645
 20
240.1725063925
 11
-110.1883573645
 21
237.1320981867
  0
LINE
  8
Layer0$C$L0
 62
     3
 10
-110.1883573645
 20
233.2129145983
 11
-110.1883573645
 21
230.1725063925
  0
LINE
  8
Layer0$C$L0
 62
     3
 10
-113.1883573906
 20
247.1725064968
 11
-113.1883573906
 21
247.1585003366
  0
LINE
  8
Layer0$C$L0
 62
     3
 10
-114.2001001351
 20
253.9174575066
 11
-113.1883573906
 21
247.1725064968
  0
LINE
  8
Layer0$C$L0
 62
     3
 10
-114.7439929844
 20
254.1095949416
 11
-114.2001001351
 21
253.9174575066
  0
LINE
  8
Layer0$C$L0
 62
     3
 10
-113.6883574725
 20
247.1182495063
 11
-113.1883573906
 21
247.1585003366
  0
LINE
  8
Layer0$C$L0
 62
     3
 10
-113.7034297642
 20
247.1725064968
 11
-114.7439929844
 21
254.1095949416
  0
LINE
  8
Layer0$C$L0
 62
     3
 10
-114.7439929844
 20
254.1095949416
 11
-114.8126887345
 21
254.1802283083
  0
LINE
  8
Layer0$C$L0
 62
     3
 10
-114.8126887345
 20
254.1802283083
 11
-133.9669021034
 21
254.1802283083
  0
ARC
  8
Layer0$C$L0
 62
     3
 10
-137.2861190102
 20
239.7155717560
 40
14.6094658783
 50
46.8053498980
 51
58.2695658051
  0
CIRCLE
  8
Layer0$C$L0
 62
     3
 10
-118.1883559784
 20
250.1725064445
 40
2.9999999477
  0
LINE
  8
Layer0$C$L0
 62
     3
 10
-119.1883569770
 20
238.1725064186
 11
-119.1883569770
 21
236.1725064400
  0
LINE
  8
Layer0$C$L0
 62
     3
 10
-117.1883575805
 20
238.1725064186
 11
-119.1883569770
 21
238.1725064186
  0
LINE
  8
Layer0$C$L0
 62
     3
 10
-117.1883575805
 20
236.1725064400
 11
-117.1883575805
 21
238.1725064186
  0
LINE
  8
Layer0$C$L0
 62
     3
 10
-119.1883569770
 20
236.1725064400
 11
-117.1883575805
 21
236.1725064400
  0
LINE
  8
Layer0$C$L0
 62
     3
 10
-119.1883569770
 20
228.1725061764
 11
-117.1883575805
 21
228.1725061764
  0
LINE
  8
Layer0$C$L0
 62
     3
 10
-119.1883569770
 20
230.1725065043
 11
-119.1883569770
 21
228.1725061764
  0
LINE
  8
Layer0$C$L0
 62
     3
 10
-117.1883575805
 20
230.1725065043
 11
-119.1883569770
 21
230.1725065043
  0
LINE
  8
Layer0$C$L0
 62
     3
 10
-117.1883575805
 20
228.1725061764
 11
-117.1883575805
 21
230.1725065043
  0
LINE
  8
Layer0$C$L0
 62
     3
 10
-119.1883569770
 20
242.1725066086
 11
-119.1883569770
 21
240.1725062807
  0
LINE
  8
Layer0$C$L0
 62
     3
 10
-117.1883575805
 20
242.1725066086
 11
-119.1883569770
 21
242.1725066086
  0
LINE
  8
Layer0$C$L0
 62
     3
 10
-117.1883575805
 20
240.1725062807
 11
-117.1883575805
 21
242.1725066086
  0
LINE
  8
Layer0$C$L0
 62
     3
 10
-119.1883569770
 20
240.1725062807
 11
-117.1883575805
 21
240.1725062807
  0
LINE
  8
Layer0$C$L0
 62
     3
 10
-119.1883569770
 20
232.1725063664
 11
-117.1883575805
 21
232.1725063664
  0
LINE
  8
Layer0$C$L0
 62
     3
 10
-119.1883569770
 20
234.1725063450
 11
-119.1883569770
 21
232.1725063664
  0
LINE
  8
Layer0$C$L0
 62
     3
 10
-117.1883575805
 20
234.1725063450
 11
-119.1883569770
 21
234.1725063450
  0
LINE
  8
Layer0$C$L0
 62
     3
 10
-117.1883575805
 20
232.1725063664
 11
-117.1883575805
 21
234.1725063450
  0
LINE
  8
Layer0$C$L0
 62
     3
 10
-113.6883574725
 20
223.2267632788
 11
-113.6883574725
 21
232.7148292386
  0
POLYLINE
  8
Layer0$C$L0
 62
     3
 66
     1
  0
VERTEX
  8
Layer0$C$L0
 62
     3
 10
-113.6883574725
 20
232.7148292386
  0
VERTEX
  8
Layer0$C$L0
 62
     3
 10
-113.6537031923
 20
232.9648292796
  0
VERTEX
  8
Layer0$C$L0
 62
     3
 10
-113.6190854666
 20
233.0430659638
  0
VERTEX
  8
Layer0$C$L0
 62
     3
 10
-113.5642335937
 20
233.1096124542
  0
VERTEX
  8
Layer0$C$L0
 62
     3
 10
-113.5112003610
 20
233.1407563468
  0
VERTEX
  8
Layer0$C$L0
 62
     3
 10
-113.4507812747
 20
233.1524842591
  0
VERTEX
  8
Layer0$C$L0
 62
     3
 10
-113.4435146303
 20
233.1526053311
  0
SEQEND
  8
Layer0$C$L0
 62
     3
  0
LINE
  8
Layer0$C$L0
 62
     3
 10
-113.4435146303
 20
233.1526053311
 11
-110.4883573645
 21
233.1526054048
  0
LINE
  8
Layer0$C$L0
 62
     3
 10
-110.4883573645
 20
233.1526054048
 11
-110.4883573645
 21
237.1924073802
  0
LINE
  8
Layer0$C$L0
 62
     3
 10
-113.4435146303
 20
237.1924074539
 11
-110.4883573645
 21
237.1924073802
  0
POLYLINE
  8
Layer0$C$L0
 62
     3
 66
     1
  0
VERTEX
  8
Layer0$C$L0
 62
     3
 10
-113.4435146303
 20
237.1924074539
  0
VERTEX
  8
Layer0$C$L0
 62
     3
 10
-113.5060960148
 20
237.2024242939
  0
VERTEX
  8
Layer0$C$L0
 62
     3
 10
-113.5616768804
 20
237.2333048550
  0
VERTEX
  8
Layer0$C$L0
 62
     3
 10
-113.6126921699
 20
237.2915071608
  0
VERTEX
  8
Layer0$C$L0
 62
     3
 10
-113.6618559902
 20
237.4072323726
  0
VERTEX
  8
Layer0$C$L0
 62
     3
 10
-113.6883574725
 20
237.6301835464
  0
SEQEND
  8
Layer0$C$L0
 62
     3
  0
LINE
  8
Layer0$C$L0
 62
     3
 10
-113.6883574725
 20
237.6301835464
 11
-113.6883574725
 21
247.1182495063
  0
LINE
  8
Layer0$C$L0
 62
     3
 10
-113.6883574725
 20
247.1182495063
 11
-113.7034297642
 21
247.1725064968
  0
LINE
  8
Layer0$C$L0
 62
     3
 10
-113.7034297642
 20
247.1725064968
 11
-118.1883577445
 21
247.1725064968
  0
LINE
  8
Layer0$C$L0
 62
     3
 10
-118.1883577445
 20
247.1725064968
 11
-124.6070295078
 21
247.1725063925
  0
LINE
  8
Layer0$C$L0
 62
     3
 10
-124.6070295078
 20
223.1725063925
 11
-118.1883577445
 21
223.1725062882
  0
LINE
  8
Layer0$C$L0
 62
     3
 10
-118.1883577445
 20
223.1725062882
 11
-113.7034297642
 21
223.1725062882
  0
LINE
  8
Layer0$C$L0
 62
     3
 10
-113.7034297642
 20
223.1725062882
 11
-113.6883574725
 21
223.2267632788
  0
LINE
  8
Layer0$C$L0
 62
     3
 10
-138.6883573645
 20
254.1800779833
 11
-138.6883573645
 21
253.9125704265
  0
ARC
  8
Layer0$C$L0
 62
     3
 10
-140.1883573645
 20
235.1725063925
 40
18.8000000000
 50
274.5763360509
 51
445.4236639491
  0
LINE
  8
Layer0$C$L0
 62
     3
 10
-138.6883573645
 20
216.4324423585
 11
-138.6883573645
 21
216.1649348017
  0
LINE
  8
Layer0$C$L0
 62
     3
 10
-141.6883573645
 20
253.9125704265
 11
-141.6883573645
 21
254.1800779833
  0
LINE
  8
Layer0$C$L0
 62
     3
 10
-141.6883573645
 20
216.1649348017
 11
-141.6883573645
 21
216.4324423585
  0
ARC
  8
Layer0$C$L0
 62
     3
 10
-140.1883573645
 20
235.1725063925
 40
18.8000000000
 50
94.5763360509
 51
265.4236639491
  0
ARC
  8
Layer0$C$L0
 62
     3
 10
-140.2466885746
 20
236.7735477730
 40
18.7813015466
 50
33.6203122752
 51
46.3642235797
  0
ARC
  8
Layer0$C$L0
 62
     3
 10
-140.2466885746
 20
233.5714650120
 40
18.7813015466
 50
313.6357764203
 51
326.3796877248
  0
ARC
  8
Layer0$C$L0
 62
     3
 10
-140.1883573645
 20
235.1725063925
 40
19.6666666667
 50
322.3982406855
 51
397.6017593145
  0
LINE
  8
Layer0$C$L0
 62
     3
 10
-141.6883573645
 20
216.1649348017
 11
-141.6883573645
 21
215.9643194806
  0
ARC
  8
Layer0$C$L0
 62
     3
 10
-140.1883573645
 20
235.1725063925
 40
19.0666666667
 50
94.5121977555
 51
265.4878022445
  0
LINE
  8
Layer0$C$L0
 62
     3
 10
-141.6883573645
 20
254.3806933045
 11
-141.6883573645
 21
254.1800779833
  0
ARC
  8
Layer0$C$L0
 62
     3
 10
-140.1883573645
 20
235.1725063925
 40
19.2666666667
 50
85.5347372291
 51
94.4652627709
  0
LINE
  8
Layer0$C$L0
 62
     3
 10
-138.6883573645
 20
254.1800779833
 11
-138.6883573645
 21
254.3806933045
  0
ARC
  8
Layer0$C$L0
 62
     3
 10
-140.1883573645
 20
235.1725063925
 40
19.0666666667
 50
274.5121977555
 51
445.4878022445
  0
LINE
  8
Layer0$C$L0
 62
     3
 10
-138.6883573645
 20
215.9643194806
 11
-138.6883573645
 21
216.1649348017
  0
ARC
  8
Layer0$C$L0
 62
     3
 10
-140.1883573645
 20
235.1725063925
 40
19.2666666667
 50
265.5347372291
 51
274.4652627709
  0
CIRCLE
  8
Layer0$C$L0
 62
     3
 10
-140.1883573645
 20
235.1725063925
 40
18.7000000000
  0
LINE
  8
Layer0$C$L0
 62
     3
 10
-110.1883573645
 20
230.4725064603
 11
-107.6883573645
 21
230.4725063925
  0
ARC
  8
Layer0$C$L0
 62
     3
 10
-107.6883573645
 20
230.9725063925
 40
0.5000000000
 50
270.0000000000
 51
360.0000000000
  0
LINE
  8
Layer0$C$L0
 62
     3
 10
-107.6883573645
 20
239.8725063925
 11
-110.1883573645
 21
239.8725063247
  0
ARC
  8
Layer0$C$L0
 62
     3
 10
-107.6883573645
 20
239.3725063925
 40
0.5000000000
 50
0.0000000000
 51
90.0000000000
  0
ARC
  8
Layer0$C$L0
 62
     3
 10
-112.6883573645
 20
240.9725063925
 40
0.5000000000
 50
180.0000000000
 51
270.0000000000
  0
ARC
  8
Layer0$C$L0
 62
     3
 10
-112.6883573645
 20
229.3725063925
 40
0.5000000000
 50
90.0000000000
 51
180.0000000000
  0
LINE
  8
Layer0$C$L0
 62
     3
 10
-112.6883573645
 20
229.8725063925
 11
-110.4883573645
 21
229.8725063925
  0
LINE
  8
Layer0$C$L0
 62
     3
 10
-110.4883573645
 20
240.4725063925
 11
-112.6883573645
 21
240.4725063925
  0
LINE
  8
Layer0$C$L0
 62
     3
 10
-110.1883573645
 20
240.1725063925
 11
-110.4883573645
 21
240.4725063925
  0
LINE
  8
Layer0$C$L0
 62
     3
 10
-110.4883573645
 20
229.8725063925
 11
-110.1883573645
 21
230.1725063925
  0
POLYLINE
  8
Layer1$C$L1
 62
     3
 66
     1
 70
     4
  0
VERTEX
  8
Layer1$C$L1
 62
     3
 10
-91.0883573645
 20
238.1725063926
 70
    16
  0
VERTEX
  8
Layer1$C$L1
 62
     3
 10
-91.0883573645
 20
238.1725063926
 70
     8
  0
VERTEX
  8
Layer1$C$L1
 62
     3
 10
-91.2869694681
 20
237.9637380390
 70
     8
  0
VERTEX
  8
Layer1$C$L1
 62
     3
 10
-91.4817781890
 20
237.7353355681
 70
     8
  0
VERTEX
  8
Layer1$C$L1
 62
     3
 10
-91.6641692038
 20
237.4912258033
 70
     8
  0
VERTEX
  8
Layer1$C$L1
 62
     3
 10
-91.8255281890
 20
237.2353355681
 70
     8
  0
VERTEX
  8
Layer1$C$L1
 62
     3
 10
-91.9572408212
 20
236.9715916859
 70
     8
  0
VERTEX
  8
Layer1$C$L1
 62
     3
 10
-92.0506927768
 20
236.7039209803
 70
     8
  0
VERTEX
  8
Layer1$C$L1
 62
     3
 10
-92.0972697324
 20
236.4362502747
 70
     8
  0
VERTEX
  8
Layer1$C$L1
 62
     3
 10
-92.0883573645
 20
236.1725063926
 70
     8
  0
VERTEX
  8
Layer1$C$L1
 62
     3
 10
-92.0194480556
 20
235.9156344515
 70
     8
  0
VERTEX
  8
Layer1$C$L1
 62
     3
 10
-91.9024610115
 20
235.6646527456
 70
     8
  0
VERTEX
  8
Layer1$C$L1
 62
     3
 10
-91.7534221439
 20
235.4175978632
 70
     8
  0
VERTEX
  8
Layer1$C$L1
 62
     3
 10
-91.5883573645
 20
235.1725063926
 70
     8
  0
VERTEX
  8
Layer1$C$L1
 62
     3
 10
-91.4232925852
 20
234.9274149219
 70
     8
  0
VERTEX
  8
Layer1$C$L1
 62
     3
 10
-91.2742537176
 20
234.6803600395
 70
     8
  0
VERTEX
  8
Layer1$C$L1
 62
     3
 10
-91.1572666735
 20
234.4293783336
 70
     8
  0
VERTEX
  8
Layer1$C$L1
 62
     3
 10
-91.0883573645
 20
234.1725063926
 70
     8
  0
VERTEX
  8
Layer1$C$L1
 62
     3
 10
-91.0794449967
 20
233.9087625104
 70
     8
  0
VERTEX
  8
Layer1$C$L1
 62
     3
 10
-91.1260219523
 20
233.6410918048
 70
     8
  0
VERTEX
  8
Layer1$C$L1
 62
     3
 10
-91.2194739079
 20
233.3734210992
 70
     8
  0
VERTEX
  8
Layer1$C$L1
 62
     3
 10
-91.3511865400
 20
233.1096772171
 70
     8
  0
VERTEX
  8
Layer1$C$L1
 62
     3
 10
-91.5125455252
 20
232.8537869819
 70
     8
  0
VERTEX
  8
Layer1$C$L1
 62
     3
 10
-91.6949365400
 20
232.6096772171
 70
     8
  0
VERTEX
  8
Layer1$C$L1
 62
     3
 10
-91.8897452609
 20
232.3812747462
 70
     8
  0
VERTEX
  8
Layer1$C$L1
 62
     3
 10
-92.0883573645
 20
232.1725063926
 70
     8
  0
VERTEX
  8
Layer1$C$L1
 62
     3
 10
-92.0883573645
 20
236.1725063926
 70
    16
  0
VERTEX
  8
Layer1$C$L1
 62
     3
 10
-91.0883573645
 20
234.1725063926
 70
    16
  0
VERTEX
  8
Layer1$C$L1
 62
     3
 10
-92.0883573645
 20
232.1725063926
 70
    16
  0
SEQEND
  8
Layer1$C$L1
 62
     3
  0
LINE
  8
Layer1$C$L1
  6
CENTER
 62
     3
 10
-164.2263520949
 20
235.1725063926
 11
-89.2523992812
 21
235.1725063926
  0
LINE
  8
Layer3$C$L3
  6
CENTERLINE
 62
     3
 10
-140.1883573645
 20
166.7048221991
 11
-140.1883573645
 21
200.7407370368
  0
LINE
  8
Layer3$C$L3
  6
CENTERLINE
 62
     3
 10
-35.2285303020
 20
226.9012108100
 11
-35.2285303020
 21
242.1311721930
  0
LINE
  8
Layer3$C$L3
  6
CENTERLINE
 62
     3
 10
-60.1285303020
 20
235.1725063925
 11
-26.3285303222
 21
235.1725063925
  0
LINE
  8
Layer1$C$L1
 62
     3
 10
-80.2767915414
 20
174.0323529412
 11
-90.3452028674
 21
174.0323529412
  0
LINE
  8
Layer1$C$L1
 62
     3
 10
-80.2767915414
 20
178.1323529412
 11
-90.8327748905
 21
178.1323529412
  0
LINE
  8
Layer0$C$L0
 62
     3
 10
-107.1883573644
 20
174.0323529412
 11
-91.3439398387
 21
174.0323529412
  0
LINE
  8
Layer0$C$L0
 62
     3
 10
-91.8327748905
 20
178.1323529412
 11
-107.1883573644
 21
178.1323529412
  0
LINE
  8
Layer0$C$L0
 62
     3
 10
-107.6883573644
 20
172.0823529412
 11
-110.1883573644
 21
172.0823529352
  0
ARC
  8
Layer0$C$L0
 62
     3
 10
-107.6883573644
 20
172.5823529412
 40
0.5000000000
 50
270.0000000000
 51
360.0000000000
  0
ARC
  8
Layer0$C$L0
 62
     3
 10
-107.6883573644
 20
179.5823529412
 40
0.5000000000
 50
0.0000000000
 51
90.0000000000
  0
LINE
  8
Layer0$C$L0
 62
     3
 10
-110.1883573644
 20
180.0823533152
 11
-107.6883573644
 21
180.0823529412
  0
LINE
  8
Layer0$C$L0
 62
     3
 10
-107.1883573644
 20
179.5823529412
 11
-107.1883573644
 21
172.5823529412
  0
LINE
  8
Layer0$C$L0
 62
     3
 10
-113.6883574724
 20
180.9823527176
 11
-113.4435146302
 21
180.9823527176
  0
LINE
  8
Layer0$C$L0
 62
     3
 10
-113.4435146302
 20
180.9823527176
 11
-110.4883573644
 21
180.9823529412
  0
LINE
  8
Layer0$C$L0
 62
     3
 10
-110.1883573644
 20
180.6823529412
 11
-110.4883573644
 21
180.9823529412
  0
LINE
  8
Layer0$C$L0
 62
     3
 10
-110.4883573644
 20
170.7823529412
 11
-110.4883573644
 21
180.9823529412
  0
LINE
  8
Layer0$C$L0
 62
     3
 10
-110.1883573644
 20
180.6823529412
 11
-110.1883573644
 21
171.0823529412
  0
LINE
  8
Layer0$C$L0
 62
     3
 10
-147.1883573644
 20
170.0823529412
 11
-149.1883573644
 21
170.0823529412
  0
LINE
  8
Layer0$C$L0
 62
     3
 10
-114.6883573644
 20
170.0823529412
 11
-121.6883573644
 21
170.0823529412
  0
LINE
  8
Layer0$C$L0
 62
     3
 10
-113.1883573905
 20
180.4823526357
 11
-113.1883573905
 21
180.4785472517
  0
LINE
  8
Layer0$C$L0
 62
     3
 10
-113.6883574724
 20
180.9823527176
 11
-113.1883573905
 21
180.4823526357
  0
LINE
  8
Layer0$C$L0
 62
     3
 10
-113.7034297641
 20
180.9823527176
 11
-113.6883574724
 21
180.9823527176
  0
LINE
  8
Layer0$C$L0
 62
     3
 10
-114.7439929843
 20
180.1152168949
 11
-113.7034297641
 21
180.9823527176
  0
LINE
  8
Layer0$C$L0
 62
     3
 10
-118.1883577444
 20
180.9823527176
 11
-113.7034297641
 21
180.9823527176
  0
POLYLINE
  8
Layer0$C$L0
 62
     3
 66
     1
 70
     1
  0
VERTEX
  8
Layer0$C$L0
 62
     3
 10
-118.1883577444
 20
180.9823527176
  0
VERTEX
  8
Layer0$C$L0
 62
     3
 10
-118.7093023397
 20
180.9766558175
  0
VERTEX
  8
Layer0$C$L0
 62
     3
 10
-119.2144181765
 20
180.9597374116
  0
VERTEX
  8
Layer0$C$L0
 62
     3
 10
-119.6883570589
 20
180.9321125214
  0
VERTEX
  8
Layer0$C$L0
 62
     3
 10
-120.1167198084
 20
180.8946193372
  0
VERTEX
  8
Layer0$C$L0
 62
     3
 10
-120.4864902608
 20
180.8483987291
  0
VERTEX
  8
Layer0$C$L0
 62
     3
 10
-120.7864338718
 20
180.7948532690
  0
VERTEX
  8
Layer0$C$L0
 62
     3
 10
-121.0074348561
 20
180.7356109087
  0
VERTEX
  8
Layer0$C$L0
 62
     3
 10
-121.1427802406
 20
180.6724709634
  0
VERTEX
  8
Layer0$C$L0
 62
     3
 10
-121.1883573048
 20
180.6073528890
  0
VERTEX
  8
Layer0$C$L0
 62
     3
 10
-121.1427802406
 20
180.5422348146
  0
VERTEX
  8
Layer0$C$L0
 62
     3
 10
-121.0074348561
 20
180.4790958006
  0
VERTEX
  8
Layer0$C$L0
 62
     3
 10
-120.7864338718
 20
180.4198525090
  0
VERTEX
  8
Layer0$C$L0
 62
     3
 10
-120.4864902608
 20
180.3663079802
  0
VERTEX
  8
Layer0$C$L0
 62
     3
 10
-120.1167198084
 20
180.3200864409
  0
VERTEX
  8
Layer0$C$L0
 62
     3
 10
-119.6883570589
 20
180.2825932567
  0
VERTEX
  8
Layer0$C$L0
 62
     3
 10
-119.2144181765
 20
180.2549683665
  0
VERTEX
  8
Layer0$C$L0
 62
     3
 10
-118.7093023397
 20
180.2380499606
  0
VERTEX
  8
Layer0$C$L0
 62
     3
 10
-118.1883577444
 20
180.2323530604
  0
VERTEX
  8
Layer0$C$L0
 62
     3
 10
-117.6674126834
 20
180.2380499606
  0
VERTEX
  8
Layer0$C$L0
 62
     3
 10
-117.1622968465
 20
180.2549683665
  0
VERTEX
  8
Layer0$C$L0
 62
     3
 10
-116.6883574985
 20
180.2825932567
  0
VERTEX
  8
Layer0$C$L0
 62
     3
 10
-116.2599947490
 20
180.3200864409
  0
VERTEX
  8
Layer0$C$L0
 62
     3
 10
-115.8902238309
 20
180.3663079802
  0
VERTEX
  8
Layer0$C$L0
 62
     3
 10
-115.5902811512
 20
180.4198525090
  0
VERTEX
  8
Layer0$C$L0
 62
     3
 10
-115.3692797012
 20
180.4790958006
  0
VERTEX
  8
Layer0$C$L0
 62
     3
 10
-115.2339343168
 20
180.5422348146
  0
VERTEX
  8
Layer0$C$L0
 62
     3
 10
-115.1883572526
 20
180.6073528890
  0
VERTEX
  8
Layer0$C$L0
 62
     3
 10
-115.2339343168
 20
180.6724709634
  0
VERTEX
  8
Layer0$C$L0
 62
     3
 10
-115.3692797012
 20
180.7356109087
  0
VERTEX
  8
Layer0$C$L0
 62
     3
 10
-115.5902811512
 20
180.7948532690
  0
VERTEX
  8
Layer0$C$L0
 62
     3
 10
-115.8902238309
 20
180.8483987291
  0
VERTEX
  8
Layer0$C$L0
 62
     3
 10
-116.2599947490
 20
180.8946193372
  0
VERTEX
  8
Layer0$C$L0
 62
     3
 10
-116.6883574985
 20
180.9321125214
  0
VERTEX
  8
Layer0$C$L0
 62
     3
 10
-117.1622968465
 20
180.9597374116
  0
VERTEX
  8
Layer0$C$L0
 62
     3
 10
-117.6674126834
 20
180.9766558175
  0
SEQEND
  8
Layer0$C$L0
 62
     3
  0
LINE
  8
Layer0$C$L0
 62
     3
 10
-124.6070292033
 20
180.9823527176
 11
-118.1883577444
 21
180.9823527176
  0
LINE
  8
Layer0$C$L0
 62
     3
 10
-113.6883574724
 20
170.1823529614
 11
-113.1883573644
 21
170.6823529412
  0
LINE
  8
Layer0$C$L0
 62
     3
 10
-113.6883574724
 20
170.1823529614
 11
-114.8189509474
 21
170.1823529614
  0
LINE
  8
Layer0$C$L0
 62
     3
 10
-114.3141871504
 20
170.6823529269
 11
-113.1883573644
 21
170.6823529412
  0
LINE
  8
Layer0$C$L0
 62
     3
 10
-113.1883573905
 20
180.4785472517
 11
-113.1883573644
 21
170.6823529412
  0
LINE
  8
Layer0$C$L0
 62
     3
 10
-113.1883573905
 20
180.4785472517
 11
-114.2001001350
 21
179.6354283754
  0
ARC
  8
Layer0$C$L0
 62
     3
 10
-131.9777046198
 20
221.2569844765
 40
40.9435320827
 50
276.5796103513
 51
280.3709543001
  0
LINE
  8
Layer0$C$L0
 62
     3
 10
-141.6883573644
 20
181.8823529412
 11
-141.6883573644
 21
181.5823529412
  0
LINE
  8
Layer0$C$L0
 62
     3
 10
-141.6883573644
 20
181.8823529412
 11
-159.2550240310
 21
181.8823529412
  0
LINE
  8
Layer0$C$L0
 62
     3
 10
-121.1216906977
 20
181.8823529412
 11
-138.6883573644
 21
181.8823529412
  0
LINE
  8
Layer0$C$L0
 62
     3
 10
-138.6883573644
 20
181.5823529412
 11
-138.6883573644
 21
181.8823529412
  0
LINE
  8
Layer0$C$L0
 62
     3
 10
-138.6883573644
 20
181.5823529412
 11
-141.6883573644
 21
181.5823529412
  0
LINE
  8
Layer0$C$L0
 62
     3
 10
-114.2001001350
 20
179.6354283754
 11
-114.3141871504
 21
178.6575378094
  0
LINE
  8
Layer0$C$L0
 62
     3
 10
-114.7439929843
 20
180.1152168949
 11
-114.2001001350
 21
179.6354283754
  0
LINE
  8
Layer0$C$L0
 62
     3
 10
-114.8126887344
 20
180.1063879569
 11
-114.7439929843
 21
180.1152168949
  0
LINE
  8
Layer0$C$L0
 62
     3
 10
-114.3141871504
 20
178.6575378094
 11
-114.3141871504
 21
170.6823529269
  0
LINE
  8
Layer0$C$L0
 62
     3
 10
-114.9588318728
 20
178.8537339483
 11
-114.3141871504
 21
178.6575378094
  0
LINE
  8
Layer0$C$L0
 62
     3
 10
-114.8189509474
 20
170.1823529614
 11
-114.3141871504
 21
170.6823529269
  0
LINE
  8
Layer0$C$L0
 62
     3
 10
-114.9831733852
 20
170.6823529269
 11
-114.3141871504
 21
170.6823529269
  0
LINE
  8
Layer0$C$L0
 62
     3
 10
-140.1883573644
 20
170.1823529412
 11
-159.6883573644
 21
170.1823529412
  0
LINE
  8
Layer0$C$L0
 62
     3
 10
-114.9831733852
 20
178.8306017582
 11
-114.9588318728
 21
178.8537339483
  0
LINE
  8
Layer0$C$L0
 62
     3
 10
-114.9588318728
 20
178.8537339483
 11
-114.8126887344
 21
180.1063879569
  0
LINE
  8
Layer0$C$L0
 62
     3
 10
-133.9669021033
 20
180.1063879569
 11
-114.8126887344
 21
180.1063879569
  0
LINE
  8
Layer0$C$L0
 62
     3
 10
-140.1883573644
 20
170.6823529412
 11
-140.1883573644
 21
170.1823529412
  0
LINE
  8
Layer0$C$L0
 62
     3
 10
-114.8189509474
 20
170.1823529614
 11
-140.1883573644
 21
170.1823529412
  0
LINE
  8
Layer0$C$L0
 62
     3
 10
-114.9831733852
 20
170.6823529269
 11
-114.8189509474
 21
170.1823529614
  0
POLYLINE
  8
Layer0$C$L0
 62
     3
 66
     1
  0
VERTEX
  8
Layer0$C$L0
 62
     3
 10
-127.2862458788
 20
180.5831226696
  0
VERTEX
  8
Layer0$C$L0
 62
     3
 10
-127.8812678717
 20
180.5167165760
  0
VERTEX
  8
Layer0$C$L0
 62
     3
 10
-129.6026574634
 20
180.3612425168
  0
SEQEND
  8
Layer0$C$L0
 62
     3
  0
LINE
  8
Layer0$C$L0
 62
     3
 10
-140.1883573644
 20
170.6823529412
 11
-114.9831733852
 21
170.6823529269
  0
LINE
  8
Layer0$C$L0
 62
     3
 10
-114.9831733852
 20
170.6823529269
 11
-114.9831733852
 21
178.8306017582
  0
LINE
  8
Layer0$C$L0
 62
     3
 10
-114.9831733852
 20
178.8306017582
 11
-140.1883566938
 21
178.8306017582
  0
LINE
  8
Layer0$C$L0
 62
     3
 10
-160.1883573644
 20
170.6823529412
 11
-140.1883573644
 21
170.6823529412
  0
LINE
  8
Layer0$C$L0
 62
     3
 10
-140.1883566938
 20
178.8306017582
 11
-140.1883573644
 21
170.6823529412
  0
ARC
  8
Layer0$C$L0
 62
     3
 10
-140.2330208639
 20
194.8559670984
 40
16.0254275816
 50
270.1596882044
 51
293.0174225609
  0
ARC
  8
Layer0$C$L0
 62
     3
 10
-138.7237491188
 20
299.0598615146
 40
119.0485466731
 50
272.2899887599
 51
274.3941124192
  0
LINE
  8
Layer0$C$L0
 62
     3
 10
-158.8883573644
 20
182.4823529412
 11
-121.4883573644
 21
182.4823529412
  0
LINE
  8
Layer0$C$L0
 62
     3
 10
-138.6868953940
 20
181.7823529412
 11
-141.6892248233
 21
181.7823529412
  0
ARC
  8
Layer0$C$L0
 62
     3
 10
-112.9217115571
 20
170.3661502744
 40
0.4105115221
 50
83.6902368413
 51
123.7413086997
  0
LINE
  8
Layer0$C$L0
 62
     3
 10
-112.8759931959
 20
170.7823529462
 11
-110.4883573644
 21
170.7823529412
  0
LINE
  8
Layer0$C$L0
 62
     3
 10
-110.4883573644
 20
170.7823529412
 11
-110.1883573644
 21
171.0823529412
  0
LINE
  8
Layer0$C$L0
 62
     3
 10
-147.1883573644
 20
170.0823529412
 11
-147.1883578412
 21
170.1823529614
  0
LINE
  8
Layer0$C$L0
 62
     3
 10
-149.1883581690
 20
170.1823529614
 11
-149.1883573644
 21
170.0823529412
  0
LINE
  8
Layer0$C$L0
 62
     3
 10
-114.6883573644
 20
170.0823529412
 11
-114.6883571707
 21
170.1823529614
  0
LINE
  8
Layer0$C$L0
 62
     3
 10
-121.6883573867
 20
170.1823529614
 11
-121.6883573644
 21
170.0823529412
  0
LINE
  8
Layer0$C$L0
 62
     3
 10
-159.2550240310
 20
181.8823529412
 11
-160.1211774821
 21
180.5831227646
  0
LINE
  8
Layer0$C$L0
 62
     3
 10
-120.5216905288
 20
180.9823527176
 11
-121.1216906977
 21
181.8823529412
  0
LINE
  8
Layer0$C$L0
 62
     3
 10
-160.1883573644
 20
170.6823529412
 11
-159.6883573644
 21
170.1823529412
  0
ARC
  8
Layer0$C$L0
 62
     3
 10
-159.7883573644
 20
180.3612426861
 40
0.4000000000
 50
146.3099324740
 51
180.0000000000
  0
LINE
  8
Layer0$C$L0
 62
     3
 10
-160.1883573644
 20
180.3612426861
 11
-160.1883573644
 21
170.6823529412
  0
ARC
  8
Layer0$C$L0
 62
     3
 10
-140.1883573644
 20
178.9823529412
 40
19.0000000000
 50
13.5223221805
 51
166.4776778195
  0
LINE
  8
Layer0$C$L0
 62
     3
 10
-158.6616564137
 20
183.4250123064
 11
-158.8883573644
 21
182.4823529412
  0
LINE
  8
Layer0$C$L0
 62
     3
 10
-121.4883573644
 20
182.4823529412
 11
-121.7150583151
 21
183.4250123064
  0
LINE
  8
Layer0$C$L0
 62
     3
 10
-121.4883577265
 20
181.8823530514
 11
-121.4883573644
 21
182.4823529412
  0
LINE
  8
Layer0$C$L0
 62
     3
 10
-158.8883573644
 20
182.4823529412
 11
-158.8883584551
 21
181.8823530514
  0
ARC
  8
Layer0$C$L0
 62
     3
 10
-38.7285303020
 20
237.4941437458
 40
0.5000000000
 50
146.4426902381
 51
180.0000000000
  0
ARC
  8
Layer0$C$L0
 62
     3
 10
-38.7285303020
 20
232.8508690393
 40
0.5000000000
 50
180.0000000000
 51
213.5573097619
  0
LINE
  8
Layer0$C$L0
 62
     3
 10
-39.2285303020
 20
232.8508690393
 11
-39.2285303020
 21
237.4941437458
  0
ARC
  8
Layer0$C$L0
 62
     3
 10
-35.2285303020
 20
235.1725063925
 40
4.7000000000
 50
213.5573097619
 51
326.4426902381
  0
LINE
  8
Layer0$C$L0
 62
     3
 10
-31.2285303020
 20
237.4941437458
 11
-31.2285303020
 21
232.8508690393
  0
ARC
  8
Layer0$C$L0
 62
     3
 10
-35.2285303020
 20
235.1725063925
 40
4.7000000000
 50
33.5573097619
 51
146.4426902381
  0
ARC
  8
Layer0$C$L0
 62
     3
 10
-31.7285303020
 20
232.8508690393
 40
0.5000000000
 50
326.4426902381
 51
360.0000000000
  0
ARC
  8
Layer0$C$L0
 62
     3
 10
-31.7285303020
 20
237.4941437458
 40
0.5000000000
 50
0.0000000000
 51
33.5573097619
  0
CIRCLE
  8
Layer0$C$L0
 62
     3
 10
-35.2285303020
 20
235.1725063925
 40
2.0500000000
  0
LINE
  8
Layer0$C$L0
 62
     3
 10
-40.7285303020
 20
254.4391730592
 11
-40.7285303020
 21
254.3806933045
  0
LINE
  8
Layer0$C$L0
 62
     3
 10
-41.0285303020
 20
254.1800779833
 11
-40.7285303020
 21
254.3806933045
  0
LINE
  8
Layer0$C$L0
 62
     3
 10
-41.0285303020
 20
254.1800779833
 11
-41.0285303020
 21
216.1649348017
  0
LINE
  8
Layer0$C$L0
 62
     3
 10
-40.7285303020
 20
215.9643194806
 11
-41.0285303020
 21
216.1649348017
  0
LINE
  8
Layer0$C$L0
 62
     3
 10
-40.7285303020
 20
215.9643194806
 11
-40.7285303020
 21
215.9058397258
  0
POLYLINE
  8
Layer0$C$L0
 62
     3
 66
     1
  0
VERTEX
  8
Layer0$C$L0
 62
     3
 10
-40.1285300785
 20
223.1725062882
  0
VERTEX
  8
Layer0$C$L0
 62
     3
 10
-40.1228331783
 20
223.1269292240
  0
VERTEX
  8
Layer0$C$L0
 62
     3
 10
-40.1059147724
 20
222.9915838396
  0
VERTEX
  8
Layer0$C$L0
 62
     3
 10
-40.0782898822
 20
222.7705828553
  0
VERTEX
  8
Layer0$C$L0
 62
     3
 10
-40.0407966980
 20
222.4706401756
  0
VERTEX
  8
Layer0$C$L0
 62
     3
 10
-39.9945760900
 20
222.1008687918
  0
VERTEX
  8
Layer0$C$L0
 62
     3
 10
-39.9410306299
 20
221.6725060423
  0
VERTEX
  8
Layer0$C$L0
 62
     3
 10
-39.8817882696
 20
221.1985671600
  0
VERTEX
  8
Layer0$C$L0
 62
     3
 10
-39.8186483243
 20
220.6934513231
  0
VERTEX
  8
Layer0$C$L0
 62
     3
 10
-39.7535302499
 20
220.1725067278
  0
VERTEX
  8
Layer0$C$L0
 62
     3
 10
-39.6884121755
 20
219.6515621324
  0
VERTEX
  8
Layer0$C$L0
 62
     3
 10
-39.6252731615
 20
219.1464453643
  0
VERTEX
  8
Layer0$C$L0
 62
     3
 10
-39.5660298699
 20
218.6725064819
  0
VERTEX
  8
Layer0$C$L0
 62
     3
 10
-39.5124853411
 20
218.2441428011
  0
VERTEX
  8
Layer0$C$L0
 62
     3
 10
-39.4662638017
 20
217.8743723487
  0
VERTEX
  8
Layer0$C$L0
 62
     3
 10
-39.4287706175
 20
217.5744306003
  0
VERTEX
  8
Layer0$C$L0
 62
     3
 10
-39.4011457273
 20
217.3534277534
  0
VERTEX
  8
Layer0$C$L0
 62
     3
 10
-39.3842273214
 20
217.2180823689
  0
VERTEX
  8
Layer0$C$L0
 62
     3
 10
-39.3785304212
 20
217.1725071674
  0
SEQEND
  8
Layer0$C$L0
 62
     3
  0
POLYLINE
  8
Layer0$C$L0
 62
     3
 66
     1
  0
VERTEX
  8
Layer0$C$L0
 62
     3
 10
-39.3785304212
 20
253.1725056176
  0
VERTEX
  8
Layer0$C$L0
 62
     3
 10
-39.3842273214
 20
253.1269304161
  0
VERTEX
  8
Layer0$C$L0
 62
     3
 10
-39.4011457273
 20
252.9915850317
  0
VERTEX
  8
Layer0$C$L0
 62
     3
 10
-39.4287706175
 20
252.7705821847
  0
VERTEX
  8
Layer0$C$L0
 62
     3
 10
-39.4662638017
 20
252.4706404363
  0
VERTEX
  8
Layer0$C$L0
 62
     3
 10
-39.5124853411
 20
252.1008699839
  0
VERTEX
  8
Layer0$C$L0
 62
     3
 10
-39.5660298699
 20
251.6725063031
  0
VERTEX
  8
Layer0$C$L0
 62
     3
 10
-39.6252731615
 20
251.1985674207
  0
VERTEX
  8
Layer0$C$L0
 62
     3
 10
-39.6884121755
 20
250.6934506526
  0
VERTEX
  8
Layer0$C$L0
 62
     3
 10
-39.7535302499
 20
250.1725060572
  0
VERTEX
  8
Layer0$C$L0
 62
     3
 10
-39.8186483243
 20
249.6515614619
  0
VERTEX
  8
Layer0$C$L0
 62
     3
 10
-39.8817882696
 20
249.1464456250
  0
VERTEX
  8
Layer0$C$L0
 62
     3
 10
-39.9410306299
 20
248.6725067427
  0
VERTEX
  8
Layer0$C$L0
 62
     3
 10
-39.9945760900
 20
248.2441439932
  0
VERTEX
  8
Layer0$C$L0
 62
     3
 10
-40.0407966980
 20
247.8743726095
  0
VERTEX
  8
Layer0$C$L0
 62
     3
 10
-40.0782898822
 20
247.5744299298
  0
VERTEX
  8
Layer0$C$L0
 62
     3
 10
-40.1059147724
 20
247.3534289455
  0
VERTEX
  8
Layer0$C$L0
 62
     3
 10
-40.1228331783
 20
247.2180835610
  0
VERTEX
  8
Layer0$C$L0
 62
     3
 10
-40.1285300785
 20
247.1725064968
  0
SEQEND
  8
Layer0$C$L0
 62
     3
  0
LINE
  8
Layer0$C$L0
 62
     3
 10
-29.2285303020
 20
223.6725063925
 11
-29.2285303020
 21
216.6725063925
  0
LINE
  8
Layer0$C$L0
 62
     3
 10
-29.2285303020
 20
253.6725063925
 11
-29.2285303020
 21
246.6725063925
  0
LINE
  8
Layer0$C$L0
 62
     3
 10
-37.9767791191
 20
215.1725068395
 11
-37.9999113092
 21
215.1904981290
  0
LINE
  8
Layer0$C$L0
 62
     3
 10
-29.8285302878
 20
215.1725068395
 11
-37.9767791191
 21
215.1725068395
  0
LINE
  8
Layer0$C$L0
 62
     3
 10
-37.9767791191
 20
255.1725059455
 11
-29.8285302878
 21
255.1725059455
  0
LINE
  8
Layer0$C$L0
 62
     3
 10
-37.9999113092
 20
255.1545146560
 11
-37.9767791191
 21
255.1725059455
  0
LINE
  8
Layer0$C$L0
 62
     3
 10
-29.8285302878
 20
215.1725068395
 11
-29.3285303222
 21
215.6725059902
  0
LINE
  8
Layer0$C$L0
 62
     3
 10
-29.8285302878
 20
255.1725059455
 11
-29.3285303222
 21
254.6725067948
  0
LINE
  8
Layer0$C$L0
 62
     3
 10
-39.2525653177
 20
216.1647844767
 11
-39.2613942557
 21
216.2354178434
  0
LINE
  8
Layer0$C$L0
 62
     3
 10
-37.9999113092
 20
215.1904981290
 11
-39.2525653177
 21
216.1647844767
  0
LINE
  8
Layer0$C$L0
 62
     3
 10
-39.2613942557
 20
254.1095949416
 11
-39.2525653177
 21
254.1802283083
  0
LINE
  8
Layer0$C$L0
 62
     3
 10
-39.2525653177
 20
254.1802283083
 11
-37.9999113092
 21
255.1545146560
  0
LINE
  8
Layer0$C$L0
 62
     3
 10
-40.1285300785
 20
223.1725062882
 11
-40.1285300785
 21
223.2267632788
  0
LINE
  8
Layer0$C$L0
 62
     3
 10
-39.2613942557
 20
216.2354178434
 11
-40.1285300785
 21
223.1725062882
  0
LINE
  8
Layer0$C$L0
 62
     3
 10
-40.1285300785
 20
247.1182495063
 11
-40.1285300785
 21
247.1725064968
  0
LINE
  8
Layer0$C$L0
 62
     3
 10
-40.1285300785
 20
247.1725064968
 11
-39.2613942557
 21
254.1095949416
  0
LINE
  8
Layer0$C$L0
 62
     3
 10
-39.6247246125
 20
247.1725064968
 11
-39.6285299966
 21
247.1585003366
  0
LINE
  8
Layer0$C$L0
 62
     3
 10
-39.6285299966
 20
223.1865124484
 11
-39.6247246125
 21
223.1725062882
  0
LINE
  8
Layer0$C$L0
 62
     3
 10
-39.6247246125
 20
223.1725062882
 11
-29.8285302878
 21
223.1725062882
  0
LINE
  8
Layer0$C$L0
 62
     3
 10
-29.8285302878
 20
247.1725064968
 11
-39.6247246125
 21
247.1725064968
  0
LINE
  8
Layer0$C$L0
 62
     3
 10
-29.3285303222
 20
247.1352154096
 11
-29.3285303222
 21
223.2097973754
  0
LINE
  8
Layer0$C$L0
 62
     3
 10
-29.3285303222
 20
247.1352154096
 11
-29.8285302878
 21
247.1725064968
  0
LINE
  8
Layer0$C$L0
 62
     3
 10
-29.3285303222
 20
254.6725067948
 11
-29.3285303222
 21
247.1352154096
  0
LINE
  8
Layer0$C$L0
 62
     3
 10
-29.3285303222
 20
223.2097973754
 11
-29.8285302878
 21
223.1725062882
  0
LINE
  8
Layer0$C$L0
 62
     3
 10
-29.3285303222
 20
223.2097973754
 11
-29.3285303222
 21
215.6725059902
  0
LINE
  8
Layer0$C$L0
 62
     3
 10
-40.1285300785
 20
237.6301835464
 11
-40.1285300785
 21
247.1182495063
  0
LINE
  8
Layer0$C$L0
 62
     3
 10
-40.1285300785
 20
247.1182495063
 11
-39.6285299966
 21
247.1585003366
  0
LINE
  8
Layer0$C$L0
 62
     3
 10
-40.1285300785
 20
223.2267632788
 11
-40.1285300785
 21
232.7148292386
  0
LINE
  8
Layer0$C$L0
 62
     3
 10
-40.1285300785
 20
223.2267632788
 11
-39.6285299966
 21
223.1865124484
  0
LINE
  8
Layer0$C$L0
 62
     3
 10
-40.1285303020
 20
237.1924073802
 11
-40.1285300785
 21
237.6301835464
  0
LINE
  8
Layer0$C$L0
 62
     3
 10
-40.1285300785
 20
232.7148292386
 11
-40.1285303020
 21
233.1526054048
  0
LINE
  8
Layer0$C$L0
 62
     3
 10
-40.1285303020
 20
233.1526054048
 11
-40.1285303020
 21
237.1924073802
  0
ARC
  8
Layer0$C$L0
 62
     3
 10
-35.2285303020
 20
235.1725063925
 40
5.3000000000
 50
202.4026659005
 51
517.5973340995
  0
LINE
  8
Layer0$C$L0
 62
     3
 10
-41.6285303020
 20
216.4725063925
 11
-41.6285303020
 21
253.8725063925
  0
LINE
  8
Layer0$C$L0
 62
     3
 10
-39.5074200469
 20
215.1725063925
 11
-37.9767791191
 21
215.1725068395
  0
LINE
  8
Layer0$C$L0
 62
     3
 10
-37.9767791191
 20
255.1725059455
 11
-39.5074200469
 21
255.1725063925
  0
ARC
  8
Layer0$C$L0
 62
     3
 10
-39.5074200469
 20
254.7725063925
 40
0.4000000000
 50
90.0000000000
 51
123.6900675260
  0
ARC
  8
Layer0$C$L0
 62
     3
 10
-39.5074200469
 20
215.5725063925
 40
0.4000000000
 50
236.3099324740
 51
270.0000000000
  0
LINE
  8
Layer0$C$L0
 62
     3
 10
-40.7285303020
 20
215.9058397258
 11
-39.7293001254
 21
215.2396862748
  0
LINE
  8
Layer0$C$L0
 62
     3
 10
-39.7293001254
 20
255.1053265102
 11
-40.7285303020
 21
254.4391730592
  0
LINE
  8
Layer0$C$L0
 62
     3
 10
-29.2285303020
 20
223.6725063925
 11
-29.3285303222
 21
223.6725063702
  0
LINE
  8
Layer0$C$L0
 62
     3
 10
-29.3285303222
 20
216.6725061541
 11
-29.2285303020
 21
216.6725063925
  0
LINE
  8
Layer0$C$L0
 62
     3
 10
-29.2285303020
 20
253.6725063925
 11
-29.3285303222
 21
253.6725066309
  0
LINE
  8
Layer0$C$L0
 62
     3
 10
-29.3285303222
 20
246.6725064149
 11
-29.2285303020
 21
246.6725063925
  0
ARC
  8
Layer0$C$L0
 62
     3
 10
-38.1285303020
 20
235.1725063925
 40
19.0000000000
 50
103.5223221805
 51
256.4776778195
  0
LINE
  8
Layer0$C$L0
 62
     3
 10
-42.5711896673
 20
216.6992073432
 11
-41.6285303020
 21
216.4725063925
  0
LINE
  8
Layer0$C$L0
 62
     3
 10
-41.6285303020
 20
253.8725063925
 11
-42.5711896673
 21
253.6458054418
  0
LINE
  8
Layer0$C$L0
 62
     3
 10
-41.0285304123
 20
253.8725062912
 11
-41.6285303020
 21
253.8725063925
  0
LINE
  8
Layer0$C$L0
 62
     3
 10
-41.6285303020
 20
216.4725063925
 11
-41.0285304123
 21
216.4725064938
  0
LINE
  8
Layer1$C$L1
 62
     3
 10
-80.2767915414
 20
174.0323529413
 11
-80.2767915414
 21
178.1323529413
  0
LINE
  8
Layer1$C$L1
 62
     3
 10
-58.2767915414
 20
173.9823529413
 11
-58.2767915414
 21
172.7823529413
  0
LINE
  8
Layer1$C$L1
 62
     3
 10
-48.2767915414
 20
173.9823529413
 11
-48.2767915414
 21
172.7823529413
  0
LINE
  8
Layer1$C$L1
 62
     3
 10
-48.2767915414
 20
172.7823529413
 11
-58.2767915414
 21
172.7823529413
  0
LINE
  8
Layer1$C$L1
 62
     3
 10
-60.2767915414
 20
178.1823529413
 11
-60.2767915414
 21
179.3823529413
  0
LINE
  8
Layer1$C$L1
 62
     3
 10
-60.2767915414
 20
178.4423529413
 11
-58.2767915414
 21
178.4423529413
  0
LINE
  8
Layer1$C$L1
 62
     3
 10
-60.2767915414
 20
179.1223529413
 11
-58.2767915414
 21
179.1223529413
  0
LINE
  8
Layer1$C$L1
 62
     3
 10
-58.7998855522
 20
178.4423529413
 11
-58.4072873691
 21
179.1223529413
  0
LINE
  8
Layer1$C$L1
 62
     3
 10
-59.5498855522
 20
178.4423529413
 11
-59.1572873691
 21
179.1223529413
  0
LINE
  8
Layer1$C$L1
 62
     3
 10
-60.2767915414
 20
178.4823529413
 11
-59.9072873691
 21
179.1223529413
  0
LINE
  8
Layer1$C$L1
 62
     3
 10
-60.2767915414
 20
179.3823529413
 11
-66.1408479202
 21
179.3823529413
  0
LINE
  8
Layer1$C$L1
 62
     3
 10
-66.1408479202
 20
178.1823529413
 11
-60.2767915414
 21
178.1823529413
  0
ARC
  8
Layer1$C$L1
 62
     3
 10
-66.1408479202
 20
172.2823529413
 40
7.1000000000
 50
90.0000000000
 51
108.4349488229
  0
ARC
  8
Layer1$C$L1
 62
     3
 10
-66.1408479202
 20
172.2823529413
 40
5.9000000000
 50
90.0000000000
 51
108.4349488229
  0
LINE
  8
Layer1$C$L1
 62
     3
 10
-80.2767915414
 20
177.2823529413
 11
-74.2504575024
 21
177.2823529413
  0
ARC
  8
Layer1$C$L1
 62
     3
 10
-74.2504575024
 20
183.2823529413
 40
6.0000000000
 50
270.0000000000
 51
288.4349488229
  0
LINE
  8
Layer1$C$L1
 62
     3
 10
-68.3860650589
 20
179.0180043574
 11
-72.3530909063
 21
177.5902531530
  0
LINE
  8
Layer1$C$L1
 62
     3
 10
-67.9796969671
 20
177.8889051705
 11
-71.8128205512
 21
176.5093460185
  0
ARC
  8
Layer1$C$L1
 62
     3
 10
-74.2504575024
 20
183.2823529413
 40
7.2000000000
 50
270.0000000000
 51
289.7940418334
  0
ARC
  8
Layer1$C$L1
 62
     3
 10
-74.2504575024
 20
168.8823529413
 40
7.2000000000
 50
70.2059581666
 51
90.0000000000
  0
LINE
  8
Layer1$C$L1
 62
     3
 10
-67.9796969671
 20
174.2758007120
 11
-71.8128205512
 21
175.6553598641
  0
LINE
  8
Layer1$C$L1
 62
     3
 10
-68.3860650589
 20
173.1467015251
 11
-72.3530909063
 21
174.5744527296
  0
ARC
  8
Layer1$C$L1
 62
     3
 10
-74.2504575024
 20
168.8823529413
 40
6.0000000000
 50
71.5650511771
 51
90.0000000000
  0
LINE
  8
Layer1$C$L1
 62
     3
 10
-80.2767915414
 20
174.8823529413
 11
-74.2504575024
 21
174.8823529413
  0
ARC
  8
Layer1$C$L1
 62
     3
 10
-66.1408479202
 20
179.8823529413
 40
5.9000000000
 50
251.5650511771
 51
270.0000000000
  0
ARC
  8
Layer1$C$L1
 62
     3
 10
-66.1408479202
 20
179.8823529413
 40
7.1000000000
 50
251.5650511771
 51
270.0000000000
  0
LINE
  8
Layer1$C$L1
 62
     3
 10
-66.1408479202
 20
173.9823529413
 11
-60.2767915414
 21
173.9823529413
  0
LINE
  8
Layer1$C$L1
 62
     3
 10
-60.2767915414
 20
172.7823529413
 11
-66.1408479202
 21
172.7823529413
  0
LINE
  8
Layer1$C$L1
 62
     3
 10
-60.2767915414
 20
173.6823529413
 11
-59.9072873691
 21
173.0423529413
  0
LINE
  8
Layer1$C$L1
 62
     3
 10
-59.5498855522
 20
173.7223529413
 11
-59.1572873691
 21
173.0423529413
  0
LINE
  8
Layer1$C$L1
 62
     3
 10
-58.7998855522
 20
173.7223529413
 11
-58.4072873691
 21
173.0423529413
  0
LINE
  8
Layer1$C$L1
 62
     3
 10
-60.2767915414
 20
173.0423529413
 11
-58.2767915414
 21
173.0423529413
  0
LINE
  8
Layer1$C$L1
 62
     3
 10
-60.2767915414
 20
173.7223529413
 11
-58.2767915414
 21
173.7223529413
  0
LINE
  8
Layer1$C$L1
 62
     3
 10
-80.2767915414
 20
176.0823529413
 11
-74.2504575024
 21
176.0823529413
  0
LINE
  8
Layer1$C$L1
 62
     3
 10
-60.2767915414
 20
173.9823529413
 11
-60.2767915414
 21
172.7823529413
  0
LINE
  8
Layer1$C$L1
 62
     3
 10
-48.2767915414
 20
173.9823529413
 11
-58.2767915414
 21
173.9823529413
  0
LINE
  8
Layer1$C$L1
 62
     3
 10
-58.2767915414
 20
173.7223529413
 11
-58.2767915414
 21
173.0423529413
  0
LINE
  8
Layer1$C$L1
 62
     3
 10
-58.2767915414
 20
178.4423529413
 11
-58.2767915414
 21
179.1223529413
  0
LINE
  8
Layer1$C$L1
 62
     3
 10
-48.2767915414
 20
179.3823529413
 11
-58.2767915414
 21
179.3823529413
  0
LINE
  8
Layer1$C$L1
 62
     3
 10
-48.2767915414
 20
178.1823529413
 11
-58.2767915414
 21
178.1823529413
  0
LINE
  8
Layer1$C$L1
 62
     3
 10
-48.2767915414
 20
179.3823529413
 11
-48.2767915414
 21
178.1823529413
  0
LINE
  8
Layer1$C$L1
 62
     3
 10
-58.2767915414
 20
179.3823529413
 11
-58.2767915414
 21
178.1823529413
  0
POLYLINE
  8
Layer1$C$L1
 62
     3
 66
     1
 70
     4
  0
VERTEX
  8
Layer1$C$L1
 62
     3
 10
-90.1170662061
 20
179.0323529413
 70
    16
  0
VERTEX
  8
Layer1$C$L1
 62
     3
 10
-90.1170662061
 20
179.0323529413
 70
     8
  0
VERTEX
  8
Layer1$C$L1
 62
     3
 10
-90.3156783096
 20
178.8235845877
 70
     8
  0
VERTEX
  8
Layer1$C$L1
 62
     3
 10
-90.5104870306
 20
178.5951821168
 70
     8
  0
VERTEX
  8
Layer1$C$L1
 62
     3
 10
-90.6928780454
 20
178.3510723520
 70
     8
  0
VERTEX
  8
Layer1$C$L1
 62
     3
 10
-90.8542370306
 20
178.0951821168
 70
     8
  0
VERTEX
  8
Layer1$C$L1
 62
     3
 10
-90.9859496627
 20
177.8314382346
 70
     8
  0
VERTEX
  8
Layer1$C$L1
 62
     3
 10
-91.0794016183
 20
177.5637675290
 70
     8
  0
VERTEX
  8
Layer1$C$L1
 62
     3
 10
-91.1259785739
 20
177.2960968234
 70
     8
  0
VERTEX
  8
Layer1$C$L1
 62
     3
 10
-91.1170662061
 20
177.0323529413
 70
     8
  0
VERTEX
  8
Layer1$C$L1
 62
     3
 10
-91.0481568971
 20
176.7754810002
 70
     8
  0
VERTEX
  8
Layer1$C$L1
 62
     3
 10
-90.9311698530
 20
176.5244992943
 70
     8
  0
VERTEX
  8
Layer1$C$L1
 62
     3
 10
-90.7821309854
 20
176.2774444119
 70
     8
  0
VERTEX
  8
Layer1$C$L1
 62
     3
 10
-90.6170662061
 20
176.0323529413
 70
     8
  0
VERTEX
  8
Layer1$C$L1
 62
     3
 10
-90.4520014267
 20
175.7872614706
 70
     8
  0
VERTEX
  8
Layer1$C$L1
 62
     3
 10
-90.3029625591
 20
175.5402065882
 70
     8
  0
VERTEX
  8
Layer1$C$L1
 62
     3
 10
-90.1859755150
 20
175.2892248823
 70
     8
  0
VERTEX
  8
Layer1$C$L1
 62
     3
 10
-90.1170662061
 20
175.0323529413
 70
     8
  0
VERTEX
  8
Layer1$C$L1
 62
     3
 10
-90.1081538382
 20
174.7686090591
 70
     8
  0
VERTEX
  8
Layer1$C$L1
 62
     3
 10
-90.1547307938
 20
174.5009383535
 70
     8
  0
VERTEX
  8
Layer1$C$L1
 62
     3
 10
-90.2481827494
 20
174.2332676479
 70
     8
  0
VERTEX
  8
Layer1$C$L1
 62
     3
 10
-90.3798953815
 20
173.9695237658
 70
     8
  0
VERTEX
  8
Layer1$C$L1
 62
     3
 10
-90.5412543667
 20
173.7136335306
 70
     8
  0
VERTEX
  8
Layer1$C$L1
 62
     3
 10
-90.7236453815
 20
173.4695237658
 70
     8
  0
VERTEX
  8
Layer1$C$L1
 62
     3
 10
-90.9184541025
 20
173.2411212949
 70
     8
  0
VERTEX
  8
Layer1$C$L1
 62
     3
 10
-91.1170662061
 20
173.0323529413
 70
     8
  0
VERTEX
  8
Layer1$C$L1
 62
     3
 10
-91.1170662061
 20
177.0323529413
 70
    16
  0
VERTEX
  8
Layer1$C$L1
 62
     3
 10
-90.1170662061
 20
175.0323529413
 70
    16
  0
VERTEX
  8
Layer1$C$L1
 62
     3
 10
-91.1170662061
 20
173.0323529413
 70
    16
  0
SEQEND
  8
Layer1$C$L1
 62
     3
  0
POLYLINE
  8
Layer1$C$L1
 62
     3
 66
     1
 70
     4
  0
VERTEX
  8
Layer1$C$L1
 62
     3
 10
-91.0883573645
 20
179.0823529413
 70
    16
  0
VERTEX
  8
Layer1$C$L1
 62
     3
 10
-91.0883573645
 20
179.0823529413
 70
     8
  0
VERTEX
  8
Layer1$C$L1
 62
     3
 10
-91.2869694681
 20
178.8735845877
 70
     8
  0
VERTEX
  8
Layer1$C$L1
 62
     3
 10
-91.4817781890
 20
178.6451821168
 70
     8
  0
VERTEX
  8
Layer1$C$L1
 62
     3
 10
-91.6641692038
 20
178.4010723520
 70
     8
  0
VERTEX
  8
Layer1$C$L1
 62
     3
 10
-91.8255281890
 20
178.1451821168
 70
     8
  0
VERTEX
  8
Layer1$C$L1
 62
     3
 10
-91.9572408212
 20
177.8814382346
 70
     8
  0
VERTEX
  8
Layer1$C$L1
 62
     3
 10
-92.0506927768
 20
177.6137675290
 70
     8
  0
VERTEX
  8
Layer1$C$L1
 62
     3
 10
-92.0972697324
 20
177.3460968234
 70
     8
  0
VERTEX
  8
Layer1$C$L1
 62
     3
 10
-92.0883573645
 20
177.0823529413
 70
     8
  0
VERTEX
  8
Layer1$C$L1
 62
     3
 10
-92.0194480556
 20
176.8254810002
 70
     8
  0
VERTEX
  8
Layer1$C$L1
 62
     3
 10
-91.9024610115
 20
176.5744992943
 70
     8
  0
VERTEX
  8
Layer1$C$L1
 62
     3
 10
-91.7534221439
 20
176.3274444119
 70
     8
  0
VERTEX
  8
Layer1$C$L1
 62
     3
 10
-91.5883573645
 20
176.0823529413
 70
     8
  0
VERTEX
  8
Layer1$C$L1
 62
     3
 10
-91.4232925852
 20
175.8372614706
 70
     8
  0
VERTEX
  8
Layer1$C$L1
 62
     3
 10
-91.2742537176
 20
175.5902065882
 70
     8
  0
VERTEX
  8
Layer1$C$L1
 62
     3
 10
-91.1572666735
 20
175.3392248823
 70
     8
  0
VERTEX
  8
Layer1$C$L1
 62
     3
 10
-91.0883573645
 20
175.0823529413
 70
     8
  0
VERTEX
  8
Layer1$C$L1
 62
     3
 10
-91.0794449967
 20
174.8186090591
 70
     8
  0
VERTEX
  8
Layer1$C$L1
 62
     3
 10
-91.1260219523
 20
174.5509383535
 70
     8
  0
VERTEX
  8
Layer1$C$L1
 62
     3
 10
-91.2194739079
 20
174.2832676479
 70
     8
  0
VERTEX
  8
Layer1$C$L1
 62
     3
 10
-91.3511865400
 20
174.0195237658
 70
     8
  0
VERTEX
  8
Layer1$C$L1
 62
     3
 10
-91.5125455252
 20
173.7636335306
 70
     8
  0
VERTEX
  8
Layer1$C$L1
 62
     3
 10
-91.6949365400
 20
173.5195237658
 70
     8
  0
VERTEX
  8
Layer1$C$L1
 62
     3
 10
-91.8897452609
 20
173.2911212949
 70
     8
  0
VERTEX
  8
Layer1$C$L1
 62
     3
 10
-92.0883573645
 20
173.0823529413
 70
     8
  0
VERTEX
  8
Layer1$C$L1
 62
     3
 10
-92.0883573645
 20
177.0823529413
 70
    16
  0
VERTEX
  8
Layer1$C$L1
 62
     3
 10
-91.0883573645
 20
175.0823529413
 70
    16
  0
VERTEX
  8
Layer1$C$L1
 62
     3
 10
-92.0883573645
 20
173.0823529413
 70
    16
  0
SEQEND
  8
Layer1$C$L1
 62
     3
  0
LINE
  8
Layer1$C$L1
  6
CENTER
 62
     3
 10
-140.1883573235
 20
93.0823529411
 11
-140.1883573235
 21
137.0823529411
  0
LINE
  8
Layer1$C$L1
  6
CENTER
 62
     3
 10
-118.1883573645
 20
246.1725064968
 11
-118.1883573645
 21
254.1725063922
  0
LINE
  8
Layer1$C$L1
  6
CENTER
 62
     3
 10
-118.1883573645
 20
216.1725063381
 11
-118.1883573645
 21
224.1725062882
  0
LINE
  8
Layer1$C$L1
  6
DASH
 62
     3
 10
-32.3285303020
 20
253.1725063925
 11
-32.3285303020
 21
247.1725063925
  0
LINE
  8
Layer1$C$L1
  6
DASH
 62
     3
 10
-32.3285303020
 20
217.1725063925
 11
-32.3285303020
 21
223.1725062882
  0
LINE
  8
Layer1$C$L1
  6
DASH
 62
     3
 10
-39.3785303020
 20
217.1725063925
 11
-32.3285303020
 21
217.1725063925
  0
LINE
  8
Layer1$C$L1
  6
DASH
 62
     3
 10
-32.3285303020
 20
218.4725063925
 11
-29.2285303020
 21
218.4725063925
  0
LINE
  8
Layer1$C$L1
  6
DASH
 62
     3
 10
-29.2285303020
 20
221.8725063925
 11
-32.3285303020
 21
221.8725063925
  0
LINE
  8
Layer1$C$L1
  6
DASH
 62
     3
 10
-29.2285303020
 20
248.4725063925
 11
-32.3285303020
 21
248.4725063925
  0
LINE
  8
Layer1$C$L1
  6
DASH
 62
     3
 10
-32.3285303020
 20
251.8725063925
 11
-29.2285303020
 21
251.8725063925
  0
LINE
  8
Layer1$C$L1
  6
DASH
 62
     3
 10
-39.3785303020
 20
253.1725063925
 11
-32.3285303020
 21
253.1725063925
  0
ARC
  8
Layer1$C$L1
 62
     3
 10
-76.6346316260
 20
156.2823529413
 40
11.2000000000
 50
270.0000000000
 51
296.8199308181
  0
ARC
  8
Layer1$C$L1
 62
     3
 10
-76.6346316260
 20
133.8823529413
 40
11.2000000000
 50
63.1800691819
 51
90.0000000000
  0
ARC
  8
Layer1$C$L1
 62
     3
 10
-63.7566737966
 20
149.7823529413
 40
8.8000000000
 50
243.1800691819
 51
270.0000000000
  0
ARC
  8
Layer1$C$L1
 62
     3
 10
-63.7566737966
 20
140.3823529413
 40
8.8000000000
 50
90.0000000000
 51
116.8199308181
  0
ARC
  8
Layer1$C$L1
 62
     3
 10
-63.7566737966
 20
140.3823529413
 40
10.0000000000
 50
90.0000000000
 51
116.8199308181
  0
ARC
  8
Layer1$C$L1
 62
     3
 10
-76.6346316260
 20
156.2823529413
 40
10.0000000000
 50
270.0000000000
 51
296.8199308181
  0
ARC
  8
Layer1$C$L1
 62
     3
 10
-63.7566737966
 20
149.7823529413
 40
10.0000000000
 50
243.1800691819
 51
270.0000000000
  0
ARC
  8
Layer1$C$L1
 62
     3
 10
-76.6346316260
 20
133.8823529413
 40
10.0000000000
 50
63.1800691819
 51
90.0000000000
  0
LINE
  8
Layer1$C$L1
 62
     3
 10
-71.5813259490
 20
143.8775568779
 11
-67.7271282571
 21
141.9289784196
  0
LINE
  8
Layer1$C$L1
 62
     3
 10
-71.5813259490
 20
146.2871490047
 11
-67.7271282571
 21
148.2357274629
  0
LINE
  8
Layer1$C$L1
 62
     3
 10
-72.1227515572
 20
147.3580637122
 11
-68.2685538654
 21
149.3066421704
  0
LINE
  8
Layer1$C$L1
 62
     3
 10
-72.1227515572
 20
142.8066421704
 11
-68.2685538654
 21
140.8580637122
  0
LINE
  8
Layer1$C$L1
 62
     3
 10
-58.2767915414
 20
145.6823529413
 11
-58.2767915414
 21
144.4823529413
  0
LINE
  8
Layer1$C$L1
 62
     3
 10
-48.2767915414
 20
145.6823529413
 11
-48.2767915414
 21
144.4823529413
  0
LINE
  8
Layer1$C$L1
 62
     3
 10
-48.2767915414
 20
144.4823529413
 11
-58.2767915414
 21
144.4823529413
  0
LINE
  8
Layer1$C$L1
 62
     3
 10
-73.0180033620
 20
145.6823529413
 11
-60.2767915414
 21
145.6823529413
  0
LINE
  8
Layer1$C$L1
 62
     3
 10
-60.2767915414
 20
144.4823529413
 11
-73.0180033620
 21
144.4823529413
  0
LINE
  8
Layer1$C$L1
 62
     3
 10
-60.2767915414
 20
145.3823529413
 11
-59.9072873691
 21
144.7423529413
  0
LINE
  8
Layer1$C$L1
 62
     3
 10
-59.5498855522
 20
145.4223529413
 11
-59.1572873691
 21
144.7423529413
  0
LINE
  8
Layer1$C$L1
 62
     3
 10
-58.7998855522
 20
145.4223529413
 11
-58.4072873691
 21
144.7423529413
  0
LINE
  8
Layer1$C$L1
 62
     3
 10
-60.2767915414
 20
144.7423529413
 11
-58.2767915414
 21
144.7423529413
  0
LINE
  8
Layer1$C$L1
 62
     3
 10
-60.2767915414
 20
145.4223529413
 11
-58.2767915414
 21
145.4223529413
  0
LINE
  8
Layer1$C$L1
 62
     3
 10
-60.2767915414
 20
145.6823529413
 11
-60.2767915414
 21
144.4823529413
  0
LINE
  8
Layer1$C$L1
 62
     3
 10
-48.2767915414
 20
145.6823529413
 11
-58.2767915414
 21
145.6823529413
  0
LINE
  8
Layer1$C$L1
 62
     3
 10
-58.2767915414
 20
145.4223529413
 11
-58.2767915414
 21
144.7423529413
  0
LINE
  8
Layer1$C$L1
 62
     3
 10
-76.6632910122
 20
145.0823529413
 11
-76.6346316260
 21
145.0823529413
  0
LINE
  8
Layer1$C$L1
 62
     3
 10
-58.2767915414
 20
150.3823529413
 11
-58.2767915414
 21
149.1823529413
  0
LINE
  8
Layer1$C$L1
 62
     3
 10
-48.2767915414
 20
150.3823529413
 11
-48.2767915414
 21
149.1823529413
  0
LINE
  8
Layer1$C$L1
 62
     3
 10
-48.2767915414
 20
149.1823529413
 11
-58.2767915414
 21
149.1823529413
  0
LINE
  8
Layer1$C$L1
 62
     3
 10
-48.2767915414
 20
150.3823529413
 11
-58.2767915414
 21
150.3823529413
  0
LINE
  8
Layer1$C$L1
 62
     3
 10
-58.2767915414
 20
149.4423529413
 11
-58.2767915414
 21
150.1223529413
  0
LINE
  8
Layer1$C$L1
 62
     3
 10
-58.2767915414
 20
140.7223529413
 11
-58.2767915414
 21
140.0423529413
  0
LINE
  8
Layer1$C$L1
 62
     3
 10
-48.2767915414
 20
140.9823529413
 11
-58.2767915414
 21
140.9823529413
  0
LINE
  8
Layer1$C$L1
 62
     3
 10
-60.2767915414
 20
140.9823529413
 11
-60.2767915414
 21
139.7823529413
  0
LINE
  8
Layer1$C$L1
 62
     3
 10
-80.2767915414
 20
145.0823529413
 11
-76.6346316260
 21
145.0823529413
  0
LINE
  8
Layer1$C$L1
 62
     3
 10
-60.2767915414
 20
140.7223529413
 11
-58.2767915414
 21
140.7223529413
  0
LINE
  8
Layer1$C$L1
 62
     3
 10
-60.2767915414
 20
140.0423529413
 11
-58.2767915414
 21
140.0423529413
  0
LINE
  8
Layer1$C$L1
 62
     3
 10
-58.7998855522
 20
140.7223529413
 11
-58.4072873691
 21
140.0423529413
  0
LINE
  8
Layer1$C$L1
 62
     3
 10
-59.5498855522
 20
140.7223529413
 11
-59.1572873691
 21
140.0423529413
  0
LINE
  8
Layer1$C$L1
 62
     3
 10
-60.2767915414
 20
140.6823529413
 11
-59.9072873691
 21
140.0423529413
  0
LINE
  8
Layer1$C$L1
 62
     3
 10
-60.2767915414
 20
139.7823529413
 11
-63.7566737966
 21
139.7823529413
  0
LINE
  8
Layer1$C$L1
 62
     3
 10
-63.7566737966
 20
140.9823529413
 11
-60.2767915414
 21
140.9823529413
  0
LINE
  8
Layer1$C$L1
 62
     3
 10
-80.2767915414
 20
143.8823529413
 11
-76.6346316260
 21
143.8823529413
  0
LINE
  8
Layer1$C$L1
 62
     3
 10
-80.2767915414
 20
146.2823529413
 11
-76.6346316260
 21
146.2823529413
  0
LINE
  8
Layer1$C$L1
 62
     3
 10
-63.7566737966
 20
149.1823529413
 11
-60.2767915414
 21
149.1823529413
  0
LINE
  8
Layer1$C$L1
 62
     3
 10
-60.2767915414
 20
150.3823529413
 11
-63.7566737966
 21
150.3823529413
  0
LINE
  8
Layer1$C$L1
 62
     3
 10
-60.2767915414
 20
149.4823529413
 11
-59.9072873691
 21
150.1223529413
  0
LINE
  8
Layer1$C$L1
 62
     3
 10
-59.5498855522
 20
149.4423529413
 11
-59.1572873691
 21
150.1223529413
  0
LINE
  8
Layer1$C$L1
 62
     3
 10
-58.7998855522
 20
149.4423529413
 11
-58.4072873691
 21
150.1223529413
  0
LINE
  8
Layer1$C$L1
 62
     3
 10
-60.2767915414
 20
150.1223529413
 11
-58.2767915414
 21
150.1223529413
  0
LINE
  8
Layer1$C$L1
 62
     3
 10
-60.2767915414
 20
149.4423529413
 11
-58.2767915414
 21
149.4423529413
  0
LINE
  8
Layer1$C$L1
 62
     3
 10
-60.2767915414
 20
149.1823529413
 11
-60.2767915414
 21
150.3823529413
  0
LINE
  8
Layer1$C$L1
 62
     3
 10
-48.2767915414
 20
139.7823529413
 11
-58.2767915414
 21
139.7823529413
  0
LINE
  8
Layer1$C$L1
 62
     3
 10
-48.2767915414
 20
140.9823529413
 11
-48.2767915414
 21
139.7823529413
  0
LINE
  8
Layer1$C$L1
 62
     3
 10
-58.2767915414
 20
140.9823529413
 11
-58.2767915414
 21
139.7823529413
  0
LINE
  8
Layer0$C$L0
 62
     3
 10
-155.6883563996
 20
108.5823528072
 11
-152.6883577705
 21
105.5823532468
  0
LINE
  8
Layer0$C$L0
 62
     3
 10
-153.1883587838
 20
105.0823531648
 11
-156.1883574129
 21
108.0823527252
  0
POLYLINE
  8
Layer1$C$L1
 62
     3
 66
     1
 70
     4
  0
VERTEX
  8
Layer1$C$L1
 62
     3
 10
-91.0883573645
 20
148.0823529413
 70
    16
  0
VERTEX
  8
Layer1$C$L1
 62
     3
 10
-91.0883573645
 20
148.0823529413
 70
     8
  0
VERTEX
  8
Layer1$C$L1
 62
     3
 10
-91.2869694681
 20
147.8735845877
 70
     8
  0
VERTEX
  8
Layer1$C$L1
 62
     3
 10
-91.4817781890
 20
147.6451821168
 70
     8
  0
VERTEX
  8
Layer1$C$L1
 62
     3
 10
-91.6641692038
 20
147.4010723520
 70
     8
  0
VERTEX
  8
Layer1$C$L1
 62
     3
 10
-91.8255281890
 20
147.1451821168
 70
     8
  0
VERTEX
  8
Layer1$C$L1
 62
     3
 10
-91.9572408212
 20
146.8814382346
 70
     8
  0
VERTEX
  8
Layer1$C$L1
 62
     3
 10
-92.0506927768
 20
146.6137675290
 70
     8
  0
VERTEX
  8
Layer1$C$L1
 62
     3
 10
-92.0972697324
 20
146.3460968234
 70
     8
  0
VERTEX
  8
Layer1$C$L1
 62
     3
 10
-92.0883573645
 20
146.0823529413
 70
     8
  0
VERTEX
  8
Layer1$C$L1
 62
     3
 10
-92.0194480556
 20
145.8254810002
 70
     8
  0
VERTEX
  8
Layer1$C$L1
 62
     3
 10
-91.9024610115
 20
145.5744992943
 70
     8
  0
VERTEX
  8
Layer1$C$L1
 62
     3
 10
-91.7534221439
 20
145.3274444119
 70
     8
  0
VERTEX
  8
Layer1$C$L1
 62
     3
 10
-91.5883573645
 20
145.0823529413
 70
     8
  0
VERTEX
  8
Layer1$C$L1
 62
     3
 10
-91.4232925852
 20
144.8372614706
 70
     8
  0
VERTEX
  8
Layer1$C$L1
 62
     3
 10
-91.2742537176
 20
144.5902065882
 70
     8
  0
VERTEX
  8
Layer1$C$L1
 62
     3
 10
-91.1572666735
 20
144.3392248823
 70
     8
  0
VERTEX
  8
Layer1$C$L1
 62
     3
 10
-91.0883573645
 20
144.0823529413
 70
     8
  0
VERTEX
  8
Layer1$C$L1
 62
     3
 10
-91.0794449967
 20
143.8186090591
 70
     8
  0
VERTEX
  8
Layer1$C$L1
 62
     3
 10
-91.1260219523
 20
143.5509383535
 70
     8
  0
VERTEX
  8
Layer1$C$L1
 62
     3
 10
-91.2194739079
 20
143.2832676479
 70
     8
  0
VERTEX
  8
Layer1$C$L1
 62
     3
 10
-91.3511865400
 20
143.0195237658
 70
     8
  0
VERTEX
  8
Layer1$C$L1
 62
     3
 10
-91.5125455252
 20
142.7636335306
 70
     8
  0
VERTEX
  8
Layer1$C$L1
 62
     3
 10
-91.6949365400
 20
142.5195237658
 70
     8
  0
VERTEX
  8
Layer1$C$L1
 62
     3
 10
-91.8897452609
 20
142.2911212949
 70
     8
  0
VERTEX
  8
Layer1$C$L1
 62
     3
 10
-92.0883573645
 20
142.0823529413
 70
     8
  0
VERTEX
  8
Layer1$C$L1
 62
     3
 10
-92.0883573645
 20
146.0823529413
 70
    16
  0
VERTEX
  8
Layer1$C$L1
 62
     3
 10
-91.0883573645
 20
144.0823529413
 70
    16
  0
VERTEX
  8
Layer1$C$L1
 62
     3
 10
-92.0883573645
 20
142.0823529413
 70
    16
  0
SEQEND
  8
Layer1$C$L1
 62
     3
  0
POLYLINE
  8
Layer1$C$L1
 62
     3
 66
     1
 70
     4
  0
VERTEX
  8
Layer1$C$L1
 62
     3
 10
-90.1170662061
 20
148.0323529413
 70
    16
  0
VERTEX
  8
Layer1$C$L1
 62
     3
 10
-90.1170662061
 20
148.0323529413
 70
     8
  0
VERTEX
  8
Layer1$C$L1
 62
     3
 10
-90.3156783096
 20
147.8235845877
 70
     8
  0
VERTEX
  8
Layer1$C$L1
 62
     3
 10
-90.5104870306
 20
147.5951821168
 70
     8
  0
VERTEX
  8
Layer1$C$L1
 62
     3
 10
-90.6928780454
 20
147.3510723520
 70
     8
  0
VERTEX
  8
Layer1$C$L1
 62
     3
 10
-90.8542370306
 20
147.0951821168
 70
     8
  0
VERTEX
  8
Layer1$C$L1
 62
     3
 10
-90.9859496627
 20
146.8314382346
 70
     8
  0
VERTEX
  8
Layer1$C$L1
 62
     3
 10
-91.0794016183
 20
146.5637675290
 70
     8
  0
VERTEX
  8
Layer1$C$L1
 62
     3
 10
-91.1259785739
 20
146.2960968234
 70
     8
  0
VERTEX
  8
Layer1$C$L1
 62
     3
 10
-91.1170662061
 20
146.0323529413
 70
     8
  0
VERTEX
  8
Layer1$C$L1
 62
     3
 10
-91.0481568971
 20
145.7754810002
 70
     8
  0
VERTEX
  8
Layer1$C$L1
 62
     3
 10
-90.9311698530
 20
145.5244992943
 70
     8
  0
VERTEX
  8
Layer1$C$L1
 62
     3
 10
-90.7821309854
 20
145.2774444119
 70
     8
  0
VERTEX
  8
Layer1$C$L1
 62
     3
 10
-90.6170662061
 20
145.0323529413
 70
     8
  0
VERTEX
  8
Layer1$C$L1
 62
     3
 10
-90.4520014267
 20
144.7872614706
 70
     8
  0
VERTEX
  8
Layer1$C$L1
 62
     3
 10
-90.3029625591
 20
144.5402065882
 70
     8
  0
VERTEX
  8
Layer1$C$L1
 62
     3
 10
-90.1859755150
 20
144.2892248823
 70
     8
  0
VERTEX
  8
Layer1$C$L1
 62
     3
 10
-90.1170662061
 20
144.0323529413
 70
     8
  0
VERTEX
  8
Layer1$C$L1
 62
     3
 10
-90.1081538382
 20
143.7686090591
 70
     8
  0
VERTEX
  8
Layer1$C$L1
 62
     3
 10
-90.1547307938
 20
143.5009383535
 70
     8
  0
VERTEX
  8
Layer1$C$L1
 62
     3
 10
-90.2481827494
 20
143.2332676479
 70
     8
  0
VERTEX
  8
Layer1$C$L1
 62
     3
 10
-90.3798953815
 20
142.9695237658
 70
     8
  0
VERTEX
  8
Layer1$C$L1
 62
     3
 10
-90.5412543667
 20
142.7136335306
 70
     8
  0
VERTEX
  8
Layer1$C$L1
 62
     3
 10
-90.7236453815
 20
142.4695237658
 70
     8
  0
VERTEX
  8
Layer1$C$L1
 62
     3
 10
-90.9184541025
 20
142.2411212949
 70
     8
  0
VERTEX
  8
Layer1$C$L1
 62
     3
 10
-91.1170662061
 20
142.0323529413
 70
     8
  0
VERTEX
  8
Layer1$C$L1
 62
     3
 10
-91.1170662061
 20
146.0323529413
 70
    16
  0
VERTEX
  8
Layer1$C$L1
 62
     3
 10
-90.1170662061
 20
144.0323529413
 70
    16
  0
VERTEX
  8
Layer1$C$L1
 62
     3
 10
-91.1170662061
 20
142.0323529413
 70
    16
  0
SEQEND
  8
Layer1$C$L1
 62
     3
  0
LINE
  8
Layer1$C$L1
 62
     3
 10
-80.2767915414
 20
143.0323529413
 11
-80.2767915414
 21
147.1323529413
  0
LINE
  8
Layer0$C$L0
 62
     3
 10
-91.8327748905
 20
147.1323529412
 11
-101.1883573644
 21
147.1323529412
  0
LINE
  8
Layer0$C$L0
 62
     3
 10
-101.1883573644
 20
143.0323529412
 11
-91.3439398387
 21
143.0323529412
  0
LINE
  8
Layer1$C$L1
 62
     3
 10
-80.2767915414
 20
147.1323529412
 11
-90.8327748905
 21
147.1323529412
  0
LINE
  8
Layer1$C$L1
 62
     3
 10
-80.2767915414
 20
143.0323529412
 11
-90.3452028674
 21
143.0323529412
  0
POLYLINE
  8
Layer6$C$L6
 66
     1
 70
     1
  0
VERTEX
  8
Layer6$C$L6
 10
-204.1499999762
 20
289.5000000000
 42
1.0000000000
  0
VERTEX
  8
Layer6$C$L6
 10
-203.8500000238
 20
289.5000000000
 42
1.0000000000
  0
SEQEND
  8
Layer6$C$L6
  0
ENDSEC
  0
EOF
