  0
SECTION
  2
HEADER
  9
$ACADVER
  1
AC1004
  9
$ANGBASE
 50
0.0000000000
  9
$ANGDIR
 70
     0
  9
$ATTDIA
 70
     0
  9
$ATTMODE
 70
     1
  9
$ATTREQ
 70
     1
  9
$AUNITS
 70
     0
  9
$AUPREC
 70
     0
  9
$AXISMODE
 70
     0
  9
$AXISUNIT
 10
0.0000000000
 20
0.0000000000
  9
$BLIPMODE
 70
     1
  9
$CECOLOR
 62
   256
  9
$CELTYPE
  6
BYLAYER
  9
$CHAMFERA
 40
0.0000000000
  9
$CHAMFERB
 40
0.0000000000
  9
$CLAYER
  8
0
  9
$COORDS
 70
     0
  9
$DIMALT
 70
     0
  9
$DIMALTD
 70
     2
  9
$DIMALTF
 40
25.4000000000
  9
$DIMAPOST
  1

  9
$DIMASO
 70
     1
  9
$DIMASZ
 40
1.9727878460
  9
$DIMBLK
  1

  9
$DIMBLK1
  1

  9
$DIMBLK2
  1

  9
$DIMCEN
 40
9.0000000000E-02
  9
$DIMDLE
 40
0.0000000000
  9
$DIMDLI
 40
0.3800000000
  9
$DIMEXE
 40
3.8099999428
  9
$DIMEXO
 40
2.5399999619
  9
$DIMLFAC
 40
1.0000000000
  9
$DIMLIM
 70
     0
  9
$DIMPOST
  1

  9
$DIMRND
 40
0.0000000000
  9
$DIMSCALE
 40
1.0000000000
  9
$DIMSE1
 70
     0
  9
$DIMSE2
 70
     0
  9
$DIMSHO
 70
     0
  9
$DIMTAD
 70
     0
  9
$DIMTIH
 70
     0
  9
$DIMTM
 40
0.0000000000
  9
$DIMTOH
 70
     1
  9
$DIMTOL
 70
     0
  9
$DIMTP
 40
0.0000000000
  9
$DIMTSZ
 40
0.0000000000
  9
$DIMTXT
 40
2.9999940395
  9
$DIMZIN
 70
     0
  9
$DRAGMODE
 70
     1
  9
$ELEVATION
 40
0.0000000000
  9
$EXTMAX
 10
3.1750000000
 20
537.6886718750
 30
0.0000000000
  9
$EXTMIN
 10
-1025.6162231445
 20
-3.1750000000
 30
0.0000000000
  9
$FASTZOOM
 70
     1
  9
$FILLETRAD
 40
6.2500000000E-02
  9
$FILLMODE
 70
     1
  9
$GRIDMODE
 70
     0
  9
$GRIDUNIT
 10
0.0000000000
 20
0.0000000000
  9
$INSBASE
 10
0.0000000000
 20
0.0000000000
 30
0.0000000000
  9
$LIMCHECK
 70
     0
  9
$LIMMAX
 10
3.1750000000
 20
537.6886718750
  9
$LIMMIN
 10
-1025.6162231445
 20
-3.1750000000
  9
$LTSCALE
 40
1.0000000000
  9
$LUNITS
 70
     2
  9
$LUPREC
 70
     3
  9
$MEASUREMENT
 70
     0
  9
$MENU
  1
ACAD
  9
$MIRRTEXT
 70
     0
  9
$ORTHOMODE
 70
     0
  9
$OSMODE
 70
     0
  9
$PDMODE
 70
     0
  9
$PDSIZE
 40
0.0000000000
  9
$PLINEWID
 40
0.0000000000
  9
$PROXYGRAPHICS
 70
     0
  9
$QTEXTMODE
 70
     0
  9
$REGENMODE
 70
     1
  9
$SKETCHINC
 40
0.1000000000
  9
$SKPOLY
 70
     0
  9
$SNAPANG
 50
0.0000000000
  9
$SNAPBASE
 10
0.0000000000
 20
0.0000000000
  9
$SNAPISOPAIR
 70
     0
  9
$SNAPMODE
 70
     0
  9
$SNAPSTYLE
 70
     0
  9
$SNAPUNIT
 10
1.0000000000
 20
1.0000000000
  9
$SPLFRAME
 70
     0
  9
$SPLINESEGS
 70
     8
  9
$TDCREATE
 40
2455525.6708449122
  9
$TDINDWG
 40
0.0000000000
  9
$TDUPDATE
 40
2455525.6708449122
  9
$TDUSRTIMER
 40
0.0000000000
  9
$TEXTSIZE
 40
2.9999940395
  9
$TEXTSTYLE
  7
STANDARD
  9
$THICKNESS
 40
0.0000000000
  9
$TRACEWID
 40
5.0000000000E-02
  9
$USERI1
 70
     0
  9
$USERI2
 70
     0
  9
$USERI3
 70
     0
  9
$USERI4
 70
     0
  9
$USERI5
 70
     0
  9
$USERR1
 40
0.0000000000
  9
$USERR2
 40
0.0000000000
  9
$USERR3
 40
0.0000000000
  9
$USERR4
 40
0.0000000000
  9
$USERR5
 40
0.0000000000
  9
$USRTIMER
 70
     1
  9
$VIEWCTR
 10
-511.2206115723
 20
267.2568359375
  9
$VIEWDIR
 10
0.0000000000
 20
0.0000000000
 30
1.0000000000
  9
$VIEWSIZE
 40
540.8636718750
  0
ENDSEC
  0
SECTION
  2
TABLES
  0
TABLE
  2
LTYPE
 70
     3
  0
LTYPE
  2
SOLID
  3
Solid
 70
    64
 72
    65
 73
     0
 40
0.0000000000
  0
LTYPE
  2
CENTERLINE
  3
Centerline
 70
    64
 72
    65
 73
     4
 40
25.4000000000
 49
19.0500000000
 49
-1.5875000000
 49
3.1750000000
 49
-1.5875000000
  0
LTYPE
  2
CENTER
  3
Center
 70
    64
 72
    65
 73
     4
 40
9.1000000238
 49
6.5000000000
 49
-0.8000000119
 49
1.0000000000
 49
-0.8000000119
  0
ENDTAB
  0
TABLE
  2
LAYER
 70
     6
  0
LAYER
  2
Layer1$C$L1
 70
     0
  6
SOLID
 62
     3
  0
LAYER
  2
Layer2$C$L2
 70
     0
  6
SOLID
 62
     3
  0
LAYER
  2
Layer6$C$L6
 70
     0
  6
SOLID
 62
    31
  0
LAYER
  2
Layer7$C$L7
 70
     0
  6
SOLID
 62
     3
  0
LAYER
  2
Layer8$C$L8
 70
     0
  6
SOLID
 62
     7
  0
LAYER
  2
Layer10$C$L10
 70
     0
  6
SOLID
 62
     3
  0
ENDTAB
  0
TABLE
  2
STYLE
 70
     1
  0
STYLE
  2
STANDARD
  3
txt
  4

 40
0.0000000000
 41
1.0000000000
 42
2.9999940395
 50
0.0000000000
 70
     0
 71
     0
  0
ENDTAB
  0
ENDSEC
  0
SECTION
  2
BLOCKS
  0
BLOCK
  8
Layer8$C$L8
  2
Cadra_attr_0
 70
     2
 10
0.0000000000
 20
0.0000000000
  0
TEXT
  8
Layer8$C$L8
 10
-67.6148963562
 20
26.3235234704
 40
4.1671714783
  1
LF1F-B4-2D#
 41
0.6013367369
 72
     5
 11
-42.5561633685
 21
26.3235234704
  0
ATTDEF
  8
Layer8$C$L8
 10
-55.085531
 20
28.407108
 40
0.156000
  1
ìL>ÄK
  3

  2
10
 70
    11
  0
ENDBLK
  8
Layer8$C$L8
  0
BLOCK
  8
Layer8$C$L8
  2
Cadra_attr_1
 70
     2
 10
0.000000
 20
0.000000
  0
TEXT
  8
Layer8$C$L8
 10
-98.0000000000
 20
278.0000000000
 40
4.1669998169
  1

 72
     5
 11
-98.0000000000
 21
278.0000000000
  0
ATTDEF
  8
Layer8$C$L8
 10
-98.000000
 20
278.000000
 40
0.156000
  1
ìL>ÄK
  3

  2
10
 70
    11
  0
ENDBLK
  8
Layer8$C$L8
  0
BLOCK
  8
Layer8$C$L8
  2
Cadra_attr_2
 70
     2
 10
0.000000
 20
0.000000
  0
TEXT
  8
Layer8$C$L8
 62
     5
 10
-67.5872999535
 20
16.0000000000
 40
5.0000000000
  1
MA3-S00315
 41
0.8595637381
 72
     5
 11
-28.9069317370
 21
16.0000000000
  0
ATTDEF
  8
Layer8$C$L8
 62
     5
 10
-48.247117
 20
18.500000
 40
0.156000
  1
  
  3

  2
20
 70
    11
  0
ENDBLK
  8
Layer8$C$L8
  0
ENDSEC
  0
SECTION
  2
ENTITIES
  0
LINE
  8
Layer1$C$L1
  6
CENTER
 62
     3
 10
-850.7173302304
 20
155.2065181003
 11
-850.7173302304
 21
471.5644863275
  0
LINE
  8
Layer1$C$L1
  6
CENTER
 62
     3
 10
-678.9934544516
 20
313.3855022139
 11
-1022.4412060092
 21
313.3855022139
  0
LINE
  8
Layer1$C$L1
  6
CENTER
 62
     3
 10
-244.2150804302
 20
157.5928364959
 11
-244.2150804302
 21
471.5644863275
  0
LINE
  8
Layer1$C$L1
  6
CENTER
 62
     3
 10
-69.6399852484
 20
313.3855022139
 11
-415.9389562090
 21
313.3855022139
  0
LINE
  8
Layer1$C$L1
  6
CENTER
 62
     3
 10
-529.9633538199
 20
313.3855022139
 11
-573.7343041861
 21
313.3855022139
  0
LINE
  8
Layer1$C$L1
  6
CENTER
 62
     3
 10
-850.7173302304
 20
95.2910490942
 11
-850.7173302304
 21
123.1863328573
  0
POLYLINE
  8
Layer2$C$L2
 62
     3
 66
     1
  0
VERTEX
  8
Layer2$C$L2
 62
     3
 10
-388.6281753776
 20
238.8051447547
  0
VERTEX
  8
Layer2$C$L2
 62
     3
 10
-388.5719444336
 20
238.8566287323
  0
VERTEX
  8
Layer2$C$L2
 62
     3
 10
-388.5155134824
 20
238.9082656111
  0
VERTEX
  8
Layer2$C$L2
 62
     3
 10
-388.4589539672
 20
238.9599619367
  0
VERTEX
  8
Layer2$C$L2
 62
     3
 10
-388.4023373332
 20
239.0116242551
  0
VERTEX
  8
Layer2$C$L2
 62
     3
 10
-388.3457350240
 20
239.0631591119
  0
VERTEX
  8
Layer2$C$L2
 62
     3
 10
-388.2892184844
 20
239.1144730527
  0
VERTEX
  8
Layer2$C$L2
 62
     3
 10
-388.2328591584
 20
239.1654726235
  0
VERTEX
  8
Layer2$C$L2
 62
     3
 10
-388.1767284900
 20
239.2160643695
  0
VERTEX
  8
Layer2$C$L2
 62
     3
 10
-388.1208979240
 20
239.2661548371
  0
VERTEX
  8
Layer2$C$L2
 62
     3
 10
-388.0654373832
 20
239.3156520627
  0
VERTEX
  8
Layer2$C$L2
 62
     3
 10
-388.0103818100
 20
239.3644983759
  0
VERTEX
  8
Layer2$C$L2
 62
     3
 10
-387.9557311656
 20
239.4126703987
  0
VERTEX
  8
Layer2$C$L2
 62
     3
 10
-387.9014838908
 20
239.4601462451
  0
VERTEX
  8
Layer2$C$L2
 62
     3
 10
-387.8476384256
 20
239.5069040283
  0
VERTEX
  8
Layer2$C$L2
 62
     3
 10
-387.7941932104
 20
239.5529218619
  0
VERTEX
  8
Layer2$C$L2
 62
     3
 10
-387.7411466856
 20
239.5981778587
  0
VERTEX
  8
Layer2$C$L2
 62
     3
 10
-387.6884972916
 20
239.6426501327
  0
VERTEX
  8
Layer2$C$L2
 62
     3
 10
-387.6362434684
 20
239.6863167967
  0
VERTEX
  8
Layer2$C$L2
 62
     3
 10
-387.5843836568
 20
239.7291559647
  0
VERTEX
  8
Layer2$C$L2
 62
     3
 10
-387.5329219104
 20
239.7711424083
  0
VERTEX
  8
Layer2$C$L2
 62
     3
 10
-387.4818847372
 20
239.8122375339
  0
VERTEX
  8
Layer2$C$L2
 62
     3
 10
-387.4313042588
 20
239.8523994055
  0
VERTEX
  8
Layer2$C$L2
 62
     3
 10
-387.3812125972
 20
239.8915860879
  0
VERTEX
  8
Layer2$C$L2
 62
     3
 10
-387.3316418732
 20
239.9297556459
  0
VERTEX
  8
Layer2$C$L2
 62
     3
 10
-387.2826242088
 20
239.9668661439
  0
VERTEX
  8
Layer2$C$L2
 62
     3
 10
-387.2341917256
 20
240.0028756459
  0
VERTEX
  8
Layer2$C$L2
 62
     3
 10
-387.1863765448
 20
240.0377422175
  0
VERTEX
  8
Layer2$C$L2
 62
     3
 10
-387.1392107884
 20
240.0714239223
  0
VERTEX
  8
Layer2$C$L2
 62
     3
 10
-387.0927269200
 20
240.1038791779
  0
VERTEX
  8
Layer2$C$L2
 62
     3
 10
-387.0469652772
 20
240.1350745039
  0
VERTEX
  8
Layer2$C$L2
 62
     3
 10
-387.0019740724
 20
240.1649845239
  0
VERTEX
  8
Layer2$C$L2
 62
     3
 10
-386.9578018592
 20
240.1935842143
  0
VERTEX
  8
Layer2$C$L2
 62
     3
 10
-386.9144971912
 20
240.2208485503
  0
VERTEX
  8
Layer2$C$L2
 62
     3
 10
-386.8721086232
 20
240.2467525079
  0
VERTEX
  8
Layer2$C$L2
 62
     3
 10
-386.8306847088
 20
240.2712710627
  0
VERTEX
  8
Layer2$C$L2
 62
     3
 10
-386.7902740020
 20
240.2943791907
  0
VERTEX
  8
Layer2$C$L2
 62
     3
 10
-386.7509250568
 20
240.3160518679
  0
VERTEX
  8
Layer2$C$L2
 62
     3
 10
-386.7126864276
 20
240.3362640699
  0
VERTEX
  8
Layer2$C$L2
 62
     3
 10
-386.6756103096
 20
240.3549977971
  0
VERTEX
  8
Layer2$C$L2
 62
     3
 10
-386.6397634636
 20
240.3722631475
  0
VERTEX
  8
Layer2$C$L2
 62
     3
 10
-386.6052162916
 20
240.3880772435
  0
VERTEX
  8
Layer2$C$L2
 62
     3
 10
-386.5720391960
 20
240.4024572079
  0
VERTEX
  8
Layer2$C$L2
 62
     3
 10
-386.5403025784
 20
240.4154201635
  0
VERTEX
  8
Layer2$C$L2
 62
     3
 10
-386.5100768416
 20
240.4269832327
  0
VERTEX
  8
Layer2$C$L2
 62
     3
 10
-386.4814323872
 20
240.4371635379
  0
VERTEX
  8
Layer2$C$L2
 62
     3
 10
-386.4544396180
 20
240.4459782019
  0
VERTEX
  8
Layer2$C$L2
 62
     3
 10
-386.4291689352
 20
240.4534443475
  0
VERTEX
  8
Layer2$C$L2
 62
     3
 10
-386.4056885756
 20
240.4595818019
  0
VERTEX
  8
Layer2$C$L2
 62
     3
 10
-386.3840169508
 20
240.4644726163
  0
VERTEX
  8
Layer2$C$L2
 62
     3
 10
-386.3641226492
 20
240.4682610635
  0
VERTEX
  8
Layer2$C$L2
 62
     3
 10
-386.3459720932
 20
240.4710941219
  0
VERTEX
  8
Layer2$C$L2
 62
     3
 10
-386.3295317048
 20
240.4731187695
  0
VERTEX
  8
Layer2$C$L2
 62
     3
 10
-386.3147679064
 20
240.4744819851
  0
VERTEX
  8
Layer2$C$L2
 62
     3
 10
-386.3016471196
 20
240.4753307467
  0
VERTEX
  8
Layer2$C$L2
 62
     3
 10
-386.2802002708
 20
240.4760728223
  0
VERTEX
  8
Layer2$C$L2
 62
     3
 10
-386.2648701044
 20
240.4764723227
  0
VERTEX
  8
Layer2$C$L2
 62
     3
 10
-386.2496297892
 20
240.4761095791
  0
VERTEX
  8
Layer2$C$L2
 62
     3
 10
-386.2354337600
 20
240.4712232787
  0
VERTEX
  8
Layer2$C$L2
 62
     3
 10
-386.2219076708
 20
240.4635324015
  0
VERTEX
  8
Layer2$C$L2
 62
     3
 10
-386.2020730876
 20
240.4509195759
  0
VERTEX
  8
Layer2$C$L2
 62
     3
 10
-386.1894450648
 20
240.4423217303
  0
VERTEX
  8
Layer2$C$L2
 62
     3
 10
-386.1749953940
 20
240.4319309155
  0
VERTEX
  8
Layer2$C$L2
 62
     3
 10
-386.1587149720
 20
240.4195478339
  0
VERTEX
  8
Layer2$C$L2
 62
     3
 10
-386.1405946944
 20
240.4049731871
  0
VERTEX
  8
Layer2$C$L2
 62
     3
 10
-386.1206254576
 20
240.3880076763
  0
VERTEX
  8
Layer2$C$L2
 62
     3
 10
-386.0987981576
 20
240.3684520035
  0
VERTEX
  8
Layer2$C$L2
 62
     3
 10
-386.0751036904
 20
240.3461068703
  0
VERTEX
  8
Layer2$C$L2
 62
     3
 10
-386.0495329520
 20
240.3207729791
  0
VERTEX
  8
Layer2$C$L2
 62
     3
 10
-386.0221026564
 20
240.2923169591
  0
VERTEX
  8
Layer2$C$L2
 62
     3
 10
-385.9929327892
 20
240.2608691555
  0
VERTEX
  8
Layer2$C$L2
 62
     3
 10
-385.9621691540
 20
240.2266258403
  0
VERTEX
  8
Layer2$C$L2
 62
     3
 10
-385.9299575544
 20
240.1897832867
  0
VERTEX
  8
Layer2$C$L2
 62
     3
 10
-385.8964437936
 20
240.1505377671
  0
VERTEX
  8
Layer2$C$L2
 62
     3
 10
-385.8617736752
 20
240.1090855547
  0
VERTEX
  8
Layer2$C$L2
 62
     3
 10
-385.8260930028
 20
240.0656229215
  0
VERTEX
  8
Layer2$C$L2
 62
     3
 10
-385.7895475800
 20
240.0203461407
  0
VERTEX
  8
Layer2$C$L2
 62
     3
 10
-385.7522832100
 20
239.9734514847
  0
VERTEX
  8
Layer2$C$L2
 62
     3
 10
-385.7144418204
 20
239.9251331391
  0
VERTEX
  8
Layer2$C$L2
 62
     3
 10
-385.6760761864
 20
239.8755372795
  0
VERTEX
  8
Layer2$C$L2
 62
     3
 10
-385.6371499316
 20
239.8247620715
  0
VERTEX
  8
Layer2$C$L2
 62
     3
 10
-385.5976228028
 20
239.7729035927
  0
VERTEX
  8
Layer2$C$L2
 62
     3
 10
-385.5574545472
 20
239.7200579227
  0
VERTEX
  8
Layer2$C$L2
 62
     3
 10
-385.5166049124
 20
239.6663211383
  0
VERTEX
  8
Layer2$C$L2
 62
     3
 10
-385.4750336452
 20
239.6117893191
  0
VERTEX
  8
Layer2$C$L2
 62
     3
 10
-385.4327004932
 20
239.5565585423
  0
VERTEX
  8
Layer2$C$L2
 62
     3
 10
-385.3895652028
 20
239.5007248867
  0
VERTEX
  8
Layer2$C$L2
 62
     3
 10
-385.3455875220
 20
239.4443844307
  0
VERTEX
  8
Layer2$C$L2
 62
     3
 10
-385.3007168104
 20
239.3876277863
  0
VERTEX
  8
Layer2$C$L2
 62
     3
 10
-385.2548608784
 20
239.3305237011
  0
VERTEX
  8
Layer2$C$L2
 62
     3
 10
-385.2079171492
 20
239.2731354575
  0
VERTEX
  8
Layer2$C$L2
 62
     3
 10
-385.1597830464
 20
239.2155263375
  0
VERTEX
  8
Layer2$C$L2
 62
     3
 10
-385.1103559924
 20
239.1577596223
  0
VERTEX
  8
Layer2$C$L2
 62
     3
 10
-385.0595334112
 20
239.0998985939
  0
VERTEX
  8
Layer2$C$L2
 62
     3
 10
-385.0072127256
 20
239.0420065347
  0
VERTEX
  8
Layer2$C$L2
 62
     3
 10
-384.9532913592
 20
238.9841467263
  0
VERTEX
  8
Layer2$C$L2
 62
     3
 10
-384.8976667348
 20
238.9263824507
  0
VERTEX
  8
Layer2$C$L2
 62
     3
 10
-384.8402307548
 20
238.8687812663
  0
VERTEX
  8
Layer2$C$L2
 62
     3
 10
-384.7807483464
 20
238.8115091035
  0
VERTEX
  8
Layer2$C$L2
 62
     3
 10
-384.7188574612
 20
238.7548302639
  0
VERTEX
  8
Layer2$C$L2
 62
     3
 10
-384.6541905296
 20
238.6990133259
  0
VERTEX
  8
Layer2$C$L2
 62
     3
 10
-384.5863799820
 20
238.6443268675
  0
VERTEX
  8
Layer2$C$L2
 62
     3
 10
-384.5150582496
 20
238.5910394675
  0
VERTEX
  8
Layer2$C$L2
 62
     3
 10
-384.4398577624
 20
238.5394197043
  0
VERTEX
  8
Layer2$C$L2
 62
     3
 10
-384.3604109516
 20
238.4897361563
  0
VERTEX
  8
Layer2$C$L2
 62
     3
 10
-384.2763502480
 20
238.4422574015
  0
VERTEX
  8
Layer2$C$L2
 62
     3
 10
-384.1873080816
 20
238.3972520187
  0
VERTEX
  8
Layer2$C$L2
 62
     3
 10
-384.0931019960
 20
238.3551141243
  0
VERTEX
  8
Layer2$C$L2
 62
     3
 10
-383.9942899868
 20
238.3167399899
  0
VERTEX
  8
Layer2$C$L2
 62
     3
 10
-383.8916151616
 20
238.2831514243
  0
VERTEX
  8
Layer2$C$L2
 62
     3
 10
-383.7858206288
 20
238.2553702367
  0
VERTEX
  8
Layer2$C$L2
 62
     3
 10
-383.6776508164
 20
238.2344140739
  0
VERTEX
  8
Layer2$C$L2
 62
     3
 10
-383.5680099508
 20
238.2207968743
  0
VERTEX
  8
Layer2$C$L2
 62
     3
 10
-383.4581126096
 20
238.2140543007
  0
VERTEX
  8
Layer2$C$L2
 62
     3
 10
-383.3492090268
 20
238.2136096191
  0
VERTEX
  8
Layer2$C$L2
 62
     3
 10
-383.2425494380
 20
238.2188860951
  0
VERTEX
  8
Layer2$C$L2
 62
     3
 10
-383.1393528728
 20
238.2293107919
  0
VERTEX
  8
Layer2$C$L2
 62
     3
 10
-383.0401206668
 20
238.2443981287
  0
VERTEX
  8
Layer2$C$L2
 62
     3
 10
-382.9446364588
 20
238.2637498807
  0
VERTEX
  8
Layer2$C$L2
 62
     3
 10
-382.8526526844
 20
238.2869716207
  0
VERTEX
  8
Layer2$C$L2
 62
     3
 10
-382.7639217796
 20
238.3136689215
  0
VERTEX
  8
Layer2$C$L2
 62
     3
 10
-382.6781961784
 20
238.3434473555
  0
VERTEX
  8
Layer2$C$L2
 62
     3
 10
-382.5952283176
 20
238.3759124963
  0
VERTEX
  8
Layer2$C$L2
 62
     3
 10
-382.5147706312
 20
238.4106699159
  0
VERTEX
  8
Layer2$C$L2
 62
     3
 10
-382.4365755552
 20
238.4473251879
  0
VERTEX
  8
Layer2$C$L2
 62
     3
 10
-382.3603955252
 20
238.4854838851
  0
VERTEX
  8
Layer2$C$L2
 62
     3
 10
-382.2860120316
 20
238.5247996207
  0
VERTEX
  8
Layer2$C$L2
 62
     3
 10
-382.2133227896
 20
238.5651181735
  0
VERTEX
  8
Layer2$C$L2
 62
     3
 10
-382.1422545692
 20
238.6063333615
  0
VERTEX
  8
Layer2$C$L2
 62
     3
 10
-382.0727341408
 20
238.6483390039
  0
VERTEX
  8
Layer2$C$L2
 62
     3
 10
-382.0046882748
 20
238.6910289195
  0
VERTEX
  8
Layer2$C$L2
 62
     3
 10
-381.9380437416
 20
238.7342969271
  0
VERTEX
  8
Layer2$C$L2
 62
     3
 10
-381.8727273116
 20
238.7780368459
  0
VERTEX
  8
Layer2$C$L2
 62
     3
 10
-381.8086657548
 20
238.8221424943
  0
VERTEX
  8
Layer2$C$L2
 62
     3
 10
-381.7457858420
 20
238.8665076915
  0
VERTEX
  8
Layer2$C$L2
 62
     3
 10
-381.6840128024
 20
238.9110287279
  0
VERTEX
  8
Layer2$C$L2
 62
     3
 10
-381.6232364272
 20
238.9556587467
  0
VERTEX
  8
Layer2$C$L2
 62
     3
 10
-381.5633110696
 20
239.0004077435
  0
VERTEX
  8
Layer2$C$L2
 62
     3
 10
-381.5040895416
 20
239.0452881859
  0
VERTEX
  8
Layer2$C$L2
 62
     3
 10
-381.4454246548
 20
239.0903125411
  0
VERTEX
  8
Layer2$C$L2
 62
     3
 10
-381.3871692212
 20
239.1354932767
  0
VERTEX
  8
Layer2$C$L2
 62
     3
 10
-381.3291760536
 20
239.1808428599
  0
VERTEX
  8
Layer2$C$L2
 62
     3
 10
-381.2712979632
 20
239.2263737587
  0
VERTEX
  8
Layer2$C$L2
 62
     3
 10
-381.2133877628
 20
239.2720984399
  0
VERTEX
  8
Layer2$C$L2
 62
     3
 10
-381.1552982636
 20
239.3180293711
  0
SEQEND
  8
Layer2$C$L2
 62
     3
  0
POLYLINE
  8
Layer2$C$L2
 62
     3
 66
     1
  0
VERTEX
  8
Layer2$C$L2
 62
     3
 10
-389.3035059400
 20
241.5426599287
  0
VERTEX
  8
Layer2$C$L2
 62
     3
 10
-389.0854163988
 20
241.7420910591
  0
VERTEX
  8
Layer2$C$L2
 62
     3
 10
-388.8676264448
 20
241.9396285231
  0
VERTEX
  8
Layer2$C$L2
 62
     3
 10
-388.6504356668
 20
242.1333786543
  0
VERTEX
  8
Layer2$C$L2
 62
     3
 10
-388.4341436516
 20
242.3214477867
  0
VERTEX
  8
Layer2$C$L2
 62
     3
 10
-388.2190499876
 20
242.5019422539
  0
VERTEX
  8
Layer2$C$L2
 62
     3
 10
-388.0054542620
 20
242.6729683891
  0
VERTEX
  8
Layer2$C$L2
 62
     3
 10
-387.7936560624
 20
242.8326325263
  0
VERTEX
  8
Layer2$C$L2
 62
     3
 10
-387.5839549772
 20
242.9790409991
  0
VERTEX
  8
Layer2$C$L2
 62
     3
 10
-387.3766505936
 20
243.1103001411
  0
VERTEX
  8
Layer2$C$L2
 62
     3
 10
-387.1720424996
 20
243.2245162859
  0
VERTEX
  8
Layer2$C$L2
 62
     3
 10
-386.9704302828
 20
243.3197957675
  0
VERTEX
  8
Layer2$C$L2
 62
     3
 10
-386.7721135308
 20
243.3942449191
  0
VERTEX
  8
Layer2$C$L2
 62
     3
 10
-386.5773918312
 20
243.4459700747
  0
VERTEX
  8
Layer2$C$L2
 62
     3
 10
-386.3865647724
 20
243.4730775679
  0
VERTEX
  8
Layer2$C$L2
 62
     3
 10
-386.1999319412
 20
243.4736737319
  0
VERTEX
  8
Layer2$C$L2
 62
     3
 10
-386.0177929260
 20
243.4458649011
  0
VERTEX
  8
Layer2$C$L2
 62
     3
 10
-385.8404473140
 20
243.3877574087
  0
VERTEX
  8
Layer2$C$L2
 62
     3
 10
-385.6681946772
 20
243.2974576931
  0
VERTEX
  8
Layer2$C$L2
 62
     3
 10
-385.5011027104
 20
243.1745554143
  0
VERTEX
  8
Layer2$C$L2
 62
     3
 10
-385.3384239136
 20
243.0238547207
  0
VERTEX
  8
Layer2$C$L2
 62
     3
 10
-385.1792317368
 20
242.8513050719
  0
VERTEX
  8
Layer2$C$L2
 62
     3
 10
-385.0225996304
 20
242.6628559279
  0
VERTEX
  8
Layer2$C$L2
 62
     3
 10
-384.8676010444
 20
242.4644567483
  0
VERTEX
  8
Layer2$C$L2
 62
     3
 10
-384.7133094292
 20
242.2620569935
  0
VERTEX
  8
Layer2$C$L2
 62
     3
 10
-384.5587982348
 20
242.0616061231
  0
VERTEX
  8
Layer2$C$L2
 62
     3
 10
-384.4031409116
 20
241.8690535967
  0
VERTEX
  8
Layer2$C$L2
 62
     3
 10
-384.2454109096
 20
241.6903488743
  0
VERTEX
  8
Layer2$C$L2
 62
     3
 10
-384.0846816792
 20
241.5314414155
  0
VERTEX
  8
Layer2$C$L2
 62
     3
 10
-383.9200266704
 20
241.3982806807
  0
VERTEX
  8
Layer2$C$L2
 62
     3
 10
-383.7505193336
 20
241.2968161295
  0
VERTEX
  8
Layer2$C$L2
 62
     3
 10
-383.5752331188
 20
241.2329972215
  0
VERTEX
  8
Layer2$C$L2
 62
     3
 10
-383.3933500608
 20
241.2120722943
  0
VERTEX
  8
Layer2$C$L2
 62
     3
 10
-383.2050879020
 20
241.2326022131
  0
VERTEX
  8
Layer2$C$L2
 62
     3
 10
-383.0112386776
 20
241.2894396819
  0
VERTEX
  8
Layer2$C$L2
 62
     3
 10
-382.8126005396
 20
241.3773979083
  0
VERTEX
  8
Layer2$C$L2
 62
     3
 10
-382.6099716404
 20
241.4912900995
  0
VERTEX
  8
Layer2$C$L2
 62
     3
 10
-382.4041501320
 20
241.6259294623
  0
VERTEX
  8
Layer2$C$L2
 62
     3
 10
-382.1959341672
 20
241.7761292035
  0
VERTEX
  8
Layer2$C$L2
 62
     3
 10
-381.9861218980
 20
241.9367025307
  0
VERTEX
  8
Layer2$C$L2
 62
     3
 10
-381.7755114764
 20
242.1024626511
  0
SEQEND
  8
Layer2$C$L2
 62
     3
  0
POLYLINE
  8
Layer2$C$L2
 62
     3
 66
     1
  0
VERTEX
  8
Layer2$C$L2
 62
     3
 10
-547.1340889028
 20
244.4770575743
  0
VERTEX
  8
Layer2$C$L2
 62
     3
 10
-547.0744132940
 20
244.5208553163
  0
VERTEX
  8
Layer2$C$L2
 62
     3
 10
-547.0145127484
 20
244.5647787379
  0
VERTEX
  8
Layer2$C$L2
 62
     3
 10
-546.9544845924
 20
244.6087245659
  0
VERTEX
  8
Layer2$C$L2
 62
     3
 10
-546.8944261508
 20
244.6525895267
  0
VERTEX
  8
Layer2$C$L2
 62
     3
 10
-546.8344347500
 20
244.6962703471
  0
VERTEX
  8
Layer2$C$L2
 62
     3
 10
-546.7746077156
 20
244.7396637543
  0
VERTEX
  8
Layer2$C$L2
 62
     3
 10
-546.7150423732
 20
244.7826664743
  0
VERTEX
  8
Layer2$C$L2
 62
     3
 10
-546.6558360484
 20
244.8251752343
  0
VERTEX
  8
Layer2$C$L2
 62
     3
 10
-546.5970837132
 20
244.8670884831
  0
VERTEX
  8
Layer2$C$L2
 62
     3
 10
-546.5388262032
 20
244.9083442923
  0
VERTEX
  8
Layer2$C$L2
 62
     3
 10
-546.4810502176
 20
244.9489203539
  0
VERTEX
  8
Layer2$C$L2
 62
     3
 10
-546.4237401016
 20
244.9887960827
  0
VERTEX
  8
Layer2$C$L2
 62
     3
 10
-546.3668802004
 20
245.0279508939
  0
VERTEX
  8
Layer2$C$L2
 62
     3
 10
-546.3104548596
 20
245.0663642027
  0
VERTEX
  8
Layer2$C$L2
 62
     3
 10
-546.2544484244
 20
245.1040154235
  0
VERTEX
  8
Layer2$C$L2
 62
     3
 10
-546.1988452400
 20
245.1408839719
  0
VERTEX
  8
Layer2$C$L2
 62
     3
 10
-546.1436296520
 20
245.1769492627
  0
VERTEX
  8
Layer2$C$L2
 62
     3
 10
-546.0887936252
 20
245.2121893387
  0
VERTEX
  8
Layer2$C$L2
 62
     3
 10
-546.0343596036
 20
245.2465767539
  0
VERTEX
  8
Layer2$C$L2
 62
     3
 10
-545.9803576512
 20
245.2800826899
  0
VERTEX
  8
Layer2$C$L2
 62
     3
 10
-545.9268178320
 20
245.3126783279
  0
VERTEX
  8
Layer2$C$L2
 62
     3
 10
-545.8737702096
 20
245.3443348503
  0
VERTEX
  8
Layer2$C$L2
 62
     3
 10
-545.8212448476
 20
245.3750234387
  0
VERTEX
  8
Layer2$C$L2
 62
     3
 10
-545.7692718104
 20
245.4047152747
  0
VERTEX
  8
Layer2$C$L2
 62
     3
 10
-545.7178811612
 20
245.4333815399
  0
VERTEX
  8
Layer2$C$L2
 62
     3
 10
-545.6671029640
 20
245.4609934159
  0
VERTEX
  8
Layer2$C$L2
 62
     3
 10
-545.6169672828
 20
245.4875220847
  0
VERTEX
  8
Layer2$C$L2
 62
     3
 10
-545.5675041812
 20
245.5129387279
  0
VERTEX
  8
Layer2$C$L2
 62
     3
 10
-545.5187437232
 20
245.5372145271
  0
VERTEX
  8
Layer2$C$L2
 62
     3
 10
-545.4707159724
 20
245.5603206643
  0
VERTEX
  8
Layer2$C$L2
 62
     3
 10
-545.4234509928
 20
245.5822283207
  0
VERTEX
  8
Layer2$C$L2
 62
     3
 10
-545.3769788480
 20
245.6029086783
  0
VERTEX
  8
Layer2$C$L2
 62
     3
 10
-545.3313296020
 20
245.6223329187
  0
VERTEX
  8
Layer2$C$L2
 62
     3
 10
-545.2865333188
 20
245.6404722235
  0
VERTEX
  8
Layer2$C$L2
 62
     3
 10
-545.2426148572
 20
245.6573074491
  0
VERTEX
  8
Layer2$C$L2
 62
     3
 10
-545.1995782564
 20
245.6728581491
  0
VERTEX
  8
Layer2$C$L2
 62
     3
 10
-545.1574223520
 20
245.6871535523
  0
VERTEX
  8
Layer2$C$L2
 62
     3
 10
-545.1161459788
 20
245.7002228871
  0
VERTEX
  8
Layer2$C$L2
 62
     3
 10
-545.0757479716
 20
245.7120953815
  0
VERTEX
  8
Layer2$C$L2
 62
     3
 10
-545.0362271652
 20
245.7228002639
  0
VERTEX
  8
Layer2$C$L2
 62
     3
 10
-544.9975823944
 20
245.7323667627
  0
VERTEX
  8
Layer2$C$L2
 62
     3
 10
-544.9598124948
 20
245.7408241067
  0
VERTEX
  8
Layer2$C$L2
 62
     3
 10
-544.9229163004
 20
245.7482015235
  0
VERTEX
  8
Layer2$C$L2
 62
     3
 10
-544.8868926464
 20
245.7545282423
  0
VERTEX
  8
Layer2$C$L2
 62
     3
 10
-544.8517403680
 20
245.7598334911
  0
VERTEX
  8
Layer2$C$L2
 62
     3
 10
-544.8174583000
 20
245.7641464983
  0
VERTEX
  8
Layer2$C$L2
 62
     3
 10
-544.7840452768
 20
245.7674964919
  0
VERTEX
  8
Layer2$C$L2
 62
     3
 10
-544.7515001340
 20
245.7699127011
  0
VERTEX
  8
Layer2$C$L2
 62
     3
 10
-544.7198217064
 20
245.7714243535
  0
VERTEX
  8
Layer2$C$L2
 62
     3
 10
-544.6890088284
 20
245.7720606779
  0
VERTEX
  8
Layer2$C$L2
 62
     3
 10
-544.6590603352
 20
245.7718509027
  0
VERTEX
  8
Layer2$C$L2
 62
     3
 10
-544.6299350032
 20
245.7708078147
  0
VERTEX
  8
Layer2$C$L2
 62
     3
 10
-544.6014313744
 20
245.7688784359
  0
VERTEX
  8
Layer2$C$L2
 62
     3
 10
-544.5733079328
 20
245.7659933467
  0
VERTEX
  8
Layer2$C$L2
 62
     3
 10
-544.5453231612
 20
245.7620831279
  0
VERTEX
  8
Layer2$C$L2
 62
     3
 10
-544.5172355440
 20
245.7570783599
  0
VERTEX
  8
Layer2$C$L2
 62
     3
 10
-544.4888035648
 20
245.7509096231
  0
VERTEX
  8
Layer2$C$L2
 62
     3
 10
-544.4597857064
 20
245.7435074983
  0
VERTEX
  8
Layer2$C$L2
 62
     3
 10
-544.4299404532
 20
245.7348025655
  0
VERTEX
  8
Layer2$C$L2
 62
     3
 10
-544.3990305288
 20
245.7247252159
  0
VERTEX
  8
Layer2$C$L2
 62
     3
 10
-544.3669161860
 20
245.7132014651
  0
VERTEX
  8
Layer2$C$L2
 62
     3
 10
-544.3335552064
 20
245.7001529571
  0
VERTEX
  8
Layer2$C$L2
 62
     3
 10
-544.2989096124
 20
245.6855011435
  0
VERTEX
  8
Layer2$C$L2
 62
     3
 10
-544.2629414260
 20
245.6691674775
  0
VERTEX
  8
Layer2$C$L2
 62
     3
 10
-544.2256126688
 20
245.6510734115
  0
VERTEX
  8
Layer2$C$L2
 62
     3
 10
-544.1868853632
 20
245.6311403987
  0
VERTEX
  8
Layer2$C$L2
 62
     3
 10
-544.1467215312
 20
245.6092898915
  0
VERTEX
  8
Layer2$C$L2
 62
     3
 10
-544.1050831944
 20
245.5854433427
  0
VERTEX
  8
Layer2$C$L2
 62
     3
 10
-544.0619490088
 20
245.5595508427
  0
VERTEX
  8
Layer2$C$L2
 62
     3
 10
-544.0173641604
 20
245.5316770371
  0
VERTEX
  8
Layer2$C$L2
 62
     3
 10
-543.9713904704
 20
245.5019152079
  0
VERTEX
  8
Layer2$C$L2
 62
     3
 10
-543.9240897588
 20
245.4703586387
  0
VERTEX
  8
Layer2$C$L2
 62
     3
 10
-543.8755238460
 20
245.4371006119
  0
VERTEX
  8
Layer2$C$L2
 62
     3
 10
-543.8257545516
 20
245.4022344111
  0
VERTEX
  8
Layer2$C$L2
 62
     3
 10
-543.7748436960
 20
245.3658533183
  0
VERTEX
  8
Layer2$C$L2
 62
     3
 10
-543.7228531000
 20
245.3280506171
  0
VERTEX
  8
Layer2$C$L2
 62
     3
 10
-543.6698445836
 20
245.2889195899
  0
VERTEX
  8
Layer2$C$L2
 62
     3
 10
-543.6158799668
 20
245.2485535203
  0
VERTEX
  8
Layer2$C$L2
 62
     3
 10
-543.5610210700
 20
245.2070456907
  0
VERTEX
  8
Layer2$C$L2
 62
     3
 10
-543.5053297132
 20
245.1644893839
  0
VERTEX
  8
Layer2$C$L2
 62
     3
 10
-543.4488677172
 20
245.1209778831
  0
VERTEX
  8
Layer2$C$L2
 62
     3
 10
-543.3916969016
 20
245.0766044715
  0
VERTEX
  8
Layer2$C$L2
 62
     3
 10
-543.3338790868
 20
245.0314624315
  0
VERTEX
  8
Layer2$C$L2
 62
     3
 10
-543.2754760936
 20
244.9856450463
  0
VERTEX
  8
Layer2$C$L2
 62
     3
 10
-543.2165497412
 20
244.9392455987
  0
VERTEX
  8
Layer2$C$L2
 62
     3
 10
-543.1571438632
 20
244.8923556491
  0
VERTEX
  8
Layer2$C$L2
 62
     3
 10
-543.0972303416
 20
244.8450598691
  0
VERTEX
  8
Layer2$C$L2
 62
     3
 10
-543.0367630708
 20
244.7974412067
  0
VERTEX
  8
Layer2$C$L2
 62
     3
 10
-542.9756959460
 20
244.7495826115
  0
VERTEX
  8
Layer2$C$L2
 62
     3
 10
-542.9139828612
 20
244.7015670311
  0
VERTEX
  8
Layer2$C$L2
 62
     3
 10
-542.8515777116
 20
244.6534774155
  0
VERTEX
  8
Layer2$C$L2
 62
     3
 10
-542.7884343920
 20
244.6053967123
  0
VERTEX
  8
Layer2$C$L2
 62
     3
 10
-542.7245067964
 20
244.5574078707
  0
VERTEX
  8
Layer2$C$L2
 62
     3
 10
-542.6597481416
 20
244.5095940183
  0
VERTEX
  8
Layer2$C$L2
 62
     3
 10
-542.5940960324
 20
244.4620424015
  0
VERTEX
  8
Layer2$C$L2
 62
     3
 10
-542.5274724640
 20
244.4148443851
  0
VERTEX
  8
Layer2$C$L2
 62
     3
 10
-542.4597987524
 20
244.3680915119
  0
VERTEX
  8
Layer2$C$L2
 62
     3
 10
-542.3909962132
 20
244.3218753267
  0
VERTEX
  8
Layer2$C$L2
 62
     3
 10
-542.3209861628
 20
244.2762873723
  0
VERTEX
  8
Layer2$C$L2
 62
     3
 10
-542.2496899176
 20
244.2314191923
  0
VERTEX
  8
Layer2$C$L2
 62
     3
 10
-542.1770287932
 20
244.1873623311
  0
VERTEX
  8
Layer2$C$L2
 62
     3
 10
-542.1029241056
 20
244.1442083319
  0
VERTEX
  8
Layer2$C$L2
 62
     3
 10
-542.0272850892
 20
244.1020712859
  0
VERTEX
  8
Layer2$C$L2
 62
     3
 10
-541.9499726484
 20
244.0611554775
  0
VERTEX
  8
Layer2$C$L2
 62
     3
 10
-541.8708356064
 20
244.0216877379
  0
VERTEX
  8
Layer2$C$L2
 62
     3
 10
-541.7897227856
 20
243.9838948983
  0
VERTEX
  8
Layer2$C$L2
 62
     3
 10
-541.7064830096
 20
243.9480037903
  0
VERTEX
  8
Layer2$C$L2
 62
     3
 10
-541.6209651004
 20
243.9142412459
  0
VERTEX
  8
Layer2$C$L2
 62
     3
 10
-541.5330178812
 20
243.8828340959
  0
VERTEX
  8
Layer2$C$L2
 62
     3
 10
-541.4424901748
 20
243.8540091723
  0
VERTEX
  8
Layer2$C$L2
 62
     3
 10
-541.3492373564
 20
243.8279981171
  0
VERTEX
  8
Layer2$C$L2
 62
     3
 10
-541.2532655180
 20
243.8051432215
  0
VERTEX
  8
Layer2$C$L2
 62
     3
 10
-541.1547314660
 20
243.7858974251
  0
VERTEX
  8
Layer2$C$L2
 62
     3
 10
-541.0537985596
 20
243.7707184783
  0
VERTEX
  8
Layer2$C$L2
 62
     3
 10
-540.9506301592
 20
243.7600641311
  0
VERTEX
  8
Layer2$C$L2
 62
     3
 10
-540.8453896236
 20
243.7543921339
  0
VERTEX
  8
Layer2$C$L2
 62
     3
 10
-540.7382403132
 20
243.7541602375
  0
VERTEX
  8
Layer2$C$L2
 62
     3
 10
-540.6293455872
 20
243.7598261919
  0
VERTEX
  8
Layer2$C$L2
 62
     3
 10
-540.5188688052
 20
243.7718477475
  0
VERTEX
  8
Layer2$C$L2
 62
     3
 10
-540.4072026000
 20
243.7905264647
  0
VERTEX
  8
Layer2$C$L2
 62
     3
 10
-540.2956566972
 20
243.8155391423
  0
VERTEX
  8
Layer2$C$L2
 62
     3
 10
-540.1857700956
 20
243.8464063891
  0
VERTEX
  8
Layer2$C$L2
 62
     3
 10
-540.0790817932
 20
243.8826488139
  0
VERTEX
  8
Layer2$C$L2
 62
     3
 10
-539.9770193236
 20
243.9237473067
  0
VERTEX
  8
Layer2$C$L2
 62
     3
 10
-539.8800400500
 20
243.9688370603
  0
VERTEX
  8
Layer2$C$L2
 62
     3
 10
-539.7881018036
 20
244.0168752699
  0
VERTEX
  8
Layer2$C$L2
 62
     3
 10
-539.7011582864
 20
244.0668176591
  0
VERTEX
  8
Layer2$C$L2
 62
     3
 10
-539.6191585100
 20
244.1176321483
  0
VERTEX
  8
Layer2$C$L2
 62
     3
 10
-539.5419435900
 20
244.1685671683
  0
VERTEX
  8
Layer2$C$L2
 62
     3
 10
-539.4692467460
 20
244.2191516615
  0
VERTEX
  8
Layer2$C$L2
 62
     3
 10
-539.4007965068
 20
244.2689267655
  0
VERTEX
  8
Layer2$C$L2
 62
     3
 10
-539.3363188436
 20
244.3174365503
  0
VERTEX
  8
Layer2$C$L2
 62
     3
 10
-539.2752302988
 20
244.3645797263
  0
VERTEX
  8
Layer2$C$L2
 62
     3
 10
-539.2163464540
 20
244.4109437731
  0
VERTEX
  8
Layer2$C$L2
 62
     3
 10
-539.1584138464
 20
244.4571953039
  0
VERTEX
  8
Layer2$C$L2
 62
     3
 10
-539.1001790124
 20
244.5040009331
  0
SEQEND
  8
Layer2$C$L2
 62
     3
  0
POLYLINE
  8
Layer2$C$L2
 62
     3
 66
     1
  0
VERTEX
  8
Layer2$C$L2
 62
     3
 10
-547.7258455116
 20
247.2831742631
  0
VERTEX
  8
Layer2$C$L2
 62
     3
 10
-547.5182580072
 20
247.4353270075
  0
VERTEX
  8
Layer2$C$L2
 62
     3
 10
-547.3106921548
 20
247.5860614947
  0
VERTEX
  8
Layer2$C$L2
 62
     3
 10
-547.1031696064
 20
247.7339594683
  0
VERTEX
  8
Layer2$C$L2
 62
     3
 10
-546.8957120132
 20
247.8776026715
  0
VERTEX
  8
Layer2$C$L2
 62
     3
 10
-546.6883410272
 20
248.0155728479
  0
VERTEX
  8
Layer2$C$L2
 62
     3
 10
-546.4810783008
 20
248.1464517403
  0
VERTEX
  8
Layer2$C$L2
 62
     3
 10
-546.2739454852
 20
248.2688210923
  0
VERTEX
  8
Layer2$C$L2
 62
     3
 10
-546.0669642328
 20
248.3812626467
  0
VERTEX
  8
Layer2$C$L2
 62
     3
 10
-545.8601561952
 20
248.4823581467
  0
VERTEX
  8
Layer2$C$L2
 62
     3
 10
-545.6535430240
 20
248.5706893359
  0
VERTEX
  8
Layer2$C$L2
 62
     3
 10
-545.4471463716
 20
248.6448379571
  0
VERTEX
  8
Layer2$C$L2
 62
     3
 10
-545.2409878896
 20
248.7033857543
  0
VERTEX
  8
Layer2$C$L2
 62
     3
 10
-545.0350892296
 20
248.7449144699
  0
VERTEX
  8
Layer2$C$L2
 62
     3
 10
-544.8294720436
 20
248.7680058471
  0
VERTEX
  8
Layer2$C$L2
 62
     3
 10
-544.6241579836
 20
248.7712416299
  0
VERTEX
  8
Layer2$C$L2
 62
     3
 10
-544.4191687012
 20
248.7532035611
  0
VERTEX
  8
Layer2$C$L2
 62
     3
 10
-544.2145258484
 20
248.7124733835
  0
VERTEX
  8
Layer2$C$L2
 62
     3
 10
-544.0102513104
 20
248.6476601667
  0
VERTEX
  8
Layer2$C$L2
 62
     3
 10
-543.8063822536
 20
248.5591638995
  0
VERTEX
  8
Layer2$C$L2
 62
     3
 10
-543.6029803056
 20
248.4502512339
  0
VERTEX
  8
Layer2$C$L2
 62
     3
 10
-543.4001092916
 20
248.3244463355
  0
VERTEX
  8
Layer2$C$L2
 62
     3
 10
-543.1978330364
 20
248.1852733699
  0
VERTEX
  8
Layer2$C$L2
 62
     3
 10
-542.9962153644
 20
248.0362565019
  0
VERTEX
  8
Layer2$C$L2
 62
     3
 10
-542.7953201012
 20
247.8809198971
  0
VERTEX
  8
Layer2$C$L2
 62
     3
 10
-542.5952110712
 20
247.7227877207
  0
VERTEX
  8
Layer2$C$L2
 62
     3
 10
-542.3959520996
 20
247.5653841383
  0
VERTEX
  8
Layer2$C$L2
 62
     3
 10
-542.1976070112
 20
247.4122333151
  0
VERTEX
  8
Layer2$C$L2
 62
     3
 10
-542.0002396308
 20
247.2668594163
  0
VERTEX
  8
Layer2$C$L2
 62
     3
 10
-541.8039137836
 20
247.1327866075
  0
VERTEX
  8
Layer2$C$L2
 62
     3
 10
-541.6086932940
 20
247.0135390543
  0
VERTEX
  8
Layer2$C$L2
 62
     3
 10
-541.4146419876
 20
246.9126409211
  0
VERTEX
  8
Layer2$C$L2
 62
     3
 10
-541.2218236888
 20
246.8336163743
  0
VERTEX
  8
Layer2$C$L2
 62
     3
 10
-541.0303022224
 20
246.7799895783
  0
VERTEX
  8
Layer2$C$L2
 62
     3
 10
-540.8401414136
 20
246.7552846995
  0
VERTEX
  8
Layer2$C$L2
 62
     3
 10
-540.6514050872
 20
246.7630259023
  0
VERTEX
  8
Layer2$C$L2
 62
     3
 10
-540.4641570680
 20
246.8067373523
  0
VERTEX
  8
Layer2$C$L2
 62
     3
 10
-540.2784213840
 20
246.8887632039
  0
VERTEX
  8
Layer2$C$L2
 62
     3
 10
-540.0939225680
 20
247.0025674979
  0
VERTEX
  8
Layer2$C$L2
 62
     3
 10
-539.9102487908
 20
247.1375710631
  0
VERTEX
  8
Layer2$C$L2
 62
     3
 10
-539.7269875332
 20
247.2831742631
  0
SEQEND
  8
Layer2$C$L2
 62
     3
  0
ARC
  8
Layer2$C$L2
 62
     3
 10
-546.6758455116
 20
172.6355022139
 40
1.3000000000
 50
270.0000000000
 51
360.0000000000
  0
ARC
  8
Layer2$C$L2
 62
     3
 10
-545.7008455116
 20
171.6605022139
 40
2.9250000000
 50
270.0000000000
 51
360.0000000000
  0
ARC
  8
Layer2$C$L2
 62
     3
 10
-722.8173302300
 20
95.2910490942
 40
1.0000000000
 50
180.0000000000
 51
270.0000000000
  0
ARC
  8
Layer2$C$L2
 62
     3
 10
-716.8173302300
 20
95.2910490942
 40
1.0000000000
 50
270.0000000000
 51
360.0000000000
  0
CIRCLE
  8
Layer2$C$L2
 62
     3
 10
-710.6744370112
 20
96.7339423130
 40
0.3000000000
  0
CIRCLE
  8
Layer2$C$L2
 62
     3
 10
-710.6744370112
 20
96.7339423130
 40
0.7000000000
  0
CIRCLE
  8
Layer2$C$L2
 62
     3
 10
-709.2602234488
 20
98.1481558754
 40
0.3000000000
  0
CIRCLE
  8
Layer2$C$L2
 62
     3
 10
-709.2602234488
 20
98.1481558754
 40
0.7000000000
  0
ARC
  8
Layer2$C$L2
 62
     3
 10
-711.3255798696
 20
99.7951490942
 40
0.1959392281
 50
329.9674795063
 51
451.1465237473
  0
ARC
  8
Layer2$C$L2
 62
     3
 10
-709.9673302304
 20
97.4410490942
 40
3.6500000001
 50
156.5929836791
 51
450.0000000000
  0
CIRCLE
  8
Layer2$C$L2
 62
     3
 10
-709.9673302304
 20
97.4410490942
 40
2.5500000000
  0
ARC
  8
Layer2$C$L2
 62
     3
 10
-384.0755114764
 20
171.3355022139
 40
2.2500000000
 50
270.0000000000
 51
448.7266554109
  0
ARC
  8
Layer2$C$L2
 62
     3
 10
-371.9739083080
 20
197.3355022139
 40
0.5000000000
 50
270.0000000000
 51
450.0000000000
  0
ARC
  8
Layer2$C$L2
 62
     3
 10
-371.9739083080
 20
205.8355022139
 40
0.5000000000
 50
270.0000000000
 51
450.0000000000
  0
ARC
  8
Layer2$C$L2
 62
     3
 10
-373.7974454176
 20
202.6793697427
 40
0.8000000000
 50
180.0000000000
 51
270.0000000000
  0
ARC
  8
Layer2$C$L2
 62
     3
 10
-373.7974454176
 20
200.4916346855
 40
0.8000000000
 50
90.0000000000
 51
180.0000000000
  0
ARC
  8
Layer2$C$L2
 62
     3
 10
-376.1535775348
 20
200.4916346855
 40
0.8000000000
 50
0.0000000000
 51
90.0000000000
  0
ARC
  8
Layer2$C$L2
 62
     3
 10
-376.1535775348
 20
202.6793697427
 40
0.8000000000
 50
270.0000000000
 51
360.0000000000
  0
CIRCLE
  8
Layer2$C$L2
 62
     3
 10
-374.9755114764
 20
201.5855022139
 40
2.7500000000
  0
ARC
  8
Layer2$C$L2
 62
     3
 10
-393.8597855524
 20
201.5855022139
 40
22.8842740763
 50
348.0202412744
 51
371.9797587256
  0
CIRCLE
  8
Layer2$C$L2
 62
     3
 10
-374.9755114764
 20
191.5855022139
 40
0.9000000000
  0
CIRCLE
  8
Layer2$C$L2
 62
     3
 10
-374.9755114764
 20
211.5855022139
 40
0.9000000000
  0
CIRCLE
  8
Layer2$C$L2
 62
     3
 10
-374.9755114764
 20
211.5855022139
 40
1.3000000000
  0
CIRCLE
  8
Layer2$C$L2
 62
     3
 10
-374.9755114764
 20
191.5855022139
 40
1.3000000000
  0
ARC
  8
Layer2$C$L2
 62
     3
 10
-702.4673302300
 20
104.8760719698
 40
0.7500000000
 50
180.0000000000
 51
270.0000000000
  0
ARC
  8
Layer2$C$L2
 62
     3
 10
-702.4673302300
 20
104.8760719698
 40
2.2500000000
 50
180.0000000000
 51
270.0000000000
  0
ARC
  8
Layer2$C$L2
 62
     3
 10
-705.4673302300
 20
112.3760719818
 40
2.2500000000
 50
0.0000000000
 51
90.0000000000
  0
ARC
  8
Layer2$C$L2
 62
     3
 10
-998.9673302300
 20
104.8760719698
 40
2.2500000000
 50
270.0000000000
 51
360.0000000000
  0
ARC
  8
Layer2$C$L2
 62
     3
 10
-998.9673302300
 20
104.8760719698
 40
0.7500000000
 50
270.0000000000
 51
360.0000000000
  0
ARC
  8
Layer2$C$L2
 62
     3
 10
-995.9673302300
 20
112.3760719818
 40
2.2500000000
 50
90.0000000000
 51
180.0000000000
  0
CIRCLE
  8
Layer2$C$L2
 62
     3
 10
-86.9755114764
 20
190.8855022139
 40
3.0000000000
  0
CIRCLE
  8
Layer2$C$L2
 62
     3
 10
-86.9755114764
 20
435.8855022139
 40
3.0000000000
  0
CIRCLE
  8
Layer2$C$L2
 62
     3
 10
-401.5755114764
 20
190.8855022139
 40
3.0000000000
  0
CIRCLE
  8
Layer2$C$L2
 62
     3
 10
-401.5755114764
 20
435.8855022139
 40
3.0000000000
  0
ARC
  8
Layer2$C$L2
 62
     3
 10
-559.0108455236
 20
458.6355022139
 40
2.2500000000
 50
90.0000000000
 51
180.0000000000
  0
ARC
  8
Layer2$C$L2
 62
     3
 10
-556.4785871420
 20
449.7547948099
 40
0.8269428422
 50
0.0000000000
 51
90.0000000000
  0
ARC
  8
Layer2$C$L2
 62
     3
 10
-556.4785871420
 20
452.0162096179
 40
0.8269428422
 50
270.0000000000
 51
360.0000000000
  0
CIRCLE
  8
Layer2$C$L2
 62
     3
 10
-555.2608455236
 20
450.8855022139
 40
2.6000000000
  0
ARC
  8
Layer2$C$L2
 62
     3
 10
-554.0431039048
 20
449.7547948099
 40
0.8269428422
 50
90.0000000000
 51
180.0000000000
  0
ARC
  8
Layer2$C$L2
 62
     3
 10
-554.0431039048
 20
452.0162096179
 40
0.8269428422
 50
180.0000000000
 51
270.0000000000
  0
CIRCLE
  8
Layer2$C$L2
 62
     3
 10
-693.2173302300
 20
190.8855022139
 40
3.0000000000
  0
CIRCLE
  8
Layer2$C$L2
 62
     3
 10
-1008.2173302300
 20
190.8855022139
 40
3.0000000000
  0
CIRCLE
  8
Layer2$C$L2
 62
     3
 10
-693.2173302300
 20
435.8855022139
 40
3.0000000000
  0
CIRCLE
  8
Layer2$C$L2
 62
     3
 10
-1008.2173302300
 20
435.8855022139
 40
3.0000000000
  0
ARC
  8
Layer2$C$L2
 62
     3
 10
-559.0108455236
 20
168.1355022139
 40
2.2500000000
 50
180.0000000000
 51
270.0000000000
  0
ARC
  8
Layer2$C$L2
 62
     3
 10
-556.4785871420
 20
177.0162096179
 40
0.8269428422
 50
270.0000000000
 51
360.0000000000
  0
ARC
  8
Layer2$C$L2
 62
     3
 10
-556.4785871420
 20
174.7547948099
 40
0.8269428422
 50
0.0000000000
 51
90.0000000000
  0
CIRCLE
  8
Layer2$C$L2
 62
     3
 10
-555.2608455236
 20
175.8855022139
 40
2.6000000000
  0
ARC
  8
Layer2$C$L2
 62
     3
 10
-554.0431039048
 20
177.0162096179
 40
0.8269428422
 50
180.0000000000
 51
270.0000000000
  0
ARC
  8
Layer2$C$L2
 62
     3
 10
-554.0431039048
 20
174.7547948099
 40
0.8269428422
 50
90.0000000000
 51
180.0000000000
  0
LINE
  8
Layer2$C$L2
 62
     3
 10
-541.9258455004
 20
244.0488575779
 11
-541.9258455004
 21
216.3355022139
  0
LINE
  8
Layer2$C$L2
 62
     3
 10
-546.2258455020
 20
245.1230473479
 11
-546.2258455020
 21
216.3355022139
  0
LINE
  8
Layer2$C$L2
 62
     3
 10
-547.2258455116
 20
210.3784466775
 11
-547.7258455116
 21
210.3784466775
  0
LINE
  8
Layer2$C$L2
 62
     3
 10
-547.2258455116
 20
210.2855022139
 11
-547.7258455116
 21
210.2855022139
  0
LINE
  8
Layer2$C$L2
 62
     3
 10
-547.2258455116
 20
210.2855022139
 11
-547.2258455116
 21
212.8855022139
  0
LINE
  8
Layer2$C$L2
 62
     3
 10
-547.2258455116
 20
212.7925577503
 11
-547.7258455116
 21
212.7925577503
  0
LINE
  8
Layer2$C$L2
 62
     3
 10
-547.2258455116
 20
212.8855022139
 11
-547.7258455116
 21
212.8855022139
  0
LINE
  8
Layer2$C$L2
 62
     3
 10
-547.2258455116
 20
192.7925577503
 11
-547.7258455116
 21
192.7925577503
  0
LINE
  8
Layer2$C$L2
 62
     3
 10
-547.2258455116
 20
192.8855022139
 11
-547.7258455116
 21
192.8855022139
  0
LINE
  8
Layer2$C$L2
 62
     3
 10
-547.2258455116
 20
192.8855022139
 11
-547.2258455116
 21
190.2855022139
  0
LINE
  8
Layer2$C$L2
 62
     3
 10
-547.2258455116
 20
190.3784466775
 11
-547.7258455116
 21
190.3784466775
  0
LINE
  8
Layer2$C$L2
 62
     3
 10
-547.2258455116
 20
190.2855022139
 11
-547.7258455116
 21
190.2855022139
  0
LINE
  8
Layer2$C$L2
 62
     3
 10
-541.9258455116
 20
188.8355022139
 11
-541.9258455116
 21
182.8355022139
  0
LINE
  8
Layer2$C$L2
 62
     3
 10
-541.9258455116
 20
188.8355022139
 11
-541.5258455116
 21
188.8355022139
  0
LINE
  8
Layer2$C$L2
 62
     3
 10
-546.2258455116
 20
182.8355022139
 11
-541.9258455116
 21
182.8355022139
  0
LINE
  8
Layer2$C$L2
 62
     3
 10
-546.2258455116
 20
188.8355022139
 11
-546.2258455116
 21
182.8355022139
  0
LINE
  8
Layer2$C$L2
 62
     3
 10
-542.7758455116
 20
182.8355022139
 11
-542.7758455116
 21
171.6605022139
  0
LINE
  8
Layer2$C$L2
 62
     3
 10
-545.3758455116
 20
182.8355022139
 11
-545.3758455116
 21
172.6355022139
  0
LINE
  8
Layer2$C$L2
 62
     3
 10
-545.7008455116
 20
168.7355022139
 11
-549.2608455116
 21
168.7355022139
  0
LINE
  8
Layer2$C$L2
 62
     3
 10
-546.6758455116
 20
171.3355022139
 11
-549.2608455116
 21
171.3355022139
  0
LINE
  8
Layer2$C$L2
 62
     3
 10
-541.5258455116
 20
216.3355022139
 11
-541.5258455116
 21
206.3355022139
  0
LINE
  8
Layer2$C$L2
 62
     3
 10
-546.6258455116
 20
216.3355022139
 11
-546.6258455116
 21
206.3355022139
  0
LINE
  8
Layer2$C$L2
 62
     3
 10
-541.5258455116
 20
216.3355022139
 11
-546.6258455116
 21
216.3355022139
  0
LINE
  8
Layer2$C$L2
 62
     3
 10
-541.5258455116
 20
188.8355022139
 11
-541.5258455116
 21
196.8355022139
  0
LINE
  8
Layer2$C$L2
 62
     3
 10
-546.6258455116
 20
188.8355022139
 11
-546.6258455116
 21
196.8355022139
  0
LINE
  8
Layer2$C$L2
 62
     3
 10
-546.2258455116
 20
188.8355022139
 11
-546.6258455116
 21
188.8355022139
  0
LINE
  8
Layer2$C$L2
 62
     3
 10
-540.4258455116
 20
206.3355022139
 11
-540.4258455116
 21
196.8355022139
  0
LINE
  8
Layer2$C$L2
 62
     3
 10
-547.7258455116
 20
196.8355022139
 11
-540.4258455116
 21
196.8355022139
  0
LINE
  8
Layer2$C$L2
 62
     3
 10
-547.7258455116
 20
206.3355022139
 11
-540.4258455116
 21
206.3355022139
  0
LINE
  8
Layer2$C$L2
 62
     3
 10
-547.7258455116
 20
186.5855022139
 11
-547.7258455116
 21
216.5855022139
  0
LINE
  8
Layer2$C$L2
 62
     3
 10
-549.2608455116
 20
186.5855022139
 11
-547.7258455116
 21
186.5855022139
  0
LINE
  8
Layer2$C$L2
 62
     3
 10
-549.2608455116
 20
216.5855022139
 11
-547.7258455116
 21
216.5855022139
  0
LINE
  8
Layer2$C$L2
 62
     3
 10
-1013.2173302300
 20
104.1260719698
 11
-1013.2173302300
 21
102.6260719698
  0
LINE
  8
Layer2$C$L2
 62
     3
 10
-386.3255114644
 20
173.5855022139
 11
-385.0255114672
 21
173.5855022139
  0
LINE
  8
Layer2$C$L2
 62
     3
 10
-386.6755114764
 20
182.8355022139
 11
-386.6755114764
 21
177.1855022139
  0
LINE
  8
Layer2$C$L2
 62
     3
 10
-384.6755114764
 20
177.1855022139
 11
-384.6755114764
 21
182.8355022139
  0
LINE
  8
Layer2$C$L2
 62
     3
 10
-385.6755114764
 20
182.8355022139
 11
-385.6755114764
 21
177.1855022139
  0
LINE
  8
Layer2$C$L2
 62
     3
 10
-384.6755114764
 20
177.1855022139
 11
-384.0255114764
 21
176.1855022095
  0
LINE
  8
Layer2$C$L2
 62
     3
 10
-385.6755114764
 20
177.1855022139
 11
-385.0255114764
 21
176.1855022095
  0
LINE
  8
Layer2$C$L2
 62
     3
 10
-386.6755114764
 20
177.1855022139
 11
-387.3255114732
 21
176.1855022139
  0
LINE
  8
Layer2$C$L2
 62
     3
 10
-385.6755114764
 20
177.1855022139
 11
-386.3255114732
 21
176.1855022139
  0
LINE
  8
Layer2$C$L2
 62
     3
 10
-382.2495244124
 20
171.1655022139
 11
-381.8319428904
 21
171.1655022139
  0
LINE
  8
Layer2$C$L2
 62
     3
 10
-382.2495244124
 20
171.1655022139
 11
-382.2495244124
 21
170.1855022139
  0
LINE
  8
Layer2$C$L2
 62
     3
 10
-382.1416035156
 20
170.1855022139
 11
-388.5755114764
 21
170.1855022139
  0
LINE
  8
Layer2$C$L2
 62
     3
 10
-388.5755114764
 20
169.6855022139
 11
-382.5458056220
 21
169.6855022139
  0
LINE
  8
Layer2$C$L2
 62
     3
 10
-388.5755114764
 20
169.5855022139
 11
-388.5755114764
 21
170.1855022139
  0
LINE
  8
Layer2$C$L2
 62
     3
 10
-388.5755114764
 20
169.5855022139
 11
-382.6612979140
 21
169.5855022139
  0
LINE
  8
Layer2$C$L2
 62
     3
 10
-384.0255114764
 20
170.1855022139
 11
-384.0255114764
 21
176.1855022095
  0
LINE
  8
Layer2$C$L2
 62
     3
 10
-385.0255114764
 20
176.1855022095
 11
-385.0255114764
 21
170.1855022139
  0
LINE
  8
Layer2$C$L2
 62
     3
 10
-387.3255114732
 20
170.1855022139
 11
-387.3255114732
 21
176.1855022139
  0
LINE
  8
Layer2$C$L2
 62
     3
 10
-386.3255114732
 20
176.1855022139
 11
-386.3255114732
 21
170.1855022139
  0
LINE
  8
Layer2$C$L2
 62
     3
 10
-383.5255114672
 20
216.3355022139
 11
-383.5255114672
 21
238.2174084375
  0
LINE
  8
Layer2$C$L2
 62
     3
 10
-387.8255114672
 20
216.3355022139
 11
-387.8255114672
 21
239.5260052123
  0
LINE
  8
Layer2$C$L2
 62
     3
 10
-724.5173302300
 20
98.3910490942
 11
-724.5173302300
 21
98.8910490942
  0
LINE
  8
Layer2$C$L2
 62
     3
 10
-723.8173302300
 20
95.2910490942
 11
-723.8173302300
 21
98.3910490942
  0
LINE
  8
Layer2$C$L2
 62
     3
 10
-715.1173302300
 20
98.3910490942
 11
-715.1173302300
 21
98.8910490942
  0
LINE
  8
Layer2$C$L2
 62
     3
 10
-715.8173302300
 20
95.2910490942
 11
-715.8173302300
 21
98.3910490942
  0
LINE
  8
Layer2$C$L2
 62
     3
 10
-716.8173302300
 20
94.2910490942
 11
-722.8173302300
 21
94.2910490942
  0
LINE
  8
Layer2$C$L2
 62
     3
 10
-715.8173302300
 20
97.3910490942
 11
-723.8173302300
 21
97.3910490942
  0
LINE
  8
Layer2$C$L2
 62
     3
 10
-715.1173302300
 20
98.3910490942
 11
-724.5173302300
 21
98.3910490942
  0
LINE
  8
Layer2$C$L2
 62
     3
 10
-713.3169570752
 20
98.8910490942
 11
-724.5173302300
 21
98.8910490942
  0
LINE
  8
Layer2$C$L2
 62
     3
 10
-709.9673302300
 20
99.9910490942
 11
-723.8173302300
 21
99.9910490942
  0
LINE
  8
Layer2$C$L2
 62
     3
 10
-723.8173302300
 20
98.8910490942
 11
-723.8173302300
 21
101.0910490942
  0
LINE
  8
Layer2$C$L2
 62
     3
 10
-707.8173302300
 20
101.0910490942
 11
-725.8173302300
 21
101.0910490942
  0
LINE
  8
Layer2$C$L2
 62
     3
 10
-707.8173302300
 20
101.0910490942
 11
-707.8173302300
 21
102.6260719698
  0
LINE
  8
Layer2$C$L2
 62
     3
 10
-725.8173302300
 20
101.0910490942
 11
-725.8173302300
 21
102.6260719698
  0
LINE
  8
Layer2$C$L2
 62
     3
 10
-384.0755114764
 20
169.0855022139
 11
-388.5755114764
 21
169.0855022139
  0
LINE
  8
Layer2$C$L2
 62
     3
 10
-387.3255114644
 20
173.5855022139
 11
-390.0755114764
 21
173.5855022139
  0
LINE
  8
Layer2$C$L2
 62
     3
 10
-715.2173302300
 20
448.8855022139
 11
-986.2173302300
 21
448.8855022139
  0
LINE
  8
Layer2$C$L2
 62
     3
 10
-986.2173302300
 20
448.8855022139
 11
-986.2173302300
 21
177.8855022139
  0
LINE
  8
Layer2$C$L2
 62
     3
 10
-368.9755114764
 20
186.5855022139
 11
-383.5255114764
 21
186.5855022139
  0
LINE
  8
Layer2$C$L2
 62
     3
 10
-381.7755114764
 20
197.8355022139
 11
-382.0255114764
 21
197.8355022139
  0
LINE
  8
Layer2$C$L2
 62
     3
 10
-381.7755114764
 20
196.8355022139
 11
-388.4755114764
 21
196.8355022139
  0
LINE
  8
Layer2$C$L2
 62
     3
 10
-381.7755114764
 20
205.3355022139
 11
-382.0255114764
 21
205.3355022139
  0
LINE
  8
Layer2$C$L2
 62
     3
 10
-388.4755114764
 20
216.5855022139
 11
-388.4755114764
 21
206.3355022139
  0
LINE
  8
Layer2$C$L2
 62
     3
 10
-381.7755114764
 20
206.3355022139
 11
-388.4755114764
 21
206.3355022139
  0
LINE
  8
Layer2$C$L2
 62
     3
 10
-371.9739083080
 20
197.8355022139
 11
-389.3255114764
 21
197.8355022139
  0
LINE
  8
Layer2$C$L2
 62
     3
 10
-371.4739083080
 20
196.8355022139
 11
-381.7755114764
 21
196.8355022139
  0
LINE
  8
Layer2$C$L2
 62
     3
 10
-371.9739083080
 20
205.3355022139
 11
-389.3255114764
 21
205.3355022139
  0
LINE
  8
Layer2$C$L2
 62
     3
 10
-371.4739083080
 20
206.3355022139
 11
-381.7755114764
 21
206.3355022139
  0
LINE
  8
Layer2$C$L2
 62
     3
 10
-375.3535775348
 20
199.7383373987
 11
-375.3535775348
 21
200.4916346855
  0
LINE
  8
Layer2$C$L2
 62
     3
 10
-376.8378367196
 20
201.2916346855
 11
-376.1535775348
 21
201.2916346855
  0
LINE
  8
Layer2$C$L2
 62
     3
 10
-374.5974454176
 20
199.7383373987
 11
-374.5974454176
 21
200.4916346855
  0
LINE
  8
Layer2$C$L2
 62
     3
 10
-374.5974454176
 20
199.7383373987
 11
-375.3535775348
 21
199.7383373987
  0
LINE
  8
Layer2$C$L2
 62
     3
 10
-373.1131862328
 20
201.2916346855
 11
-373.7974454176
 21
201.2916346855
  0
LINE
  8
Layer2$C$L2
 62
     3
 10
-373.1131862328
 20
201.8793697427
 11
-373.1131862328
 21
201.2916346855
  0
LINE
  8
Layer2$C$L2
 62
     3
 10
-373.1131862328
 20
201.8793697427
 11
-373.7974454176
 21
201.8793697427
  0
LINE
  8
Layer2$C$L2
 62
     3
 10
-374.5974454176
 20
203.4326670291
 11
-374.5974454176
 21
202.6793697427
  0
LINE
  8
Layer2$C$L2
 62
     3
 10
-376.8378367196
 20
201.8793697427
 11
-376.8378367196
 21
201.2916346855
  0
LINE
  8
Layer2$C$L2
 62
     3
 10
-375.3535775348
 20
203.4326670291
 11
-374.5974454176
 21
203.4326670291
  0
LINE
  8
Layer2$C$L2
 62
     3
 10
-376.8378367196
 20
201.8793697427
 11
-376.1535775348
 21
201.8793697427
  0
LINE
  8
Layer2$C$L2
 62
     3
 10
-375.3535775348
 20
203.4326670291
 11
-375.3535775348
 21
202.6793697427
  0
LINE
  8
Layer2$C$L2
 62
     3
 10
-368.9755114764
 20
216.5855022139
 11
-368.9755114764
 21
186.5855022139
  0
LINE
  8
Layer2$C$L2
 62
     3
 10
-368.9755114764
 20
216.5855022139
 11
-383.5255114672
 21
216.5855022139
  0
LINE
  8
Layer6$C$L6
  6
CENTERLINE
 62
     3
 10
-384.0755114764
 20
168.3355022139
 11
-384.0755114764
 21
174.3355022139
  0
LINE
  8
Layer6$C$L6
  6
CENTERLINE
 62
     3
 10
-379.7755114764
 20
171.3355022139
 11
-388.3755114764
 21
171.3355022139
  0
LINE
  8
Layer2$C$L2
 62
     3
 10
-704.7173302300
 20
102.6260719698
 11
-725.8173302300
 21
102.6260719698
  0
LINE
  8
Layer10$C$L10
  6
CENTERLINE
 62
     3
 10
-693.2173302300
 20
98.3760719698
 11
-693.2173302300
 21
108.3760719698
  0
LINE
  8
Layer7$C$L7
 62
     3
 10
-704.7173302300
 20
107.3260719698
 11
-704.7173302300
 21
109.9260719698
  0
LINE
  8
Layer2$C$L2
 62
     3
 10
-703.2173302300
 20
112.3760719818
 11
-703.2173302300
 21
104.8760719698
  0
LINE
  8
Layer2$C$L2
 62
     3
 10
-685.2173302300
 20
102.6260719698
 11
-702.4673302300
 21
102.6260719698
  0
LINE
  8
Layer2$C$L2
 62
     3
 10
-685.2173302300
 20
104.1260719698
 11
-685.2173302300
 21
102.6260719698
  0
LINE
  8
Layer2$C$L2
 62
     3
 10
-702.4673302300
 20
104.1260719698
 11
-685.2173302300
 21
104.1260719698
  0
LINE
  8
Layer2$C$L2
 62
     3
 10
-704.7173302300
 20
102.6260719698
 11
-704.7173302300
 21
112.3760719818
  0
LINE
  8
Layer2$C$L2
 62
     3
 10
-996.7173302300
 20
102.6260719698
 11
-725.8173302300
 21
102.6260719698
  0
LINE
  8
Layer10$C$L10
  6
CENTERLINE
 62
     3
 10
-1008.2173302300
 20
98.3760719698
 11
-1008.2173302300
 21
108.3760719698
  0
LINE
  8
Layer2$C$L2
 62
     3
 10
-1016.2173302300
 20
102.6260719698
 11
-1016.2173302300
 21
104.1260719698
  0
LINE
  8
Layer2$C$L2
 62
     3
 10
-1016.2173302300
 20
104.1260719698
 11
-998.9673302300
 21
104.1260719698
  0
LINE
  8
Layer2$C$L2
 62
     3
 10
-998.9673302300
 20
102.6260719698
 11
-1016.2173302300
 21
102.6260719698
  0
LINE
  8
Layer2$C$L2
 62
     3
 10
-998.2173302300
 20
104.8760719698
 11
-998.2173302300
 21
112.3760719818
  0
LINE
  8
Layer2$C$L2
 62
     3
 10
-996.7173302300
 20
102.6260719698
 11
-996.7173302300
 21
112.3760719818
  0
LINE
  8
Layer2$C$L2
 62
     3
 10
-705.4673302300
 20
114.6260719818
 11
-995.9673302300
 21
114.6260719818
  0
LINE
  8
Layer2$C$L2
 62
     3
 10
-99.9755114764
 20
169.0855022139
 11
-98.4755114764
 21
169.0855022139
  0
LINE
  8
Layer2$C$L2
 62
     3
 10
-78.9755114764
 20
168.8855022139
 11
-81.9755114764
 21
165.8855022139
  0
LINE
  8
Layer10$C$L10
  6
CENTERLINE
 62
     3
 10
-81.9755114764
 20
190.8855022139
 11
-91.9755114764
 21
190.8855022139
  0
LINE
  8
Layer10$C$L10
  6
CENTERLINE
 62
     3
 10
-86.9755114764
 20
185.8855022139
 11
-86.9755114764
 21
195.8855022139
  0
LINE
  8
Layer2$C$L2
 62
     3
 10
-99.9755114764
 20
169.0855022139
 11
-99.9755114764
 21
167.5855022139
  0
LINE
  8
Layer2$C$L2
 62
     3
 10
-78.9755114764
 20
457.8855022139
 11
-81.9755114764
 21
460.8855022139
  0
LINE
  8
Layer10$C$L10
  6
CENTERLINE
 62
     3
 10
-81.9755114764
 20
435.8855022139
 11
-91.9755114764
 21
435.8855022139
  0
LINE
  8
Layer10$C$L10
  6
CENTERLINE
 62
     3
 10
-86.9755114764
 20
440.8855022139
 11
-86.9755114764
 21
430.8855022139
  0
LINE
  8
Layer2$C$L2
 62
     3
 10
-78.9755114764
 20
457.8855022139
 11
-78.9755114764
 21
168.8855022139
  0
LINE
  8
Layer2$C$L2
 62
     3
 10
-99.9755114764
 20
457.6855022139
 11
-99.9755114764
 21
459.1855022139
  0
LINE
  8
Layer2$C$L2
 62
     3
 10
-98.2755114764
 20
460.8855022139
 11
-98.2755114764
 21
165.8855022139
  0
LINE
  8
Layer2$C$L2
 62
     3
 10
-99.9755114764
 20
457.6855022139
 11
-98.4755114764
 21
457.6855022139
  0
LINE
  8
Layer2$C$L2
 62
     3
 10
-98.4755114764
 20
169.0855022139
 11
-98.4755114764
 21
457.6855022139
  0
LINE
  8
Layer2$C$L2
 62
     3
 10
-409.5755114764
 20
168.8855022139
 11
-406.5755114764
 21
165.8855022139
  0
LINE
  8
Layer10$C$L10
  6
CENTERLINE
 62
     3
 10
-406.5755114764
 20
190.8855022139
 11
-396.5755114764
 21
190.8855022139
  0
LINE
  8
Layer10$C$L10
  6
CENTERLINE
 62
     3
 10
-401.5755114764
 20
185.8855022139
 11
-401.5755114764
 21
195.8855022139
  0
LINE
  8
Layer2$C$L2
 62
     3
 10
-388.5755114764
 20
169.5855022139
 11
-388.5755114764
 21
167.5855022139
  0
LINE
  8
Layer2$C$L2
 62
     3
 10
-98.2755114764
 20
167.3855022139
 11
-390.2755114764
 21
167.3855022139
  0
LINE
  8
Layer2$C$L2
 62
     3
 10
-406.5755114764
 20
165.8855022139
 11
-81.9755114764
 21
165.8855022139
  0
LINE
  8
Layer2$C$L2
 62
     3
 10
-388.5755114764
 20
167.5855022139
 11
-99.9755114764
 21
167.5855022139
  0
LINE
  8
Layer2$C$L2
 62
     3
 10
-409.5755114764
 20
457.8855022139
 11
-406.5755114764
 21
460.8855022139
  0
LINE
  8
Layer10$C$L10
  6
CENTERLINE
 62
     3
 10
-406.5755114764
 20
435.8855022139
 11
-396.5755114764
 21
435.8855022139
  0
LINE
  8
Layer10$C$L10
  6
CENTERLINE
 62
     3
 10
-401.5755114764
 20
440.8855022139
 11
-401.5755114764
 21
430.8855022139
  0
LINE
  8
Layer2$C$L2
 62
     3
 10
-409.5755114764
 20
457.8855022139
 11
-409.5755114764
 21
168.8855022139
  0
LINE
  8
Layer2$C$L2
 62
     3
 10
-388.5755114764
 20
457.6855022139
 11
-388.5755114764
 21
459.1855022139
  0
LINE
  8
Layer2$C$L2
 62
     3
 10
-390.2755114764
 20
460.8855022139
 11
-390.2755114764
 21
165.8855022139
  0
LINE
  8
Layer2$C$L2
 62
     3
 10
-98.2755114764
 20
459.3855022139
 11
-383.5255115836
 21
459.3855022139
  0
LINE
  8
Layer2$C$L2
 62
     3
 10
-406.5755114764
 20
460.8855022139
 11
-387.8255114692
 21
460.8855022139
  0
LINE
  8
Layer2$C$L2
 62
     3
 10
-388.5755114764
 20
457.6855022139
 11
-390.0755114764
 21
457.6855022139
  0
LINE
  8
Layer2$C$L2
 62
     3
 10
-388.5755114764
 20
459.1855022139
 11
-387.8255114692
 21
459.1855022139
  0
LINE
  8
Layer2$C$L2
 62
     3
 10
-390.0755114764
 20
173.5855022139
 11
-390.0755114764
 21
457.6855022139
  0
LINE
  8
Layer2$C$L2
 62
     3
 10
-554.8700467468
 20
452.7948768671
 11
-555.6516443000
 21
452.7948768671
  0
LINE
  8
Layer2$C$L2
 62
     3
 10
-550.7608455116
 20
457.8855022139
 11
-549.2608455116
 21
457.8855022139
  0
LINE
  8
Layer10$C$L10
  6
CENTERLINE
 62
     3
 10
-551.6608455236
 20
450.8855022139
 11
-558.8608455236
 21
450.8855022139
  0
LINE
  8
Layer10$C$L10
  6
CENTERLINE
 62
     3
 10
-555.2608455236
 20
454.4855022139
 11
-555.2608455236
 21
447.2855022139
  0
LINE
  8
Layer2$C$L2
 62
     3
 10
-557.1858911856
 20
451.1892667759
 11
-556.4785871420
 21
451.1892667759
  0
LINE
  8
Layer2$C$L2
 62
     3
 10
-557.1858911856
 20
450.5817376523
 11
-556.4785871420
 21
450.5817376523
  0
LINE
  8
Layer2$C$L2
 62
     3
 10
-557.1858911856
 20
450.5817376523
 11
-557.1858911856
 21
451.1892667759
  0
LINE
  8
Layer2$C$L2
 62
     3
 10
-555.6516443000
 20
452.7948768671
 11
-555.6516443000
 21
452.0162096179
  0
LINE
  8
Layer2$C$L2
 62
     3
 10
-555.6516443000
 20
448.9761275607
 11
-555.6516443000
 21
449.7547948099
  0
LINE
  8
Layer2$C$L2
 62
     3
 10
-553.3357998612
 20
451.1892667759
 11
-554.0431039048
 21
451.1892667759
  0
LINE
  8
Layer2$C$L2
 62
     3
 10
-553.3357998612
 20
450.5817376523
 11
-554.0431039048
 21
450.5817376523
  0
LINE
  8
Layer2$C$L2
 62
     3
 10
-553.3357998612
 20
450.5817376523
 11
-553.3357998612
 21
451.1892667759
  0
LINE
  8
Layer2$C$L2
 62
     3
 10
-554.8700467468
 20
452.7948768671
 11
-554.8700467468
 21
452.0162096179
  0
LINE
  8
Layer2$C$L2
 62
     3
 10
-554.8700467468
 20
448.9761275607
 11
-554.8700467468
 21
449.7547948099
  0
LINE
  8
Layer2$C$L2
 62
     3
 10
-554.8700467468
 20
448.9761275607
 11
-555.6516443000
 21
448.9761275607
  0
LINE
  8
Layer2$C$L2
 62
     3
 10
-559.0108455236
 20
460.8855022139
 11
-549.2608455116
 21
460.8855022139
  0
LINE
  8
Layer2$C$L2
 62
     3
 10
-550.7608455116
 20
460.7854556463
 11
-550.8608920792
 21
460.8855022139
  0
LINE
  8
Layer2$C$L2
 62
     3
 10
-685.2173302300
 20
168.8855022139
 11
-688.2173302300
 21
165.8855022139
  0
LINE
  8
Layer10$C$L10
  6
CENTERLINE
 62
     3
 10
-688.2173302300
 20
190.8855022139
 11
-698.2173302300
 21
190.8855022139
  0
LINE
  8
Layer10$C$L10
  6
CENTERLINE
 62
     3
 10
-693.2173302300
 20
185.8855022139
 11
-693.2173302300
 21
195.8855022139
  0
LINE
  8
Layer2$C$L2
 62
     3
 10
-1016.2173302300
 20
168.8855022139
 11
-1013.2173302300
 21
165.8855022139
  0
LINE
  8
Layer10$C$L10
  6
CENTERLINE
 62
     3
 10
-1013.2173302300
 20
190.8855022139
 11
-1003.2173302300
 21
190.8855022139
  0
LINE
  8
Layer10$C$L10
  6
CENTERLINE
 62
     3
 10
-1008.2173302300
 20
185.8855022139
 11
-1008.2173302300
 21
195.8855022139
  0
LINE
  8
Layer2$C$L2
 62
     3
 10
-1013.2173302300
 20
165.8855022139
 11
-688.2173302300
 21
165.8855022139
  0
LINE
  8
Layer2$C$L2
 62
     3
 10
-703.2173302300
 20
165.8855022139
 11
-703.2173302300
 21
460.8855022139
  0
LINE
  8
Layer2$C$L2
 62
     3
 10
-685.2173302300
 20
457.8855022139
 11
-688.2173302300
 21
460.8855022139
  0
LINE
  8
Layer10$C$L10
  6
CENTERLINE
 62
     3
 10
-688.2173302300
 20
435.8855022139
 11
-698.2173302300
 21
435.8855022139
  0
LINE
  8
Layer10$C$L10
  6
CENTERLINE
 62
     3
 10
-693.2173302300
 20
440.8855022139
 11
-693.2173302300
 21
430.8855022139
  0
LINE
  8
Layer2$C$L2
 62
     3
 10
-685.2173302300
 20
457.8855022139
 11
-685.2173302300
 21
168.8855022139
  0
LINE
  8
Layer2$C$L2
 62
     3
 10
-1016.2173302300
 20
457.8855022139
 11
-1013.2173302300
 21
460.8855022139
  0
LINE
  8
Layer10$C$L10
  6
CENTERLINE
 62
     3
 10
-1013.2173302300
 20
435.8855022139
 11
-1003.2173302300
 21
435.8855022139
  0
LINE
  8
Layer10$C$L10
  6
CENTERLINE
 62
     3
 10
-1008.2173302300
 20
440.8855022139
 11
-1008.2173302300
 21
430.8855022139
  0
LINE
  8
Layer2$C$L2
 62
     3
 10
-1016.2173302300
 20
457.8855022139
 11
-1016.2173302300
 21
168.8855022139
  0
LINE
  8
Layer2$C$L2
 62
     3
 10
-554.8700467468
 20
173.9761275611
 11
-555.6516443000
 21
173.9761275611
  0
LINE
  8
Layer2$C$L2
 62
     3
 10
-550.7608455116
 20
168.8855022139
 11
-549.2608455116
 21
168.8855022139
  0
LINE
  8
Layer10$C$L10
  6
CENTERLINE
 62
     3
 10
-551.6608455236
 20
175.8855022139
 11
-558.8608455236
 21
175.8855022139
  0
LINE
  8
Layer10$C$L10
  6
CENTERLINE
 62
     3
 10
-555.2608455236
 20
172.2855022139
 11
-555.2608455236
 21
179.4855022139
  0
LINE
  8
Layer2$C$L2
 62
     3
 10
-561.2608455236
 20
458.6355022139
 11
-561.2608455236
 21
168.1355022139
  0
LINE
  8
Layer2$C$L2
 62
     3
 10
-557.1858911856
 20
175.5817376523
 11
-556.4785871420
 21
175.5817376523
  0
LINE
  8
Layer2$C$L2
 62
     3
 10
-557.1858911856
 20
176.1892667759
 11
-556.4785871420
 21
176.1892667759
  0
LINE
  8
Layer2$C$L2
 62
     3
 10
-557.1858911856
 20
176.1892667759
 11
-557.1858911856
 21
175.5817376523
  0
LINE
  8
Layer2$C$L2
 62
     3
 10
-555.6516443000
 20
173.9761275611
 11
-555.6516443000
 21
174.7547948099
  0
LINE
  8
Layer2$C$L2
 62
     3
 10
-555.6516443000
 20
177.7948768671
 11
-555.6516443000
 21
177.0162096179
  0
LINE
  8
Layer2$C$L2
 62
     3
 10
-553.3357998612
 20
175.5817376523
 11
-554.0431039048
 21
175.5817376523
  0
LINE
  8
Layer2$C$L2
 62
     3
 10
-553.3357998612
 20
176.1892667759
 11
-554.0431039048
 21
176.1892667759
  0
LINE
  8
Layer2$C$L2
 62
     3
 10
-553.3357998612
 20
176.1892667759
 11
-553.3357998612
 21
175.5817376523
  0
LINE
  8
Layer2$C$L2
 62
     3
 10
-554.8700467468
 20
173.9761275611
 11
-554.8700467468
 21
174.7547948099
  0
LINE
  8
Layer2$C$L2
 62
     3
 10
-554.8700467468
 20
177.7948768671
 11
-554.8700467468
 21
177.0162096179
  0
LINE
  8
Layer2$C$L2
 62
     3
 10
-554.8700467468
 20
177.7948768671
 11
-555.6516443000
 21
177.7948768671
  0
LINE
  8
Layer2$C$L2
 62
     3
 10
-559.2608455236
 20
165.8855022139
 11
-549.2608455116
 21
165.8855022139
  0
LINE
  8
Layer2$C$L2
 62
     3
 10
-550.7608455116
 20
165.8855022139
 11
-550.7608455116
 21
460.8855022139
  0
LINE
  8
Layer2$C$L2
 62
     3
 10
-550.7608455116
 20
165.9855487815
 11
-550.8608920792
 21
165.8855022139
  0
LINE
  8
Layer2$C$L2
 62
     3
 10
-549.2608455116
 20
165.8855022139
 11
-549.2608455116
 21
460.8855022139
  0
LINE
  8
Layer2$C$L2
 62
     3
 10
-1013.2173302300
 20
460.8855022139
 11
-688.2173302300
 21
460.8855022139
  0
LINE
  8
Layer2$C$L2
 62
     3
 10
-998.2173302300
 20
165.8855022139
 11
-998.2173302300
 21
460.8855022139
  0
LINE
  8
Layer2$C$L2
 62
     3
 10
-715.2173302300
 20
448.8855022139
 11
-715.2173302300
 21
177.8855022139
  0
LINE
  8
Layer2$C$L2
 62
     3
 10
-715.2173302300
 20
177.8855022139
 11
-986.2173302300
 21
177.8855022139
  0
LINE
  8
Layer2$C$L2
 62
     3
 10
-547.7258455116
 20
197.8355022139
 11
-540.4258455116
 21
197.8355022139
  0
LINE
  8
Layer2$C$L2
 62
     3
 10
-383.5255114764
 20
188.8355022139
 11
-383.5255114764
 21
182.8355022139
  0
LINE
  8
Layer2$C$L2
 62
     3
 10
-383.5255114764
 20
188.8355022139
 11
-383.1255114764
 21
188.8355022139
  0
LINE
  8
Layer2$C$L2
 62
     3
 10
-387.8255114764
 20
182.8355022139
 11
-383.5255114764
 21
182.8355022139
  0
LINE
  8
Layer2$C$L2
 62
     3
 10
-387.8255114764
 20
188.8355022139
 11
-387.8255114764
 21
182.8355022139
  0
LINE
  8
Layer2$C$L2
 62
     3
 10
-387.8255114764
 20
186.5855022139
 11
-388.4755114764
 21
186.5855022139
  0
LINE
  8
Layer2$C$L2
 62
     3
 10
-387.8255114672
 20
216.5855022139
 11
-388.4755114764
 21
216.5855022139
  0
LINE
  8
Layer2$C$L2
 62
     3
 10
-547.7258455116
 20
205.3355022139
 11
-540.4258455116
 21
205.3355022139
  0
LINE
  8
Layer2$C$L2
 62
     3
 10
-383.1255114764
 20
216.3355022139
 11
-383.1255114764
 21
206.3355022139
  0
LINE
  8
Layer2$C$L2
 62
     3
 10
-388.2255114764
 20
216.3355022139
 11
-388.2255114764
 21
206.3355022139
  0
LINE
  8
Layer2$C$L2
 62
     3
 10
-383.1255114764
 20
216.3355022139
 11
-388.2255114764
 21
216.3355022139
  0
LINE
  8
Layer2$C$L2
 62
     3
 10
-383.1255114764
 20
188.8355022139
 11
-383.1255114764
 21
196.8355022139
  0
LINE
  8
Layer2$C$L2
 62
     3
 10
-388.2255114764
 20
188.8355022139
 11
-388.2255114764
 21
196.8355022139
  0
LINE
  8
Layer2$C$L2
 62
     3
 10
-387.8255114764
 20
188.8355022139
 11
-388.2255114764
 21
188.8355022139
  0
LINE
  8
Layer2$C$L2
 62
     3
 10
-382.0255114764
 20
205.3355022139
 11
-382.0255114764
 21
197.8355022139
  0
LINE
  8
Layer2$C$L2
 62
     3
 10
-389.3255114764
 20
196.8355022139
 11
-382.0255114764
 21
196.8355022139
  0
LINE
  8
Layer2$C$L2
 62
     3
 10
-389.3255114764
 20
206.3355022139
 11
-382.0255114764
 21
206.3355022139
  0
LINE
  8
Layer2$C$L2
 62
     3
 10
-389.3255114764
 20
206.3355022139
 11
-389.3255114764
 21
196.8355022139
  0
LINE
  8
Layer2$C$L2
 62
     3
 10
-388.4755114764
 20
196.8355022139
 11
-388.4755114764
 21
186.5855022139
  0
LINE
  8
Layer2$C$L2
 62
     3
 10
-384.3755115608
 20
526.5136552123
 11
-384.3755115608
 21
534.5136549999
  0
LINE
  8
Layer2$C$L2
 62
     3
 10
-386.9755114920
 20
526.5136552123
 11
-386.9755114920
 21
534.5136549999
  0
LINE
  8
Layer2$C$L2
 62
     3
 10
-385.3555115348
 20
524.5136539391
 11
-385.3555115348
 21
526.5136538859
  0
LINE
  8
Layer2$C$L2
 62
     3
 10
-386.9755114920
 20
526.5136552123
 11
-385.0255115436
 21
526.5136552123
  0
LINE
  8
Layer2$C$L2
 62
     3
 10
-387.1755114864
 20
484.5136549999
 11
-388.4755114520
 21
484.5136549999
  0
LINE
  8
Layer2$C$L2
 62
     3
 10
-386.9755114920
 20
524.5136539391
 11
-385.0255115436
 21
524.5136539391
  0
LINE
  8
Layer2$C$L2
 62
     3
 10
-388.4755114520
 20
472.0136553315
 11
-382.8755116008
 21
472.0136553315
  0
LINE
  8
Layer2$C$L2
 62
     3
 10
-385.6755115264
 20
487.0136549335
 11
-385.6755115264
 21
524.5136539391
  0
LINE
  8
Layer2$C$L2
 62
     3
 10
-387.1755114864
 20
487.0136549335
 11
-384.1755115660
 21
487.0136549335
  0
LINE
  8
Layer2$C$L2
 62
     3
 10
-384.3755115608
 20
487.0136549335
 11
-384.3755115608
 21
524.5136539391
  0
LINE
  8
Layer2$C$L2
 62
     3
 10
-384.1755115660
 20
484.5136549999
 11
-382.8755116008
 21
484.5136549999
  0
LINE
  8
Layer2$C$L2
 62
     3
 10
-386.9755114920
 20
487.0136549335
 11
-386.9755114920
 21
524.5136539391
  0
LINE
  8
Layer2$C$L2
 62
     3
 10
-384.3755115608
 20
526.5136552123
 11
-385.0255115436
 21
526.5136552123
  0
LINE
  8
Layer2$C$L2
 62
     3
 10
-386.6555115004
 20
524.5136539391
 11
-386.6555115004
 21
526.5136538859
  0
LINE
  8
Layer2$C$L2
 62
     3
 10
-384.1755115660
 20
487.0136549335
 11
-384.1755115660
 21
484.5136549999
  0
LINE
  8
Layer2$C$L2
 62
     3
 10
-388.4755114520
 20
484.5136549999
 11
-388.4755114520
 21
472.0136553315
  0
LINE
  8
Layer2$C$L2
 62
     3
 10
-384.3755115608
 20
524.5136539391
 11
-385.0255115436
 21
524.5136539391
  0
LINE
  8
Layer2$C$L2
 62
     3
 10
-384.6955115524
 20
524.5136539391
 11
-384.6955115524
 21
526.5136538859
  0
LINE
  8
Layer2$C$L2
 62
     3
 10
-385.6755115264
 20
526.5136538859
 11
-385.6755115264
 21
534.5136536739
  0
LINE
  8
Layer2$C$L2
 62
     3
 10
-383.5255115836
 20
472.0136553315
 11
-383.5255115836
 21
241.2272769553
  0
LINE
  8
Layer2$C$L2
 62
     3
 10
-382.8755116008
 20
484.5136549999
 11
-382.8755116008
 21
472.0136553315
  0
LINE
  8
Layer2$C$L2
 62
     3
 10
-387.1755114864
 20
487.0136549335
 11
-387.1755114864
 21
484.5136549999
  0
LINE
  8
Layer2$C$L2
 62
     3
 10
-386.9755114920
 20
534.5136549999
 11
-384.3755115608
 21
534.5136549999
  0
LINE
  8
Layer2$C$L2
 62
     3
 10
-542.5758455956
 20
487.0136562575
 11
-542.5758455956
 21
484.5136563239
  0
LINE
  8
Layer2$C$L2
 62
     3
 10
-387.8255114692
 20
472.0136553315
 11
-387.8255114692
 21
242.8086183182
  0
LINE
  8
Layer2$C$L2
 62
     3
 10
-541.9258455116
 20
472.0136566555
 11
-541.9258455116
 21
247.2160549569
  0
LINE
  8
Layer2$C$L2
 62
     3
 10
-545.5758455160
 20
487.0136562575
 11
-545.5758455160
 21
484.5136563239
  0
LINE
  8
Layer2$C$L2
 62
     3
 10
-543.7558455644
 20
524.5136552631
 11
-543.7558455644
 21
526.5136552099
  0
LINE
  8
Layer2$C$L2
 62
     3
 10
-545.3758455212
 20
526.5136565363
 11
-545.3758455212
 21
534.5136563239
  0
LINE
  8
Layer2$C$L2
 62
     3
 10
-544.0758455556
 20
487.0136562575
 11
-544.0758455556
 21
524.5136552631
  0
LINE
  8
Layer2$C$L2
 62
     3
 10
-545.5758455160
 20
484.5136563239
 11
-546.8758454816
 21
484.5136563239
  0
LINE
  8
Layer2$C$L2
 62
     3
 10
-385.9955115180
 20
524.5136539391
 11
-385.9955115180
 21
526.5136538859
  0
LINE
  8
Layer2$C$L2
 62
     3
 10
-545.3758455212
 20
526.5136565363
 11
-543.4258455732
 21
526.5136565363
  0
LINE
  8
Layer2$C$L2
 62
     3
 10
-545.3758455212
 20
534.5136563239
 11
-542.7758455904
 21
534.5136563239
  0
LINE
  8
Layer2$C$L2
 62
     3
 10
-544.3958455472
 20
524.5136552631
 11
-544.3958455472
 21
526.5136552099
  0
LINE
  8
Layer2$C$L2
 62
     3
 10
-545.0558455296
 20
524.5136552631
 11
-545.0558455296
 21
526.5136552099
  0
LINE
  8
Layer2$C$L2
 62
     3
 10
-544.0758455556
 20
526.5136552099
 11
-544.0758455556
 21
534.5136549979
  0
LINE
  8
Layer2$C$L2
 62
     3
 10
-542.5758455956
 20
484.5136563239
 11
-541.2758456300
 21
484.5136563239
  0
LINE
  8
Layer2$C$L2
 62
     3
 10
-541.2758456300
 20
484.5136563239
 11
-541.2758456300
 21
472.0136566555
  0
LINE
  8
Layer2$C$L2
 62
     3
 10
-545.5758455160
 20
487.0136562575
 11
-542.5758455956
 21
487.0136562575
  0
LINE
  8
Layer2$C$L2
 62
     3
 10
-545.3758455212
 20
524.5136552631
 11
-543.4258455732
 21
524.5136552631
  0
LINE
  8
Layer2$C$L2
 62
     3
 10
-546.8758454816
 20
472.0136566555
 11
-541.2758456300
 21
472.0136566555
  0
LINE
  8
Layer2$C$L2
 62
     3
 10
-542.7758455904
 20
487.0136562575
 11
-542.7758455904
 21
524.5136552631
  0
LINE
  8
Layer2$C$L2
 62
     3
 10
-546.2258454988
 20
472.0136566555
 11
-546.2258454988
 21
248.2949511750
  0
LINE
  8
Layer2$C$L2
 62
     3
 10
-542.7758455904
 20
524.5136552631
 11
-543.4258455732
 21
524.5136552631
  0
LINE
  8
Layer2$C$L2
 62
     3
 10
-546.8758454816
 20
484.5136563239
 11
-546.8758454816
 21
472.0136566555
  0
LINE
  8
Layer2$C$L2
 62
     3
 10
-542.7758455904
 20
526.5136565363
 11
-543.4258455732
 21
526.5136565363
  0
LINE
  8
Layer2$C$L2
 62
     3
 10
-542.7758455904
 20
526.5136565363
 11
-542.7758455904
 21
534.5136563239
  0
LINE
  8
Layer2$C$L2
 62
     3
 10
-158.4755114764
 20
180.8855022139
 11
-113.4755114764
 21
180.8855022139
  0
LINE
  8
Layer2$C$L2
 62
     3
 10
-543.0958455816
 20
524.5136552631
 11
-543.0958455816
 21
526.5136552099
  0
LINE
  8
Layer2$C$L2
 62
     3
 10
-158.4755114764
 20
200.8855022139
 11
-113.4755114764
 21
200.8855022139
  0
LINE
  8
Layer2$C$L2
 62
     3
 10
-387.8255114692
 20
459.3855022139
 11
-390.2755114764
 21
459.3855022139
  0
LINE
  8
Layer2$C$L2
 62
     3
 10
-158.4755114764
 20
200.8855022139
 11
-158.4755114764
 21
180.8855022139
  0
LINE
  8
Layer2$C$L2
 62
     3
 10
-383.5255115836
 20
459.1855022139
 11
-99.9755114764
 21
459.1855022139
  0
LINE
  8
Layer2$C$L2
 62
     3
 10
-545.3758455212
 20
487.0136562575
 11
-545.3758455212
 21
524.5136552631
  0
LINE
  8
Layer2$C$L2
 62
     3
 10
-113.4755114764
 20
200.8855022139
 11
-113.4755114764
 21
180.8855022139
  0
LINE
  8
Layer2$C$L2
 62
     3
 10
-383.5255115836
 20
460.8855022139
 11
-81.9755114764
 21
460.8855022139
  0
INSERT
  8
Layer8$C$L8
 66
     1
  2
Cadra_attr_0
 10
0.000000
 20
0.000000
  0
ATTRIB
  8
Layer8$C$L8
 10
-55.085531
 20
28.407108
 40
0.156000
  1
ìL>ÄK
  2
10
 70
    11
  0
SEQEND
  8
Layer8$C$L8
  0
INSERT
  8
Layer8$C$L8
 66
     1
  2
Cadra_attr_1
 10
0.000000
 20
0.000000
  0
ATTRIB
  8
Layer8$C$L8
 10
-98.000000
 20
278.000000
 40
0.156000
  1
ìL>ÄK
  2
10
 70
    11
  0
SEQEND
  8
Layer8$C$L8
  0
INSERT
  8
Layer8$C$L8
 62
     5
 66
     1
  2
Cadra_attr_2
 10
0.000000
 20
0.000000
  0
ATTRIB
  8
Layer8$C$L8
 62
     5
 10
-48.247117
 20
18.500000
 40
0.156000
  1
  
  2
20
 70
    11
  0
SEQEND
  8
Layer8$C$L8
 62
     5
  0
ENDSEC
  0
EOF
