  0
SECTION
  2
HEADER
  9
$ACADVER
  1
AC1004
  9
$ANGBASE
 50
0.0000000000
  9
$ANGDIR
 70
     0
  9
$ATTDIA
 70
     0
  9
$ATTMODE
 70
     1
  9
$ATTREQ
 70
     1
  9
$AUNITS
 70
     0
  9
$AUPREC
 70
     0
  9
$AXISMODE
 70
     0
  9
$AXISUNIT
 10
0.0000000000
 20
0.0000000000
  9
$BLIPMODE
 70
     1
  9
$CECOLOR
 62
   256
  9
$CELTYPE
  6
BYLAYER
  9
$CHAMFERA
 40
0.0000000000
  9
$CHAMFERB
 40
0.0000000000
  9
$CLAYER
  8
0
  9
$COORDS
 70
     0
  9
$DIMALT
 70
     0
  9
$DIMALTD
 70
     2
  9
$DIMALTF
 40
25.4000000000
  9
$DIMAPOST
  1

  9
$DIMASO
 70
     1
  9
$DIMASZ
 40
1.9727878460
  9
$DIMBLK
  1

  9
$DIMBLK1
  1

  9
$DIMBLK2
  1

  9
$DIMCEN
 40
9.0000000000E-02
  9
$DIMDLE
 40
0.0000000000
  9
$DIMDLI
 40
0.3800000000
  9
$DIMEXE
 40
3.8099999428
  9
$DIMEXO
 40
2.5399999619
  9
$DIMLFAC
 40
1.0000000000
  9
$DIMLIM
 70
     0
  9
$DIMPOST
  1

  9
$DIMRND
 40
0.0000000000
  9
$DIMSCALE
 40
1.0000000000
  9
$DIMSE1
 70
     0
  9
$DIMSE2
 70
     0
  9
$DIMSHO
 70
     0
  9
$DIMTAD
 70
     0
  9
$DIMTIH
 70
     0
  9
$DIMTM
 40
0.0000000000
  9
$DIMTOH
 70
     1
  9
$DIMTOL
 70
     0
  9
$DIMTP
 40
0.0000000000
  9
$DIMTSZ
 40
0.0000000000
  9
$DIMTXT
 40
2.9999940395
  9
$DIMZIN
 70
     0
  9
$DRAGMODE
 70
     1
  9
$ELEVATION
 40
0.0000000000
  9
$EXTMAX
 10
3.1750000000
 20
217.5314910889
 30
0.0000000000
  9
$EXTMIN
 10
-158.9356506348
 20
-3.1750000000
 30
0.0000000000
  9
$FASTZOOM
 70
     1
  9
$FILLETRAD
 40
6.2500000000E-02
  9
$FILLMODE
 70
     1
  9
$GRIDMODE
 70
     0
  9
$GRIDUNIT
 10
0.0000000000
 20
0.0000000000
  9
$INSBASE
 10
0.0000000000
 20
0.0000000000
 30
0.0000000000
  9
$LIMCHECK
 70
     0
  9
$LIMMAX
 10
3.1750000000
 20
217.5314910889
  9
$LIMMIN
 10
-158.9356506348
 20
-3.1750000000
  9
$LTSCALE
 40
1.0000000000
  9
$LUNITS
 70
     2
  9
$LUPREC
 70
     3
  9
$MEASUREMENT
 70
     0
  9
$MENU
  1
ACAD
  9
$MIRRTEXT
 70
     0
  9
$ORTHOMODE
 70
     0
  9
$OSMODE
 70
     0
  9
$PDMODE
 70
     0
  9
$PDSIZE
 40
0.0000000000
  9
$PLINEWID
 40
0.0000000000
  9
$PROXYGRAPHICS
 70
     0
  9
$QTEXTMODE
 70
     0
  9
$REGENMODE
 70
     1
  9
$SKETCHINC
 40
0.1000000000
  9
$SKPOLY
 70
     0
  9
$SNAPANG
 50
0.0000000000
  9
$SNAPBASE
 10
0.0000000000
 20
0.0000000000
  9
$SNAPISOPAIR
 70
     0
  9
$SNAPMODE
 70
     0
  9
$SNAPSTYLE
 70
     0
  9
$SNAPUNIT
 10
1.0000000000
 20
1.0000000000
  9
$SPLFRAME
 70
     0
  9
$SPLINESEGS
 70
     8
  9
$TDCREATE
 40
2455714.6963541711
  9
$TDINDWG
 40
0.0000000000
  9
$TDUPDATE
 40
2455714.6963541711
  9
$TDUSRTIMER
 40
0.0000000000
  9
$TEXTSIZE
 40
2.9999940395
  9
$TEXTSTYLE
  7
STANDARD
  9
$THICKNESS
 40
0.0000000000
  9
$TRACEWID
 40
5.0000000000E-02
  9
$USERI1
 70
     0
  9
$USERI2
 70
     0
  9
$USERI3
 70
     0
  9
$USERI4
 70
     0
  9
$USERI5
 70
     0
  9
$USERR1
 40
0.0000000000
  9
$USERR2
 40
0.0000000000
  9
$USERR3
 40
0.0000000000
  9
$USERR4
 40
0.0000000000
  9
$USERR5
 40
0.0000000000
  9
$USRTIMER
 70
     1
  9
$VIEWCTR
 10
-77.8803253174
 20
107.1782455444
  9
$VIEWDIR
 10
0.0000000000
 20
0.0000000000
 30
1.0000000000
  9
$VIEWSIZE
 40
220.7064910889
  0
ENDSEC
  0
SECTION
  2
TABLES
  0
TABLE
  2
LTYPE
 70
     2
  0
LTYPE
  2
SOLID
  3
Solid
 70
    64
 72
    65
 73
     0
 40
0.0000000000
  0
LTYPE
  2
CENTER
  3
Center
 70
    64
 72
    65
 73
     4
 40
9.1000000238
 49
6.5000000000
 49
-0.8000000119
 49
1.0000000000
 49
-0.8000000119
  0
ENDTAB
  0
TABLE
  2
LAYER
 70
     4
  0
LAYER
  2
Layer0$C$L0
 70
     0
  6
SOLID
 62
     3
  0
LAYER
  2
Layer1$C$L1
 70
     0
  6
SOLID
 62
     3
  0
LAYER
  2
Layer6$C$L6
 70
     0
  6
SOLID
 62
    31
  0
LAYER
  2
Layer8$C$L8
 70
     0
  6
SOLID
 62
     7
  0
ENDTAB
  0
TABLE
  2
STYLE
 70
     1
  0
STYLE
  2
STANDARD
  3
txt
  4

 40
0.0000000000
 41
1.0000000000
 42
4.7999906540
 50
0.0000000000
 70
     0
 71
     0
  0
ENDTAB
  0
ENDSEC
  0
SECTION
  2
BLOCKS
  0
BLOCK
  8
Layer8$C$L8
  2
Cadra_attr_0
 70
     2
 10
0.0000000000
 20
0.0000000000
  0
TEXT
  8
Layer8$C$L8
 10
-66.3229102188
 20
26.1756735201
 40
4.1671714783
  1
LB9Z-BS#-#
 41
0.8595637381
 72
     5
 11
-34.0853647786
 21
26.1756735201
  0
ATTDEF
  8
Layer8$C$L8
 10
-50.204136
 20
28.259260
 40
0.156000
  1
ìL>ÄK
  3

  2
10
 70
    11
  0
ENDBLK
  8
Layer8$C$L8
  0
BLOCK
  8
Layer8$C$L8
  2
Cadra_attr_1
 70
     2
 10
0.000000
 20
0.000000
  0
TEXT
  8
Layer8$C$L8
 62
     5
 10
-66.0872999535
 20
16.0000000000
 40
5.0000000000
  1
MA4-H01892
 41
0.8595637381
 72
     5
 11
-27.4069317370
 21
16.0000000000
  0
ATTDEF
  8
Layer8$C$L8
 62
     5
 10
-46.747117
 20
18.500000
 40
0.156000
  1
  
  3

  2
20
 70
    11
  0
ENDBLK
  8
Layer8$C$L8
  0
ENDSEC
  0
SECTION
  2
ENTITIES
  0
INSERT
  8
Layer8$C$L8
 66
     1
  2
Cadra_attr_0
 10
0.000000
 20
0.000000
  0
ATTRIB
  8
Layer8$C$L8
 10
-50.204136
 20
28.259260
 40
0.156000
  1
ìL>ÄK
  2
10
 70
    11
  0
SEQEND
  8
Layer8$C$L8
  0
LINE
  8
Layer1$C$L1
  6
CENTER
 62
     3
 10
-155.7606513635
 20
65.3564963701
 11
-129.6606519804
 21
65.3564963701
  0
LINE
  8
Layer1$C$L1
  6
CENTER
 62
     3
 10
-114.2837275570
 20
100.3564963701
 11
-80.2837266927
 21
100.3564963701
  0
LINE
  8
Layer1$C$L1
  6
CENTER
 62
     3
 10
-155.7606513635
 20
100.3564963701
 11
-129.6606519804
 21
100.3564963701
  0
LINE
  8
Layer1$C$L1
  6
CENTER
 62
     3
 10
-97.2837271248
 20
86.3564963701
 11
-97.2837271248
 21
114.3564963701
  0
LINE
  8
Layer1$C$L1
  6
CENTER
 62
     3
 10
-97.2837271248
 20
136.3564963701
 11
-97.2837271248
 21
164.3564963701
  0
LINE
  8
Layer1$C$L1
  6
CENTER
 62
     3
 10
-111.2837271248
 20
150.3564963701
 11
-83.2837271248
 21
150.3564963701
  0
LINE
  8
Layer1$C$L1
  6
CENTER
 62
     3
 10
-155.7606513635
 20
150.3564963701
 11
-129.6606519804
 21
150.3564963701
  0
LINE
  8
Layer1$C$L1
  6
CENTER
 62
     3
 10
-155.7606513635
 20
200.3564963701
 11
-129.6606519804
 21
200.3564963701
  0
LINE
  8
Layer1$C$L1
  6
CENTER
 62
     3
 10
-111.2837271248
 20
200.3564963701
 11
-83.2837271248
 21
200.3564963701
  0
LINE
  8
Layer1$C$L1
  6
CENTER
 62
     3
 10
-97.2837271248
 20
186.3564963701
 11
-97.2837271248
 21
214.3564963701
  0
LINE
  8
Layer0$C$L0
 62
     3
 10
-105.7837275867
 20
190.8564966756
 11
-105.7837275867
 21
189.8564965116
  0
LINE
  8
Layer0$C$L0
 62
     3
 10
-105.7837275867
 20
209.8564960646
 11
-105.7837275867
 21
210.8564962285
  0
LINE
  8
Layer0$C$L0
 62
     3
 10
-88.7837266629
 20
190.8564966756
 11
-88.7837266629
 21
189.8564965116
  0
LINE
  8
Layer0$C$L0
 62
     3
 10
-88.7837266629
 20
209.8564960646
 11
-88.7837266629
 21
210.8564962285
  0
LINE
  8
Layer0$C$L0
 62
     3
 10
-107.7837269832
 20
210.8564962285
 11
-100.5624463861
 21
210.8564962285
  0
LINE
  8
Layer0$C$L0
 62
     3
 10
-102.8289954257
 20
209.8564960646
 11
-107.7837269832
 21
209.8564960646
  0
LINE
  8
Layer0$C$L0
 62
     3
 10
-100.5624463861
 20
189.8564965116
 11
-107.7837269832
 21
189.8564965116
  0
LINE
  8
Layer0$C$L0
 62
     3
 10
-107.7837269832
 20
190.8564966756
 11
-102.8289954257
 21
190.8564966756
  0
LINE
  8
Layer0$C$L0
 62
     3
 10
-86.7837272664
 20
209.8564960646
 11
-91.7384588239
 21
209.8564960646
  0
LINE
  8
Layer0$C$L0
 62
     3
 10
-91.7384588239
 20
190.8564966756
 11
-86.7837272664
 21
190.8564966756
  0
LINE
  8
Layer0$C$L0
 62
     3
 10
-86.7837272664
 20
210.8564962285
 11
-94.0050078635
 21
210.8564962285
  0
LINE
  8
Layer0$C$L0
 62
     3
 10
-86.7837272664
 20
189.8564965116
 11
-94.0050078635
 21
189.8564965116
  0
LINE
  8
Layer0$C$L0
 62
     3
 10
-86.7837272664
 20
210.8564962285
 11
-86.7837272664
 21
203.6352156314
  0
LINE
  8
Layer0$C$L0
 62
     3
 10
-86.7837272664
 20
197.0777771088
 11
-86.7837272664
 21
189.8564965116
  0
LINE
  8
Layer0$C$L0
 62
     3
 10
-107.7837269832
 20
210.8564962285
 11
-107.7837269832
 21
203.6352156314
  0
LINE
  8
Layer0$C$L0
 62
     3
 10
-107.7837269832
 20
197.0777771088
 11
-107.7837269832
 21
189.8564965116
  0
CIRCLE
  8
Layer0$C$L0
 62
     3
 10
-97.2837271248
 20
200.3564963701
 40
4.5000000000
  0
CIRCLE
  8
Layer0$C$L0
 62
     3
 10
-97.2837271248
 20
200.3564963701
 40
7.0000000000
  0
CIRCLE
  8
Layer0$C$L0
 62
     3
 10
-97.2837271248
 20
200.3564963701
 40
9.0000000000
  0
CIRCLE
  8
Layer0$C$L0
 62
     3
 10
-97.2837271248
 20
200.3564963701
 40
11.0000000000
  0
LINE
  8
Layer0$C$L0
 62
     3
 10
-134.6606513769
 20
210.6564965683
 11
-134.7606516727
 21
210.6564965683
  0
LINE
  8
Layer0$C$L0
 62
     3
 10
-134.7606516727
 20
190.0564961719
 11
-134.6606513769
 21
190.0564961719
  0
LINE
  8
Layer0$C$L0
 62
     3
 10
-146.2606516951
 20
209.2564961525
 11
-149.2606517211
 21
209.2564961525
  0
LINE
  8
Layer0$C$L0
 62
     3
 10
-149.2606517211
 20
191.4564965876
 11
-146.2606516951
 21
191.4564965876
  0
LINE
  8
Layer0$C$L0
 62
     3
 10
-133.8839441822
 20
211.3564963105
 11
-134.6606513769
 21
211.3564963105
  0
LINE
  8
Layer0$C$L0
 62
     3
 10
-134.6606513769
 20
189.3564964297
 11
-133.8839441822
 21
189.3564964297
  0
ARC
  8
Layer0$C$L0
 62
     3
 10
-133.8839443980
 20
210.8564963701
 40
0.5000000000
 50
24.2277453180
 51
90.0000000000
  0
ARC
  8
Layer0$C$L0
 62
     3
 10
-133.8839443980
 20
189.8564963701
 40
0.5000000000
 50
270.0000000000
 51
335.7722546820
  0
LINE
  8
Layer0$C$L0
 62
     3
 10
-133.4279835508
 20
189.6513140413
 11
-132.6606519804
 21
191.3564967575
  0
LINE
  8
Layer0$C$L0
 62
     3
 10
-132.6606519804
 20
209.3564959826
 11
-133.4279835508
 21
211.0616786989
  0
LINE
  8
Layer0$C$L0
 62
     3
 10
-136.6606517047
 20
208.4564965802
 11
-141.6606515930
 21
208.4564965802
  0
LINE
  8
Layer0$C$L0
 62
     3
 10
-141.6606515930
 20
192.2564961600
 11
-136.6606517047
 21
192.2564961600
  0
LINE
  8
Layer0$C$L0
 62
     3
 10
-151.2606520490
 20
207.6314965847
 11
-152.4606518731
 21
207.6314965847
  0
LINE
  8
Layer0$C$L0
 62
     3
 10
-151.2606520490
 20
193.0814961555
 11
-150.1606520549
 21
193.0814961555
  0
LINE
  8
Layer0$C$L0
 62
     3
 10
-152.7606513635
 20
197.3489286496
 11
-150.4418732882
 21
197.3489286496
  0
POLYLINE
  8
Layer0$C$L0
 62
     3
 66
     1
  0
VERTEX
  8
Layer0$C$L0
 62
     3
 10
-150.4419002966
 20
195.6699284377
  0
VERTEX
  8
Layer0$C$L0
 62
     3
 10
-150.4089407907
 20
195.6308003167
  0
VERTEX
  8
Layer0$C$L0
 62
     3
 10
-150.2374070049
 20
195.4383690494
  0
SEQEND
  8
Layer0$C$L0
 62
     3
  0
ARC
  8
Layer0$C$L0
 62
     3
 10
-151.7070579402
 20
205.4819829189
 40
0.4466618328
 50
5.9281617566
 51
96.9046639844
  0
LINE
  8
Layer0$C$L0
 62
     3
 10
-151.7606511996
 20
205.9267427425
 11
-152.6043754355
 21
205.9267427425
  0
LINE
  8
Layer0$C$L0
 62
     3
 10
-152.4606518731
 20
207.6314965847
 11
-152.7606513635
 21
207.5314962889
  0
LINE
  8
Layer0$C$L0
 62
     3
 10
-150.1606520549
 20
207.4314964587
 11
-151.2606520490
 21
207.4314964587
  0
LINE
  8
Layer0$C$L0
 62
     3
 10
-146.2606516951
 20
190.8564966756
 11
-146.2606516951
 21
209.8564960646
  0
LINE
  8
Layer0$C$L0
 62
     3
 10
-145.2606515311
 20
209.8564960646
 11
-145.2606515311
 21
190.8564966756
  0
ARC
  8
Layer0$C$L0
 62
     3
 10
-145.2606515930
 20
190.8564963701
 40
1.0000000000
 50
180.0000000000
 51
270.0000000000
  0
ARC
  8
Layer0$C$L0
 62
     3
 10
-145.2606515930
 20
209.8564963701
 40
1.0000000000
 50
90.0000000000
 51
180.0000000000
  0
LINE
  8
Layer0$C$L0
 62
     3
 10
-137.8606515289
 20
209.8564960646
 11
-137.8606515289
 21
210.8564962285
  0
LINE
  8
Layer0$C$L0
 62
     3
 10
-145.2606515311
 20
209.8564960646
 11
-137.8606515289
 21
209.8564960646
  0
LINE
  8
Layer0$C$L0
 62
     3
 10
-145.2606515311
 20
210.8564962285
 11
-137.8606515289
 21
210.8564962285
  0
LINE
  8
Layer0$C$L0
 62
     3
 10
-137.8606515289
 20
190.8564966756
 11
-137.8606515289
 21
189.8564965116
  0
LINE
  8
Layer0$C$L0
 62
     3
 10
-145.2606515311
 20
190.8564966756
 11
-137.8606515289
 21
190.8564966756
  0
LINE
  8
Layer0$C$L0
 62
     3
 10
-145.2606515311
 20
189.8564965116
 11
-137.8606515289
 21
189.8564965116
  0
LINE
  8
Layer0$C$L0
 62
     3
 10
-134.7606516727
 20
210.6564965683
 11
-134.7606516727
 21
190.0564961719
  0
LINE
  8
Layer0$C$L0
 62
     3
 10
-149.2606517211
 20
208.7356372389
 11
-150.1606520549
 21
208.7356372389
  0
LINE
  8
Layer0$C$L0
 62
     3
 10
-149.2606517211
 20
208.7356372389
 11
-149.2606517211
 21
209.2564961525
  0
LINE
  8
Layer0$C$L0
 62
     3
 10
-149.2606517211
 20
191.4564965876
 11
-149.2606517211
 21
191.9773555013
  0
LINE
  8
Layer0$C$L0
 62
     3
 10
-149.2606517211
 20
191.9773555013
 11
-150.1606520549
 21
191.9773555013
  0
LINE
  8
Layer0$C$L0
 62
     3
 10
-150.1606520549
 20
197.3564963440
 11
-150.1606520549
 21
191.9773555013
  0
LINE
  8
Layer0$C$L0
 62
     3
 10
-149.2606517211
 20
197.3564963440
 11
-150.1606520549
 21
197.3564963440
  0
LINE
  8
Layer0$C$L0
 62
     3
 10
-149.2606517211
 20
197.3564963440
 11
-149.2606517211
 21
203.3564963962
  0
LINE
  8
Layer0$C$L0
 62
     3
 10
-149.2606517211
 20
203.3564963962
 11
-150.1606520549
 21
203.3564963962
  0
LINE
  8
Layer0$C$L0
 62
     3
 10
-150.1606520549
 20
208.7356372389
 11
-150.1606520549
 21
203.3564963962
  0
LINE
  8
Layer0$C$L0
 62
     3
 10
-148.1606517271
 20
209.2362482684
 11
-146.2606516951
 21
209.2362482684
  0
LINE
  8
Layer0$C$L0
 62
     3
 10
-148.1606517271
 20
209.0889698478
 11
-148.1606517271
 21
209.2362482684
  0
LINE
  8
Layer0$C$L0
 62
     3
 10
-148.1606517271
 20
209.0889698478
 11
-146.2606516951
 21
209.0889698478
  0
LINE
  8
Layer0$C$L0
 62
     3
 10
-148.1606517271
 20
208.7783868077
 11
-146.2606516951
 21
208.7783868077
  0
LINE
  8
Layer0$C$L0
 62
     3
 10
-148.1606517271
 20
208.3465874779
 11
-148.1606517271
 21
208.7783868077
  0
LINE
  8
Layer0$C$L0
 62
     3
 10
-148.1606517271
 20
208.3465874779
 11
-146.2606516951
 21
208.3465874779
  0
LINE
  8
Layer0$C$L0
 62
     3
 10
-148.1606517271
 20
207.7465875658
 11
-146.2606516951
 21
207.7465875658
  0
LINE
  8
Layer0$C$L0
 62
     3
 10
-148.1606517271
 20
207.0596933948
 11
-148.1606517271
 21
207.7465875658
  0
LINE
  8
Layer0$C$L0
 62
     3
 10
-148.1606517271
 20
207.0596933948
 11
-146.2606516951
 21
207.0596933948
  0
LINE
  8
Layer0$C$L0
 62
     3
 10
-148.1606517271
 20
206.2111653971
 11
-146.2606516951
 21
206.2111653971
  0
LINE
  8
Layer0$C$L0
 62
     3
 10
-148.1606517271
 20
205.3159879173
 11
-148.1606517271
 21
206.2111653971
  0
LINE
  8
Layer0$C$L0
 62
     3
 10
-148.1606517271
 20
205.3159879173
 11
-146.2606516951
 21
205.3159879173
  0
LINE
  8
Layer0$C$L0
 62
     3
 10
-148.1606517271
 20
204.2767571869
 11
-146.2606516951
 21
204.2767571869
  0
LINE
  8
Layer0$C$L0
 62
     3
 10
-148.1606517271
 20
203.2343008208
 11
-148.1606517271
 21
204.2767571869
  0
LINE
  8
Layer0$C$L0
 62
     3
 10
-148.1606517271
 20
203.2343008208
 11
-146.2606516951
 21
203.2343008208
  0
LINE
  8
Layer0$C$L0
 62
     3
 10
-148.1606517271
 20
202.0751898993
 11
-146.2606516951
 21
202.0751898993
  0
LINE
  8
Layer0$C$L0
 62
     3
 10
-148.1606517271
 20
200.9564963986
 11
-148.1606517271
 21
202.0751898993
  0
LINE
  8
Layer0$C$L0
 62
     3
 10
-148.1606517271
 20
200.9564963986
 11
-146.2606516951
 21
200.9564963986
  0
LINE
  8
Layer0$C$L0
 62
     3
 10
-148.1606517271
 20
199.7564963416
 11
-146.2606516951
 21
199.7564963416
  0
LINE
  8
Layer0$C$L0
 62
     3
 10
-148.1606517271
 20
198.6378028408
 11
-148.1606517271
 21
199.7564963416
  0
LINE
  8
Layer0$C$L0
 62
     3
 10
-148.1606517271
 20
198.6378028408
 11
-146.2606516951
 21
198.6378028408
  0
LINE
  8
Layer0$C$L0
 62
     3
 10
-148.1606517271
 20
197.4786919194
 11
-146.2606516951
 21
197.4786919194
  0
LINE
  8
Layer0$C$L0
 62
     3
 10
-148.1606517271
 20
196.4362355533
 11
-148.1606517271
 21
197.4786919194
  0
LINE
  8
Layer0$C$L0
 62
     3
 10
-148.1606517271
 20
196.4362355533
 11
-146.2606516951
 21
196.4362355533
  0
LINE
  8
Layer0$C$L0
 62
     3
 10
-148.1606517271
 20
195.3970048229
 11
-146.2606516951
 21
195.3970048229
  0
LINE
  8
Layer0$C$L0
 62
     3
 10
-148.1606517271
 20
194.5018273430
 11
-148.1606517271
 21
195.3970048229
  0
LINE
  8
Layer0$C$L0
 62
     3
 10
-148.1606517271
 20
194.5018273430
 11
-146.2606516951
 21
194.5018273430
  0
LINE
  8
Layer0$C$L0
 62
     3
 10
-148.1606517271
 20
193.6532993453
 11
-146.2606516951
 21
193.6532993453
  0
LINE
  8
Layer0$C$L0
 62
     3
 10
-148.1606517271
 20
192.9664051744
 11
-148.1606517271
 21
193.6532993453
  0
LINE
  8
Layer0$C$L0
 62
     3
 10
-148.1606517271
 20
192.9664051744
 11
-146.2606516951
 21
192.9664051744
  0
LINE
  8
Layer0$C$L0
 62
     3
 10
-148.1606517271
 20
192.3664052623
 11
-146.2606516951
 21
192.3664052623
  0
LINE
  8
Layer0$C$L0
 62
     3
 10
-148.1606517271
 20
191.9346059325
 11
-148.1606517271
 21
192.3664052623
  0
LINE
  8
Layer0$C$L0
 62
     3
 10
-148.1606517271
 20
191.9346059325
 11
-146.2606516951
 21
191.9346059325
  0
LINE
  8
Layer0$C$L0
 62
     3
 10
-148.1606517271
 20
191.6240228924
 11
-146.2606516951
 21
191.6240228924
  0
LINE
  8
Layer0$C$L0
 62
     3
 10
-148.1606517271
 20
191.4767444717
 11
-148.1606517271
 21
191.6240228924
  0
LINE
  8
Layer0$C$L0
 62
     3
 10
-148.1606517271
 20
191.4767444717
 11
-146.2606516951
 21
191.4767444717
  0
LINE
  8
Layer0$C$L0
 62
     3
 10
-148.1606517271
 20
198.6896874035
 11
-146.2606516951
 21
198.6896874035
  0
LINE
  8
Layer0$C$L0
 62
     3
 10
-148.1606517271
 20
202.0233053366
 11
-146.2606516951
 21
202.0233053366
  0
LINE
  8
Layer0$C$L0
 62
     3
 10
-148.1606517271
 20
204.1765240605
 11
-146.2606516951
 21
204.1765240605
  0
LINE
  8
Layer0$C$L0
 62
     3
 10
-148.1606517271
 20
196.5364686797
 11
-146.2606516951
 21
196.5364686797
  0
LINE
  8
Layer0$C$L0
 62
     3
 10
-148.1606517271
 20
194.6435788299
 11
-146.2606516951
 21
194.6435788299
  0
LINE
  8
Layer0$C$L0
 62
     3
 10
-148.1606517271
 20
206.0694139103
 11
-146.2606516951
 21
206.0694139103
  0
LINE
  8
Layer0$C$L0
 62
     3
 10
-148.1606517271
 20
193.1400144125
 11
-146.2606516951
 21
193.1400144125
  0
LINE
  8
Layer0$C$L0
 62
     3
 10
-148.1606517271
 20
207.5729783277
 11
-146.2606516951
 21
207.5729783277
  0
LINE
  8
Layer0$C$L0
 62
     3
 10
-148.1606517271
 20
192.1282418656
 11
-146.2606516951
 21
192.1282418656
  0
LINE
  8
Layer0$C$L0
 62
     3
 10
-148.1606517271
 20
208.5847508746
 11
-146.2606516951
 21
208.5847508746
  0
LINE
  8
Layer0$C$L0
 62
     3
 10
-134.6606513769
 20
189.3564964297
 11
-134.6606513769
 21
211.3564963105
  0
LINE
  8
Layer0$C$L0
 62
     3
 10
-132.6606519804
 20
209.3564959826
 11
-132.6606519804
 21
191.3564967575
  0
LINE
  8
Layer0$C$L0
 62
     3
 10
-136.6572030173
 20
191.8564959081
 11
-136.6606517047
 21
191.8564959081
  0
LINE
  8
Layer0$C$L0
 62
     3
 10
-136.6606517047
 20
191.8564959081
 11
-136.6606517047
 21
208.8564968320
  0
LINE
  8
Layer0$C$L0
 62
     3
 10
-136.6606517047
 20
208.8564968320
 11
-136.6572030173
 21
208.8564968320
  0
ARC
  8
Layer0$C$L0
 62
     3
 10
-136.1773277447
 20
208.7588024274
 40
0.4897187702
 50
88.0485613095
 51
168.4928141796
  0
ARC
  8
Layer0$C$L0
 62
     3
 10
-136.1860729643
 20
191.9431052892
 40
0.4790247506
 50
190.4165684969
 51
273.0420560140
  0
LINE
  8
Layer0$C$L0
 62
     3
 10
-136.1606516228
 20
191.4647555562
 11
-134.7606516727
 21
191.4647555562
  0
LINE
  8
Layer0$C$L0
 62
     3
 10
-134.7606516727
 20
209.2482371839
 11
-136.1606516228
 21
209.2482371839
  0
LINE
  8
Layer0$C$L0
 62
     3
 10
-141.6606515930
 20
208.4564965802
 11
-141.6606515930
 21
192.2564961600
  0
LINE
  8
Layer0$C$L0
 62
     3
 10
-145.2606515311
 20
192.5200427535
 11
-141.6606515930
 21
192.5200427535
  0
LINE
  8
Layer0$C$L0
 62
     3
 10
-149.4606513814
 20
203.3564963962
 11
-149.4606513814
 21
197.3564963440
  0
LINE
  8
Layer0$C$L0
 62
     3
 10
-145.2606515311
 20
208.1929499867
 11
-141.6606515930
 21
208.1929499867
  0
LINE
  8
Layer0$C$L0
 62
     3
 10
-152.4606518731
 20
205.8785519215
 11
-152.4606518731
 21
197.4695628627
  0
POLYLINE
  8
Layer0$C$L0
 62
     3
 66
     1
  0
VERTEX
  8
Layer0$C$L0
 62
     3
 10
-152.4606518731
 20
197.4695628627
  0
VERTEX
  8
Layer0$C$L0
 62
     3
 10
-152.4650551663
 20
197.4476509380
  0
VERTEX
  8
Layer0$C$L0
 62
     3
 10
-152.4801397980
 20
197.4251746318
  0
VERTEX
  8
Layer0$C$L0
 62
     3
 10
-152.5184227438
 20
197.3978174968
  0
VERTEX
  8
Layer0$C$L0
 62
     3
 10
-152.6524195731
 20
197.3597149948
  0
VERTEX
  8
Layer0$C$L0
 62
     3
 10
-152.7606513635
 20
197.3499957124
  0
SEQEND
  8
Layer0$C$L0
 62
     3
  0
LINE
  8
Layer0$C$L0
 62
     3
 10
-152.7606513635
 20
197.3499957124
 11
-152.7606513635
 21
205.9145866545
  0
POLYLINE
  8
Layer0$C$L0
 62
     3
 66
     1
  0
VERTEX
  8
Layer0$C$L0
 62
     3
 10
-152.7606513635
 20
205.9145866545
  0
VERTEX
  8
Layer0$C$L0
 62
     3
 10
-152.5870519043
 20
205.9265886086
  0
VERTEX
  8
Layer0$C$L0
 62
     3
 10
-152.5349900410
 20
205.9227916064
  0
VERTEX
  8
Layer0$C$L0
 62
     3
 10
-152.4782445566
 20
205.9057023028
  0
VERTEX
  8
Layer0$C$L0
 62
     3
 10
-152.4653094173
 20
205.8937585565
  0
VERTEX
  8
Layer0$C$L0
 62
     3
 10
-152.4606518731
 20
205.8785519215
  0
SEQEND
  8
Layer0$C$L0
 62
     3
  0
LINE
  8
Layer0$C$L0
 62
     3
 10
-151.2606520490
 20
193.0814961555
 11
-151.2606520490
 21
193.1152514766
  0
LINE
  8
Layer0$C$L0
 62
     3
 10
-151.2606520490
 20
193.1152514766
 11
-152.4606518731
 21
193.1152514766
  0
LINE
  8
Layer0$C$L0
 62
     3
 10
-152.4606518731
 20
195.1087367373
 11
-152.4606518731
 21
193.1152514766
  0
LINE
  8
Layer0$C$L0
 62
     3
 10
-150.1606520549
 20
193.6419134612
 11
-151.4606517092
 21
193.6419134612
  0
LINE
  8
Layer0$C$L0
 62
     3
 10
-150.0606512935
 20
203.3155053972
 11
-151.4606517092
 21
203.3155053972
  0
LINE
  8
Layer0$C$L0
 62
     3
 10
-152.4606518731
 20
207.6314965847
 11
-152.4606518731
 21
207.1224426503
  0
LINE
  8
Layer0$C$L0
 62
     3
 10
-151.2606520490
 20
207.4300827111
 11
-150.1606520549
 21
207.4300827111
  0
LINE
  8
Layer0$C$L0
 62
     3
 10
-151.2606520490
 20
207.4300827111
 11
-151.2606520490
 21
207.6314965847
  0
ARC
  8
Layer0$C$L0
 62
     3
 10
-150.5489148041
 20
197.7105041591
 40
0.3756969774
 50
286.5537378216
 51
320.1098178370
  0
POLYLINE
  8
Layer0$C$L0
 62
     3
 66
     1
  0
VERTEX
  8
Layer0$C$L0
 62
     3
 10
-150.2606518850
 20
195.6353405143
  0
VERTEX
  8
Layer0$C$L0
 62
     3
 10
-150.2643846259
 20
195.6345204847
  0
VERTEX
  8
Layer0$C$L0
 62
     3
 10
-150.3120906935
 20
195.6281162451
  0
VERTEX
  8
Layer0$C$L0
 62
     3
 10
-150.3726117597
 20
195.6324166271
  0
VERTEX
  8
Layer0$C$L0
 62
     3
 10
-150.4197478578
 20
195.6507948811
  0
VERTEX
  8
Layer0$C$L0
 62
     3
 10
-150.4500503004
 20
195.6810265432
  0
VERTEX
  8
Layer0$C$L0
 62
     3
 10
-150.4606515453
 20
195.7203991363
  0
SEQEND
  8
Layer0$C$L0
 62
     3
  0
LINE
  8
Layer0$C$L0
 62
     3
 10
-150.4606515453
 20
195.7203991363
 11
-150.4606515453
 21
197.3489286496
  0
LINE
  8
Layer0$C$L0
 62
     3
 10
-151.2606520490
 20
205.5263960386
 11
-151.2606520490
 21
203.3155053972
  0
LINE
  8
Layer0$C$L0
 62
     3
 10
-150.2606518850
 20
203.3155053972
 11
-150.2606518850
 21
206.8538515481
  0
LINE
  8
Layer0$C$L0
 62
     3
 10
-150.2606518850
 20
206.8538515481
 11
-150.2456827373
 21
206.9364375087
  0
POLYLINE
  8
Layer0$C$L0
 62
     3
 66
     1
  0
VERTEX
  8
Layer0$C$L0
 62
     3
 10
-150.1606520549
 20
207.0584430943
  0
VERTEX
  8
Layer0$C$L0
 62
     3
 10
-150.2120517478
 20
207.0003234434
  0
VERTEX
  8
Layer0$C$L0
 62
     3
 10
-150.2456827373
 20
206.9364375087
  0
SEQEND
  8
Layer0$C$L0
 62
     3
  0
LINE
  8
Layer0$C$L0
 62
     3
 10
-150.2606518850
 20
206.2225000585
 11
-152.7606513635
 21
206.2225000585
  0
LINE
  8
Layer0$C$L0
 62
     3
 10
-150.2606518850
 20
194.4904926817
 11
-151.2606520490
 21
194.4904926817
  0
ARC
  8
Layer0$C$L0
 62
     3
 10
-151.8110021301
 20
195.7783804795
 40
0.5505350338
 50
358.5147911386
 51
444.7524995067
  0
LINE
  8
Layer0$C$L0
 62
     3
 10
-151.7606511996
 20
196.3266081760
 11
-152.7606513635
 21
196.3266081760
  0
ARC
  8
Layer0$C$L0
 62
     3
 10
-150.1598975581
 20
195.4968812804
 40
9.5382085013E-02
 50
216.9532227589
 51
269.5467709371
  0
LINE
  8
Layer0$C$L0
 62
     3
 10
-150.2606518850
 20
193.8591411921
 11
-150.2606518850
 21
195.4626397813
  0
ARC
  8
Layer0$C$L0
 62
     3
 10
-150.0592114057
 20
193.8479939352
 40
0.2017486755
 50
176.8326126620
 51
239.8141149896
  0
LINE
  8
Layer0$C$L0
 62
     3
 10
-152.7606513635
 20
195.3096532846
 11
-152.6407761783
 21
195.2530051234
  0
POLYLINE
  8
Layer0$C$L0
 62
     3
 66
     1
  0
VERTEX
  8
Layer0$C$L0
 62
     3
 10
-152.6407761783
 20
195.2530051234
  0
VERTEX
  8
Layer0$C$L0
 62
     3
 10
-152.5472034053
 20
195.2026205721
  0
VERTEX
  8
Layer0$C$L0
 62
     3
 10
-152.4978712485
 20
195.1665900300
  0
VERTEX
  8
Layer0$C$L0
 62
     3
 10
-152.4741104157
 20
195.1416371042
  0
VERTEX
  8
Layer0$C$L0
 62
     3
 10
-152.4631571309
 20
195.1221794474
  0
VERTEX
  8
Layer0$C$L0
 62
     3
 10
-152.4606518731
 20
195.1087367373
  0
SEQEND
  8
Layer0$C$L0
 62
     3
  0
LINE
  8
Layer0$C$L0
 62
     3
 10
-152.4606518731
 20
193.1152514766
 11
-152.5606517033
 21
193.1487409050
  0
POLYLINE
  8
Layer0$C$L0
 62
     3
 66
     1
  0
VERTEX
  8
Layer0$C$L0
 62
     3
 10
-152.7606513635
 20
193.2381660330
  0
VERTEX
  8
Layer0$C$L0
 62
     3
 10
-152.6609635264
 20
193.1928329753
  0
VERTEX
  8
Layer0$C$L0
 62
     3
 10
-152.5606517033
 20
193.1487409050
  0
SEQEND
  8
Layer0$C$L0
 62
     3
  0
LINE
  8
Layer0$C$L0
 62
     3
 10
-152.7606513635
 20
197.3489286496
 11
-152.7606513635
 21
193.2381660330
  0
ARC
  8
Layer0$C$L0
 62
     3
 10
-151.4674280074
 20
193.8488351683
 40
0.2070326330
 50
271.8756591006
 51
362.8533463659
  0
LINE
  8
Layer0$C$L0
 62
     3
 10
-151.2606520490
 20
195.7641112270
 11
-151.2606520490
 21
193.8591411921
  0
ARC
  8
Layer0$C$L0
 62
     3
 10
-152.8976800943
 20
207.5842356157
 40
0.6358037504
 50
282.4460646236
 51
313.4217590086
  0
LINE
  8
Layer0$C$L0
 62
     3
 10
-152.7606513635
 20
205.9295003886
 11
-152.7606513635
 21
207.5314962889
  0
LINE
  8
Layer0$C$L0
 62
     3
 10
-88.6940915216
 20
159.3564959827
 11
-105.8733627279
 21
159.3564959827
  0
LINE
  8
Layer0$C$L0
 62
     3
 10
-101.7837269310
 20
154.8564961764
 11
-101.7837269310
 21
145.8564965638
  0
LINE
  8
Layer0$C$L0
 62
     3
 10
-101.7837269310
 20
145.8564965638
 11
-104.2837273408
 21
143.3564961541
  0
LINE
  8
Layer0$C$L0
 62
     3
 10
-104.2837273408
 20
157.3564965862
 11
-104.2837273408
 21
143.3564961541
  0
LINE
  8
Layer0$C$L0
 62
     3
 10
-101.7837269310
 20
154.8564961764
 11
-104.2837273408
 21
157.3564965862
  0
LINE
  8
Layer0$C$L0
 62
     3
 10
-106.2837267373
 20
158.9461319733
 11
-106.2837267373
 21
141.7668607670
  0
LINE
  8
Layer0$C$L0
 62
     3
 10
-101.7837269310
 20
145.8564965638
 11
-92.7837273185
 21
145.8564965638
  0
LINE
  8
Layer0$C$L0
 62
     3
 10
-90.2837269087
 20
143.3564961541
 11
-92.7837273185
 21
145.8564965638
  0
LINE
  8
Layer0$C$L0
 62
     3
 10
-104.2837273408
 20
143.3564961541
 11
-90.2837269087
 21
143.3564961541
  0
LINE
  8
Layer0$C$L0
 62
     3
 10
-90.2837269087
 20
143.3564961541
 11
-90.2837269087
 21
157.3564965862
  0
LINE
  8
Layer0$C$L0
 62
     3
 10
-90.2837269087
 20
157.3564965862
 11
-104.2837273408
 21
157.3564965862
  0
ARC
  8
Layer0$C$L0
 62
     3
 10
-105.9073224594
 20
141.7329010355
 40
0.3779331208
 50
174.8446507317
 51
275.1553492683
  0
ARC
  8
Layer0$C$L0
 62
     3
 10
-105.9073224594
 20
158.9800917048
 40
0.3779331208
 50
84.8446507317
 51
185.1553492683
  0
ARC
  8
Layer0$C$L0
 62
     3
 10
-88.6601317901
 20
158.9800917048
 40
0.3779331208
 50
354.8446507317
 51
455.1553492683
  0
LINE
  8
Layer0$C$L0
 62
     3
 10
-88.2837275122
 20
141.7668607670
 11
-88.2837275122
 21
158.9461319733
  0
ARC
  8
Layer0$C$L0
 62
     3
 10
-88.6601317901
 20
141.7329010355
 40
0.3779331208
 50
264.8446507317
 51
365.1553492683
  0
LINE
  8
Layer0$C$L0
 62
     3
 10
-105.8733627279
 20
141.3564967576
 11
-88.6940915216
 21
141.3564967576
  0
LINE
  8
Layer0$C$L0
 62
     3
 10
-92.7837273185
 20
145.8564965638
 11
-92.7837273185
 21
154.8564961764
  0
LINE
  8
Layer0$C$L0
 62
     3
 10
-90.2837269087
 20
157.3564965862
 11
-92.7837273185
 21
154.8564961764
  0
LINE
  8
Layer0$C$L0
 62
     3
 10
-92.7837273185
 20
154.8564961764
 11
-101.7837269310
 21
154.8564961764
  0
ARC
  8
Layer0$C$L0
 62
     3
 10
-107.2837382297
 20
160.3565074751
 40
0.9999846003
 50
118.1314888016
 51
151.8685111984
  0
ARC
  8
Layer0$C$L0
 62
     3
 10
-107.2837382297
 20
140.3564852651
 40
0.9999846003
 50
208.1314888016
 51
241.8685111984
  0
ARC
  8
Layer0$C$L0
 62
     3
 10
-87.2837160198
 20
160.3565074751
 40
0.9999846003
 50
28.1314888016
 51
61.8685111984
  0
ARC
  8
Layer0$C$L0
 62
     3
 10
-87.2837160198
 20
140.3564852651
 40
0.9999846003
 50
298.1314888016
 51
331.8685111984
  0
ARC
  8
Layer0$C$L0
 62
     3
 10
-107.2837491193
 20
160.3565012214
 40
0.9999779459
 50
151.8679010228
 51
180.0002907704
  0
ARC
  8
Layer0$C$L0
 62
     3
 10
-107.2837319760
 20
160.3565183647
 40
0.9999779459
 50
89.9997092296
 51
118.1320989772
  0
ARC
  8
Layer0$C$L0
 62
     3
 10
-107.2837319760
 20
140.3564743756
 40
0.9999779459
 50
241.8679010228
 51
270.0002907704
  0
ARC
  8
Layer0$C$L0
 62
     3
 10
-107.2837491193
 20
140.3564915189
 40
0.9999779459
 50
179.9997092296
 51
208.1320989772
  0
ARC
  8
Layer0$C$L0
 62
     3
 10
-87.2837051302
 20
140.3564915189
 40
0.9999779459
 50
331.8679010228
 51
360.0002907704
  0
ARC
  8
Layer0$C$L0
 62
     3
 10
-87.2837051302
 20
160.3565012214
 40
0.9999779459
 50
359.9997092296
 51
388.1320989772
  0
ARC
  8
Layer0$C$L0
 62
     3
 10
-87.2837222735
 20
140.3564743756
 40
0.9999779459
 50
269.9997092296
 51
298.1320989772
  0
ARC
  8
Layer0$C$L0
 62
     3
 10
-87.2837222735
 20
160.3565183647
 40
0.9999779459
 50
61.8679010228
 51
90.0002907704
  0
LINE
  8
Layer0$C$L0
 62
     3
 10
-108.2837270652
 20
140.3564965936
 11
-108.2837270652
 21
160.3564961466
  0
LINE
  8
Layer0$C$L0
 62
     3
 10
-87.2837273483
 20
139.3564964297
 11
-107.2837269012
 21
139.3564964297
  0
LINE
  8
Layer0$C$L0
 62
     3
 10
-107.2837269012
 20
161.3564963105
 11
-87.2837273483
 21
161.3564963105
  0
LINE
  8
Layer0$C$L0
 62
     3
 10
-86.2837271844
 20
160.3564961466
 11
-86.2837271844
 21
140.3564965936
  0
LINE
  8
Layer0$C$L0
 62
     3
 10
-136.6606517048
 20
158.4564965802
 11
-141.6606515930
 21
158.4564965802
  0
LINE
  8
Layer0$C$L0
 62
     3
 10
-141.6606515930
 20
142.2564961600
 11
-136.6606517048
 21
142.2564961600
  0
LINE
  8
Layer0$C$L0
 62
     3
 10
-151.2606520490
 20
157.6314965847
 11
-152.4606518732
 21
157.6314965847
  0
LINE
  8
Layer0$C$L0
 62
     3
 10
-151.2606520490
 20
143.0814961555
 11
-150.1606520550
 21
143.0814961555
  0
LINE
  8
Layer0$C$L0
 62
     3
 10
-152.7606513636
 20
147.3489286496
 11
-150.4418732883
 21
147.3489286496
  0
POLYLINE
  8
Layer0$C$L0
 62
     3
 66
     1
  0
VERTEX
  8
Layer0$C$L0
 62
     3
 10
-150.4419002966
 20
145.6699284378
  0
VERTEX
  8
Layer0$C$L0
 62
     3
 10
-150.4089407907
 20
145.6308003168
  0
VERTEX
  8
Layer0$C$L0
 62
     3
 10
-150.2374070050
 20
145.4383690494
  0
SEQEND
  8
Layer0$C$L0
 62
     3
  0
ARC
  8
Layer0$C$L0
 62
     3
 10
-151.7070579402
 20
155.4819829189
 40
0.4466618328
 50
5.9281617566
 51
96.9046639844
  0
LINE
  8
Layer0$C$L0
 62
     3
 10
-151.7606511996
 20
155.9267427425
 11
-152.6043754355
 21
155.9267427425
  0
LINE
  8
Layer0$C$L0
 62
     3
 10
-152.4606518732
 20
157.6314965847
 11
-152.7606513636
 21
157.5314962889
  0
LINE
  8
Layer0$C$L0
 62
     3
 10
-150.1606520550
 20
157.4314964588
 11
-151.2606520490
 21
157.4314964588
  0
LINE
  8
Layer0$C$L0
 62
     3
 10
-146.2606516951
 20
159.2564961526
 11
-149.2606517212
 21
159.2564961526
  0
LINE
  8
Layer0$C$L0
 62
     3
 10
-149.2606517212
 20
141.4564965877
 11
-146.2606516951
 21
141.4564965877
  0
LINE
  8
Layer0$C$L0
 62
     3
 10
-134.7606516728
 20
160.6564965683
 11
-134.6606513770
 21
160.6564965683
  0
LINE
  8
Layer0$C$L0
 62
     3
 10
-134.6606513770
 20
140.0564961719
 11
-134.7606516728
 21
140.0564961719
  0
LINE
  8
Layer0$C$L0
 62
     3
 10
-134.7606516728
 20
160.6564965683
 11
-134.7606516728
 21
140.0564961719
  0
LINE
  8
Layer0$C$L0
 62
     3
 10
-134.6606513770
 20
161.3564963105
 11
-133.8839441822
 21
161.3564963105
  0
LINE
  8
Layer0$C$L0
 62
     3
 10
-133.8839441822
 20
139.3564964297
 11
-134.6606513770
 21
139.3564964297
  0
LINE
  8
Layer0$C$L0
 62
     3
 10
-134.6606513770
 20
139.3564964297
 11
-134.6606513770
 21
161.3564963105
  0
LINE
  8
Layer0$C$L0
 62
     3
 10
-132.6606519805
 20
159.3564959827
 11
-132.6606519805
 21
158.9461319733
  0
LINE
  8
Layer0$C$L0
 62
     3
 10
-133.4014036046
 20
161.0026114273
 11
-132.6606519805
 21
159.3564959827
  0
LINE
  8
Layer0$C$L0
 62
     3
 10
-132.6606519805
 20
158.9461319733
 11
-132.6606519805
 21
141.3564967576
  0
LINE
  8
Layer0$C$L0
 62
     3
 10
-132.6606519805
 20
141.3564967576
 11
-133.4014036046
 21
139.7103813130
  0
POLYLINE
  8
Layer0$C$L0
 62
     3
 66
     1
  0
VERTEX
  8
Layer0$C$L0
 62
     3
 10
-133.4279835508
 20
161.0616786989
  0
VERTEX
  8
Layer0$C$L0
 62
     3
 10
-133.4249772416
 20
161.0549973908
  0
VERTEX
  8
Layer0$C$L0
 62
     3
 10
-133.4160374762
 20
161.0351313490
  0
VERTEX
  8
Layer0$C$L0
 62
     3
 10
-133.4014036046
 20
161.0026114273
  0
SEQEND
  8
Layer0$C$L0
 62
     3
  0
ARC
  8
Layer0$C$L0
 62
     3
 10
-133.8839443980
 20
160.8564963701
 40
0.5000000000
 50
24.2277453180
 51
90.0000000000
  0
POLYLINE
  8
Layer0$C$L0
 62
     3
 66
     1
  0
VERTEX
  8
Layer0$C$L0
 62
     3
 10
-133.4014036046
 20
139.7103813130
  0
VERTEX
  8
Layer0$C$L0
 62
     3
 10
-133.4160374762
 20
139.6778613913
  0
VERTEX
  8
Layer0$C$L0
 62
     3
 10
-133.4249772416
 20
139.6579953495
  0
VERTEX
  8
Layer0$C$L0
 62
     3
 10
-133.4279835508
 20
139.6513140413
  0
SEQEND
  8
Layer0$C$L0
 62
     3
  0
ARC
  8
Layer0$C$L0
 62
     3
 10
-133.8839443980
 20
139.8564963701
 40
0.5000000000
 50
270.0000000000
 51
335.7722546820
  0
LINE
  8
Layer0$C$L0
 62
     3
 10
-136.6606517048
 20
141.8564959082
 11
-136.6606517048
 21
147.3564963440
  0
ARC
  8
Layer0$C$L0
 62
     3
 10
-136.1606515930
 20
141.8564963701
 40
0.5000000000
 50
180.0000000000
 51
270.0000000000
  0
LINE
  8
Layer0$C$L0
 62
     3
 10
-136.6606517048
 20
153.3564963962
 11
-134.7606516728
 21
153.3564963962
  0
LINE
  8
Layer0$C$L0
 62
     3
 10
-136.6606517048
 20
153.3564963962
 11
-136.6606517048
 21
158.8564968321
  0
ARC
  8
Layer0$C$L0
 62
     3
 10
-136.1606515930
 20
158.8564963701
 40
0.5000000000
 50
90.0000000000
 51
180.0000000000
  0
LINE
  8
Layer0$C$L0
 62
     3
 10
-136.6606517048
 20
147.3564963440
 11
-134.7606516728
 21
147.3564963440
  0
LINE
  8
Layer0$C$L0
 62
     3
 10
-134.7606516728
 20
141.3564967576
 11
-136.1606516228
 21
141.3564967576
  0
LINE
  8
Layer0$C$L0
 62
     3
 10
-136.1606516228
 20
159.3564959827
 11
-134.7606516728
 21
159.3564959827
  0
LINE
  8
Layer0$C$L0
 62
     3
 10
-141.6606515930
 20
158.4564965802
 11
-141.6606515930
 21
142.2564961600
  0
LINE
  8
Layer0$C$L0
 62
     3
 10
-145.2606515312
 20
142.5200427535
 11
-141.6606515930
 21
142.5200427535
  0
LINE
  8
Layer0$C$L0
 62
     3
 10
-145.2606515312
 20
158.1929499867
 11
-141.6606515930
 21
158.1929499867
  0
LINE
  8
Layer0$C$L0
 62
     3
 10
-149.4606513814
 20
153.3564963962
 11
-149.4606513814
 21
147.3564963440
  0
LINE
  8
Layer0$C$L0
 62
     3
 10
-152.4606518732
 20
155.8785519215
 11
-152.4606518732
 21
147.4695628627
  0
POLYLINE
  8
Layer0$C$L0
 62
     3
 66
     1
  0
VERTEX
  8
Layer0$C$L0
 62
     3
 10
-152.4606518732
 20
147.4695628627
  0
VERTEX
  8
Layer0$C$L0
 62
     3
 10
-152.4650551663
 20
147.4476509380
  0
VERTEX
  8
Layer0$C$L0
 62
     3
 10
-152.4801397980
 20
147.4251746318
  0
VERTEX
  8
Layer0$C$L0
 62
     3
 10
-152.5184227438
 20
147.3978174969
  0
VERTEX
  8
Layer0$C$L0
 62
     3
 10
-152.6524195732
 20
147.3597149949
  0
VERTEX
  8
Layer0$C$L0
 62
     3
 10
-152.7606513636
 20
147.3499957125
  0
SEQEND
  8
Layer0$C$L0
 62
     3
  0
LINE
  8
Layer0$C$L0
 62
     3
 10
-152.7606513636
 20
147.3499957125
 11
-152.7606513636
 21
155.9145866546
  0
POLYLINE
  8
Layer0$C$L0
 62
     3
 66
     1
  0
VERTEX
  8
Layer0$C$L0
 62
     3
 10
-152.7606513636
 20
155.9145866546
  0
VERTEX
  8
Layer0$C$L0
 62
     3
 10
-152.5870519043
 20
155.9265886086
  0
VERTEX
  8
Layer0$C$L0
 62
     3
 10
-152.5349900411
 20
155.9227916065
  0
VERTEX
  8
Layer0$C$L0
 62
     3
 10
-152.4782445566
 20
155.9057023029
  0
VERTEX
  8
Layer0$C$L0
 62
     3
 10
-152.4653094174
 20
155.8937585565
  0
VERTEX
  8
Layer0$C$L0
 62
     3
 10
-152.4606518732
 20
155.8785519215
  0
SEQEND
  8
Layer0$C$L0
 62
     3
  0
LINE
  8
Layer0$C$L0
 62
     3
 10
-151.2606520490
 20
143.0814961555
 11
-151.2606520490
 21
143.1152514766
  0
LINE
  8
Layer0$C$L0
 62
     3
 10
-151.2606520490
 20
143.1152514766
 11
-152.4606518732
 21
143.1152514766
  0
LINE
  8
Layer0$C$L0
 62
     3
 10
-152.4606518732
 20
145.1087367374
 11
-152.4606518732
 21
143.1152514766
  0
LINE
  8
Layer0$C$L0
 62
     3
 10
-150.1606520550
 20
143.6419134612
 11
-151.4606517093
 21
143.6419134612
  0
LINE
  8
Layer0$C$L0
 62
     3
 10
-150.0606512935
 20
153.3155053972
 11
-151.4606517093
 21
153.3155053972
  0
LINE
  8
Layer0$C$L0
 62
     3
 10
-152.4606518732
 20
157.6314965847
 11
-152.4606518732
 21
157.1224426503
  0
LINE
  8
Layer0$C$L0
 62
     3
 10
-151.2606520490
 20
157.4300827111
 11
-150.1606520550
 21
157.4300827111
  0
LINE
  8
Layer0$C$L0
 62
     3
 10
-151.2606520490
 20
157.4300827111
 11
-151.2606520490
 21
157.6314965847
  0
ARC
  8
Layer0$C$L0
 62
     3
 10
-150.5489148042
 20
147.7105041591
 40
0.3756969774
 50
286.5537378216
 51
320.1098178370
  0
POLYLINE
  8
Layer0$C$L0
 62
     3
 66
     1
  0
VERTEX
  8
Layer0$C$L0
 62
     3
 10
-150.2606518851
 20
145.6353405143
  0
VERTEX
  8
Layer0$C$L0
 62
     3
 10
-150.2643846260
 20
145.6345204848
  0
VERTEX
  8
Layer0$C$L0
 62
     3
 10
-150.3120906935
 20
145.6281162451
  0
VERTEX
  8
Layer0$C$L0
 62
     3
 10
-150.3726117597
 20
145.6324166271
  0
VERTEX
  8
Layer0$C$L0
 62
     3
 10
-150.4197478579
 20
145.6507948811
  0
VERTEX
  8
Layer0$C$L0
 62
     3
 10
-150.4500503005
 20
145.6810265432
  0
VERTEX
  8
Layer0$C$L0
 62
     3
 10
-150.4606515453
 20
145.7203991364
  0
SEQEND
  8
Layer0$C$L0
 62
     3
  0
LINE
  8
Layer0$C$L0
 62
     3
 10
-150.4606515453
 20
145.7203991364
 11
-150.4606515453
 21
147.3489286496
  0
LINE
  8
Layer0$C$L0
 62
     3
 10
-151.2606520490
 20
155.5263960387
 11
-151.2606520490
 21
153.3155053972
  0
LINE
  8
Layer0$C$L0
 62
     3
 10
-150.2606518851
 20
153.3155053972
 11
-150.2606518851
 21
156.8538515481
  0
LINE
  8
Layer0$C$L0
 62
     3
 10
-150.2606518851
 20
156.8538515481
 11
-150.2456827374
 21
156.9364375088
  0
POLYLINE
  8
Layer0$C$L0
 62
     3
 66
     1
  0
VERTEX
  8
Layer0$C$L0
 62
     3
 10
-150.1606520550
 20
157.0584430943
  0
VERTEX
  8
Layer0$C$L0
 62
     3
 10
-150.2120517479
 20
157.0003234434
  0
VERTEX
  8
Layer0$C$L0
 62
     3
 10
-150.2456827374
 20
156.9364375088
  0
SEQEND
  8
Layer0$C$L0
 62
     3
  0
LINE
  8
Layer0$C$L0
 62
     3
 10
-150.2606518851
 20
156.2225000586
 11
-152.7606513636
 21
156.2225000586
  0
LINE
  8
Layer0$C$L0
 62
     3
 10
-150.2606518851
 20
144.4904926817
 11
-151.2606520490
 21
144.4904926817
  0
ARC
  8
Layer0$C$L0
 62
     3
 10
-151.8110021302
 20
145.7783804796
 40
0.5505350338
 50
358.5147911386
 51
444.7524995067
  0
LINE
  8
Layer0$C$L0
 62
     3
 10
-151.7606511996
 20
146.3266081761
 11
-152.7606513636
 21
146.3266081761
  0
ARC
  8
Layer0$C$L0
 62
     3
 10
-150.1598975582
 20
145.4968812805
 40
9.5382085013E-02
 50
216.9532227589
 51
269.5467709371
  0
LINE
  8
Layer0$C$L0
 62
     3
 10
-150.2606518851
 20
143.8591411921
 11
-150.2606518851
 21
145.4626397814
  0
ARC
  8
Layer0$C$L0
 62
     3
 10
-150.0592114057
 20
143.8479939352
 40
0.2017486755
 50
176.8326126620
 51
239.8141149896
  0
LINE
  8
Layer0$C$L0
 62
     3
 10
-152.7606513636
 20
145.3096532847
 11
-152.6407761784
 21
145.2530051234
  0
POLYLINE
  8
Layer0$C$L0
 62
     3
 66
     1
  0
VERTEX
  8
Layer0$C$L0
 62
     3
 10
-152.6407761784
 20
145.2530051234
  0
VERTEX
  8
Layer0$C$L0
 62
     3
 10
-152.5472034053
 20
145.2026205721
  0
VERTEX
  8
Layer0$C$L0
 62
     3
 10
-152.4978712485
 20
145.1665900300
  0
VERTEX
  8
Layer0$C$L0
 62
     3
 10
-152.4741104157
 20
145.1416371043
  0
VERTEX
  8
Layer0$C$L0
 62
     3
 10
-152.4631571309
 20
145.1221794474
  0
VERTEX
  8
Layer0$C$L0
 62
     3
 10
-152.4606518732
 20
145.1087367374
  0
SEQEND
  8
Layer0$C$L0
 62
     3
  0
LINE
  8
Layer0$C$L0
 62
     3
 10
-152.4606518732
 20
143.1152514766
 11
-152.5606517033
 21
143.1487409051
  0
POLYLINE
  8
Layer0$C$L0
 62
     3
 66
     1
  0
VERTEX
  8
Layer0$C$L0
 62
     3
 10
-152.7606513636
 20
143.2381660330
  0
VERTEX
  8
Layer0$C$L0
 62
     3
 10
-152.6609635265
 20
143.1928329754
  0
VERTEX
  8
Layer0$C$L0
 62
     3
 10
-152.5606517033
 20
143.1487409051
  0
SEQEND
  8
Layer0$C$L0
 62
     3
  0
LINE
  8
Layer0$C$L0
 62
     3
 10
-152.7606513636
 20
143.2381660330
 11
-152.7606513636
 21
147.3489286496
  0
ARC
  8
Layer0$C$L0
 62
     3
 10
-151.4674280074
 20
143.8488351684
 40
0.2070326330
 50
271.8756591006
 51
362.8533463659
  0
LINE
  8
Layer0$C$L0
 62
     3
 10
-151.2606520490
 20
145.7641112271
 11
-151.2606520490
 21
143.8591411921
  0
ARC
  8
Layer0$C$L0
 62
     3
 10
-152.8976800943
 20
157.5842356158
 40
0.6358037504
 50
282.4460646236
 51
313.4217590086
  0
LINE
  8
Layer0$C$L0
 62
     3
 10
-152.7606513636
 20
155.9295003886
 11
-152.7606513636
 21
157.5314962889
  0
ARC
  8
Layer0$C$L0
 62
     3
 10
-145.2606515930
 20
140.8564963701
 40
1.0000000000
 50
180.0000000000
 51
270.0000000000
  0
LINE
  8
Layer0$C$L0
 62
     3
 10
-146.2606516951
 20
140.8564966756
 11
-146.2606516951
 21
159.8564960647
  0
ARC
  8
Layer0$C$L0
 62
     3
 10
-145.2606515930
 20
159.8564963701
 40
1.0000000000
 50
90.0000000000
 51
180.0000000000
  0
LINE
  8
Layer0$C$L0
 62
     3
 10
-145.2606515312
 20
160.8564962286
 11
-139.1638770518
 21
160.8564962286
  0
LINE
  8
Layer0$C$L0
 62
     3
 10
-139.1638770518
 20
159.8564960647
 11
-145.2606515312
 21
159.8564960647
  0
LINE
  8
Layer0$C$L0
 62
     3
 10
-145.2606515312
 20
159.8564960647
 11
-145.2606515312
 21
140.8564966756
  0
LINE
  8
Layer0$C$L0
 62
     3
 10
-145.2606515312
 20
140.8564966756
 11
-139.1638770518
 21
140.8564966756
  0
LINE
  8
Layer0$C$L0
 62
     3
 10
-139.1638770518
 20
139.8564965117
 11
-145.2606515312
 21
139.8564965117
  0
LINE
  8
Layer0$C$L0
 62
     3
 10
-137.8606515290
 20
159.8564960647
 11
-137.8606515290
 21
160.8564962286
  0
LINE
  8
Layer0$C$L0
 62
     3
 10
-139.1638770518
 20
160.8564962286
 11
-137.8606515290
 21
160.8564962286
  0
LINE
  8
Layer0$C$L0
 62
     3
 10
-139.1638770518
 20
159.8564960647
 11
-137.8606515290
 21
159.8564960647
  0
LINE
  8
Layer0$C$L0
 62
     3
 10
-137.8606515290
 20
140.8564966756
 11
-137.8606515290
 21
139.8564965117
  0
LINE
  8
Layer0$C$L0
 62
     3
 10
-139.1638770518
 20
140.8564966756
 11
-137.8606515290
 21
140.8564966756
  0
LINE
  8
Layer0$C$L0
 62
     3
 10
-139.1638770518
 20
139.8564965117
 11
-137.8606515290
 21
139.8564965117
  0
LINE
  8
Layer0$C$L0
 62
     3
 10
-149.2606517212
 20
158.7356372389
 11
-150.1606520550
 21
158.7356372389
  0
LINE
  8
Layer0$C$L0
 62
     3
 10
-149.2606517212
 20
158.7356372389
 11
-149.2606517212
 21
159.2564961526
  0
LINE
  8
Layer0$C$L0
 62
     3
 10
-149.2606517212
 20
141.4564965877
 11
-149.2606517212
 21
141.9773555013
  0
LINE
  8
Layer0$C$L0
 62
     3
 10
-149.2606517212
 20
141.9773555013
 11
-150.1606520550
 21
141.9773555013
  0
LINE
  8
Layer0$C$L0
 62
     3
 10
-150.1606520550
 20
147.3564963440
 11
-150.1606520550
 21
141.9773555013
  0
LINE
  8
Layer0$C$L0
 62
     3
 10
-149.2606517212
 20
147.3564963440
 11
-150.1606520550
 21
147.3564963440
  0
LINE
  8
Layer0$C$L0
 62
     3
 10
-149.2606517212
 20
147.3564963440
 11
-149.2606517212
 21
153.3564963962
  0
LINE
  8
Layer0$C$L0
 62
     3
 10
-149.2606517212
 20
153.3564963962
 11
-150.1606520550
 21
153.3564963962
  0
LINE
  8
Layer0$C$L0
 62
     3
 10
-150.1606520550
 20
158.7356372389
 11
-150.1606520550
 21
153.3564963962
  0
LINE
  8
Layer0$C$L0
 62
     3
 10
-148.1606517271
 20
159.2362482685
 11
-146.2606516951
 21
159.2362482685
  0
LINE
  8
Layer0$C$L0
 62
     3
 10
-148.1606517271
 20
159.0889698478
 11
-148.1606517271
 21
159.2362482685
  0
LINE
  8
Layer0$C$L0
 62
     3
 10
-148.1606517271
 20
159.0889698478
 11
-146.2606516951
 21
159.0889698478
  0
LINE
  8
Layer0$C$L0
 62
     3
 10
-148.1606517271
 20
158.7783868077
 11
-146.2606516951
 21
158.7783868077
  0
LINE
  8
Layer0$C$L0
 62
     3
 10
-148.1606517271
 20
158.3465874779
 11
-148.1606517271
 21
158.7783868077
  0
LINE
  8
Layer0$C$L0
 62
     3
 10
-148.1606517271
 20
158.3465874779
 11
-146.2606516951
 21
158.3465874779
  0
LINE
  8
Layer0$C$L0
 62
     3
 10
-148.1606517271
 20
157.7465875658
 11
-146.2606516951
 21
157.7465875658
  0
LINE
  8
Layer0$C$L0
 62
     3
 10
-148.1606517271
 20
157.0596933949
 11
-148.1606517271
 21
157.7465875658
  0
LINE
  8
Layer0$C$L0
 62
     3
 10
-148.1606517271
 20
157.0596933949
 11
-146.2606516951
 21
157.0596933949
  0
LINE
  8
Layer0$C$L0
 62
     3
 10
-148.1606517271
 20
156.2111653972
 11
-146.2606516951
 21
156.2111653972
  0
LINE
  8
Layer0$C$L0
 62
     3
 10
-148.1606517271
 20
155.3159879173
 11
-148.1606517271
 21
156.2111653972
  0
LINE
  8
Layer0$C$L0
 62
     3
 10
-148.1606517271
 20
155.3159879173
 11
-146.2606516951
 21
155.3159879173
  0
LINE
  8
Layer0$C$L0
 62
     3
 10
-148.1606517271
 20
154.2767571869
 11
-146.2606516951
 21
154.2767571869
  0
LINE
  8
Layer0$C$L0
 62
     3
 10
-148.1606517271
 20
153.2343008208
 11
-148.1606517271
 21
154.2767571869
  0
LINE
  8
Layer0$C$L0
 62
     3
 10
-148.1606517271
 20
153.2343008208
 11
-146.2606516951
 21
153.2343008208
  0
LINE
  8
Layer0$C$L0
 62
     3
 10
-148.1606517271
 20
152.0751898994
 11
-146.2606516951
 21
152.0751898994
  0
LINE
  8
Layer0$C$L0
 62
     3
 10
-148.1606517271
 20
150.9564963986
 11
-148.1606517271
 21
152.0751898994
  0
LINE
  8
Layer0$C$L0
 62
     3
 10
-148.1606517271
 20
150.9564963986
 11
-146.2606516951
 21
150.9564963986
  0
LINE
  8
Layer0$C$L0
 62
     3
 10
-148.1606517271
 20
149.7564963416
 11
-146.2606516951
 21
149.7564963416
  0
LINE
  8
Layer0$C$L0
 62
     3
 10
-148.1606517271
 20
148.6378028409
 11
-148.1606517271
 21
149.7564963416
  0
LINE
  8
Layer0$C$L0
 62
     3
 10
-148.1606517271
 20
148.6378028409
 11
-146.2606516951
 21
148.6378028409
  0
LINE
  8
Layer0$C$L0
 62
     3
 10
-148.1606517271
 20
147.4786919194
 11
-146.2606516951
 21
147.4786919194
  0
LINE
  8
Layer0$C$L0
 62
     3
 10
-148.1606517271
 20
146.4362355533
 11
-148.1606517271
 21
147.4786919194
  0
LINE
  8
Layer0$C$L0
 62
     3
 10
-148.1606517271
 20
146.4362355533
 11
-146.2606516951
 21
146.4362355533
  0
LINE
  8
Layer0$C$L0
 62
     3
 10
-148.1606517271
 20
145.3970048229
 11
-146.2606516951
 21
145.3970048229
  0
LINE
  8
Layer0$C$L0
 62
     3
 10
-148.1606517271
 20
144.5018273431
 11
-148.1606517271
 21
145.3970048229
  0
LINE
  8
Layer0$C$L0
 62
     3
 10
-148.1606517271
 20
144.5018273431
 11
-146.2606516951
 21
144.5018273431
  0
LINE
  8
Layer0$C$L0
 62
     3
 10
-148.1606517271
 20
143.6532993454
 11
-146.2606516951
 21
143.6532993454
  0
LINE
  8
Layer0$C$L0
 62
     3
 10
-148.1606517271
 20
142.9664051744
 11
-148.1606517271
 21
143.6532993454
  0
LINE
  8
Layer0$C$L0
 62
     3
 10
-148.1606517271
 20
142.9664051744
 11
-146.2606516951
 21
142.9664051744
  0
LINE
  8
Layer0$C$L0
 62
     3
 10
-148.1606517271
 20
142.3664052623
 11
-146.2606516951
 21
142.3664052623
  0
LINE
  8
Layer0$C$L0
 62
     3
 10
-148.1606517271
 20
141.9346059325
 11
-148.1606517271
 21
142.3664052623
  0
LINE
  8
Layer0$C$L0
 62
     3
 10
-148.1606517271
 20
141.9346059325
 11
-146.2606516951
 21
141.9346059325
  0
LINE
  8
Layer0$C$L0
 62
     3
 10
-148.1606517271
 20
141.6240228924
 11
-146.2606516951
 21
141.6240228924
  0
LINE
  8
Layer0$C$L0
 62
     3
 10
-148.1606517271
 20
141.4767444718
 11
-148.1606517271
 21
141.6240228924
  0
LINE
  8
Layer0$C$L0
 62
     3
 10
-148.1606517271
 20
141.4767444718
 11
-146.2606516951
 21
141.4767444718
  0
LINE
  8
Layer0$C$L0
 62
     3
 10
-148.1606517271
 20
148.6896874036
 11
-146.2606516951
 21
148.6896874036
  0
LINE
  8
Layer0$C$L0
 62
     3
 10
-148.1606517271
 20
152.0233053367
 11
-146.2606516951
 21
152.0233053367
  0
LINE
  8
Layer0$C$L0
 62
     3
 10
-148.1606517271
 20
154.1765240605
 11
-146.2606516951
 21
154.1765240605
  0
LINE
  8
Layer0$C$L0
 62
     3
 10
-148.1606517271
 20
146.5364686797
 11
-146.2606516951
 21
146.5364686797
  0
LINE
  8
Layer0$C$L0
 62
     3
 10
-148.1606517271
 20
144.6435788299
 11
-146.2606516951
 21
144.6435788299
  0
LINE
  8
Layer0$C$L0
 62
     3
 10
-148.1606517271
 20
156.0694139103
 11
-146.2606516951
 21
156.0694139103
  0
LINE
  8
Layer0$C$L0
 62
     3
 10
-148.1606517271
 20
143.1400144125
 11
-146.2606516951
 21
143.1400144125
  0
LINE
  8
Layer0$C$L0
 62
     3
 10
-148.1606517271
 20
157.5729783277
 11
-146.2606516951
 21
157.5729783277
  0
LINE
  8
Layer0$C$L0
 62
     3
 10
-148.1606517271
 20
142.1282418656
 11
-146.2606516951
 21
142.1282418656
  0
LINE
  8
Layer0$C$L0
 62
     3
 10
-148.1606517271
 20
158.5847508746
 11
-146.2606516951
 21
158.5847508746
  0
LINE
  8
Layer0$C$L0
 62
     3
 10
-85.6940919613
 20
109.3564959826
 11
-108.8733622884
 21
109.3564959826
  0
LINE
  8
Layer0$C$L0
 62
     3
 10
-104.7837269572
 20
104.8564961764
 11
-104.7837269572
 21
95.8564965638
  0
LINE
  8
Layer0$C$L0
 62
     3
 10
-104.7837269572
 20
95.8564965638
 11
-107.2837269014
 21
93.3564961540
  0
LINE
  8
Layer0$C$L0
 62
     3
 10
-107.2837269014
 20
107.3564965861
 11
-107.2837269014
 21
93.3564961540
  0
LINE
  8
Layer0$C$L0
 62
     3
 10
-104.7837269572
 20
104.8564961764
 11
-107.2837269014
 21
107.3564965861
  0
LINE
  8
Layer0$C$L0
 62
     3
 10
-109.2837272292
 20
108.9461319732
 11
-109.2837272292
 21
91.7668607669
  0
LINE
  8
Layer0$C$L0
 62
     3
 10
-104.7837269572
 20
95.8564965638
 11
-89.7837272925
 21
95.8564965638
  0
LINE
  8
Layer0$C$L0
 62
     3
 10
-87.2837273484
 20
93.3564961540
 11
-89.7837272925
 21
95.8564965638
  0
LINE
  8
Layer0$C$L0
 62
     3
 10
-107.2837269014
 20
93.3564961540
 11
-87.2837273484
 21
93.3564961540
  0
ARC
  8
Layer0$C$L0
 62
     3
 10
-108.9073224514
 20
91.7329014582
 40
0.3779335806
 50
174.8447213692
 51
275.1554086637
  0
LINE
  8
Layer0$C$L0
 62
     3
 10
-87.2837273484
 20
93.3564961540
 11
-87.2837273484
 21
107.3564965861
  0
LINE
  8
Layer0$C$L0
 62
     3
 10
-87.2837273484
 20
107.3564965861
 11
-107.2837269014
 21
107.3564965861
  0
ARC
  8
Layer0$C$L0
 62
     3
 10
-108.9073228141
 20
108.9800916447
 40
0.3779332520
 50
84.8445316307
 51
185.1553383365
  0
ARC
  8
Layer0$C$L0
 62
     3
 10
-85.6601317983
 20
108.9800912820
 40
0.3779335806
 50
354.8447213692
 51
455.1554086637
  0
LINE
  8
Layer0$C$L0
 62
     3
 10
-85.2837270206
 20
91.7668607669
 11
-85.2837270206
 21
108.9461319732
  0
ARC
  8
Layer0$C$L0
 62
     3
 10
-85.6601314356
 20
91.7329010955
 40
0.3779332520
 50
264.8445316307
 51
365.1553383365
  0
LINE
  8
Layer0$C$L0
 62
     3
 10
-108.8733622884
 20
91.3564967575
 11
-85.6940919613
 21
91.3564967575
  0
LINE
  8
Layer0$C$L0
 62
     3
 10
-89.7837272925
 20
95.8564965638
 11
-89.7837272925
 21
104.8564961764
  0
LINE
  8
Layer0$C$L0
 62
     3
 10
-87.2837273484
 20
107.3564965861
 11
-89.7837272925
 21
104.8564961764
  0
LINE
  8
Layer0$C$L0
 62
     3
 10
-89.7837272925
 20
104.8564961764
 11
-104.7837269572
 21
104.8564961764
  0
ARC
  8
Layer0$C$L0
 62
     3
 10
-110.2837332552
 20
110.3565020086
 40
0.9999919984
 50
118.1316173324
 51
151.8683826676
  0
ARC
  8
Layer0$C$L0
 62
     3
 10
-110.2837332552
 20
90.3564907315
 40
0.9999919984
 50
208.1316173324
 51
241.8683826676
  0
ARC
  8
Layer0$C$L0
 62
     3
 10
-84.2837209946
 20
110.3565020086
 40
0.9999919984
 50
28.1316173324
 51
61.8683826676
  0
ARC
  8
Layer0$C$L0
 62
     3
 10
-84.2837209946
 20
90.3564907315
 40
0.9999919984
 50
298.1316173324
 51
331.8683826676
  0
ARC
  8
Layer0$C$L0
 62
     3
 10
-84.2837374267
 20
90.3564997339
 40
1.0000107340
 50
331.8683717164
 51
359.9998200768
  0
ARC
  8
Layer0$C$L0
 62
     3
 10
-110.2837317756
 20
90.3564771384
 40
0.9999807087
 50
241.8679406867
 51
270.0002511065
  0
ARC
  8
Layer0$C$L0
 62
     3
 10
-110.2837168230
 20
110.3564930063
 40
1.0000107340
 50
151.8683717164
 51
179.9998200768
  0
ARC
  8
Layer0$C$L0
 62
     3
 10
-110.2837317756
 20
110.3565156017
 40
0.9999807087
 50
89.9997488935
 51
118.1320593133
  0
ARC
  8
Layer0$C$L0
 62
     3
 10
-84.2837374267
 20
110.3564930063
 40
1.0000107340
 50
1.7992320000E-04
 51
28.1316282836
  0
ARC
  8
Layer0$C$L0
 62
     3
 10
-84.2837224741
 20
90.3564771384
 40
0.9999807087
 50
269.9997488935
 51
298.1320593133
  0
ARC
  8
Layer0$C$L0
 62
     3
 10
-110.2837168230
 20
90.3564997339
 40
1.0000107340
 50
180.0001799232
 51
208.1316282836
  0
ARC
  8
Layer0$C$L0
 62
     3
 10
-84.2837224741
 20
110.3565156017
 40
0.9999807087
 50
61.8679406867
 51
90.0002511065
  0
LINE
  8
Layer0$C$L0
 62
     3
 10
-84.2837268566
 20
89.3564964297
 11
-110.2837273931
 21
89.3564964297
  0
LINE
  8
Layer0$C$L0
 62
     3
 10
-110.2837273931
 20
111.3564963105
 11
-84.2837268566
 21
111.3564963105
  0
LINE
  8
Layer0$C$L0
 62
     3
 10
-83.2837266927
 20
110.3564961466
 11
-83.2837266927
 21
90.3564965936
  0
LINE
  8
Layer0$C$L0
 62
     3
 10
-111.2837275570
 20
90.3564965936
 11
-111.2837275570
 21
110.3564961466
  0
LINE
  8
Layer0$C$L0
 62
     3
 10
-136.6606517047
 20
108.4564965802
 11
-141.6606515930
 21
108.4564965802
  0
LINE
  8
Layer0$C$L0
 62
     3
 10
-141.6606515930
 20
92.2564961600
 11
-136.6606517047
 21
92.2564961600
  0
LINE
  8
Layer0$C$L0
 62
     3
 10
-151.2606520490
 20
107.6314965846
 11
-152.4606518731
 21
107.6314965846
  0
LINE
  8
Layer0$C$L0
 62
     3
 10
-151.2606520490
 20
93.0814961555
 11
-150.1606520549
 21
93.0814961555
  0
LINE
  8
Layer0$C$L0
 62
     3
 10
-152.7606513635
 20
97.3489286496
 11
-150.4418732882
 21
97.3489286496
  0
POLYLINE
  8
Layer0$C$L0
 62
     3
 66
     1
  0
VERTEX
  8
Layer0$C$L0
 62
     3
 10
-150.4419002966
 20
95.6699284377
  0
VERTEX
  8
Layer0$C$L0
 62
     3
 10
-150.4089407907
 20
95.6308003167
  0
VERTEX
  8
Layer0$C$L0
 62
     3
 10
-150.2374070049
 20
95.4383690494
  0
SEQEND
  8
Layer0$C$L0
 62
     3
  0
ARC
  8
Layer0$C$L0
 62
     3
 10
-151.7062572627
 20
105.4825651252
 40
0.4449231474
 50
5.9488022260
 51
97.0192235155
  0
LINE
  8
Layer0$C$L0
 62
     3
 10
-151.7606511996
 20
105.9267427424
 11
-152.6043754355
 21
105.9267427424
  0
LINE
  8
Layer0$C$L0
 62
     3
 10
-152.4606518731
 20
107.6314965846
 11
-152.7606513635
 21
107.5314962889
  0
LINE
  8
Layer0$C$L0
 62
     3
 10
-150.1606520549
 20
107.4314964587
 11
-151.2606520490
 21
107.4314964587
  0
LINE
  8
Layer0$C$L0
 62
     3
 10
-146.2606516951
 20
109.2564961525
 11
-149.2606517211
 21
109.2564961525
  0
LINE
  8
Layer0$C$L0
 62
     3
 10
-149.2606517211
 20
91.4564965876
 11
-146.2606516951
 21
91.4564965876
  0
LINE
  8
Layer0$C$L0
 62
     3
 10
-134.7606516727
 20
110.6564965683
 11
-134.6606513769
 21
110.6564965683
  0
LINE
  8
Layer0$C$L0
 62
     3
 10
-134.6606513769
 20
90.0564961719
 11
-134.7606516727
 21
90.0564961719
  0
LINE
  8
Layer0$C$L0
 62
     3
 10
-134.7606516727
 20
110.6564965683
 11
-134.7606516727
 21
90.0564961719
  0
LINE
  8
Layer0$C$L0
 62
     3
 10
-134.6606513769
 20
111.3564963105
 11
-133.8839441822
 21
111.3564963105
  0
LINE
  8
Layer0$C$L0
 62
     3
 10
-134.6606513769
 20
110.3564961466
 11
-134.6606513769
 21
111.3564963105
  0
LINE
  8
Layer0$C$L0
 62
     3
 10
-133.8839441822
 20
89.3564964297
 11
-134.6606513769
 21
89.3564964297
  0
LINE
  8
Layer0$C$L0
 62
     3
 10
-134.6606513769
 20
89.3564964297
 11
-134.6606513769
 21
110.3564961466
  0
LINE
  8
Layer0$C$L0
 62
     3
 10
-132.6606519804
 20
109.3564959826
 11
-132.6606519804
 21
108.9461319732
  0
LINE
  8
Layer0$C$L0
 62
     3
 10
-133.4014036045
 20
111.0026114272
 11
-132.6606519804
 21
109.3564959826
  0
LINE
  8
Layer0$C$L0
 62
     3
 10
-132.6606519804
 20
108.9461319732
 11
-132.6606519804
 21
91.3564967575
  0
LINE
  8
Layer0$C$L0
 62
     3
 10
-132.6606519804
 20
91.3564967575
 11
-133.4014036045
 21
89.7103813129
  0
POLYLINE
  8
Layer0$C$L0
 62
     3
 66
     1
  0
VERTEX
  8
Layer0$C$L0
 62
     3
 10
-133.4279835508
 20
111.0616786989
  0
VERTEX
  8
Layer0$C$L0
 62
     3
 10
-133.4249772415
 20
111.0549973907
  0
VERTEX
  8
Layer0$C$L0
 62
     3
 10
-133.4160374761
 20
111.0351313489
  0
VERTEX
  8
Layer0$C$L0
 62
     3
 10
-133.4014036045
 20
111.0026114272
  0
SEQEND
  8
Layer0$C$L0
 62
     3
  0
ARC
  8
Layer0$C$L0
 62
     3
 10
-133.8839443980
 20
110.8564963701
 40
0.5000000000
 50
24.2277453180
 51
90.0000000000
  0
POLYLINE
  8
Layer0$C$L0
 62
     3
 66
     1
  0
VERTEX
  8
Layer0$C$L0
 62
     3
 10
-133.4014036045
 20
89.7103813129
  0
VERTEX
  8
Layer0$C$L0
 62
     3
 10
-133.4160374761
 20
89.6778613912
  0
VERTEX
  8
Layer0$C$L0
 62
     3
 10
-133.4249772415
 20
89.6579953494
  0
VERTEX
  8
Layer0$C$L0
 62
     3
 10
-133.4279835508
 20
89.6513140413
  0
SEQEND
  8
Layer0$C$L0
 62
     3
  0
ARC
  8
Layer0$C$L0
 62
     3
 10
-133.8839443980
 20
89.8564963701
 40
0.5000000000
 50
270.0000000000
 51
335.7722546820
  0
LINE
  8
Layer0$C$L0
 62
     3
 10
-136.6606517047
 20
103.3564963961
 11
-136.6606517047
 21
108.8564968320
  0
ARC
  8
Layer0$C$L0
 62
     3
 10
-136.1606515930
 20
108.8564963701
 40
0.5000000000
 50
90.0000000000
 51
180.0000000000
  0
LINE
  8
Layer0$C$L0
 62
     3
 10
-136.1606516228
 20
109.3564959826
 11
-134.7606516727
 21
109.3564959826
  0
LINE
  8
Layer0$C$L0
 62
     3
 10
-135.1606514589
 20
97.3564963440
 11
-135.1606514589
 21
103.3564963961
  0
LINE
  8
Layer0$C$L0
 62
     3
 10
-136.6606517047
 20
103.3564963961
 11
-135.1606514589
 21
103.3564963961
  0
LINE
  8
Layer0$C$L0
 62
     3
 10
-136.6606517047
 20
97.3564963440
 11
-135.1606514589
 21
97.3564963440
  0
ARC
  8
Layer0$C$L0
 62
     3
 10
-136.1606515930
 20
91.8564963701
 40
0.5000000000
 50
180.0000000000
 51
270.0000000000
  0
LINE
  8
Layer0$C$L0
 62
     3
 10
-136.6606517047
 20
91.8564959081
 11
-136.6606517047
 21
97.3564963440
  0
LINE
  8
Layer0$C$L0
 62
     3
 10
-134.7606516727
 20
91.3564967575
 11
-136.1606516228
 21
91.3564967575
  0
LINE
  8
Layer0$C$L0
 62
     3
 10
-141.6606515930
 20
108.4564965802
 11
-141.6606515930
 21
92.2564961600
  0
LINE
  8
Layer0$C$L0
 62
     3
 10
-145.2606515312
 20
92.5200427535
 11
-141.6606515930
 21
92.5200427535
  0
LINE
  8
Layer0$C$L0
 62
     3
 10
-145.2606515312
 20
108.1929499867
 11
-141.6606515930
 21
108.1929499867
  0
LINE
  8
Layer0$C$L0
 62
     3
 10
-149.4606513814
 20
103.3564963961
 11
-149.4606513814
 21
97.3564963440
  0
LINE
  8
Layer0$C$L0
 62
     3
 10
-152.4606518731
 20
105.8785519215
 11
-152.4606518731
 21
97.4695628627
  0
POLYLINE
  8
Layer0$C$L0
 62
     3
 66
     1
  0
VERTEX
  8
Layer0$C$L0
 62
     3
 10
-152.4606518731
 20
97.4695628627
  0
VERTEX
  8
Layer0$C$L0
 62
     3
 10
-152.4650551663
 20
97.4476509380
  0
VERTEX
  8
Layer0$C$L0
 62
     3
 10
-152.4801397980
 20
97.4251746318
  0
VERTEX
  8
Layer0$C$L0
 62
     3
 10
-152.5184227438
 20
97.3978174968
  0
VERTEX
  8
Layer0$C$L0
 62
     3
 10
-152.6524195731
 20
97.3597149948
  0
VERTEX
  8
Layer0$C$L0
 62
     3
 10
-152.7606513635
 20
97.3499957124
  0
SEQEND
  8
Layer0$C$L0
 62
     3
  0
LINE
  8
Layer0$C$L0
 62
     3
 10
-152.7606513635
 20
97.3499957124
 11
-152.7606513635
 21
105.9145866545
  0
POLYLINE
  8
Layer0$C$L0
 62
     3
 66
     1
  0
VERTEX
  8
Layer0$C$L0
 62
     3
 10
-152.7606513635
 20
105.9145866545
  0
VERTEX
  8
Layer0$C$L0
 62
     3
 10
-152.5870519043
 20
105.9265886086
  0
VERTEX
  8
Layer0$C$L0
 62
     3
 10
-152.5349900410
 20
105.9227916064
  0
VERTEX
  8
Layer0$C$L0
 62
     3
 10
-152.4782445566
 20
105.9057023028
  0
VERTEX
  8
Layer0$C$L0
 62
     3
 10
-152.4653094173
 20
105.8937585565
  0
VERTEX
  8
Layer0$C$L0
 62
     3
 10
-152.4606518731
 20
105.8785519215
  0
SEQEND
  8
Layer0$C$L0
 62
     3
  0
LINE
  8
Layer0$C$L0
 62
     3
 10
-151.2606520490
 20
93.0814961555
 11
-151.2606520490
 21
93.1152514766
  0
LINE
  8
Layer0$C$L0
 62
     3
 10
-151.2606520490
 20
93.1152514766
 11
-152.4606518731
 21
93.1152514766
  0
LINE
  8
Layer0$C$L0
 62
     3
 10
-152.4606518731
 20
95.1087367373
 11
-152.4606518731
 21
93.1152514766
  0
LINE
  8
Layer0$C$L0
 62
     3
 10
-150.1606520549
 20
93.6419134612
 11
-151.4606517092
 21
93.6419134612
  0
LINE
  8
Layer0$C$L0
 62
     3
 10
-150.0606512935
 20
103.3155053972
 11
-151.4606517092
 21
103.3155053972
  0
LINE
  8
Layer0$C$L0
 62
     3
 10
-152.4606518731
 20
107.6314965846
 11
-152.4606518731
 21
107.1224426503
  0
LINE
  8
Layer0$C$L0
 62
     3
 10
-151.2606520490
 20
107.4300827111
 11
-150.1606520549
 21
107.4300827111
  0
LINE
  8
Layer0$C$L0
 62
     3
 10
-151.2606520490
 20
107.4300827111
 11
-151.2606520490
 21
107.6314965846
  0
ARC
  8
Layer0$C$L0
 62
     3
 10
-150.5489148042
 20
97.7105041591
 40
0.3756969774
 50
286.5537378216
 51
320.1098178370
  0
POLYLINE
  8
Layer0$C$L0
 62
     3
 66
     1
  0
VERTEX
  8
Layer0$C$L0
 62
     3
 10
-150.2606518851
 20
95.6353405143
  0
VERTEX
  8
Layer0$C$L0
 62
     3
 10
-150.2643846259
 20
95.6345204847
  0
VERTEX
  8
Layer0$C$L0
 62
     3
 10
-150.3120906935
 20
95.6281162451
  0
VERTEX
  8
Layer0$C$L0
 62
     3
 10
-150.3726117597
 20
95.6324166270
  0
VERTEX
  8
Layer0$C$L0
 62
     3
 10
-150.4197478578
 20
95.6507948811
  0
VERTEX
  8
Layer0$C$L0
 62
     3
 10
-150.4500503004
 20
95.6810265432
  0
VERTEX
  8
Layer0$C$L0
 62
     3
 10
-150.4606515453
 20
95.7203991363
  0
SEQEND
  8
Layer0$C$L0
 62
     3
  0
LINE
  8
Layer0$C$L0
 62
     3
 10
-150.4606515453
 20
95.7203991363
 11
-150.4606515453
 21
97.3664903665
  0
ARC
  8
Layer0$C$L0
 62
     3
 10
-151.4373498395
 20
105.4945083961
 40
0.1795520285
 50
10.2297390206
 51
97.4567532214
  0
LINE
  8
Layer0$C$L0
 62
     3
 10
-151.2606520490
 20
105.5263960386
 11
-151.2606520490
 21
103.3155053972
  0
LINE
  8
Layer0$C$L0
 62
     3
 10
-150.2606518851
 20
103.3155053972
 11
-150.2606518851
 21
106.8538515481
  0
LINE
  8
Layer0$C$L0
 62
     3
 10
-150.2606518851
 20
106.8538515481
 11
-150.2456827373
 21
106.9364375087
  0
POLYLINE
  8
Layer0$C$L0
 62
     3
 66
     1
  0
VERTEX
  8
Layer0$C$L0
 62
     3
 10
-150.1606520549
 20
107.0584430943
  0
VERTEX
  8
Layer0$C$L0
 62
     3
 10
-150.2120517478
 20
107.0003234433
  0
VERTEX
  8
Layer0$C$L0
 62
     3
 10
-150.2456827373
 20
106.9364375087
  0
SEQEND
  8
Layer0$C$L0
 62
     3
  0
LINE
  8
Layer0$C$L0
 62
     3
 10
-150.2606518851
 20
106.2225000585
 11
-152.7606513635
 21
106.2225000585
  0
LINE
  8
Layer0$C$L0
 62
     3
 10
-150.2606518851
 20
94.4904926816
 11
-151.2606520490
 21
94.4904926816
  0
ARC
  8
Layer0$C$L0
 62
     3
 10
-151.8110021301
 20
95.7783804795
 40
0.5505350338
 50
358.5147911386
 51
444.7524995067
  0
LINE
  8
Layer0$C$L0
 62
     3
 10
-151.7606511996
 20
96.3266081760
 11
-152.7606513635
 21
96.3266081760
  0
ARC
  8
Layer0$C$L0
 62
     3
 10
-150.1598975581
 20
95.4968812804
 40
9.5382085013E-02
 50
216.9532227589
 51
269.5467709371
  0
LINE
  8
Layer0$C$L0
 62
     3
 10
-150.2606518851
 20
93.8591411921
 11
-150.2606518851
 21
95.4628982233
  0
ARC
  8
Layer0$C$L0
 62
     3
 10
-150.0592114057
 20
93.8479939351
 40
0.2017486755
 50
176.8326126620
 51
239.8141149896
  0
LINE
  8
Layer0$C$L0
 62
     3
 10
-152.7606513635
 20
95.3096532846
 11
-152.6407761783
 21
95.2530051234
  0
POLYLINE
  8
Layer0$C$L0
 62
     3
 66
     1
  0
VERTEX
  8
Layer0$C$L0
 62
     3
 10
-152.6407761783
 20
95.2530051234
  0
VERTEX
  8
Layer0$C$L0
 62
     3
 10
-152.5472034053
 20
95.2026205721
  0
VERTEX
  8
Layer0$C$L0
 62
     3
 10
-152.4978712485
 20
95.1665900300
  0
VERTEX
  8
Layer0$C$L0
 62
     3
 10
-152.4741104157
 20
95.1416371042
  0
VERTEX
  8
Layer0$C$L0
 62
     3
 10
-152.4631571309
 20
95.1221794473
  0
VERTEX
  8
Layer0$C$L0
 62
     3
 10
-152.4606518731
 20
95.1087367373
  0
SEQEND
  8
Layer0$C$L0
 62
     3
  0
LINE
  8
Layer0$C$L0
 62
     3
 10
-152.4606518731
 20
93.1152514766
 11
-152.5606517033
 21
93.1487409050
  0
POLYLINE
  8
Layer0$C$L0
 62
     3
 66
     1
  0
VERTEX
  8
Layer0$C$L0
 62
     3
 10
-152.7606513635
 20
93.2381660330
  0
VERTEX
  8
Layer0$C$L0
 62
     3
 10
-152.6609635264
 20
93.1928329753
  0
VERTEX
  8
Layer0$C$L0
 62
     3
 10
-152.5606517033
 20
93.1487409050
  0
SEQEND
  8
Layer0$C$L0
 62
     3
  0
LINE
  8
Layer0$C$L0
 62
     3
 10
-152.7606513635
 20
93.2381660330
 11
-152.7606513635
 21
97.3489286496
  0
ARC
  8
Layer0$C$L0
 62
     3
 10
-151.4674280074
 20
93.8488351683
 40
0.2070326330
 50
271.8756591006
 51
362.8533463659
  0
LINE
  8
Layer0$C$L0
 62
     3
 10
-151.2606520490
 20
95.7641112270
 11
-151.2606520490
 21
93.8591411921
  0
ARC
  8
Layer0$C$L0
 62
     3
 10
-152.8976800943
 20
107.5842356157
 40
0.6358037504
 50
282.4460646236
 51
313.4217590086
  0
LINE
  8
Layer0$C$L0
 62
     3
 10
-152.7606513635
 20
106.9364375087
 11
-152.7606513635
 21
105.9315772379
  0
LINE
  8
Layer0$C$L0
 62
     3
 10
-152.7606513635
 20
106.9364375087
 11
-152.7606513635
 21
107.5314962889
  0
ARC
  8
Layer0$C$L0
 62
     3
 10
-145.2606515930
 20
90.8564963701
 40
1.0000000000
 50
180.0000000000
 51
270.0000000000
  0
LINE
  8
Layer0$C$L0
 62
     3
 10
-146.2606516951
 20
90.8564966755
 11
-146.2606516951
 21
109.8564960646
  0
ARC
  8
Layer0$C$L0
 62
     3
 10
-145.2606515930
 20
109.8564963701
 40
1.0000000000
 50
90.0000000000
 51
180.0000000000
  0
LINE
  8
Layer0$C$L0
 62
     3
 10
-145.2606515312
 20
109.8564960646
 11
-145.2606515312
 21
90.8564966755
  0
LINE
  8
Layer0$C$L0
 62
     3
 10
-137.8606515289
 20
109.8564960646
 11
-137.8606515289
 21
110.8564962285
  0
LINE
  8
Layer0$C$L0
 62
     3
 10
-145.2606515312
 20
110.8564962285
 11
-137.8606515289
 21
110.8564962285
  0
LINE
  8
Layer0$C$L0
 62
     3
 10
-145.2606515312
 20
109.8564960646
 11
-137.8606515289
 21
109.8564960646
  0
LINE
  8
Layer0$C$L0
 62
     3
 10
-137.8606515289
 20
90.8564966755
 11
-137.8606515289
 21
89.8564965116
  0
LINE
  8
Layer0$C$L0
 62
     3
 10
-145.2606515312
 20
90.8564966755
 11
-137.8606515289
 21
90.8564966755
  0
LINE
  8
Layer0$C$L0
 62
     3
 10
-145.2606515312
 20
89.8564965116
 11
-137.8606515289
 21
89.8564965116
  0
LINE
  8
Layer0$C$L0
 62
     3
 10
-149.2606517211
 20
108.7356372389
 11
-150.1606520549
 21
108.7356372389
  0
LINE
  8
Layer0$C$L0
 62
     3
 10
-149.2606517211
 20
108.7356372389
 11
-149.2606517211
 21
109.2564961525
  0
LINE
  8
Layer0$C$L0
 62
     3
 10
-149.2606517211
 20
91.4564965876
 11
-149.2606517211
 21
91.9773555013
  0
LINE
  8
Layer0$C$L0
 62
     3
 10
-149.2606517211
 20
91.9773555013
 11
-150.1606520549
 21
91.9773555013
  0
LINE
  8
Layer0$C$L0
 62
     3
 10
-150.1606520549
 20
97.3564963440
 11
-150.1606520549
 21
91.9773555013
  0
LINE
  8
Layer0$C$L0
 62
     3
 10
-149.2606517211
 20
97.3564963440
 11
-150.1606520549
 21
97.3564963440
  0
LINE
  8
Layer0$C$L0
 62
     3
 10
-149.2606517211
 20
97.3564963440
 11
-149.2606517211
 21
103.3564963961
  0
LINE
  8
Layer0$C$L0
 62
     3
 10
-149.2606517211
 20
103.3564963961
 11
-150.1606520549
 21
103.3564963961
  0
LINE
  8
Layer0$C$L0
 62
     3
 10
-150.1606520549
 20
108.7356372389
 11
-150.1606520549
 21
103.3564963961
  0
LINE
  8
Layer0$C$L0
 62
     3
 10
-148.1606517271
 20
109.2362482684
 11
-146.2606516951
 21
109.2362482684
  0
LINE
  8
Layer0$C$L0
 62
     3
 10
-148.1606517271
 20
109.0889698478
 11
-148.1606517271
 21
109.2362482684
  0
LINE
  8
Layer0$C$L0
 62
     3
 10
-148.1606517271
 20
109.0889698478
 11
-146.2606516951
 21
109.0889698478
  0
LINE
  8
Layer0$C$L0
 62
     3
 10
-148.1606517271
 20
108.7783868077
 11
-146.2606516951
 21
108.7783868077
  0
LINE
  8
Layer0$C$L0
 62
     3
 10
-148.1606517271
 20
108.3465874779
 11
-148.1606517271
 21
108.7783868077
  0
LINE
  8
Layer0$C$L0
 62
     3
 10
-148.1606517271
 20
108.3465874779
 11
-146.2606516951
 21
108.3465874779
  0
LINE
  8
Layer0$C$L0
 62
     3
 10
-148.1606517271
 20
107.7465875658
 11
-146.2606516951
 21
107.7465875658
  0
LINE
  8
Layer0$C$L0
 62
     3
 10
-148.1606517271
 20
107.0596933948
 11
-148.1606517271
 21
107.7465875658
  0
LINE
  8
Layer0$C$L0
 62
     3
 10
-148.1606517271
 20
107.0596933948
 11
-146.2606516951
 21
107.0596933948
  0
LINE
  8
Layer0$C$L0
 62
     3
 10
-148.1606517271
 20
106.2111653971
 11
-146.2606516951
 21
106.2111653971
  0
LINE
  8
Layer0$C$L0
 62
     3
 10
-148.1606517271
 20
105.3159879173
 11
-148.1606517271
 21
106.2111653971
  0
LINE
  8
Layer0$C$L0
 62
     3
 10
-148.1606517271
 20
105.3159879173
 11
-146.2606516951
 21
105.3159879173
  0
LINE
  8
Layer0$C$L0
 62
     3
 10
-148.1606517271
 20
104.2767571869
 11
-146.2606516951
 21
104.2767571869
  0
LINE
  8
Layer0$C$L0
 62
     3
 10
-148.1606517271
 20
103.2343008208
 11
-148.1606517271
 21
104.2767571869
  0
LINE
  8
Layer0$C$L0
 62
     3
 10
-148.1606517271
 20
103.2343008208
 11
-146.2606516951
 21
103.2343008208
  0
LINE
  8
Layer0$C$L0
 62
     3
 10
-148.1606517271
 20
102.0751898993
 11
-146.2606516951
 21
102.0751898993
  0
LINE
  8
Layer0$C$L0
 62
     3
 10
-148.1606517271
 20
100.9564963986
 11
-148.1606517271
 21
102.0751898993
  0
LINE
  8
Layer0$C$L0
 62
     3
 10
-148.1606517271
 20
100.9564963986
 11
-146.2606516951
 21
100.9564963986
  0
LINE
  8
Layer0$C$L0
 62
     3
 10
-148.1606517271
 20
99.7564963416
 11
-146.2606516951
 21
99.7564963416
  0
LINE
  8
Layer0$C$L0
 62
     3
 10
-148.1606517271
 20
98.6378028408
 11
-148.1606517271
 21
99.7564963416
  0
LINE
  8
Layer0$C$L0
 62
     3
 10
-148.1606517271
 20
98.6378028408
 11
-146.2606516951
 21
98.6378028408
  0
LINE
  8
Layer0$C$L0
 62
     3
 10
-148.1606517271
 20
97.4786919194
 11
-146.2606516951
 21
97.4786919194
  0
LINE
  8
Layer0$C$L0
 62
     3
 10
-148.1606517271
 20
96.4362355533
 11
-148.1606517271
 21
97.4786919194
  0
LINE
  8
Layer0$C$L0
 62
     3
 10
-148.1606517271
 20
96.4362355533
 11
-146.2606516951
 21
96.4362355533
  0
LINE
  8
Layer0$C$L0
 62
     3
 10
-148.1606517271
 20
95.3970048229
 11
-146.2606516951
 21
95.3970048229
  0
LINE
  8
Layer0$C$L0
 62
     3
 10
-148.1606517271
 20
94.5018273430
 11
-148.1606517271
 21
95.3970048229
  0
LINE
  8
Layer0$C$L0
 62
     3
 10
-148.1606517271
 20
94.5018273430
 11
-146.2606516951
 21
94.5018273430
  0
LINE
  8
Layer0$C$L0
 62
     3
 10
-148.1606517271
 20
93.6532993453
 11
-146.2606516951
 21
93.6532993453
  0
LINE
  8
Layer0$C$L0
 62
     3
 10
-148.1606517271
 20
92.9664051744
 11
-148.1606517271
 21
93.6532993453
  0
LINE
  8
Layer0$C$L0
 62
     3
 10
-148.1606517271
 20
92.9664051744
 11
-146.2606516951
 21
92.9664051744
  0
LINE
  8
Layer0$C$L0
 62
     3
 10
-148.1606517271
 20
92.3664052623
 11
-146.2606516951
 21
92.3664052623
  0
LINE
  8
Layer0$C$L0
 62
     3
 10
-148.1606517271
 20
91.9346059325
 11
-148.1606517271
 21
92.3664052623
  0
LINE
  8
Layer0$C$L0
 62
     3
 10
-148.1606517271
 20
91.9346059325
 11
-146.2606516951
 21
91.9346059325
  0
LINE
  8
Layer0$C$L0
 62
     3
 10
-148.1606517271
 20
91.6240228924
 11
-146.2606516951
 21
91.6240228924
  0
LINE
  8
Layer0$C$L0
 62
     3
 10
-148.1606517271
 20
91.4767444717
 11
-148.1606517271
 21
91.6240228924
  0
LINE
  8
Layer0$C$L0
 62
     3
 10
-148.1606517271
 20
91.4767444717
 11
-146.2606516951
 21
91.4767444717
  0
LINE
  8
Layer0$C$L0
 62
     3
 10
-148.1606517271
 20
98.6896874035
 11
-146.2606516951
 21
98.6896874035
  0
LINE
  8
Layer0$C$L0
 62
     3
 10
-148.1606517271
 20
102.0233053366
 11
-146.2606516951
 21
102.0233053366
  0
LINE
  8
Layer0$C$L0
 62
     3
 10
-148.1606517271
 20
96.5364686797
 11
-146.2606516951
 21
96.5364686797
  0
LINE
  8
Layer0$C$L0
 62
     3
 10
-148.1606517271
 20
104.1765240605
 11
-146.2606516951
 21
104.1765240605
  0
LINE
  8
Layer0$C$L0
 62
     3
 10
-148.1606517271
 20
106.0694139103
 11
-146.2606516951
 21
106.0694139103
  0
LINE
  8
Layer0$C$L0
 62
     3
 10
-148.1606517271
 20
94.6435788298
 11
-146.2606516951
 21
94.6435788298
  0
LINE
  8
Layer0$C$L0
 62
     3
 10
-148.1606517271
 20
93.1400144125
 11
-146.2606516951
 21
93.1400144125
  0
LINE
  8
Layer0$C$L0
 62
     3
 10
-148.1606517271
 20
107.5729783277
 11
-146.2606516951
 21
107.5729783277
  0
LINE
  8
Layer0$C$L0
 62
     3
 10
-148.1606517271
 20
92.1282418656
 11
-146.2606516951
 21
92.1282418656
  0
LINE
  8
Layer0$C$L0
 62
     3
 10
-148.1606517271
 20
108.5847508746
 11
-146.2606516951
 21
108.5847508746
  0
LINE
  8
Layer0$C$L0
 62
     3
 10
-136.6606517047
 20
73.4564965802
 11
-137.9678311576
 21
73.4564965802
  0
LINE
  8
Layer0$C$L0
 62
     3
 10
-137.9678311576
 20
57.2564961600
 11
-136.6606517047
 21
57.2564961600
  0
LINE
  8
Layer0$C$L0
 62
     3
 10
-150.1606520549
 20
72.6314965847
 11
-152.4606518731
 21
72.6314965847
  0
LINE
  8
Layer0$C$L0
 62
     3
 10
-152.4606518731
 20
58.0814961555
 11
-150.1606520549
 21
58.0814961555
  0
LINE
  8
Layer0$C$L0
 62
     3
 10
-152.7606513635
 20
58.1814964513
 11
-152.4606518731
 21
58.0814961555
  0
LINE
  8
Layer0$C$L0
 62
     3
 10
-152.4606518731
 20
72.6314965847
 11
-152.7606513635
 21
72.5314962889
  0
LINE
  8
Layer0$C$L0
 62
     3
 10
-146.2606516951
 20
74.2564961526
 11
-149.2606517211
 21
74.2564961526
  0
LINE
  8
Layer0$C$L0
 62
     3
 10
-149.2606517211
 20
56.4564965877
 11
-146.2606516951
 21
56.4564965877
  0
LINE
  8
Layer0$C$L0
 62
     3
 10
-134.6606513769
 20
52.0564966115
 11
-134.7606516727
 21
52.0564966115
  0
LINE
  8
Layer0$C$L0
 62
     3
 10
-134.7606516727
 20
52.0564966115
 11
-134.7606516727
 21
52.5564966935
  0
LINE
  8
Layer0$C$L0
 62
     3
 10
-134.7606516727
 20
78.6564961287
 11
-134.6606513769
 21
78.6564961287
  0
LINE
  8
Layer0$C$L0
 62
     3
 10
-134.7606516727
 20
52.5564966935
 11
-134.7606516727
 21
78.6564961287
  0
LINE
  8
Layer0$C$L0
 62
     3
 10
-133.8839441822
 20
51.3564959380
 11
-134.6606513769
 21
51.3564959380
  0
LINE
  8
Layer0$C$L0
 62
     3
 10
-134.6606513769
 20
51.3564959380
 11
-134.6606513769
 21
52.3564961019
  0
LINE
  8
Layer0$C$L0
 62
     3
 10
-134.6606513769
 20
79.3564968023
 11
-133.8839441822
 21
79.3564968023
  0
LINE
  8
Layer0$C$L0
 62
     3
 10
-134.6606513769
 20
52.3564961019
 11
-134.6606513769
 21
79.3564968023
  0
LINE
  8
Layer0$C$L0
 62
     3
 10
-132.6606519804
 20
53.7668612066
 11
-132.6606519804
 21
53.3564962658
  0
LINE
  8
Layer0$C$L0
 62
     3
 10
-132.6606519804
 20
53.3564962658
 11
-133.4014036045
 21
51.7103808212
  0
LINE
  8
Layer0$C$L0
 62
     3
 10
-132.6606519804
 20
77.3564964744
 11
-132.6606519804
 21
53.7668612066
  0
LINE
  8
Layer0$C$L0
 62
     3
 10
-133.4014036045
 20
79.0026119190
 11
-132.6606519804
 21
77.3564964744
  0
POLYLINE
  8
Layer0$C$L0
 62
     3
 66
     1
  0
VERTEX
  8
Layer0$C$L0
 62
     3
 10
-133.4014036045
 20
51.7103808212
  0
VERTEX
  8
Layer0$C$L0
 62
     3
 10
-133.4160374761
 20
51.6778618309
  0
VERTEX
  8
Layer0$C$L0
 62
     3
 10
-133.4249772415
 20
51.6579957890
  0
VERTEX
  8
Layer0$C$L0
 62
     3
 10
-133.4279835508
 20
51.6513144809
  0
SEQEND
  8
Layer0$C$L0
 62
     3
  0
ARC
  8
Layer0$C$L0
 62
     3
 10
-133.8839443980
 20
51.8564963701
 40
0.5000000000
 50
270.0000000000
 51
335.7722546820
  0
ARC
  8
Layer0$C$L0
 62
     3
 10
-133.8839443980
 20
78.8564963701
 40
0.5000000000
 50
24.2277453180
 51
90.0000000000
  0
POLYLINE
  8
Layer0$C$L0
 62
     3
 66
     1
  0
VERTEX
  8
Layer0$C$L0
 62
     3
 10
-133.4279835508
 20
79.0616782594
  0
VERTEX
  8
Layer0$C$L0
 62
     3
 10
-133.4249772415
 20
79.0549969512
  0
VERTEX
  8
Layer0$C$L0
 62
     3
 10
-133.4160374761
 20
79.0351309094
  0
VERTEX
  8
Layer0$C$L0
 62
     3
 10
-133.4014036045
 20
79.0026119190
  0
SEQEND
  8
Layer0$C$L0
 62
     3
  0
ARC
  8
Layer0$C$L0
 62
     3
 10
-136.1606515930
 20
53.8564963701
 40
0.5000000000
 50
180.0000000000
 51
270.0000000000
  0
LINE
  8
Layer0$C$L0
 62
     3
 10
-134.7606516727
 20
53.3564962658
 11
-136.1606516228
 21
53.3564962658
  0
LINE
  8
Layer0$C$L0
 62
     3
 10
-136.6606517047
 20
53.8564963478
 11
-136.6606517047
 21
59.3564963180
  0
LINE
  8
Layer0$C$L0
 62
     3
 10
-136.6606517047
 20
59.3564963180
 11
-135.1606514589
 21
59.3564963180
  0
LINE
  8
Layer0$C$L0
 62
     3
 10
-135.1606514589
 20
59.3564963180
 11
-135.1606514589
 21
71.3564964223
  0
LINE
  8
Layer0$C$L0
 62
     3
 10
-135.1606514589
 20
71.3564964223
 11
-136.6606517047
 21
71.3564964223
  0
LINE
  8
Layer0$C$L0
 62
     3
 10
-136.1606516228
 20
77.3564964744
 11
-134.7606516727
 21
77.3564964744
  0
LINE
  8
Layer0$C$L0
 62
     3
 10
-136.6606517047
 20
71.3564964223
 11
-136.6606517047
 21
76.8564963925
  0
ARC
  8
Layer0$C$L0
 62
     3
 10
-136.1606515930
 20
76.8564963701
 40
0.5000000000
 50
90.0000000000
 51
180.0000000000
  0
LINE
  8
Layer0$C$L0
 62
     3
 10
-149.4606513814
 20
64.3564963226
 11
-149.4606513814
 21
62.3564963440
  0
LINE
  8
Layer0$C$L0
 62
     3
 10
-149.4606513814
 20
64.3564963226
 11
-149.2606517211
 21
64.3564963226
  0
LINE
  8
Layer0$C$L0
 62
     3
 10
-149.4606513814
 20
66.3564964176
 11
-149.2606517211
 21
66.3564964176
  0
LINE
  8
Layer0$C$L0
 62
     3
 10
-149.4606513814
 20
68.3564963962
 11
-149.4606513814
 21
66.3564964176
  0
LINE
  8
Layer0$C$L0
 62
     3
 10
-152.4606518731
 20
60.6201972093
 11
-152.4606518731
 21
58.0814961555
  0
LINE
  8
Layer0$C$L0
 62
     3
 10
-150.1606520549
 20
58.7104532148
 11
-151.4606517092
 21
58.7104532148
  0
LINE
  8
Layer0$C$L0
 62
     3
 10
-152.4606518731
 20
64.6564963951
 11
-152.4606518731
 21
62.6829982481
  0
LINE
  8
Layer0$C$L0
 62
     3
 10
-151.2606520490
 20
64.6564963951
 11
-151.2606520490
 21
66.0564963452
  0
LINE
  8
Layer0$C$L0
 62
     3
 10
-152.4606518731
 20
70.3950125004
 11
-152.4606518731
 21
66.0564963452
  0
LINE
  8
Layer0$C$L0
 62
     3
 10
-150.0606512935
 20
68.1564962703
 11
-151.4606517092
 21
68.1564962703
  0
LINE
  8
Layer0$C$L0
 62
     3
 10
-152.4606518731
 20
72.6314965847
 11
-152.4606518731
 21
72.0341635148
  0
POLYLINE
  8
Layer0$C$L0
 62
     3
 66
     1
  0
VERTEX
  8
Layer0$C$L0
 62
     3
 10
-152.4606518731
 20
62.6829982481
  0
VERTEX
  8
Layer0$C$L0
 62
     3
 10
-152.4650551663
 20
62.6607445280
  0
VERTEX
  8
Layer0$C$L0
 62
     3
 10
-152.4801397980
 20
62.6377923160
  0
VERTEX
  8
Layer0$C$L0
 62
     3
 10
-152.5184227438
 20
62.6096205066
  0
VERTEX
  8
Layer0$C$L0
 62
     3
 10
-152.6524195731
 20
62.5694351017
  0
VERTEX
  8
Layer0$C$L0
 62
     3
 10
-152.7606513635
 20
62.5583186026
  0
SEQEND
  8
Layer0$C$L0
 62
     3
  0
POLYLINE
  8
Layer0$C$L0
 62
     3
 66
     1
  0
VERTEX
  8
Layer0$C$L0
 62
     3
 10
-152.5606517033
 20
64.6564963951
  0
VERTEX
  8
Layer0$C$L0
 62
     3
 10
-152.6609635264
 20
64.5561842809
  0
VERTEX
  8
Layer0$C$L0
 62
     3
 10
-152.7606513635
 20
64.4564963856
  0
SEQEND
  8
Layer0$C$L0
 62
     3
  0
LINE
  8
Layer0$C$L0
 62
     3
 10
-152.5606517033
 20
64.6564963951
 11
-151.2606520490
 21
64.6564963951
  0
POLYLINE
  8
Layer0$C$L0
 62
     3
 66
     1
  0
VERTEX
  8
Layer0$C$L0
 62
     3
 10
-152.6407761783
 20
70.4564965541
  0
VERTEX
  8
Layer0$C$L0
 62
     3
 10
-152.5472034053
 20
70.4500457483
  0
VERTEX
  8
Layer0$C$L0
 62
     3
 10
-152.4978712485
 20
70.4368638086
  0
VERTEX
  8
Layer0$C$L0
 62
     3
 10
-152.4741104157
 20
70.4226206268
  0
VERTEX
  8
Layer0$C$L0
 62
     3
 10
-152.4631571309
 20
70.4077734823
  0
VERTEX
  8
Layer0$C$L0
 62
     3
 10
-152.4606518731
 20
70.3950125004
  0
SEQEND
  8
Layer0$C$L0
 62
     3
  0
POLYLINE
  8
Layer0$C$L0
 62
     3
 66
     1
  0
VERTEX
  8
Layer0$C$L0
 62
     3
 10
-152.7606513635
 20
66.2564963547
  0
VERTEX
  8
Layer0$C$L0
 62
     3
 10
-152.6609635264
 20
66.1568084594
  0
VERTEX
  8
Layer0$C$L0
 62
     3
 10
-152.5606517033
 20
66.0564963452
  0
SEQEND
  8
Layer0$C$L0
 62
     3
  0
LINE
  8
Layer0$C$L0
 62
     3
 10
-151.2606520490
 20
66.0564963452
 11
-152.5606517033
 21
66.0564963452
  0
LINE
  8
Layer0$C$L0
 62
     3
 10
-150.2606518851
 20
58.8931624058
 11
-150.2606518851
 21
62.5564964700
  0
ARC
  8
Layer0$C$L0
 62
     3
 10
-150.4342634828
 20
63.0309011466
 40
0.5105119927
 50
291.6783304867
 51
317.0407208902
  0
ARC
  8
Layer0$C$L0
 62
     3
 10
-150.0790715735
 20
58.8972041503
 40
0.1816252880
 50
181.2751199025
 51
243.3096081960
  0
LINE
  8
Layer0$C$L0
 62
     3
 10
-150.2456827373
 20
62.5564964700
 11
-152.7606513635
 21
62.5564964700
  0
LINE
  8
Layer0$C$L0
 62
     3
 10
-151.2606520490
 20
69.9564964722
 11
-151.2606520490
 21
68.1564962703
  0
LINE
  8
Layer0$C$L0
 62
     3
 10
-150.2606518851
 20
68.1564962703
 11
-150.2606518851
 21
70.4973387743
  0
ARC
  8
Layer0$C$L0
 62
     3
 10
-150.0789819752
 20
70.4805123710
 40
0.1824474828
 50
116.5921194503
 51
174.7083192054
  0
LINE
  8
Layer0$C$L0
 62
     3
 10
-152.7606513635
 20
62.5583186026
 11
-152.7606513635
 21
70.4564965541
  0
LINE
  8
Layer0$C$L0
 62
     3
 10
-150.2606518851
 20
59.4184506896
 11
-151.2606520490
 21
59.4184506896
  0
ARC
  8
Layer0$C$L0
 62
     3
 10
-151.7010255407
 20
60.8248355898
 40
0.4450901939
 50
8.3486665385
 51
97.6986648494
  0
LINE
  8
Layer0$C$L0
 62
     3
 10
-151.7606511996
 20
61.2659138839
 11
-152.7606513635
 21
61.2659138839
  0
LINE
  8
Layer0$C$L0
 62
     3
 10
-150.4606515453
 20
71.2474967564
 11
-152.7606513635
 21
71.2474967564
  0
POLYLINE
  8
Layer0$C$L0
 62
     3
 66
     1
  0
VERTEX
  8
Layer0$C$L0
 62
     3
 10
-152.7606513635
 20
60.8190681065
  0
VERTEX
  8
Layer0$C$L0
 62
     3
 10
-152.5870519043
 20
60.7425576287
  0
VERTEX
  8
Layer0$C$L0
 62
     3
 10
-152.5349900410
 20
60.7108474921
  0
VERTEX
  8
Layer0$C$L0
 62
     3
 10
-152.4782445566
 20
60.6611106756
  0
VERTEX
  8
Layer0$C$L0
 62
     3
 10
-152.4653094173
 20
60.6403794351
  0
VERTEX
  8
Layer0$C$L0
 62
     3
 10
-152.4606518731
 20
60.6201972093
  0
SEQEND
  8
Layer0$C$L0
 62
     3
  0
ARC
  8
Layer0$C$L0
 62
     3
 10
-151.7606518530
 20
69.9564967501
 40
0.4999998040
 50
359.9999681522
 51
449.9999251260
  0
LINE
  8
Layer0$C$L0
 62
     3
 10
-152.7606513635
 20
62.5564964700
 11
-152.7606513635
 21
58.1814964513
  0
ARC
  8
Layer0$C$L0
 62
     3
 10
-151.4523791568
 20
58.9022155910
 40
0.1919407305
 50
267.5298145275
 51
357.2965517983
  0
LINE
  8
Layer0$C$L0
 62
     3
 10
-151.2606520490
 20
60.8894611920
 11
-151.2606520490
 21
58.8931624058
  0
LINE
  8
Layer0$C$L0
 62
     3
 10
-152.7606513635
 20
70.4564965541
 11
-151.7606511996
 21
70.4564965541
  0
ARC
  8
Layer0$C$L0
 62
     3
 10
-150.2309257554
 20
70.6600901737
 40
0.2333155291
 50
97.3198025987
 51
169.9363468162
  0
POLYLINE
  8
Layer0$C$L0
 62
     3
 66
     1
  0
VERTEX
  8
Layer0$C$L0
 62
     3
 10
-150.2606518851
 20
70.4564965541
  0
VERTEX
  8
Layer0$C$L0
 62
     3
 10
-150.3618931682
 20
70.5577383029
  0
VERTEX
  8
Layer0$C$L0
 62
     3
 10
-150.4606515453
 20
70.6564962144
  0
SEQEND
  8
Layer0$C$L0
 62
     3
  0
LINE
  8
Layer0$C$L0
 62
     3
 10
-150.4606515453
 20
70.6564962144
 11
-150.4606515453
 21
71.7686322729
  0
ARC
  8
Layer0$C$L0
 62
     3
 10
-150.1472231331
 20
71.7406422570
 40
0.3146757229
 50
111.1285935023
 51
174.8968669736
  0
ARC
  8
Layer0$C$L0
 62
     3
 10
-152.8872141726
 20
72.4618655767
 40
0.6040566604
 50
282.0943076972
 51
314.9235558202
  0
LINE
  8
Layer0$C$L0
 62
     3
 10
-152.7606513635
 20
72.5314962889
 11
-152.7606513635
 21
70.4564965541
  0
ARC
  8
Layer0$C$L0
 62
     3
 10
-139.1638769658
 20
74.8564963701
 40
1.0000000000
 50
15.0000000000
 51
90.0000000000
  0
LINE
  8
Layer0$C$L0
 62
     3
 10
-138.1979511869
 20
75.1153152647
 11
-137.8606515289
 21
73.8564968321
  0
LINE
  8
Layer0$C$L0
 62
     3
 10
-137.8606515289
 20
73.8564968321
 11
-138.8265773938
 21
70.2516121070
  0
ARC
  8
Layer0$C$L0
 62
     3
 10
-137.8606515930
 20
69.9927930650
 40
1.0000000000
 50
165.0000000000
 51
180.0000000000
  0
LINE
  8
Layer0$C$L0
 62
     3
 10
-138.8606516928
 20
60.7201998333
 11
-138.8606516928
 21
69.9927929069
  0
ARC
  8
Layer0$C$L0
 62
     3
 10
-137.8606515930
 20
60.7201996753
 40
1.0000000000
 50
180.0000000000
 51
195.0000000000
  0
LINE
  8
Layer0$C$L0
 62
     3
 10
-138.8265773938
 20
60.4613806332
 11
-137.8606515289
 21
56.8564959082
  0
LINE
  8
Layer0$C$L0
 62
     3
 10
-137.8606515289
 20
56.8564959082
 11
-138.1979511869
 21
55.5976774755
  0
ARC
  8
Layer0$C$L0
 62
     3
 10
-139.1638769658
 20
55.8564963701
 40
1.0000000000
 50
270.0000000000
 51
345.0000000000
  0
LINE
  8
Layer0$C$L0
 62
     3
 10
-139.1638770518
 20
54.8564965117
 11
-146.2606516951
 21
54.8564965117
  0
LINE
  8
Layer0$C$L0
 62
     3
 10
-146.2606516951
 20
54.8564965117
 11
-146.2606516951
 21
75.8564962286
  0
LINE
  8
Layer0$C$L0
 62
     3
 10
-139.1638770518
 20
75.8564962286
 11
-146.2606516951
 21
75.8564962286
  0
LINE
  8
Layer0$C$L0
 62
     3
 10
-149.2606517211
 20
56.9773555013
 11
-150.1606520549
 21
56.9773555013
  0
LINE
  8
Layer0$C$L0
 62
     3
 10
-150.1606520549
 20
62.3564963440
 11
-150.1606520549
 21
56.9773555013
  0
LINE
  8
Layer0$C$L0
 62
     3
 10
-149.2606517211
 20
62.3564963440
 11
-150.1606520549
 21
62.3564963440
  0
LINE
  8
Layer0$C$L0
 62
     3
 10
-149.2606517211
 20
68.3564963962
 11
-150.1606520549
 21
68.3564963962
  0
LINE
  8
Layer0$C$L0
 62
     3
 10
-150.1606520549
 20
73.7356372389
 11
-150.1606520549
 21
68.3564963962
  0
LINE
  8
Layer0$C$L0
 62
     3
 10
-149.2606517211
 20
73.7356372389
 11
-150.1606520549
 21
73.7356372389
  0
LINE
  8
Layer0$C$L0
 62
     3
 10
-148.1606517271
 20
74.2362482685
 11
-146.2606516951
 21
74.2362482685
  0
LINE
  8
Layer0$C$L0
 62
     3
 10
-148.1606517271
 20
74.0889698478
 11
-148.1606517271
 21
74.2362482685
  0
LINE
  8
Layer0$C$L0
 62
     3
 10
-148.1606517271
 20
74.0889698478
 11
-146.2606516951
 21
74.0889698478
  0
LINE
  8
Layer0$C$L0
 62
     3
 10
-148.1606517271
 20
73.7783868077
 11
-146.2606516951
 21
73.7783868077
  0
LINE
  8
Layer0$C$L0
 62
     3
 10
-148.1606517271
 20
73.3465874779
 11
-148.1606517271
 21
73.7783868077
  0
LINE
  8
Layer0$C$L0
 62
     3
 10
-148.1606517271
 20
73.3465874779
 11
-146.2606516951
 21
73.3465874779
  0
LINE
  8
Layer0$C$L0
 62
     3
 10
-148.1606517271
 20
72.7465875658
 11
-146.2606516951
 21
72.7465875658
  0
LINE
  8
Layer0$C$L0
 62
     3
 10
-148.1606517271
 20
72.0596933949
 11
-148.1606517271
 21
72.7465875658
  0
LINE
  8
Layer0$C$L0
 62
     3
 10
-148.1606517271
 20
72.0596933949
 11
-146.2606516951
 21
72.0596933949
  0
LINE
  8
Layer0$C$L0
 62
     3
 10
-148.1606517271
 20
71.2111653971
 11
-146.2606516951
 21
71.2111653971
  0
LINE
  8
Layer0$C$L0
 62
     3
 10
-148.1606517271
 20
70.3159879173
 11
-148.1606517271
 21
71.2111653971
  0
LINE
  8
Layer0$C$L0
 62
     3
 10
-148.1606517271
 20
70.3159879173
 11
-146.2606516951
 21
70.3159879173
  0
LINE
  8
Layer0$C$L0
 62
     3
 10
-148.1606517271
 20
69.2767571869
 11
-146.2606516951
 21
69.2767571869
  0
LINE
  8
Layer0$C$L0
 62
     3
 10
-148.1606517271
 20
68.2343008208
 11
-148.1606517271
 21
69.2767571869
  0
LINE
  8
Layer0$C$L0
 62
     3
 10
-148.1606517271
 20
68.2343008208
 11
-146.2606516951
 21
68.2343008208
  0
LINE
  8
Layer0$C$L0
 62
     3
 10
-148.1606517271
 20
67.0751898994
 11
-146.2606516951
 21
67.0751898994
  0
LINE
  8
Layer0$C$L0
 62
     3
 10
-148.1606517271
 20
65.9564963986
 11
-148.1606517271
 21
67.0751898994
  0
LINE
  8
Layer0$C$L0
 62
     3
 10
-148.1606517271
 20
65.9564963986
 11
-146.2606516951
 21
65.9564963986
  0
LINE
  8
Layer0$C$L0
 62
     3
 10
-148.1606517271
 20
64.7564963416
 11
-146.2606516951
 21
64.7564963416
  0
LINE
  8
Layer0$C$L0
 62
     3
 10
-148.1606517271
 20
63.6378028409
 11
-148.1606517271
 21
64.7564963416
  0
LINE
  8
Layer0$C$L0
 62
     3
 10
-148.1606517271
 20
63.6378028409
 11
-146.2606516951
 21
63.6378028409
  0
LINE
  8
Layer0$C$L0
 62
     3
 10
-148.1606517271
 20
62.4786919194
 11
-146.2606516951
 21
62.4786919194
  0
LINE
  8
Layer0$C$L0
 62
     3
 10
-148.1606517271
 20
61.4362355533
 11
-148.1606517271
 21
62.4786919194
  0
LINE
  8
Layer0$C$L0
 62
     3
 10
-148.1606517271
 20
61.4362355533
 11
-146.2606516951
 21
61.4362355533
  0
LINE
  8
Layer0$C$L0
 62
     3
 10
-148.1606517271
 20
60.3970048229
 11
-146.2606516951
 21
60.3970048229
  0
LINE
  8
Layer0$C$L0
 62
     3
 10
-148.1606517271
 20
59.5018273431
 11
-148.1606517271
 21
60.3970048229
  0
LINE
  8
Layer0$C$L0
 62
     3
 10
-148.1606517271
 20
59.5018273431
 11
-146.2606516951
 21
59.5018273431
  0
LINE
  8
Layer0$C$L0
 62
     3
 10
-148.1606517271
 20
58.6532993454
 11
-146.2606516951
 21
58.6532993454
  0
LINE
  8
Layer0$C$L0
 62
     3
 10
-148.1606517271
 20
57.9664051744
 11
-148.1606517271
 21
58.6532993454
  0
LINE
  8
Layer0$C$L0
 62
     3
 10
-148.1606517271
 20
57.9664051744
 11
-146.2606516951
 21
57.9664051744
  0
LINE
  8
Layer0$C$L0
 62
     3
 10
-148.1606517271
 20
57.3664052623
 11
-146.2606516951
 21
57.3664052623
  0
LINE
  8
Layer0$C$L0
 62
     3
 10
-148.1606517271
 20
56.9346059325
 11
-148.1606517271
 21
57.3664052623
  0
LINE
  8
Layer0$C$L0
 62
     3
 10
-148.1606517271
 20
56.9346059325
 11
-146.2606516951
 21
56.9346059325
  0
LINE
  8
Layer0$C$L0
 62
     3
 10
-148.1606517271
 20
56.6240228924
 11
-146.2606516951
 21
56.6240228924
  0
LINE
  8
Layer0$C$L0
 62
     3
 10
-148.1606517271
 20
56.4767444718
 11
-148.1606517271
 21
56.6240228924
  0
LINE
  8
Layer0$C$L0
 62
     3
 10
-148.1606517271
 20
56.4767444718
 11
-146.2606516951
 21
56.4767444718
  0
LINE
  8
Layer0$C$L0
 62
     3
 10
-149.2606517211
 20
73.7356372389
 11
-149.2606517211
 21
74.2564961526
  0
LINE
  8
Layer0$C$L0
 62
     3
 10
-149.2606517211
 20
62.3564963440
 11
-149.2606517211
 21
68.3564963962
  0
LINE
  8
Layer0$C$L0
 62
     3
 10
-149.2606517211
 20
56.4564965877
 11
-149.2606517211
 21
56.9773555013
  0
LINE
  8
Layer0$C$L0
 62
     3
 10
-148.1606517271
 20
63.6896874036
 11
-146.2606516951
 21
63.6896874036
  0
LINE
  8
Layer0$C$L0
 62
     3
 10
-148.1606517271
 20
67.0233053367
 11
-146.2606516951
 21
67.0233053367
  0
LINE
  8
Layer0$C$L0
 62
     3
 10
-148.1606517271
 20
61.5364686797
 11
-146.2606516951
 21
61.5364686797
  0
LINE
  8
Layer0$C$L0
 62
     3
 10
-148.1606517271
 20
69.1765240605
 11
-146.2606516951
 21
69.1765240605
  0
LINE
  8
Layer0$C$L0
 62
     3
 10
-148.1606517271
 20
59.6435788299
 11
-146.2606516951
 21
59.6435788299
  0
LINE
  8
Layer0$C$L0
 62
     3
 10
-148.1606517271
 20
71.0694139103
 11
-146.2606516951
 21
71.0694139103
  0
LINE
  8
Layer0$C$L0
 62
     3
 10
-148.1606517271
 20
58.1400144125
 11
-146.2606516951
 21
58.1400144125
  0
LINE
  8
Layer0$C$L0
 62
     3
 10
-148.1606517271
 20
72.5729783277
 11
-146.2606516951
 21
72.5729783277
  0
LINE
  8
Layer0$C$L0
 62
     3
 10
-148.1606517271
 20
57.1282418656
 11
-146.2606516951
 21
57.1282418656
  0
LINE
  8
Layer0$C$L0
 62
     3
 10
-148.1606517271
 20
73.5847508746
 11
-146.2606516951
 21
73.5847508746
  0
INSERT
  8
Layer8$C$L8
 62
     5
 66
     1
  2
Cadra_attr_1
 10
0.000000
 20
0.000000
  0
ATTRIB
  8
Layer8$C$L8
 62
     5
 10
-46.747117
 20
18.500000
 40
0.156000
  1
  
  2
20
 70
    11
  0
SEQEND
  8
Layer8$C$L8
 62
     5
  0
ENDSEC
  0
EOF
