  0
SECTION
  2
HEADER
  9
$ACADVER
  1
AC1004
  9
$ANGBASE
 50
0.0000000000
  9
$ANGDIR
 70
     0
  9
$ATTDIA
 70
     0
  9
$ATTMODE
 70
     1
  9
$ATTREQ
 70
     1
  9
$AUNITS
 70
     0
  9
$AUPREC
 70
     0
  9
$AXISMODE
 70
     0
  9
$AXISUNIT
 10
0.0000000000
 20
0.0000000000
  9
$BLIPMODE
 70
     1
  9
$CECOLOR
 62
   256
  9
$CELTYPE
  6
BYLAYER
  9
$CHAMFERA
 40
0.0000000000
  9
$CHAMFERB
 40
0.0000000000
  9
$CLAYER
  8
0
  9
$COORDS
 70
     0
  9
$DIMALT
 70
     0
  9
$DIMALTD
 70
     2
  9
$DIMALTF
 40
25.4000000000
  9
$DIMAPOST
  1

  9
$DIMASO
 70
     1
  9
$DIMASZ
 40
1.9727878460
  9
$DIMBLK
  1

  9
$DIMBLK1
  1

  9
$DIMBLK2
  1

  9
$DIMCEN
 40
9.0000000000E-02
  9
$DIMDLE
 40
0.0000000000
  9
$DIMDLI
 40
0.3800000000
  9
$DIMEXE
 40
3.8099999428
  9
$DIMEXO
 40
2.5399999619
  9
$DIMLFAC
 40
1.0000000000
  9
$DIMLIM
 70
     0
  9
$DIMPOST
  1

  9
$DIMRND
 40
0.0000000000
  9
$DIMSCALE
 40
1.0000000000
  9
$DIMSE1
 70
     0
  9
$DIMSE2
 70
     0
  9
$DIMSHO
 70
     0
  9
$DIMTAD
 70
     0
  9
$DIMTIH
 70
     0
  9
$DIMTM
 40
0.0000000000
  9
$DIMTOH
 70
     1
  9
$DIMTOL
 70
     0
  9
$DIMTP
 40
0.0000000000
  9
$DIMTSZ
 40
0.0000000000
  9
$DIMTXT
 40
2.9999940395
  9
$DIMZIN
 70
     0
  9
$DRAGMODE
 70
     1
  9
$ELEVATION
 40
0.0000000000
  9
$EXTMAX
 10
3.1750000000
 20
161.2761352539
 30
0.0000000000
  9
$EXTMIN
 10
-181.0715301514
 20
-3.1750000000
 30
0.0000000000
  9
$FASTZOOM
 70
     1
  9
$FILLETRAD
 40
6.2500000000E-02
  9
$FILLMODE
 70
     1
  9
$GRIDMODE
 70
     0
  9
$GRIDUNIT
 10
0.0000000000
 20
0.0000000000
  9
$INSBASE
 10
0.0000000000
 20
0.0000000000
 30
0.0000000000
  9
$LIMCHECK
 70
     0
  9
$LIMMAX
 10
3.1750000000
 20
161.2761352539
  9
$LIMMIN
 10
-181.0715301514
 20
-3.1750000000
  9
$LTSCALE
 40
1.0000000000
  9
$LUNITS
 70
     2
  9
$LUPREC
 70
     3
  9
$MEASUREMENT
 70
     0
  9
$MENU
  1
ACAD
  9
$MIRRTEXT
 70
     0
  9
$ORTHOMODE
 70
     0
  9
$OSMODE
 70
     0
  9
$PDMODE
 70
     0
  9
$PDSIZE
 40
0.0000000000
  9
$PLINEWID
 40
0.0000000000
  9
$PROXYGRAPHICS
 70
     0
  9
$QTEXTMODE
 70
     0
  9
$REGENMODE
 70
     1
  9
$SKETCHINC
 40
0.1000000000
  9
$SKPOLY
 70
     0
  9
$SNAPANG
 50
0.0000000000
  9
$SNAPBASE
 10
0.0000000000
 20
0.0000000000
  9
$SNAPISOPAIR
 70
     0
  9
$SNAPMODE
 70
     0
  9
$SNAPSTYLE
 70
     0
  9
$SNAPUNIT
 10
1.0000000000
 20
1.0000000000
  9
$SPLFRAME
 70
     0
  9
$SPLINESEGS
 70
     8
  9
$TDCREATE
 40
2455897.4815393566
  9
$TDINDWG
 40
0.0000000000
  9
$TDUPDATE
 40
2455897.4815393566
  9
$TDUSRTIMER
 40
0.0000000000
  9
$TEXTSIZE
 40
2.9999940395
  9
$TEXTSTYLE
  7
STANDARD
  9
$THICKNESS
 40
0.0000000000
  9
$TRACEWID
 40
5.0000000000E-02
  9
$USERI1
 70
     0
  9
$USERI2
 70
     0
  9
$USERI3
 70
     0
  9
$USERI4
 70
     0
  9
$USERI5
 70
     0
  9
$USERR1
 40
0.0000000000
  9
$USERR2
 40
0.0000000000
  9
$USERR3
 40
0.0000000000
  9
$USERR4
 40
0.0000000000
  9
$USERR5
 40
0.0000000000
  9
$USRTIMER
 70
     1
  9
$VIEWCTR
 10
-88.9482650757
 20
79.0505676270
  9
$VIEWDIR
 10
0.0000000000
 20
0.0000000000
 30
1.0000000000
  9
$VIEWSIZE
 40
164.4511352539
  0
ENDSEC
  0
SECTION
  2
TABLES
  0
TABLE
  2
LTYPE
 70
     2
  0
LTYPE
  2
SOLID
  3
Solid
 70
    64
 72
    65
 73
     0
 40
0.0000000000
  0
LTYPE
  2
CENTER
  3
Center
 70
    64
 72
    65
 73
     4
 40
9.1000000238
 49
6.5000000000
 49
-0.8000000119
 49
1.0000000000
 49
-0.8000000119
  0
ENDTAB
  0
TABLE
  2
LAYER
 70
     6
  0
LAYER
  2
Layer0$C$L0
 70
     0
  6
SOLID
 62
     3
  0
LAYER
  2
Layer1$C$L1
 70
     0
  6
SOLID
 62
     3
  0
LAYER
  2
Layer4$C$L4
 70
     0
  6
SOLID
 62
     3
  0
LAYER
  2
Layer6$C$L6
 70
     0
  6
SOLID
 62
    31
  0
LAYER
  2
Layer7$C$L7
 70
     0
  6
SOLID
 62
     3
  0
LAYER
  2
Layer8$C$L8
 70
     0
  6
SOLID
 62
     7
  0
ENDTAB
  0
TABLE
  2
STYLE
 70
     1
  0
STYLE
  2
STANDARD
  3
txt
  4

 40
0.0000000000
 41
1.0000000000
 42
4.7999906540
 50
0.0000000000
 70
     0
 71
     0
  0
ENDTAB
  0
ENDSEC
  0
SECTION
  2
BLOCKS
  0
BLOCK
  8
Layer8$C$L8
  2
Cadra_attr_0
 70
     2
 10
0.0000000000
 20
0.0000000000
  0
TEXT
  8
Layer8$C$L8
 10
-65.8981481472
 20
25.7682661127
 40
4.1671714783
  1
LB#K-##T##*
 41
0.7799056453
 72
     5
 11
-33.3981425374
 21
25.7682661127
  0
ATTDEF
  8
Layer8$C$L8
 10
-49.648146
 20
27.851852
 40
0.156000
  1
ìL>ÄK
  3

  2
10
 70
    11
  0
ENDBLK
  8
Layer8$C$L8
  0
BLOCK
  8
Layer8$C$L8
  2
Cadra_attr_1
 70
     2
 10
0.000000
 20
0.000000
  0
TEXT
  8
Layer8$C$L8
 62
     5
 10
-66.0872999535
 20
16.0000000000
 40
5.0000000000
  1
MA4-H01867B
 41
0.8525090542
 72
     5
 11
-23.4618472432
 21
16.0000000000
  0
ATTDEF
  8
Layer8$C$L8
 62
     5
 10
-44.774575
 20
18.500000
 40
0.156000
  1
  
  3

  2
20
 70
    11
  0
ENDBLK
  8
Layer8$C$L8
  0
ENDSEC
  0
SECTION
  2
ENTITIES
  0
TEXT
  8
Layer8$C$L8
 62
     3
 10
-34.4440510803
 20
56.3011366423
 40
2.9999941014
  1
(LB3K)
 41
0.9158989896
 72
     5
 11
-20.7055932486
 21
56.3011366423
  0
TEXT
  8
Layer8$C$L8
 62
     3
 10
-34.4440510803
 20
93.3011366423
 40
2.9999941014
  1
(LB2K)
 41
0.9158989896
 72
     5
 11
-20.7055932486
 21
93.3011366423
  0
TEXT
  8
Layer8$C$L8
 62
     3
 10
-34.4440510803
 20
130.3011366423
 40
2.9999941014
  1
(LB1K)
 41
0.9158989896
 72
     5
 11
-20.7055932486
 21
130.3011366423
  0
INSERT
  8
Layer8$C$L8
 66
     1
  2
Cadra_attr_0
 10
0.000000
 20
0.000000
  0
ATTRIB
  8
Layer8$C$L8
 10
-49.648146
 20
27.851852
 40
0.156000
  1
ìL>ÄK
  2
10
 70
    11
  0
SEQEND
  8
Layer8$C$L8
  0
INSERT
  8
Layer8$C$L8
 62
     5
 66
     1
  2
Cadra_attr_1
 10
0.000000
 20
0.000000
  0
ATTRIB
  8
Layer8$C$L8
 62
     5
 10
-44.774575
 20
18.500000
 40
0.156000
  1
  
  2
20
 70
    11
  0
SEQEND
  8
Layer8$C$L8
 62
     5
  0
LINE
  8
Layer0$C$L0
 62
     3
 10
-158.7465252650
 20
70.5011340539
 11
-159.2465252650
 21
70.5011340539
  0
ARC
  8
Layer0$C$L0
 62
     3
 10
-149.3010939134
 20
69.1011340539
 40
9.5480978952
 50
171.5902402866
 51
188.4097597134
  0
LINE
  8
Layer0$C$L0
 62
     3
 10
-158.7465252650
 20
67.7011340539
 11
-159.2465252650
 21
67.7011340539
  0
ARC
  8
Layer0$C$L0
 62
     3
 10
-168.6919566165
 20
69.1011340539
 40
9.5480978952
 50
351.5902402866
 51
368.4097597134
  0
LINE
  8
Layer0$C$L0
 62
     3
 10
-159.2465252650
 20
67.7011340539
 11
-159.2465252650
 21
70.5011340539
  0
LINE
  8
Layer0$C$L0
 62
     3
 10
-158.7465252650
 20
70.5011340539
 11
-158.7465252650
 21
67.7011340539
  0
ARC
  8
Layer0$C$L0
 62
     3
 10
-179.4919566165
 20
69.1011340539
 40
9.5480978952
 50
351.5902402866
 51
368.4097597134
  0
LINE
  8
Layer0$C$L0
 62
     3
 10
-169.5465252650
 20
70.5011340539
 11
-170.0465252650
 21
70.5011340539
  0
ARC
  8
Layer0$C$L0
 62
     3
 10
-160.1010939134
 20
69.1011340539
 40
9.5480978952
 50
171.5902402866
 51
188.4097597134
  0
LINE
  8
Layer0$C$L0
 62
     3
 10
-169.5465252650
 20
67.7011340539
 11
-170.0465252650
 21
67.7011340539
  0
LINE
  8
Layer0$C$L0
 62
     3
 10
-170.0465252650
 20
70.5011340539
 11
-170.0465252650
 21
67.7011340539
  0
LINE
  8
Layer0$C$L0
 62
     3
 10
-169.5465252650
 20
70.5011340539
 11
-169.5465252650
 21
67.7011340539
  0
LINE
  8
Layer0$C$L0
 62
     3
 10
-158.7465252650
 20
82.5011340539
 11
-159.2465252650
 21
82.5011340539
  0
ARC
  8
Layer0$C$L0
 62
     3
 10
-149.3010939134
 20
81.1011340539
 40
9.5480978952
 50
171.5902402866
 51
188.4097597134
  0
LINE
  8
Layer0$C$L0
 62
     3
 10
-158.7465252650
 20
79.7011340539
 11
-159.2465252650
 21
79.7011340539
  0
ARC
  8
Layer0$C$L0
 62
     3
 10
-168.6919566165
 20
81.1011340539
 40
9.5480978952
 50
351.5902402866
 51
368.4097597134
  0
LINE
  8
Layer0$C$L0
 62
     3
 10
-159.2465252650
 20
79.7011340539
 11
-159.2465252650
 21
82.5011340539
  0
LINE
  8
Layer0$C$L0
 62
     3
 10
-158.7465252650
 20
82.5011340539
 11
-158.7465252650
 21
79.7011340539
  0
ARC
  8
Layer0$C$L0
 62
     3
 10
-179.4919566165
 20
81.1011340539
 40
9.5480978952
 50
351.5902402866
 51
368.4097597134
  0
LINE
  8
Layer0$C$L0
 62
     3
 10
-169.5465252650
 20
82.5011340539
 11
-170.0465252650
 21
82.5011340539
  0
ARC
  8
Layer0$C$L0
 62
     3
 10
-160.1010939134
 20
81.1011340539
 40
9.5480978952
 50
171.5902402866
 51
188.4097597134
  0
LINE
  8
Layer0$C$L0
 62
     3
 10
-169.5465252650
 20
79.7011340539
 11
-170.0465252650
 21
79.7011340539
  0
LINE
  8
Layer0$C$L0
 62
     3
 10
-170.0465252650
 20
82.5011340539
 11
-170.0465252650
 21
79.7011340539
  0
LINE
  8
Layer0$C$L0
 62
     3
 10
-169.5465252650
 20
82.5011340539
 11
-169.5465252650
 21
79.7011340539
  0
ARC
  8
Layer0$C$L0
 62
     3
 10
-168.6919566165
 20
75.1011340539
 40
9.5480978952
 50
351.5902402866
 51
368.4097597134
  0
LINE
  8
Layer0$C$L0
 62
     3
 10
-158.7465252650
 20
76.5011340539
 11
-159.2465252650
 21
76.5011340539
  0
ARC
  8
Layer0$C$L0
 62
     3
 10
-149.3010939134
 20
75.1011340539
 40
9.5480978952
 50
171.5902402866
 51
188.4097597134
  0
LINE
  8
Layer0$C$L0
 62
     3
 10
-158.7465252650
 20
73.7011340539
 11
-159.2465252650
 21
73.7011340539
  0
LINE
  8
Layer0$C$L0
 62
     3
 10
-159.2465252650
 20
76.5011340539
 11
-159.2465252650
 21
73.7011340539
  0
LINE
  8
Layer0$C$L0
 62
     3
 10
-158.7465252650
 20
76.5011340539
 11
-158.7465252650
 21
73.7011340539
  0
ARC
  8
Layer0$C$L0
 62
     3
 10
-179.4919566165
 20
75.1011340539
 40
9.5480978952
 50
351.5902402866
 51
368.4097597134
  0
LINE
  8
Layer0$C$L0
 62
     3
 10
-169.5465252650
 20
76.5011340539
 11
-170.0465252650
 21
76.5011340539
  0
ARC
  8
Layer0$C$L0
 62
     3
 10
-160.1010939134
 20
75.1011340539
 40
9.5480978952
 50
171.5902402866
 51
188.4097597134
  0
LINE
  8
Layer0$C$L0
 62
     3
 10
-169.5465252650
 20
73.7011340539
 11
-170.0465252650
 21
73.7011340539
  0
LINE
  8
Layer0$C$L0
 62
     3
 10
-170.0465252650
 20
76.5011340539
 11
-170.0465252650
 21
73.7011340539
  0
LINE
  8
Layer0$C$L0
 62
     3
 10
-169.5465252650
 20
76.5011340539
 11
-169.5465252650
 21
73.7011340539
  0
LINE
  8
Layer0$C$L0
 62
     3
 10
-173.8465252650
 20
82.0011340539
 11
-173.8465252650
 21
68.2011340539
  0
LINE
  8
Layer0$C$L0
 62
     3
 10
-170.0465252650
 20
82.0011340539
 11
-173.8465252650
 21
82.0011340539
  0
LINE
  8
Layer0$C$L0
 62
     3
 10
-168.6465252650
 20
68.2011340539
 11
-169.5465252650
 21
68.2011340539
  0
LINE
  8
Layer0$C$L0
 62
     3
 10
-170.0465252650
 20
68.2011340539
 11
-173.8465252650
 21
68.2011340539
  0
LINE
  8
Layer0$C$L0
 62
     3
 10
-157.8465252650
 20
82.0011340539
 11
-158.7465252650
 21
82.0011340539
  0
LINE
  8
Layer0$C$L0
 62
     3
 10
-157.8465252650
 20
82.0011340539
 11
-157.8465252650
 21
68.2011340539
  0
LINE
  8
Layer0$C$L0
 62
     3
 10
-157.8465252650
 20
68.2011340539
 11
-158.7465252650
 21
68.2011340539
  0
POLYLINE
  8
Layer0$C$L0
 62
     3
 66
     1
  0
VERTEX
  8
Layer0$C$L0
 62
     3
 10
-168.3445277762
 20
69.2329138736
  0
VERTEX
  8
Layer0$C$L0
 62
     3
 10
-168.3147259695
 20
69.4280851046
  0
VERTEX
  8
Layer0$C$L0
 62
     3
 10
-168.2333308650
 20
69.5595548002
  0
SEQEND
  8
Layer0$C$L0
 62
     3
  0
POLYLINE
  8
Layer0$C$L0
 62
     3
 66
     1
  0
VERTEX
  8
Layer0$C$L0
 62
     3
 10
-168.2333308650
 20
69.5595548002
  0
VERTEX
  8
Layer0$C$L0
 62
     3
 10
-168.1215144554
 20
69.6323304088
  0
VERTEX
  8
Layer0$C$L0
 62
     3
 10
-168.0178868495
 20
69.6499022906
  0
SEQEND
  8
Layer0$C$L0
 62
     3
  0
POLYLINE
  8
Layer0$C$L0
 62
     3
 66
     1
  0
VERTEX
  8
Layer0$C$L0
 62
     3
 10
-168.0178868495
 20
69.6499022906
  0
VERTEX
  8
Layer0$C$L0
 62
     3
 10
-167.8718361046
 20
69.6238338923
  0
VERTEX
  8
Layer0$C$L0
 62
     3
 10
-167.7746436063
 20
69.5595548002
  0
SEQEND
  8
Layer0$C$L0
 62
     3
  0
POLYLINE
  8
Layer0$C$L0
 62
     3
 66
     1
  0
VERTEX
  8
Layer0$C$L0
 62
     3
 10
-167.7746436063
 20
69.5595548002
  0
VERTEX
  8
Layer0$C$L0
 62
     3
 10
-167.7012391049
 20
69.4438867059
  0
VERTEX
  8
Layer0$C$L0
 62
     3
 10
-167.6842961159
 20
69.3371609778
  0
SEQEND
  8
Layer0$C$L0
 62
     3
  0
POLYLINE
  8
Layer0$C$L0
 62
     3
 66
     1
  0
VERTEX
  8
Layer0$C$L0
 62
     3
 10
-167.6842961159
 20
69.3371609778
  0
VERTEX
  8
Layer0$C$L0
 62
     3
 10
-167.7166970023
 20
69.1639703077
  0
VERTEX
  8
Layer0$C$L0
 62
     3
 10
-167.7885432202
 20
69.0452690860
  0
SEQEND
  8
Layer0$C$L0
 62
     3
  0
POLYLINE
  8
Layer0$C$L0
 62
     3
 66
     1
  0
VERTEX
  8
Layer0$C$L0
 62
     3
 10
-167.7885432202
 20
69.0452690860
  0
VERTEX
  8
Layer0$C$L0
 62
     3
 10
-167.8996710493
 20
68.9153101201
  0
VERTEX
  8
Layer0$C$L0
 62
     3
 10
-167.9900876217
 20
68.8159254566
  0
SEQEND
  8
Layer0$C$L0
 62
     3
  0
LINE
  8
Layer0$C$L0
 62
     3
 10
-167.9900876217
 20
68.8159254566
 11
-168.1012845329
 21
68.6908289315
  0
POLYLINE
  8
Layer0$C$L0
 62
     3
 66
     1
  0
VERTEX
  8
Layer0$C$L0
 62
     3
 10
-168.1012845329
 20
68.6908289315
  0
VERTEX
  8
Layer0$C$L0
 62
     3
 10
-168.1500934113
 20
68.6301346364
  0
VERTEX
  8
Layer0$C$L0
 62
     3
 10
-168.1846822163
 20
68.5796320203
  0
SEQEND
  8
Layer0$C$L0
 62
     3
  0
LINE
  8
Layer0$C$L0
 62
     3
 10
-168.1846822163
 20
68.5796320203
 11
-167.6634466951
 21
68.5796320203
  0
LINE
  8
Layer0$C$L0
 62
     3
 10
-167.6634466951
 20
68.5796320203
 11
-167.6634466951
 21
68.4481004888
  0
LINE
  8
Layer0$C$L0
 62
     3
 10
-167.6634466951
 20
68.4481004888
 11
-168.3723270040
 21
68.4481004888
  0
POLYLINE
  8
Layer0$C$L0
 62
     3
 66
     1
  0
VERTEX
  8
Layer0$C$L0
 62
     3
 10
-168.3723270040
 20
68.5657324064
  0
VERTEX
  8
Layer0$C$L0
 62
     3
 10
-168.3156087559
 20
68.6802226116
  0
VERTEX
  8
Layer0$C$L0
 62
     3
 10
-168.2541802858
 20
68.7603270010
  0
SEQEND
  8
Layer0$C$L0
 62
     3
  0
POLYLINE
  8
Layer0$C$L0
 62
     3
 66
     1
  0
VERTEX
  8
Layer0$C$L0
 62
     3
 10
-168.2541802858
 20
68.7603270010
  0
VERTEX
  8
Layer0$C$L0
 62
     3
 10
-168.0938495605
 20
68.9347681545
  0
VERTEX
  8
Layer0$C$L0
 62
     3
 10
-167.9692382009
 20
69.0730683138
  0
SEQEND
  8
Layer0$C$L0
 62
     3
  0
POLYLINE
  8
Layer0$C$L0
 62
     3
 66
     1
  0
VERTEX
  8
Layer0$C$L0
 62
     3
 10
-167.9692382009
 20
69.0730683138
  0
VERTEX
  8
Layer0$C$L0
 62
     3
 10
-167.8771047608
 20
69.2101374513
  0
VERTEX
  8
Layer0$C$L0
 62
     3
 10
-167.8510914827
 20
69.3371609778
  0
SEQEND
  8
Layer0$C$L0
 62
     3
  0
POLYLINE
  8
Layer0$C$L0
 62
     3
 66
     1
  0
VERTEX
  8
Layer0$C$L0
 62
     3
 10
-167.8510914827
 20
69.3371609778
  0
VERTEX
  8
Layer0$C$L0
 62
     3
 10
-167.8680889087
 20
69.4209762676
  0
VERTEX
  8
Layer0$C$L0
 62
     3
 10
-167.9066899383
 20
69.4761571168
  0
SEQEND
  8
Layer0$C$L0
 62
     3
  0
POLYLINE
  8
Layer0$C$L0
 62
     3
 66
     1
  0
VERTEX
  8
Layer0$C$L0
 62
     3
 10
-167.9066899383
 20
69.4761571168
  0
VERTEX
  8
Layer0$C$L0
 62
     3
 10
-167.9609424226
 20
69.5102702723
  0
VERTEX
  8
Layer0$C$L0
 62
     3
 10
-168.0109370426
 20
69.5178559585
  0
SEQEND
  8
Layer0$C$L0
 62
     3
  0
POLYLINE
  8
Layer0$C$L0
 62
     3
 66
     1
  0
VERTEX
  8
Layer0$C$L0
 62
     3
 10
-168.0109370426
 20
69.5178559585
  0
VERTEX
  8
Layer0$C$L0
 62
     3
 10
-168.0698406008
 20
69.5043876892
  0
VERTEX
  8
Layer0$C$L0
 62
     3
 10
-168.1082343399
 20
69.4761571168
  0
SEQEND
  8
Layer0$C$L0
 62
     3
  0
ARC
  8
Layer0$C$L0
 62
     3
 10
-167.8558070358
 20
69.2631879619
 40
0.3302656579
 50
139.8461726224
 51
185.2594505311
  0
LINE
  8
Layer0$C$L0
 62
     3
 10
-168.1846822163
 20
69.2329138736
 11
-168.3445277762
 21
69.2329138736
  0
LINE
  8
Layer0$C$L0
 62
     3
 10
-168.3723270040
 20
68.4481004888
 11
-168.3723270040
 21
68.5657324064
  0
POLYLINE
  8
Layer0$C$L0
 62
     3
 66
     1
  0
VERTEX
  8
Layer0$C$L0
 62
     3
 10
-168.1618714226
 20
70.3725722111
  0
VERTEX
  8
Layer0$C$L0
 62
     3
 10
-168.1128368215
 20
70.6601250666
  0
VERTEX
  8
Layer0$C$L0
 62
     3
 10
-167.9881262488
 20
70.8521088907
  0
SEQEND
  8
Layer0$C$L0
 62
     3
  0
POLYLINE
  8
Layer0$C$L0
 62
     3
 66
     1
  0
VERTEX
  8
Layer0$C$L0
 62
     3
 10
-167.9881262488
 20
70.8521088907
  0
VERTEX
  8
Layer0$C$L0
 62
     3
 10
-167.8104019711
 20
70.9605711780
  0
VERTEX
  8
Layer0$C$L0
 62
     3
 10
-167.6475857083
 20
70.9841552227
  0
SEQEND
  8
Layer0$C$L0
 62
     3
  0
POLYLINE
  8
Layer0$C$L0
 62
     3
 66
     1
  0
VERTEX
  8
Layer0$C$L0
 62
     3
 10
-167.6475857083
 20
70.9841552227
  0
VERTEX
  8
Layer0$C$L0
 62
     3
 10
-167.4517200267
 20
70.9508122729
  0
VERTEX
  8
Layer0$C$L0
 62
     3
 10
-167.3209447816
 20
70.8660085046
  0
SEQEND
  8
Layer0$C$L0
 62
     3
  0
POLYLINE
  8
Layer0$C$L0
 62
     3
 66
     1
  0
VERTEX
  8
Layer0$C$L0
 62
     3
 10
-167.3209447816
 20
70.8660085046
  0
VERTEX
  8
Layer0$C$L0
 62
     3
 10
-167.2162522535
 20
70.6993068991
  0
VERTEX
  8
Layer0$C$L0
 62
     3
 10
-167.1888984496
 20
70.5463173849
  0
SEQEND
  8
Layer0$C$L0
 62
     3
  0
LINE
  8
Layer0$C$L0
 62
     3
 10
-167.1888984496
 20
70.5463173849
 11
-167.3556938164
 21
70.5463173849
  0
POLYLINE
  8
Layer0$C$L0
 62
     3
 66
     1
  0
VERTEX
  8
Layer0$C$L0
 62
     3
 10
-167.3556938164
 20
70.5463173849
  0
VERTEX
  8
Layer0$C$L0
 62
     3
 10
-167.3870488315
 20
70.6793036770
  0
VERTEX
  8
Layer0$C$L0
 62
     3
 10
-167.4460413067
 20
70.7687112073
  0
SEQEND
  8
Layer0$C$L0
 62
     3
  0
POLYLINE
  8
Layer0$C$L0
 62
     3
 66
     1
  0
VERTEX
  8
Layer0$C$L0
 62
     3
 10
-167.4460413067
 20
70.7687112073
  0
VERTEX
  8
Layer0$C$L0
 62
     3
 10
-167.5507531431
 20
70.8360247000
  0
VERTEX
  8
Layer0$C$L0
 62
     3
 10
-167.6475857083
 20
70.8521088907
  0
SEQEND
  8
Layer0$C$L0
 62
     3
  0
POLYLINE
  8
Layer0$C$L0
 62
     3
 66
     1
  0
VERTEX
  8
Layer0$C$L0
 62
     3
 10
-167.6475857083
 20
70.8521088907
  0
VERTEX
  8
Layer0$C$L0
 62
     3
 10
-167.7821838878
 20
70.8199629483
  0
VERTEX
  8
Layer0$C$L0
 62
     3
 10
-167.8699795307
 20
70.7548115934
  0
SEQEND
  8
Layer0$C$L0
 62
     3
  0
ARC
  8
Layer0$C$L0
 62
     3
 10
-167.4820154882
 20
70.4162515115
 40
0.5149165245
 50
138.8901495343
 51
184.8661299699
  0
POLYLINE
  8
Layer0$C$L0
 62
     3
 66
     1
  0
VERTEX
  8
Layer0$C$L0
 62
     3
 10
-167.9950760558
 20
70.3725722111
  0
VERTEX
  8
Layer0$C$L0
 62
     3
 10
-167.9624700739
 20
70.1447740566
  0
VERTEX
  8
Layer0$C$L0
 62
     3
 10
-167.8699795307
 20
69.9903328289
  0
SEQEND
  8
Layer0$C$L0
 62
     3
  0
POLYLINE
  8
Layer0$C$L0
 62
     3
 66
     1
  0
VERTEX
  8
Layer0$C$L0
 62
     3
 10
-167.8699795307
 20
69.9903328289
  0
VERTEX
  8
Layer0$C$L0
 62
     3
 10
-167.7542882379
 20
69.9169789710
  0
VERTEX
  8
Layer0$C$L0
 62
     3
 10
-167.6475857083
 20
69.8999853385
  0
SEQEND
  8
Layer0$C$L0
 62
     3
  0
POLYLINE
  8
Layer0$C$L0
 62
     3
 66
     1
  0
VERTEX
  8
Layer0$C$L0
 62
     3
 10
-167.6475857083
 20
69.8999853385
  0
VERTEX
  8
Layer0$C$L0
 62
     3
 10
-167.5185164656
 20
69.9211501733
  0
VERTEX
  8
Layer0$C$L0
 62
     3
 10
-167.4321416928
 20
69.9764332150
  0
SEQEND
  8
Layer0$C$L0
 62
     3
  0
POLYLINE
  8
Layer0$C$L0
 62
     3
 66
     1
  0
VERTEX
  8
Layer0$C$L0
 62
     3
 10
-167.4321416928
 20
69.9764332150
  0
VERTEX
  8
Layer0$C$L0
 62
     3
 10
-167.3504860508
 20
70.1226199312
  0
VERTEX
  8
Layer0$C$L0
 62
     3
 10
-167.3348443955
 20
70.2544254930
  0
SEQEND
  8
Layer0$C$L0
 62
     3
  0
LINE
  8
Layer0$C$L0
 62
     3
 10
-167.3348443955
 20
70.2544254930
 11
-167.1680490287
 21
70.2544254930
  0
POLYLINE
  8
Layer0$C$L0
 62
     3
 66
     1
  0
VERTEX
  8
Layer0$C$L0
 62
     3
 10
-167.1680490287
 20
70.2544254930
  0
VERTEX
  8
Layer0$C$L0
 62
     3
 10
-167.2102904680
 20
70.0336090691
  0
VERTEX
  8
Layer0$C$L0
 62
     3
 10
-167.3070451677
 20
69.8860857246
  0
SEQEND
  8
Layer0$C$L0
 62
     3
  0
POLYLINE
  8
Layer0$C$L0
 62
     3
 66
     1
  0
VERTEX
  8
Layer0$C$L0
 62
     3
 10
-167.3070451677
 20
69.8860857246
  0
VERTEX
  8
Layer0$C$L0
 62
     3
 10
-167.4862891722
 20
69.7869725642
  0
VERTEX
  8
Layer0$C$L0
 62
     3
 10
-167.6475857083
 20
69.7679390065
  0
SEQEND
  8
Layer0$C$L0
 62
     3
  0
POLYLINE
  8
Layer0$C$L0
 62
     3
 66
     1
  0
VERTEX
  8
Layer0$C$L0
 62
     3
 10
-167.6475857083
 20
69.7679390065
  0
VERTEX
  8
Layer0$C$L0
 62
     3
 10
-167.8525915874
 20
69.8072711123
  0
VERTEX
  8
Layer0$C$L0
 62
     3
 10
-167.9881262488
 20
69.8999853385
  0
SEQEND
  8
Layer0$C$L0
 62
     3
  0
ARC
  8
Layer0$C$L0
 62
     3
 10
-167.5278359119
 20
70.3374416145
 40
0.6350080217
 50
176.8286021114
 51
223.5430039075
  0
POLYLINE
  8
Layer0$C$L0
 62
     3
 66
     1
  0
VERTEX
  8
Layer0$C$L0
 62
     3
 10
-167.1700104017
 20
69.5178559585
  0
VERTEX
  8
Layer0$C$L0
 62
     3
 10
-167.1185726815
 20
69.5897631814
  0
VERTEX
  8
Layer0$C$L0
 62
     3
 10
-167.1005123322
 20
69.6568520975
  0
SEQEND
  8
Layer0$C$L0
 62
     3
  0
LINE
  8
Layer0$C$L0
 62
     3
 10
-167.1005123322
 20
69.6568520975
 11
-167.0171146488
 21
69.6568520975
  0
LINE
  8
Layer0$C$L0
 62
     3
 10
-167.0171146488
 20
69.6568520975
 11
-167.0171146488
 21
68.4545354952
  0
LINE
  8
Layer0$C$L0
 62
     3
 10
-167.0171146488
 20
68.4545354952
 11
-167.1815934132
 21
68.4545354952
  0
LINE
  8
Layer0$C$L0
 62
     3
 10
-167.1815934132
 20
68.4545354952
 11
-167.1815934132
 21
69.3801468208
  0
LINE
  8
Layer0$C$L0
 62
     3
 10
-167.1815934132
 20
69.3801468208
 11
-167.3854544171
 21
69.3801468208
  0
LINE
  8
Layer0$C$L0
 62
     3
 10
-167.3854544171
 20
69.3801468208
 11
-167.3854544171
 21
69.4622575029
  0
LINE
  8
Layer0$C$L0
 62
     3
 10
-167.3854544171
 20
69.4622575029
 11
-167.3229061546
 21
69.4622575029
  0
POLYLINE
  8
Layer0$C$L0
 62
     3
 66
     1
  0
VERTEX
  8
Layer0$C$L0
 62
     3
 10
-167.3229061546
 20
69.4622575029
  0
VERTEX
  8
Layer0$C$L0
 62
     3
 10
-167.2311833209
 20
69.4779441723
  0
VERTEX
  8
Layer0$C$L0
 62
     3
 10
-167.1700104017
 20
69.5178559585
  0
SEQEND
  8
Layer0$C$L0
 62
     3
  0
POLYLINE
  8
Layer0$C$L0
 62
     3
 66
     1
  0
VERTEX
  8
Layer0$C$L0
 62
     3
 10
-164.4582401445
 20
69.5063448891
  0
VERTEX
  8
Layer0$C$L0
 62
     3
 10
-164.4068024243
 20
69.5782521119
  0
VERTEX
  8
Layer0$C$L0
 62
     3
 10
-164.3887420750
 20
69.6453410281
  0
SEQEND
  8
Layer0$C$L0
 62
     3
  0
LINE
  8
Layer0$C$L0
 62
     3
 10
-164.3887420750
 20
69.6453410281
 11
-164.3053443916
 21
69.6453410281
  0
LINE
  8
Layer0$C$L0
 62
     3
 10
-164.3053443916
 20
69.6453410281
 11
-164.3053443916
 21
68.4430244258
  0
LINE
  8
Layer0$C$L0
 62
     3
 10
-164.3053443916
 20
68.4430244258
 11
-164.4698231561
 21
68.4430244258
  0
LINE
  8
Layer0$C$L0
 62
     3
 10
-164.4698231561
 20
68.4430244258
 11
-164.4698231561
 21
69.3686357514
  0
LINE
  8
Layer0$C$L0
 62
     3
 10
-164.4698231561
 20
69.3686357514
 11
-164.6736841600
 21
69.3686357514
  0
LINE
  8
Layer0$C$L0
 62
     3
 10
-164.6736841600
 20
69.3686357514
 11
-164.6736841600
 21
69.4507464335
  0
LINE
  8
Layer0$C$L0
 62
     3
 10
-164.6736841600
 20
69.4507464335
 11
-164.6111358974
 21
69.4507464335
  0
POLYLINE
  8
Layer0$C$L0
 62
     3
 66
     1
  0
VERTEX
  8
Layer0$C$L0
 62
     3
 10
-164.6111358974
 20
69.4507464335
  0
VERTEX
  8
Layer0$C$L0
 62
     3
 10
-164.5194130638
 20
69.4664331029
  0
VERTEX
  8
Layer0$C$L0
 62
     3
 10
-164.4582401445
 20
69.5063448891
  0
SEQEND
  8
Layer0$C$L0
 62
     3
  0
POLYLINE
  8
Layer0$C$L0
 62
     3
 66
     1
  0
VERTEX
  8
Layer0$C$L0
 62
     3
 10
-164.5542709590
 20
70.3831818634
  0
VERTEX
  8
Layer0$C$L0
 62
     3
 10
-164.5052363579
 20
70.6707347189
  0
VERTEX
  8
Layer0$C$L0
 62
     3
 10
-164.3805257852
 20
70.8627185430
  0
SEQEND
  8
Layer0$C$L0
 62
     3
  0
POLYLINE
  8
Layer0$C$L0
 62
     3
 66
     1
  0
VERTEX
  8
Layer0$C$L0
 62
     3
 10
-164.3805257852
 20
70.8627185430
  0
VERTEX
  8
Layer0$C$L0
 62
     3
 10
-164.2028015075
 20
70.9711808303
  0
VERTEX
  8
Layer0$C$L0
 62
     3
 10
-164.0399852447
 20
70.9947648750
  0
SEQEND
  8
Layer0$C$L0
 62
     3
  0
POLYLINE
  8
Layer0$C$L0
 62
     3
 66
     1
  0
VERTEX
  8
Layer0$C$L0
 62
     3
 10
-164.0399852447
 20
70.9947648750
  0
VERTEX
  8
Layer0$C$L0
 62
     3
 10
-163.8441195631
 20
70.9614219252
  0
VERTEX
  8
Layer0$C$L0
 62
     3
 10
-163.7133443180
 20
70.8766181569
  0
SEQEND
  8
Layer0$C$L0
 62
     3
  0
POLYLINE
  8
Layer0$C$L0
 62
     3
 66
     1
  0
VERTEX
  8
Layer0$C$L0
 62
     3
 10
-163.7133443180
 20
70.8766181569
  0
VERTEX
  8
Layer0$C$L0
 62
     3
 10
-163.6086517900
 20
70.7099165514
  0
VERTEX
  8
Layer0$C$L0
 62
     3
 10
-163.5812979860
 20
70.5569270372
  0
SEQEND
  8
Layer0$C$L0
 62
     3
  0
LINE
  8
Layer0$C$L0
 62
     3
 10
-163.5812979860
 20
70.5569270372
 11
-163.7480933528
 21
70.5569270372
  0
POLYLINE
  8
Layer0$C$L0
 62
     3
 66
     1
  0
VERTEX
  8
Layer0$C$L0
 62
     3
 10
-163.7480933528
 20
70.5569270372
  0
VERTEX
  8
Layer0$C$L0
 62
     3
 10
-163.7794483679
 20
70.6899133293
  0
VERTEX
  8
Layer0$C$L0
 62
     3
 10
-163.8384408431
 20
70.7793208596
  0
SEQEND
  8
Layer0$C$L0
 62
     3
  0
POLYLINE
  8
Layer0$C$L0
 62
     3
 66
     1
  0
VERTEX
  8
Layer0$C$L0
 62
     3
 10
-163.8384408431
 20
70.7793208596
  0
VERTEX
  8
Layer0$C$L0
 62
     3
 10
-163.9431526795
 20
70.8466343523
  0
VERTEX
  8
Layer0$C$L0
 62
     3
 10
-164.0399852447
 20
70.8627185430
  0
SEQEND
  8
Layer0$C$L0
 62
     3
  0
POLYLINE
  8
Layer0$C$L0
 62
     3
 66
     1
  0
VERTEX
  8
Layer0$C$L0
 62
     3
 10
-164.0399852447
 20
70.8627185430
  0
VERTEX
  8
Layer0$C$L0
 62
     3
 10
-164.1745834242
 20
70.8305726006
  0
VERTEX
  8
Layer0$C$L0
 62
     3
 10
-164.2623790671
 20
70.7654212457
  0
SEQEND
  8
Layer0$C$L0
 62
     3
  0
ARC
  8
Layer0$C$L0
 62
     3
 10
-163.8744150247
 20
70.4268611638
 40
0.5149165245
 50
138.8901495343
 51
184.8661299699
  0
POLYLINE
  8
Layer0$C$L0
 62
     3
 66
     1
  0
VERTEX
  8
Layer0$C$L0
 62
     3
 10
-164.3874755922
 20
70.3831818634
  0
VERTEX
  8
Layer0$C$L0
 62
     3
 10
-164.3548696103
 20
70.1553837089
  0
VERTEX
  8
Layer0$C$L0
 62
     3
 10
-164.2623790671
 20
70.0009424812
  0
SEQEND
  8
Layer0$C$L0
 62
     3
  0
POLYLINE
  8
Layer0$C$L0
 62
     3
 66
     1
  0
VERTEX
  8
Layer0$C$L0
 62
     3
 10
-164.2623790671
 20
70.0009424812
  0
VERTEX
  8
Layer0$C$L0
 62
     3
 10
-164.1466877743
 20
69.9275886233
  0
VERTEX
  8
Layer0$C$L0
 62
     3
 10
-164.0399852447
 20
69.9105949908
  0
SEQEND
  8
Layer0$C$L0
 62
     3
  0
POLYLINE
  8
Layer0$C$L0
 62
     3
 66
     1
  0
VERTEX
  8
Layer0$C$L0
 62
     3
 10
-164.0399852447
 20
69.9105949908
  0
VERTEX
  8
Layer0$C$L0
 62
     3
 10
-163.9109160020
 20
69.9317598256
  0
VERTEX
  8
Layer0$C$L0
 62
     3
 10
-163.8245412292
 20
69.9870428673
  0
SEQEND
  8
Layer0$C$L0
 62
     3
  0
POLYLINE
  8
Layer0$C$L0
 62
     3
 66
     1
  0
VERTEX
  8
Layer0$C$L0
 62
     3
 10
-163.8245412292
 20
69.9870428673
  0
VERTEX
  8
Layer0$C$L0
 62
     3
 10
-163.7428855873
 20
70.1332295835
  0
VERTEX
  8
Layer0$C$L0
 62
     3
 10
-163.7272439319
 20
70.2650351453
  0
SEQEND
  8
Layer0$C$L0
 62
     3
  0
LINE
  8
Layer0$C$L0
 62
     3
 10
-163.7272439319
 20
70.2650351453
 11
-163.5604485652
 21
70.2650351453
  0
POLYLINE
  8
Layer0$C$L0
 62
     3
 66
     1
  0
VERTEX
  8
Layer0$C$L0
 62
     3
 10
-163.5604485652
 20
70.2650351453
  0
VERTEX
  8
Layer0$C$L0
 62
     3
 10
-163.6026900044
 20
70.0442187214
  0
VERTEX
  8
Layer0$C$L0
 62
     3
 10
-163.6994447041
 20
69.8966953769
  0
SEQEND
  8
Layer0$C$L0
 62
     3
  0
POLYLINE
  8
Layer0$C$L0
 62
     3
 66
     1
  0
VERTEX
  8
Layer0$C$L0
 62
     3
 10
-163.6994447041
 20
69.8966953769
  0
VERTEX
  8
Layer0$C$L0
 62
     3
 10
-163.8786887087
 20
69.7975822164
  0
VERTEX
  8
Layer0$C$L0
 62
     3
 10
-164.0399852447
 20
69.7785486588
  0
SEQEND
  8
Layer0$C$L0
 62
     3
  0
POLYLINE
  8
Layer0$C$L0
 62
     3
 66
     1
  0
VERTEX
  8
Layer0$C$L0
 62
     3
 10
-164.0399852447
 20
69.7785486588
  0
VERTEX
  8
Layer0$C$L0
 62
     3
 10
-164.2449911239
 20
69.8178807646
  0
VERTEX
  8
Layer0$C$L0
 62
     3
 10
-164.3805257852
 20
69.9105949908
  0
SEQEND
  8
Layer0$C$L0
 62
     3
  0
ARC
  8
Layer0$C$L0
 62
     3
 10
-163.9202354483
 20
70.3480512667
 40
0.6350080217
 50
176.8286021114
 51
223.5430039075
  0
POLYLINE
  8
Layer0$C$L0
 62
     3
 66
     1
  0
VERTEX
  8
Layer0$C$L0
 62
     3
 10
-163.5686648550
 20
69.5063448891
  0
VERTEX
  8
Layer0$C$L0
 62
     3
 10
-163.5172271348
 20
69.5782521119
  0
VERTEX
  8
Layer0$C$L0
 62
     3
 10
-163.4991667855
 20
69.6453410281
  0
SEQEND
  8
Layer0$C$L0
 62
     3
  0
LINE
  8
Layer0$C$L0
 62
     3
 10
-163.4991667855
 20
69.6453410281
 11
-163.4157691021
 21
69.6453410281
  0
LINE
  8
Layer0$C$L0
 62
     3
 10
-163.4157691021
 20
69.6453410281
 11
-163.4157691021
 21
68.4430244258
  0
LINE
  8
Layer0$C$L0
 62
     3
 10
-163.4157691021
 20
68.4430244258
 11
-163.5802478665
 21
68.4430244258
  0
LINE
  8
Layer0$C$L0
 62
     3
 10
-163.5802478665
 20
68.4430244258
 11
-163.5802478665
 21
69.3686357514
  0
LINE
  8
Layer0$C$L0
 62
     3
 10
-163.5802478665
 20
69.3686357514
 11
-163.7841088704
 21
69.3686357514
  0
LINE
  8
Layer0$C$L0
 62
     3
 10
-163.7841088704
 20
69.3686357514
 11
-163.7841088704
 21
69.4507464335
  0
LINE
  8
Layer0$C$L0
 62
     3
 10
-163.7841088704
 20
69.4507464335
 11
-163.7215606079
 21
69.4507464335
  0
POLYLINE
  8
Layer0$C$L0
 62
     3
 66
     1
  0
VERTEX
  8
Layer0$C$L0
 62
     3
 10
-163.7215606079
 20
69.4507464335
  0
VERTEX
  8
Layer0$C$L0
 62
     3
 10
-163.6298377742
 20
69.4664331029
  0
VERTEX
  8
Layer0$C$L0
 62
     3
 10
-163.5686648550
 20
69.5063448891
  0
SEQEND
  8
Layer0$C$L0
 62
     3
  0
LINE
  8
Layer0$C$L0
 62
     3
 10
-167.8465252650
 20
68.2011340539
 11
-167.8465252650
 21
67.7011340539
  0
LINE
  8
Layer0$C$L0
 62
     3
 10
-167.8465252650
 20
67.7011340539
 11
-168.6465252650
 21
67.7011340539
  0
LINE
  8
Layer0$C$L0
 62
     3
 10
-168.6465252650
 20
71.2011340539
 11
-166.6465252650
 21
71.2011340539
  0
LINE
  8
Layer0$C$L0
 62
     3
 10
-166.6465252650
 20
68.2011340539
 11
-166.6465252650
 21
71.2011340539
  0
LINE
  8
Layer0$C$L0
 62
     3
 10
-163.2465252650
 20
67.7011340539
 11
-164.0465252650
 21
67.7011340539
  0
LINE
  8
Layer0$C$L0
 62
     3
 10
-164.0465252650
 20
67.7011340539
 11
-164.0465252650
 21
68.2011340539
  0
LINE
  8
Layer0$C$L0
 62
     3
 10
-165.0465252650
 20
71.2011340539
 11
-165.0465252650
 21
68.2011340539
  0
LINE
  8
Layer0$C$L0
 62
     3
 10
-165.0465252650
 20
71.2011340539
 11
-163.0465252650
 21
71.2011340539
  0
LINE
  8
Layer0$C$L0
 62
     3
 10
-159.2465252650
 20
68.2011340539
 11
-163.2465252650
 21
68.2011340539
  0
LINE
  8
Layer0$C$L0
 62
     3
 10
-167.8465252650
 20
82.0011340539
 11
-167.8465252650
 21
81.5011340539
  0
LINE
  8
Layer0$C$L0
 62
     3
 10
-167.5465252650
 20
81.5011340539
 11
-167.5465252650
 21
81.0011340539
  0
LINE
  8
Layer0$C$L0
 62
     3
 10
-169.5465252650
 20
82.0011340539
 11
-167.8465252650
 21
82.0011340539
  0
LINE
  8
Layer0$C$L0
 62
     3
 10
-164.0465252650
 20
81.5011340539
 11
-164.0465252650
 21
82.0011340539
  0
LINE
  8
Layer0$C$L0
 62
     3
 10
-164.3465252650
 20
81.0011340539
 11
-164.3465252650
 21
81.5011340539
  0
LINE
  8
Layer0$C$L0
 62
     3
 10
-164.0465252650
 20
82.0011340539
 11
-159.2465252650
 21
82.0011340539
  0
LINE
  8
Layer0$C$L0
 62
     3
 10
-163.0465252650
 20
82.0011340539
 11
-163.0465252650
 21
68.2011340539
  0
LINE
  8
Layer0$C$L0
 62
     3
 10
-166.2641630717
 20
70.9039737719
 11
-166.5630047705
 21
71.4738579418
  0
LINE
  8
Layer0$C$L0
 62
     3
 10
-166.5630047705
 20
71.4738579418
 11
-166.4191180266
 21
71.4738579418
  0
LINE
  8
Layer0$C$L0
 62
     3
 10
-166.4191180266
 20
71.4738579418
 11
-166.1977538053
 21
71.0360201040
  0
LINE
  8
Layer0$C$L0
 62
     3
 10
-166.1977538053
 20
71.0360201040
 11
-165.9763895839
 21
71.4738579418
  0
LINE
  8
Layer0$C$L0
 62
     3
 10
-165.9763895839
 20
71.4738579418
 11
-165.8325028400
 21
71.4738579418
  0
LINE
  8
Layer0$C$L0
 62
     3
 10
-165.8325028400
 20
71.4738579418
 11
-166.1313445388
 21
70.9039737719
  0
LINE
  8
Layer0$C$L0
 62
     3
 10
-166.1313445388
 20
70.9039737719
 11
-165.8049610125
 21
70.2854409534
  0
LINE
  8
Layer0$C$L0
 62
     3
 10
-165.8049610125
 20
70.2854409534
 11
-165.9488477563
 21
70.2854409534
  0
LINE
  8
Layer0$C$L0
 62
     3
 10
-165.9488477563
 20
70.2854409534
 11
-166.1977538053
 21
70.7719274399
  0
LINE
  8
Layer0$C$L0
 62
     3
 10
-166.1977538053
 20
70.7719274399
 11
-166.4469172544
 21
70.2854409534
  0
LINE
  8
Layer0$C$L0
 62
     3
 10
-166.5908039983
 20
70.2854409534
 11
-166.2641630717
 21
70.9039737719
  0
LINE
  8
Layer0$C$L0
 62
     3
 10
-166.4469172544
 20
70.2854409534
 11
-166.5908039983
 21
70.2854409534
  0
POLYLINE
  8
Layer0$C$L0
 62
     3
 66
     1
  0
VERTEX
  8
Layer0$C$L0
 62
     3
 10
-165.6731720807
 20
71.0707691387
  0
VERTEX
  8
Layer0$C$L0
 62
     3
 10
-165.6505693914
 20
71.2619257057
  0
VERTEX
  8
Layer0$C$L0
 62
     3
 10
-165.5846263921
 20
71.3974100654
  0
SEQEND
  8
Layer0$C$L0
 62
     3
  0
POLYLINE
  8
Layer0$C$L0
 62
     3
 66
     1
  0
VERTEX
  8
Layer0$C$L0
 62
     3
 10
-165.5846263921
 20
71.3974100654
  0
VERTEX
  8
Layer0$C$L0
 62
     3
 10
-165.4987894412
 20
71.4687005539
  0
VERTEX
  8
Layer0$C$L0
 62
     3
 10
-165.4131978207
 20
71.4877575557
  0
SEQEND
  8
Layer0$C$L0
 62
     3
  0
POLYLINE
  8
Layer0$C$L0
 62
     3
 66
     1
  0
VERTEX
  8
Layer0$C$L0
 62
     3
 10
-165.4131978207
 20
71.4877575557
  0
VERTEX
  8
Layer0$C$L0
 62
     3
 10
-165.2934252679
 20
71.4599330483
  0
VERTEX
  8
Layer0$C$L0
 62
     3
 10
-165.2193754269
 20
71.3974100654
  0
SEQEND
  8
Layer0$C$L0
 62
     3
  0
POLYLINE
  8
Layer0$C$L0
 62
     3
 66
     1
  0
VERTEX
  8
Layer0$C$L0
 62
     3
 10
-165.2193754269
 20
71.3974100654
  0
VERTEX
  8
Layer0$C$L0
 62
     3
 10
-165.1602590080
 20
71.2787983009
  0
VERTEX
  8
Layer0$C$L0
 62
     3
 10
-165.1475607551
 20
71.1750162430
  0
SEQEND
  8
Layer0$C$L0
 62
     3
  0
POLYLINE
  8
Layer0$C$L0
 62
     3
 66
     1
  0
VERTEX
  8
Layer0$C$L0
 62
     3
 10
-165.1475607551
 20
71.1750162430
  0
VERTEX
  8
Layer0$C$L0
 62
     3
 10
-165.1723099122
 20
71.0050397540
  0
VERTEX
  8
Layer0$C$L0
 62
     3
 10
-165.2304436379
 20
70.8831243511
  0
SEQEND
  8
Layer0$C$L0
 62
     3
  0
POLYLINE
  8
Layer0$C$L0
 62
     3
 66
     1
  0
VERTEX
  8
Layer0$C$L0
 62
     3
 10
-165.2304436379
 20
70.8831243511
  0
VERTEX
  8
Layer0$C$L0
 62
     3
 10
-165.3186044673
 20
70.7534415897
  0
VERTEX
  8
Layer0$C$L0
 62
     3
 10
-165.3910613986
 20
70.6537807217
  0
SEQEND
  8
Layer0$C$L0
 62
     3
  0
LINE
  8
Layer0$C$L0
 62
     3
 10
-165.3910613986
 20
70.6537807217
 11
-165.4796070871
 21
70.5286841966
  0
POLYLINE
  8
Layer0$C$L0
 62
     3
 66
     1
  0
VERTEX
  8
Layer0$C$L0
 62
     3
 10
-165.4796070871
 20
70.5286841966
  0
VERTEX
  8
Layer0$C$L0
 62
     3
 10
-165.5186593275
 20
70.4675248261
  0
VERTEX
  8
Layer0$C$L0
 62
     3
 10
-165.5460163535
 20
70.4174872854
  0
SEQEND
  8
Layer0$C$L0
 62
     3
  0
LINE
  8
Layer0$C$L0
 62
     3
 10
-165.5460163535
 20
70.4174872854
 11
-165.1308297383
 21
70.4174872854
  0
LINE
  8
Layer0$C$L0
 62
     3
 10
-165.1308297383
 20
70.4174872854
 11
-165.1308297383
 21
70.2859557539
  0
POLYLINE
  8
Layer0$C$L0
 62
     3
 66
     1
  0
VERTEX
  8
Layer0$C$L0
 62
     3
 10
-165.6953085028
 20
70.4035876715
  0
VERTEX
  8
Layer0$C$L0
 62
     3
 10
-165.6510843412
 20
70.5164786130
  0
VERTEX
  8
Layer0$C$L0
 62
     3
 10
-165.6013574089
 20
70.5981822661
  0
SEQEND
  8
Layer0$C$L0
 62
     3
  0
POLYLINE
  8
Layer0$C$L0
 62
     3
 66
     1
  0
VERTEX
  8
Layer0$C$L0
 62
     3
 10
-165.6013574089
 20
70.5981822661
  0
VERTEX
  8
Layer0$C$L0
 62
     3
 10
-165.4733572462
 20
70.7726901670
  0
VERTEX
  8
Layer0$C$L0
 62
     3
 10
-165.3743303818
 20
70.9109235789
  0
SEQEND
  8
Layer0$C$L0
 62
     3
  0
POLYLINE
  8
Layer0$C$L0
 62
     3
 66
     1
  0
VERTEX
  8
Layer0$C$L0
 62
     3
 10
-165.3743303818
 20
70.9109235789
  0
VERTEX
  8
Layer0$C$L0
 62
     3
 10
-165.2997623753
 20
71.0514428158
  0
VERTEX
  8
Layer0$C$L0
 62
     3
 10
-165.2803792879
 20
71.1750162430
  0
SEQEND
  8
Layer0$C$L0
 62
     3
  0
POLYLINE
  8
Layer0$C$L0
 62
     3
 66
     1
  0
VERTEX
  8
Layer0$C$L0
 62
     3
 10
-165.2803792879
 20
71.1750162430
  0
VERTEX
  8
Layer0$C$L0
 62
     3
 10
-165.2932605236
 20
71.2569196822
  0
VERTEX
  8
Layer0$C$L0
 62
     3
 10
-165.3246521322
 20
71.3140123820
  0
SEQEND
  8
Layer0$C$L0
 62
     3
  0
POLYLINE
  8
Layer0$C$L0
 62
     3
 66
     1
  0
VERTEX
  8
Layer0$C$L0
 62
     3
 10
-165.3246521322
 20
71.3140123820
  0
VERTEX
  8
Layer0$C$L0
 62
     3
 10
-165.3662899448
 20
71.3474529161
  0
VERTEX
  8
Layer0$C$L0
 62
     3
 10
-165.4075350150
 20
71.3557112237
  0
SEQEND
  8
Layer0$C$L0
 62
     3
  0
POLYLINE
  8
Layer0$C$L0
 62
     3
 66
     1
  0
VERTEX
  8
Layer0$C$L0
 62
     3
 10
-165.4075350150
 20
71.3557112237
  0
VERTEX
  8
Layer0$C$L0
 62
     3
 10
-165.4558727990
 20
71.3413444251
  0
VERTEX
  8
Layer0$C$L0
 62
     3
 10
-165.4850124925
 20
71.3140123820
  0
SEQEND
  8
Layer0$C$L0
 62
     3
  0
POLYLINE
  8
Layer0$C$L0
 62
     3
 66
     1
  0
VERTEX
  8
Layer0$C$L0
 62
     3
 10
-165.4850124925
 20
71.3140123820
  0
VERTEX
  8
Layer0$C$L0
 62
     3
 10
-165.5376231687
 20
71.1826543251
  0
VERTEX
  8
Layer0$C$L0
 62
     3
 10
-165.5460163535
 20
71.0707691387
  0
SEQEND
  8
Layer0$C$L0
 62
     3
  0
LINE
  8
Layer0$C$L0
 62
     3
 10
-165.5460163535
 20
71.0707691387
 11
-165.6731720807
 21
71.0707691387
  0
LINE
  8
Layer0$C$L0
 62
     3
 10
-165.6953085028
 20
70.2859557539
 11
-165.6953085028
 21
70.4035876715
  0
LINE
  8
Layer0$C$L0
 62
     3
 10
-165.1308297383
 20
70.2859557539
 11
-165.6953085028
 21
70.2859557539
  0
LINE
  8
Layer0$C$L0
 62
     3
 10
-166.3227040976
 20
75.3551880217
 11
-165.5304261054
 21
75.3551880217
  0
LINE
  8
Layer0$C$L0
 62
     3
 10
-165.5304261054
 20
75.3551880217
 11
-165.5304261054
 21
75.2401301067
  0
LINE
  8
Layer0$C$L0
 62
     3
 10
-165.5304261054
 20
75.2401301067
 11
-166.3227040976
 21
75.2401301067
  0
LINE
  8
Layer0$C$L0
 62
     3
 10
-166.3227040976
 20
75.2401301067
 11
-166.3227040976
 21
75.3551880217
  0
LINE
  8
Layer0$C$L0
 62
     3
 10
-166.0109001711
 20
77.0002335703
 11
-165.8793686396
 21
77.0002335703
  0
LINE
  8
Layer0$C$L0
 62
     3
 10
-165.8793686396
 20
77.0002335703
 11
-165.8793686396
 21
76.6596930297
  0
LINE
  8
Layer0$C$L0
 62
     3
 10
-165.8793686396
 20
76.6596930297
 11
-165.5388280990
 21
76.6596930297
  0
LINE
  8
Layer0$C$L0
 62
     3
 10
-165.5388280990
 20
76.6596930297
 11
-165.5388280990
 21
76.5446351147
  0
LINE
  8
Layer0$C$L0
 62
     3
 10
-165.5388280990
 20
76.5446351147
 11
-165.8793686396
 21
76.5446351147
  0
LINE
  8
Layer0$C$L0
 62
     3
 10
-165.8793686396
 20
76.5446351147
 11
-165.8793686396
 21
76.2079555780
  0
LINE
  8
Layer0$C$L0
 62
     3
 10
-165.8793686396
 20
76.2079555780
 11
-166.0109001711
 21
76.2079555780
  0
LINE
  8
Layer0$C$L0
 62
     3
 10
-166.0109001711
 20
76.2079555780
 11
-166.0109001711
 21
76.5446351147
  0
LINE
  8
Layer0$C$L0
 62
     3
 10
-166.0109001711
 20
76.5446351147
 11
-166.3380558982
 21
76.5446351147
  0
LINE
  8
Layer0$C$L0
 62
     3
 10
-166.3380558982
 20
76.5446351147
 11
-166.3380558982
 21
76.6596930297
  0
LINE
  8
Layer0$C$L0
 62
     3
 10
-166.3380558982
 20
76.6596930297
 11
-166.0109001711
 21
76.6596930297
  0
LINE
  8
Layer0$C$L0
 62
     3
 10
-166.0109001711
 20
76.6596930297
 11
-166.0109001711
 21
77.0002335703
  0
LINE
  8
Layer0$C$L0
 62
     3
 10
-166.1958955072
 20
81.3042241629
 11
-166.4947372060
 21
81.8741083328
  0
LINE
  8
Layer0$C$L0
 62
     3
 10
-166.4947372060
 20
81.8741083328
 11
-166.3508504621
 21
81.8741083328
  0
LINE
  8
Layer0$C$L0
 62
     3
 10
-166.3508504621
 20
81.8741083328
 11
-166.1294862407
 21
81.4362704950
  0
LINE
  8
Layer0$C$L0
 62
     3
 10
-166.1294862407
 20
81.4362704950
 11
-165.9081220194
 21
81.8741083328
  0
LINE
  8
Layer0$C$L0
 62
     3
 10
-165.9081220194
 20
81.8741083328
 11
-165.7642352755
 21
81.8741083328
  0
LINE
  8
Layer0$C$L0
 62
     3
 10
-165.7642352755
 20
81.8741083328
 11
-166.0630769743
 21
81.3042241629
  0
LINE
  8
Layer0$C$L0
 62
     3
 10
-166.0630769743
 20
81.3042241629
 11
-165.7366934480
 21
80.6856913444
  0
LINE
  8
Layer0$C$L0
 62
     3
 10
-165.7366934480
 20
80.6856913444
 11
-165.8805801918
 21
80.6856913444
  0
LINE
  8
Layer0$C$L0
 62
     3
 10
-165.8805801918
 20
80.6856913444
 11
-166.1294862407
 21
81.1721778309
  0
LINE
  8
Layer0$C$L0
 62
     3
 10
-166.1294862407
 20
81.1721778309
 11
-166.3786496899
 21
80.6856913444
  0
LINE
  8
Layer0$C$L0
 62
     3
 10
-166.5225364338
 20
80.6856913444
 11
-166.1958955072
 21
81.3042241629
  0
LINE
  8
Layer0$C$L0
 62
     3
 10
-166.3786496899
 20
80.6856913444
 11
-166.5225364338
 21
80.6856913444
  0
POLYLINE
  8
Layer0$C$L0
 62
     3
 66
     1
  0
VERTEX
  8
Layer0$C$L0
 62
     3
 10
-165.3781348894
 20
81.7559616147
  0
VERTEX
  8
Layer0$C$L0
 62
     3
 10
-165.3363609068
 20
81.8297036901
  0
VERTEX
  8
Layer0$C$L0
 62
     3
 10
-165.3227938341
 20
81.8949577537
  0
SEQEND
  8
Layer0$C$L0
 62
     3
  0
LINE
  8
Layer0$C$L0
 62
     3
 10
-165.3227938341
 20
81.8949577537
 11
-165.2563845676
 21
81.8949577537
  0
LINE
  8
Layer0$C$L0
 62
     3
 10
-165.2563845676
 20
81.8949577537
 11
-165.2563845676
 21
80.6926411514
  0
LINE
  8
Layer0$C$L0
 62
     3
 10
-165.2563845676
 20
80.6926411514
 11
-165.3874012987
 21
80.6926411514
  0
LINE
  8
Layer0$C$L0
 62
     3
 10
-165.3874012987
 20
80.6926411514
 11
-165.3874012987
 21
81.6182524770
  0
LINE
  8
Layer0$C$L0
 62
     3
 10
-165.3874012987
 20
81.6182524770
 11
-165.5495634608
 21
81.6182524770
  0
LINE
  8
Layer0$C$L0
 62
     3
 10
-165.5495634608
 20
81.6182524770
 11
-165.5495634608
 21
81.7003631591
  0
LINE
  8
Layer0$C$L0
 62
     3
 10
-165.5495634608
 20
81.7003631591
 11
-165.4998852111
 21
81.7003631591
  0
POLYLINE
  8
Layer0$C$L0
 62
     3
 66
     1
  0
VERTEX
  8
Layer0$C$L0
 62
     3
 10
-165.4998852111
 20
81.7003631591
  0
VERTEX
  8
Layer0$C$L0
 62
     3
 10
-165.4247014781
 20
81.7171195813
  0
VERTEX
  8
Layer0$C$L0
 62
     3
 10
-165.3781348894
 20
81.7559616147
  0
SEQEND
  8
Layer0$C$L0
 62
     3
  0
LINE
  8
Layer0$C$L0
 62
     3
 10
-166.1965252650
 20
75.0011340539
 11
-165.6965252650
 21
75.0011340539
  0
LINE
  8
Layer0$C$L0
 62
     3
 10
-166.1965252650
 20
71.7011340539
 11
-166.1965252650
 21
75.0011340539
  0
LINE
  8
Layer0$C$L0
 62
     3
 10
-165.6965252650
 20
71.7011340539
 11
-166.1965252650
 21
71.7011340539
  0
LINE
  8
Layer0$C$L0
 62
     3
 10
-165.6965252650
 20
75.0011340539
 11
-165.6965252650
 21
71.7011340539
  0
LINE
  8
Layer0$C$L0
 62
     3
 10
-168.6465252650
 20
73.6011340539
 11
-166.6465252650
 21
73.6011340539
  0
LINE
  8
Layer0$C$L0
 62
     3
 10
-166.6465252650
 20
73.6011340539
 11
-166.6465252650
 21
75.7011340539
  0
LINE
  8
Layer0$C$L0
 62
     3
 10
-166.6465252650
 20
75.7011340539
 11
-165.0465252650
 21
75.7011340539
  0
LINE
  8
Layer0$C$L0
 62
     3
 10
-165.0465252650
 20
75.7011340539
 11
-165.0465252650
 21
73.6011340539
  0
LINE
  8
Layer0$C$L0
 62
     3
 10
-165.0465252650
 20
73.6011340539
 11
-163.0465252650
 21
73.6011340539
  0
LINE
  8
Layer0$C$L0
 62
     3
 10
-165.6965252650
 20
77.2011340539
 11
-166.1965252650
 21
77.2011340539
  0
LINE
  8
Layer0$C$L0
 62
     3
 10
-165.6965252650
 20
80.5011340539
 11
-165.6965252650
 21
77.2011340539
  0
LINE
  8
Layer0$C$L0
 62
     3
 10
-166.1965252650
 20
80.5011340539
 11
-165.6965252650
 21
80.5011340539
  0
LINE
  8
Layer0$C$L0
 62
     3
 10
-166.1965252650
 20
77.2011340539
 11
-166.1965252650
 21
80.5011340539
  0
LINE
  8
Layer0$C$L0
 62
     3
 10
-166.6465252650
 20
75.9011340539
 11
-166.6465252650
 21
76.6011340539
  0
LINE
  8
Layer0$C$L0
 62
     3
 10
-166.6465252650
 20
76.6011340539
 11
-168.6465252650
 21
76.6011340539
  0
LINE
  8
Layer0$C$L0
 62
     3
 10
-168.6465252650
 20
78.0011340539
 11
-166.6465252650
 21
78.0011340539
  0
LINE
  8
Layer0$C$L0
 62
     3
 10
-166.6465252650
 20
78.0011340539
 11
-166.6465252650
 21
81.0011340539
  0
LINE
  8
Layer0$C$L0
 62
     3
 10
-166.9465252650
 20
82.0011340539
 11
-166.9465252650
 21
81.5011340539
  0
LINE
  8
Layer0$C$L0
 62
     3
 10
-164.9465252650
 20
81.5011340539
 11
-164.9465252650
 21
82.0011340539
  0
LINE
  8
Layer0$C$L0
 62
     3
 10
-165.0465252650
 20
81.0011340539
 11
-165.0465252650
 21
78.0011340539
  0
LINE
  8
Layer0$C$L0
 62
     3
 10
-165.0465252650
 20
78.0011340539
 11
-163.0465252650
 21
78.0011340539
  0
LINE
  8
Layer0$C$L0
 62
     3
 10
-163.0465252650
 20
76.6011340539
 11
-165.0465252650
 21
76.6011340539
  0
LINE
  8
Layer0$C$L0
 62
     3
 10
-165.0465252650
 20
76.6011340539
 11
-165.0465252650
 21
75.9011340539
  0
LINE
  8
Layer0$C$L0
 62
     3
 10
-165.0465252650
 20
75.9011340539
 11
-166.6465252650
 21
75.9011340539
  0
LINE
  8
Layer0$C$L0
 62
     3
 10
-163.0465252650
 20
81.0011340539
 11
-165.0465252650
 21
81.0011340539
  0
LINE
  8
Layer0$C$L0
 62
     3
 10
-166.6465252650
 20
81.0011340539
 11
-168.6465252650
 21
81.0011340539
  0
POLYLINE
  8
Layer0$C$L0
 62
     3
 66
     1
  0
VERTEX
  8
Layer0$C$L0
 62
     3
 10
-168.4305034706
 20
74.5708565141
  0
VERTEX
  8
Layer0$C$L0
 62
     3
 10
-168.4007016638
 20
74.7660277451
  0
VERTEX
  8
Layer0$C$L0
 62
     3
 10
-168.3193065594
 20
74.8974974408
  0
SEQEND
  8
Layer0$C$L0
 62
     3
  0
POLYLINE
  8
Layer0$C$L0
 62
     3
 66
     1
  0
VERTEX
  8
Layer0$C$L0
 62
     3
 10
-168.3193065594
 20
74.8974974408
  0
VERTEX
  8
Layer0$C$L0
 62
     3
 10
-168.2074901498
 20
74.9702730493
  0
VERTEX
  8
Layer0$C$L0
 62
     3
 10
-168.1038625439
 20
74.9878449311
  0
SEQEND
  8
Layer0$C$L0
 62
     3
  0
POLYLINE
  8
Layer0$C$L0
 62
     3
 66
     1
  0
VERTEX
  8
Layer0$C$L0
 62
     3
 10
-168.1038625439
 20
74.9878449311
  0
VERTEX
  8
Layer0$C$L0
 62
     3
 10
-167.9578117989
 20
74.9617765328
  0
VERTEX
  8
Layer0$C$L0
 62
     3
 10
-167.8606193007
 20
74.8974974408
  0
SEQEND
  8
Layer0$C$L0
 62
     3
  0
POLYLINE
  8
Layer0$C$L0
 62
     3
 66
     1
  0
VERTEX
  8
Layer0$C$L0
 62
     3
 10
-167.8606193007
 20
74.8974974408
  0
VERTEX
  8
Layer0$C$L0
 62
     3
 10
-167.7872147993
 20
74.7818293464
  0
VERTEX
  8
Layer0$C$L0
 62
     3
 10
-167.7702718103
 20
74.6751036184
  0
SEQEND
  8
Layer0$C$L0
 62
     3
  0
POLYLINE
  8
Layer0$C$L0
 62
     3
 66
     1
  0
VERTEX
  8
Layer0$C$L0
 62
     3
 10
-167.7702718103
 20
74.6751036184
  0
VERTEX
  8
Layer0$C$L0
 62
     3
 10
-167.8026726967
 20
74.5019129483
  0
VERTEX
  8
Layer0$C$L0
 62
     3
 10
-167.8745189146
 20
74.3832117265
  0
SEQEND
  8
Layer0$C$L0
 62
     3
  0
POLYLINE
  8
Layer0$C$L0
 62
     3
 66
     1
  0
VERTEX
  8
Layer0$C$L0
 62
     3
 10
-167.8745189146
 20
74.3832117265
  0
VERTEX
  8
Layer0$C$L0
 62
     3
 10
-167.9856467437
 20
74.2532527606
  0
VERTEX
  8
Layer0$C$L0
 62
     3
 10
-168.0760633161
 20
74.1538680972
  0
SEQEND
  8
Layer0$C$L0
 62
     3
  0
LINE
  8
Layer0$C$L0
 62
     3
 10
-168.0760633161
 20
74.1538680972
 11
-168.1872602273
 21
74.0287715721
  0
POLYLINE
  8
Layer0$C$L0
 62
     3
 66
     1
  0
VERTEX
  8
Layer0$C$L0
 62
     3
 10
-168.1872602273
 20
74.0287715721
  0
VERTEX
  8
Layer0$C$L0
 62
     3
 10
-168.2360691057
 20
73.9680772770
  0
VERTEX
  8
Layer0$C$L0
 62
     3
 10
-168.2706579107
 20
73.9175746609
  0
SEQEND
  8
Layer0$C$L0
 62
     3
  0
LINE
  8
Layer0$C$L0
 62
     3
 10
-168.2706579107
 20
73.9175746609
 11
-167.7494223895
 21
73.9175746609
  0
LINE
  8
Layer0$C$L0
 62
     3
 10
-167.7494223895
 20
73.9175746609
 11
-167.7494223895
 21
73.7860431293
  0
POLYLINE
  8
Layer0$C$L0
 62
     3
 66
     1
  0
VERTEX
  8
Layer0$C$L0
 62
     3
 10
-168.4583026984
 20
73.9036750470
  0
VERTEX
  8
Layer0$C$L0
 62
     3
 10
-168.4015844503
 20
74.0181652521
  0
VERTEX
  8
Layer0$C$L0
 62
     3
 10
-168.3401559802
 20
74.0982696416
  0
SEQEND
  8
Layer0$C$L0
 62
     3
  0
POLYLINE
  8
Layer0$C$L0
 62
     3
 66
     1
  0
VERTEX
  8
Layer0$C$L0
 62
     3
 10
-168.3401559802
 20
74.0982696416
  0
VERTEX
  8
Layer0$C$L0
 62
     3
 10
-168.1798252549
 20
74.2727107951
  0
VERTEX
  8
Layer0$C$L0
 62
     3
 10
-168.0552138953
 20
74.4110109543
  0
SEQEND
  8
Layer0$C$L0
 62
     3
  0
POLYLINE
  8
Layer0$C$L0
 62
     3
 66
     1
  0
VERTEX
  8
Layer0$C$L0
 62
     3
 10
-168.0552138953
 20
74.4110109543
  0
VERTEX
  8
Layer0$C$L0
 62
     3
 10
-167.9630804551
 20
74.5480800918
  0
VERTEX
  8
Layer0$C$L0
 62
     3
 10
-167.9370671771
 20
74.6751036184
  0
SEQEND
  8
Layer0$C$L0
 62
     3
  0
POLYLINE
  8
Layer0$C$L0
 62
     3
 66
     1
  0
VERTEX
  8
Layer0$C$L0
 62
     3
 10
-167.9370671771
 20
74.6751036184
  0
VERTEX
  8
Layer0$C$L0
 62
     3
 10
-167.9540646031
 20
74.7589189082
  0
VERTEX
  8
Layer0$C$L0
 62
     3
 10
-167.9926656327
 20
74.8140997574
  0
SEQEND
  8
Layer0$C$L0
 62
     3
  0
POLYLINE
  8
Layer0$C$L0
 62
     3
 66
     1
  0
VERTEX
  8
Layer0$C$L0
 62
     3
 10
-167.9926656327
 20
74.8140997574
  0
VERTEX
  8
Layer0$C$L0
 62
     3
 10
-168.0469181170
 20
74.8482129129
  0
VERTEX
  8
Layer0$C$L0
 62
     3
 10
-168.0969127370
 20
74.8557985991
  0
SEQEND
  8
Layer0$C$L0
 62
     3
  0
POLYLINE
  8
Layer0$C$L0
 62
     3
 66
     1
  0
VERTEX
  8
Layer0$C$L0
 62
     3
 10
-168.0969127370
 20
74.8557985991
  0
VERTEX
  8
Layer0$C$L0
 62
     3
 10
-168.1558162952
 20
74.8423303297
  0
VERTEX
  8
Layer0$C$L0
 62
     3
 10
-168.1942100343
 20
74.8140997574
  0
SEQEND
  8
Layer0$C$L0
 62
     3
  0
ARC
  8
Layer0$C$L0
 62
     3
 10
-167.9417827302
 20
74.6011306025
 40
0.3302656579
 50
139.8461726223
 51
185.2594505311
  0
LINE
  8
Layer0$C$L0
 62
     3
 10
-168.2706579107
 20
74.5708565141
 11
-168.4305034706
 21
74.5708565141
  0
LINE
  8
Layer0$C$L0
 62
     3
 10
-167.7494223895
 20
73.7860431293
 11
-168.4583026984
 21
73.7860431293
  0
LINE
  8
Layer0$C$L0
 62
     3
 10
-168.4583026984
 20
73.7860431293
 11
-168.4583026984
 21
73.9036750470
  0
LINE
  8
Layer0$C$L0
 62
     3
 10
-168.4939615706
 20
76.4173407847
 11
-168.3518766285
 21
76.4173407847
  0
LINE
  8
Layer0$C$L0
 62
     3
 10
-168.3518766285
 20
76.4173407847
 11
-167.9130091897
 21
75.4791168465
  0
LINE
  8
Layer0$C$L0
 62
     3
 10
-167.9130091897
 20
75.4791168465
 11
-167.9130091897
 21
76.4173407847
  0
LINE
  8
Layer0$C$L0
 62
     3
 10
-167.9130091897
 20
76.4173407847
 11
-167.7819924587
 21
76.4173407847
  0
LINE
  8
Layer0$C$L0
 62
     3
 10
-167.7819924587
 20
76.4173407847
 11
-167.7819924587
 21
75.2289237963
  0
LINE
  8
Layer0$C$L0
 62
     3
 10
-167.7819924587
 20
75.2289237963
 11
-167.9202163969
 21
75.2289237963
  0
LINE
  8
Layer0$C$L0
 62
     3
 10
-167.9202163969
 20
75.2289237963
 11
-168.3629448396
 21
76.1671477345
  0
LINE
  8
Layer0$C$L0
 62
     3
 10
-168.3629448396
 20
76.1671477345
 11
-168.3629448396
 21
75.2289237963
  0
LINE
  8
Layer0$C$L0
 62
     3
 10
-168.4939615706
 20
75.2289237963
 11
-168.4939615706
 21
76.4173407847
  0
LINE
  8
Layer0$C$L0
 62
     3
 10
-168.3629448396
 20
75.2289237963
 11
-168.4939615706
 21
75.2289237963
  0
LINE
  8
Layer0$C$L0
 62
     3
 10
-167.1355227756
 20
74.7307020740
 11
-167.4436308837
 21
74.2233661667
  0
LINE
  8
Layer0$C$L0
 62
     3
 10
-167.4436308837
 20
74.2233661667
 11
-167.1355227756
 21
74.2233661667
  0
LINE
  8
Layer0$C$L0
 62
     3
 10
-167.1355227756
 20
74.2233661667
 11
-167.1355227756
 21
74.7307020740
  0
LINE
  8
Layer0$C$L0
 62
     3
 10
-167.1308895709
 20
74.9878449311
 11
-166.9710440111
 21
74.9878449311
  0
LINE
  8
Layer0$C$L0
 62
     3
 10
-166.9710440111
 20
74.9878449311
 11
-166.9710440111
 21
74.2233661667
  0
LINE
  8
Layer0$C$L0
 62
     3
 10
-166.9710440111
 20
74.2233661667
 11
-166.8250980652
 21
74.2233661667
  0
LINE
  8
Layer0$C$L0
 62
     3
 10
-166.8250980652
 20
74.2233661667
 11
-166.8250980652
 21
74.0918346351
  0
LINE
  8
Layer0$C$L0
 62
     3
 10
-166.8250980652
 20
74.0918346351
 11
-166.9710440111
 21
74.0918346351
  0
LINE
  8
Layer0$C$L0
 62
     3
 10
-166.9710440111
 20
74.0918346351
 11
-166.9710440111
 21
73.7855283288
  0
LINE
  8
Layer0$C$L0
 62
     3
 10
-166.9710440111
 20
73.7855283288
 11
-167.1355227756
 21
73.7855283288
  0
LINE
  8
Layer0$C$L0
 62
     3
 10
-167.1355227756
 20
73.7855283288
 11
-167.1355227756
 21
74.0918346351
  0
LINE
  8
Layer0$C$L0
 62
     3
 10
-167.1355227756
 20
74.0918346351
 11
-167.5965266366
 21
74.0918346351
  0
LINE
  8
Layer0$C$L0
 62
     3
 10
-167.5965266366
 20
74.0918346351
 11
-167.5965266366
 21
74.2303159736
  0
LINE
  8
Layer0$C$L0
 62
     3
 10
-167.5965266366
 20
74.2303159736
 11
-167.1308895709
 21
74.9878449311
  0
POLYLINE
  8
Layer0$C$L0
 62
     3
 66
     1
  0
VERTEX
  8
Layer0$C$L0
 62
     3
 10
-167.3740130507
 20
76.1949469623
  0
VERTEX
  8
Layer0$C$L0
 62
     3
 10
-167.4547598670
 20
75.9961615646
  0
VERTEX
  8
Layer0$C$L0
 62
     3
 10
-167.4679641446
 20
75.8266071940
  0
SEQEND
  8
Layer0$C$L0
 62
     3
  0
POLYLINE
  8
Layer0$C$L0
 62
     3
 66
     1
  0
VERTEX
  8
Layer0$C$L0
 62
     3
 10
-167.4679641446
 20
75.8266071940
  0
VERTEX
  8
Layer0$C$L0
 62
     3
 10
-167.4451218163
 20
75.6116322526
  0
VERTEX
  8
Layer0$C$L0
 62
     3
 10
-167.3740130507
 20
75.4582674256
  0
SEQEND
  8
Layer0$C$L0
 62
     3
  0
POLYLINE
  8
Layer0$C$L0
 62
     3
 66
     1
  0
VERTEX
  8
Layer0$C$L0
 62
     3
 10
-167.3740130507
 20
75.4582674256
  0
VERTEX
  8
Layer0$C$L0
 62
     3
 10
-167.2802085180
 20
75.3772239522
  0
VERTEX
  8
Layer0$C$L0
 62
     3
 10
-167.1858534625
 20
75.3540203214
  0
SEQEND
  8
Layer0$C$L0
 62
     3
  0
ARC
  8
Layer0$C$L0
 62
     3
 10
-167.1937980889
 20
75.5902916547
 40
0.2364048646
 50
271.9258456763
 51
326.0501785290
  0
POLYLINE
  8
Layer0$C$L0
 62
     3
 66
     1
  0
VERTEX
  8
Layer0$C$L0
 62
     3
 10
-166.9976938744
 20
75.4582674256
  0
VERTEX
  8
Layer0$C$L0
 62
     3
 10
-166.9166970948
 20
75.6570109089
  0
VERTEX
  8
Layer0$C$L0
 62
     3
 10
-166.9034853801
 20
75.8266071940
  0
SEQEND
  8
Layer0$C$L0
 62
     3
  0
POLYLINE
  8
Layer0$C$L0
 62
     3
 66
     1
  0
VERTEX
  8
Layer0$C$L0
 62
     3
 10
-166.9034853801
 20
75.8266071940
  0
VERTEX
  8
Layer0$C$L0
 62
     3
 10
-166.9263430209
 20
76.0416338884
  0
VERTEX
  8
Layer0$C$L0
 62
     3
 10
-166.9976938744
 20
76.1949469623
  0
SEQEND
  8
Layer0$C$L0
 62
     3
  0
POLYLINE
  8
Layer0$C$L0
 62
     3
 66
     1
  0
VERTEX
  8
Layer0$C$L0
 62
     3
 10
-166.9976938744
 20
76.1949469623
  0
VERTEX
  8
Layer0$C$L0
 62
     3
 10
-167.0914853475
 20
76.2760149206
  0
VERTEX
  8
Layer0$C$L0
 62
     3
 10
-167.1858534625
 20
76.2991940665
  0
SEQEND
  8
Layer0$C$L0
 62
     3
  0
ARC
  8
Layer0$C$L0
 62
     3
 10
-167.1778538389
 20
76.0628234667
 40
0.2365059290
 50
91.9383535703
 51
146.0376706351
  0
POLYLINE
  8
Layer0$C$L0
 62
     3
 66
     1
  0
VERTEX
  8
Layer0$C$L0
 62
     3
 10
-167.6007826774
 20
75.8266071940
  0
VERTEX
  8
Layer0$C$L0
 62
     3
 10
-167.5650616510
 20
76.0958183527
  0
VERTEX
  8
Layer0$C$L0
 62
     3
 10
-167.4679641446
 20
76.2852944526
  0
SEQEND
  8
Layer0$C$L0
 62
     3
  0
POLYLINE
  8
Layer0$C$L0
 62
     3
 66
     1
  0
VERTEX
  8
Layer0$C$L0
 62
     3
 10
-167.4679641446
 20
76.2852944526
  0
VERTEX
  8
Layer0$C$L0
 62
     3
 10
-167.3264166854
 20
76.4009458694
  0
VERTEX
  8
Layer0$C$L0
 62
     3
 10
-167.1858534625
 20
76.4312403986
  0
SEQEND
  8
Layer0$C$L0
 62
     3
  0
POLYLINE
  8
Layer0$C$L0
 62
     3
 66
     1
  0
VERTEX
  8
Layer0$C$L0
 62
     3
 10
-167.1858534625
 20
76.4312403986
  0
VERTEX
  8
Layer0$C$L0
 62
     3
 10
-167.0102491270
 20
76.3824147363
  0
VERTEX
  8
Layer0$C$L0
 62
     3
 10
-166.9034853801
 20
76.2852944526
  0
SEQEND
  8
Layer0$C$L0
 62
     3
  0
ARC
  8
Layer0$C$L0
 62
     3
 10
-167.4800769200
 20
75.8697620376
 40
0.7107214587
 50
356.5188721034
 51
395.7791736356
  0
POLYLINE
  8
Layer0$C$L0
 62
     3
 66
     1
  0
VERTEX
  8
Layer0$C$L0
 62
     3
 10
-166.7706668473
 20
75.8266071940
  0
VERTEX
  8
Layer0$C$L0
 62
     3
 10
-166.8064529997
 20
75.5574148982
  0
VERTEX
  8
Layer0$C$L0
 62
     3
 10
-166.9034853801
 20
75.3679199353
  0
SEQEND
  8
Layer0$C$L0
 62
     3
  0
POLYLINE
  8
Layer0$C$L0
 62
     3
 66
     1
  0
VERTEX
  8
Layer0$C$L0
 62
     3
 10
-166.9034853801
 20
75.3679199353
  0
VERTEX
  8
Layer0$C$L0
 62
     3
 10
-167.0451564834
 20
75.2522056797
  0
VERTEX
  8
Layer0$C$L0
 62
     3
 10
-167.1858534625
 20
75.2219739893
  0
SEQEND
  8
Layer0$C$L0
 62
     3
  0
POLYLINE
  8
Layer0$C$L0
 62
     3
 66
     1
  0
VERTEX
  8
Layer0$C$L0
 62
     3
 10
-167.1858534625
 20
75.2219739893
  0
VERTEX
  8
Layer0$C$L0
 62
     3
 10
-167.3612933004
 20
75.2708546514
  0
VERTEX
  8
Layer0$C$L0
 62
     3
 10
-167.4679641446
 20
75.3679199353
  0
SEQEND
  8
Layer0$C$L0
 62
     3
  0
ARC
  8
Layer0$C$L0
 62
     3
 10
-166.8913184960
 20
75.7834680181
 40
0.7107745165
 50
176.5203976072
 51
215.7776481318
  0
POLYLINE
  8
Layer0$C$L0
 62
     3
 66
     1
  0
VERTEX
  8
Layer0$C$L0
 62
     3
 10
-168.4268240609
 20
79.0325906101
  0
VERTEX
  8
Layer0$C$L0
 62
     3
 10
-168.3970222542
 20
79.2277618411
  0
VERTEX
  8
Layer0$C$L0
 62
     3
 10
-168.3156271497
 20
79.3592315367
  0
SEQEND
  8
Layer0$C$L0
 62
     3
  0
POLYLINE
  8
Layer0$C$L0
 62
     3
 66
     1
  0
VERTEX
  8
Layer0$C$L0
 62
     3
 10
-168.3156271497
 20
79.3592315367
  0
VERTEX
  8
Layer0$C$L0
 62
     3
 10
-168.2038107401
 20
79.4320071453
  0
VERTEX
  8
Layer0$C$L0
 62
     3
 10
-168.1001831342
 20
79.4495790270
  0
SEQEND
  8
Layer0$C$L0
 62
     3
  0
POLYLINE
  8
Layer0$C$L0
 62
     3
 66
     1
  0
VERTEX
  8
Layer0$C$L0
 62
     3
 10
-168.1001831342
 20
79.4495790270
  0
VERTEX
  8
Layer0$C$L0
 62
     3
 10
-167.9541323893
 20
79.4235106287
  0
VERTEX
  8
Layer0$C$L0
 62
     3
 10
-167.8569398910
 20
79.3592315367
  0
SEQEND
  8
Layer0$C$L0
 62
     3
  0
POLYLINE
  8
Layer0$C$L0
 62
     3
 66
     1
  0
VERTEX
  8
Layer0$C$L0
 62
     3
 10
-167.8569398910
 20
79.3592315367
  0
VERTEX
  8
Layer0$C$L0
 62
     3
 10
-167.7835353896
 20
79.2435634423
  0
VERTEX
  8
Layer0$C$L0
 62
     3
 10
-167.7665924006
 20
79.1368377143
  0
SEQEND
  8
Layer0$C$L0
 62
     3
  0
POLYLINE
  8
Layer0$C$L0
 62
     3
 66
     1
  0
VERTEX
  8
Layer0$C$L0
 62
     3
 10
-167.7665924006
 20
79.1368377143
  0
VERTEX
  8
Layer0$C$L0
 62
     3
 10
-167.7989932870
 20
78.9636470442
  0
VERTEX
  8
Layer0$C$L0
 62
     3
 10
-167.8708395049
 20
78.8449458224
  0
SEQEND
  8
Layer0$C$L0
 62
     3
  0
POLYLINE
  8
Layer0$C$L0
 62
     3
 66
     1
  0
VERTEX
  8
Layer0$C$L0
 62
     3
 10
-167.8708395049
 20
78.8449458224
  0
VERTEX
  8
Layer0$C$L0
 62
     3
 10
-167.9819673340
 20
78.7149868565
  0
VERTEX
  8
Layer0$C$L0
 62
     3
 10
-168.0723839064
 20
78.6156021931
  0
SEQEND
  8
Layer0$C$L0
 62
     3
  0
LINE
  8
Layer0$C$L0
 62
     3
 10
-168.0723839064
 20
78.6156021931
 11
-168.1835808176
 21
78.4905056680
  0
POLYLINE
  8
Layer0$C$L0
 62
     3
 66
     1
  0
VERTEX
  8
Layer0$C$L0
 62
     3
 10
-168.1835808176
 20
78.4905056680
  0
VERTEX
  8
Layer0$C$L0
 62
     3
 10
-168.2323896960
 20
78.4298113729
  0
VERTEX
  8
Layer0$C$L0
 62
     3
 10
-168.2669785010
 20
78.3793087568
  0
SEQEND
  8
Layer0$C$L0
 62
     3
  0
LINE
  8
Layer0$C$L0
 62
     3
 10
-168.2669785010
 20
78.3793087568
 11
-167.7457429798
 21
78.3793087568
  0
LINE
  8
Layer0$C$L0
 62
     3
 10
-167.7457429798
 20
78.3793087568
 11
-167.7457429798
 21
78.2477772252
  0
LINE
  8
Layer0$C$L0
 62
     3
 10
-167.7457429798
 20
78.2477772252
 11
-168.4546232887
 21
78.2477772252
  0
LINE
  8
Layer0$C$L0
 62
     3
 10
-168.4546232887
 20
78.2477772252
 11
-168.4546232887
 21
78.3654091429
  0
POLYLINE
  8
Layer0$C$L0
 62
     3
 66
     1
  0
VERTEX
  8
Layer0$C$L0
 62
     3
 10
-168.4546232887
 20
78.3654091429
  0
VERTEX
  8
Layer0$C$L0
 62
     3
 10
-168.3979050406
 20
78.4798993480
  0
VERTEX
  8
Layer0$C$L0
 62
     3
 10
-168.3364765705
 20
78.5600037375
  0
SEQEND
  8
Layer0$C$L0
 62
     3
  0
POLYLINE
  8
Layer0$C$L0
 62
     3
 66
     1
  0
VERTEX
  8
Layer0$C$L0
 62
     3
 10
-168.3364765705
 20
78.5600037375
  0
VERTEX
  8
Layer0$C$L0
 62
     3
 10
-168.1761458452
 20
78.7344448910
  0
VERTEX
  8
Layer0$C$L0
 62
     3
 10
-168.0515344856
 20
78.8727450502
  0
SEQEND
  8
Layer0$C$L0
 62
     3
  0
POLYLINE
  8
Layer0$C$L0
 62
     3
 66
     1
  0
VERTEX
  8
Layer0$C$L0
 62
     3
 10
-168.0515344856
 20
78.8727450502
  0
VERTEX
  8
Layer0$C$L0
 62
     3
 10
-167.9594010455
 20
79.0098141877
  0
VERTEX
  8
Layer0$C$L0
 62
     3
 10
-167.9333877674
 20
79.1368377143
  0
SEQEND
  8
Layer0$C$L0
 62
     3
  0
POLYLINE
  8
Layer0$C$L0
 62
     3
 66
     1
  0
VERTEX
  8
Layer0$C$L0
 62
     3
 10
-167.9333877674
 20
79.1368377143
  0
VERTEX
  8
Layer0$C$L0
 62
     3
 10
-167.9503851934
 20
79.2206530041
  0
VERTEX
  8
Layer0$C$L0
 62
     3
 10
-167.9889862230
 20
79.2758338533
  0
SEQEND
  8
Layer0$C$L0
 62
     3
  0
POLYLINE
  8
Layer0$C$L0
 62
     3
 66
     1
  0
VERTEX
  8
Layer0$C$L0
 62
     3
 10
-167.9889862230
 20
79.2758338533
  0
VERTEX
  8
Layer0$C$L0
 62
     3
 10
-168.0432387073
 20
79.3099470088
  0
VERTEX
  8
Layer0$C$L0
 62
     3
 10
-168.0932333273
 20
79.3175326950
  0
SEQEND
  8
Layer0$C$L0
 62
     3
  0
POLYLINE
  8
Layer0$C$L0
 62
     3
 66
     1
  0
VERTEX
  8
Layer0$C$L0
 62
     3
 10
-168.0932333273
 20
79.3175326950
  0
VERTEX
  8
Layer0$C$L0
 62
     3
 10
-168.1521368855
 20
79.3040644256
  0
VERTEX
  8
Layer0$C$L0
 62
     3
 10
-168.1905306246
 20
79.2758338533
  0
SEQEND
  8
Layer0$C$L0
 62
     3
  0
ARC
  8
Layer0$C$L0
 62
     3
 10
-167.9381033205
 20
79.0628646984
 40
0.3302656579
 50
139.8461726223
 51
185.2594505311
  0
LINE
  8
Layer0$C$L0
 62
     3
 10
-168.2669785010
 20
79.0325906101
 11
-168.4268240609
 21
79.0325906101
  0
LINE
  8
Layer0$C$L0
 62
     3
 10
-168.4695103075
 20
80.7737519244
 11
-168.3274253654
 21
80.7737519244
  0
LINE
  8
Layer0$C$L0
 62
     3
 10
-168.3274253654
 20
80.7737519244
 11
-167.8885579265
 21
79.8355279862
  0
LINE
  8
Layer0$C$L0
 62
     3
 10
-167.8885579265
 20
79.8355279862
 11
-167.8885579265
 21
80.7737519244
  0
LINE
  8
Layer0$C$L0
 62
     3
 10
-167.8885579265
 20
80.7737519244
 11
-167.7575411955
 21
80.7737519244
  0
LINE
  8
Layer0$C$L0
 62
     3
 10
-167.7575411955
 20
80.7737519244
 11
-167.7575411955
 21
79.5853349360
  0
LINE
  8
Layer0$C$L0
 62
     3
 10
-167.7575411955
 20
79.5853349360
 11
-167.8957651338
 21
79.5853349360
  0
LINE
  8
Layer0$C$L0
 62
     3
 10
-167.8957651338
 20
79.5853349360
 11
-168.3384935765
 21
80.5235588742
  0
LINE
  8
Layer0$C$L0
 62
     3
 10
-168.3384935765
 20
80.5235588742
 11
-168.3384935765
 21
79.5853349360
  0
LINE
  8
Layer0$C$L0
 62
     3
 10
-168.3384935765
 20
79.5853349360
 11
-168.4695103075
 21
79.5853349360
  0
LINE
  8
Layer0$C$L0
 62
     3
 10
-168.4695103075
 20
79.5853349360
 11
-168.4695103075
 21
80.7737519244
  0
POLYLINE
  8
Layer0$C$L0
 62
     3
 66
     1
  0
VERTEX
  8
Layer0$C$L0
 62
     3
 10
-167.5372487713
 20
79.0325906101
  0
VERTEX
  8
Layer0$C$L0
 62
     3
 10
-167.5074469646
 20
79.2277618411
  0
VERTEX
  8
Layer0$C$L0
 62
     3
 10
-167.4260518601
 20
79.3592315367
  0
SEQEND
  8
Layer0$C$L0
 62
     3
  0
POLYLINE
  8
Layer0$C$L0
 62
     3
 66
     1
  0
VERTEX
  8
Layer0$C$L0
 62
     3
 10
-167.4260518601
 20
79.3592315367
  0
VERTEX
  8
Layer0$C$L0
 62
     3
 10
-167.3142354506
 20
79.4320071453
  0
VERTEX
  8
Layer0$C$L0
 62
     3
 10
-167.2106078447
 20
79.4495790270
  0
SEQEND
  8
Layer0$C$L0
 62
     3
  0
POLYLINE
  8
Layer0$C$L0
 62
     3
 66
     1
  0
VERTEX
  8
Layer0$C$L0
 62
     3
 10
-167.2106078447
 20
79.4495790270
  0
VERTEX
  8
Layer0$C$L0
 62
     3
 10
-167.0645570997
 20
79.4235106287
  0
VERTEX
  8
Layer0$C$L0
 62
     3
 10
-166.9673646014
 20
79.3592315367
  0
SEQEND
  8
Layer0$C$L0
 62
     3
  0
POLYLINE
  8
Layer0$C$L0
 62
     3
 66
     1
  0
VERTEX
  8
Layer0$C$L0
 62
     3
 10
-166.9673646014
 20
79.3592315367
  0
VERTEX
  8
Layer0$C$L0
 62
     3
 10
-166.8939601000
 20
79.2435634423
  0
VERTEX
  8
Layer0$C$L0
 62
     3
 10
-166.8770171111
 20
79.1368377143
  0
SEQEND
  8
Layer0$C$L0
 62
     3
  0
POLYLINE
  8
Layer0$C$L0
 62
     3
 66
     1
  0
VERTEX
  8
Layer0$C$L0
 62
     3
 10
-166.8770171111
 20
79.1368377143
  0
VERTEX
  8
Layer0$C$L0
 62
     3
 10
-166.9094179975
 20
78.9636470442
  0
VERTEX
  8
Layer0$C$L0
 62
     3
 10
-166.9812642153
 20
78.8449458224
  0
SEQEND
  8
Layer0$C$L0
 62
     3
  0
POLYLINE
  8
Layer0$C$L0
 62
     3
 66
     1
  0
VERTEX
  8
Layer0$C$L0
 62
     3
 10
-166.9812642153
 20
78.8449458224
  0
VERTEX
  8
Layer0$C$L0
 62
     3
 10
-167.0923920444
 20
78.7149868565
  0
VERTEX
  8
Layer0$C$L0
 62
     3
 10
-167.1828086169
 20
78.6156021931
  0
SEQEND
  8
Layer0$C$L0
 62
     3
  0
LINE
  8
Layer0$C$L0
 62
     3
 10
-167.1828086169
 20
78.6156021931
 11
-167.2940055281
 21
78.4905056680
  0
POLYLINE
  8
Layer0$C$L0
 62
     3
 66
     1
  0
VERTEX
  8
Layer0$C$L0
 62
     3
 10
-167.2940055281
 20
78.4905056680
  0
VERTEX
  8
Layer0$C$L0
 62
     3
 10
-167.3428144064
 20
78.4298113729
  0
VERTEX
  8
Layer0$C$L0
 62
     3
 10
-167.3774032115
 20
78.3793087568
  0
SEQEND
  8
Layer0$C$L0
 62
     3
  0
LINE
  8
Layer0$C$L0
 62
     3
 10
-167.3774032115
 20
78.3793087568
 11
-166.8561676902
 21
78.3793087568
  0
LINE
  8
Layer0$C$L0
 62
     3
 10
-166.8561676902
 20
78.3793087568
 11
-166.8561676902
 21
78.2477772252
  0
LINE
  8
Layer0$C$L0
 62
     3
 10
-166.8561676902
 20
78.2477772252
 11
-167.5650479991
 21
78.2477772252
  0
LINE
  8
Layer0$C$L0
 62
     3
 10
-167.5650479991
 20
78.2477772252
 11
-167.5650479991
 21
78.3654091429
  0
POLYLINE
  8
Layer0$C$L0
 62
     3
 66
     1
  0
VERTEX
  8
Layer0$C$L0
 62
     3
 10
-167.5650479991
 20
78.3654091429
  0
VERTEX
  8
Layer0$C$L0
 62
     3
 10
-167.5083297510
 20
78.4798993480
  0
VERTEX
  8
Layer0$C$L0
 62
     3
 10
-167.4469012810
 20
78.5600037375
  0
SEQEND
  8
Layer0$C$L0
 62
     3
  0
POLYLINE
  8
Layer0$C$L0
 62
     3
 66
     1
  0
VERTEX
  8
Layer0$C$L0
 62
     3
 10
-167.4469012810
 20
78.5600037375
  0
VERTEX
  8
Layer0$C$L0
 62
     3
 10
-167.2865705556
 20
78.7344448910
  0
VERTEX
  8
Layer0$C$L0
 62
     3
 10
-167.1619591960
 20
78.8727450502
  0
SEQEND
  8
Layer0$C$L0
 62
     3
  0
POLYLINE
  8
Layer0$C$L0
 62
     3
 66
     1
  0
VERTEX
  8
Layer0$C$L0
 62
     3
 10
-167.1619591960
 20
78.8727450502
  0
VERTEX
  8
Layer0$C$L0
 62
     3
 10
-167.0698257559
 20
79.0098141877
  0
VERTEX
  8
Layer0$C$L0
 62
     3
 10
-167.0438124779
 20
79.1368377143
  0
SEQEND
  8
Layer0$C$L0
 62
     3
  0
POLYLINE
  8
Layer0$C$L0
 62
     3
 66
     1
  0
VERTEX
  8
Layer0$C$L0
 62
     3
 10
-167.0438124779
 20
79.1368377143
  0
VERTEX
  8
Layer0$C$L0
 62
     3
 10
-167.0608099039
 20
79.2206530041
  0
VERTEX
  8
Layer0$C$L0
 62
     3
 10
-167.0994109335
 20
79.2758338533
  0
SEQEND
  8
Layer0$C$L0
 62
     3
  0
POLYLINE
  8
Layer0$C$L0
 62
     3
 66
     1
  0
VERTEX
  8
Layer0$C$L0
 62
     3
 10
-167.0994109335
 20
79.2758338533
  0
VERTEX
  8
Layer0$C$L0
 62
     3
 10
-167.1536634177
 20
79.3099470088
  0
VERTEX
  8
Layer0$C$L0
 62
     3
 10
-167.2036580377
 20
79.3175326950
  0
SEQEND
  8
Layer0$C$L0
 62
     3
  0
POLYLINE
  8
Layer0$C$L0
 62
     3
 66
     1
  0
VERTEX
  8
Layer0$C$L0
 62
     3
 10
-167.2036580377
 20
79.3175326950
  0
VERTEX
  8
Layer0$C$L0
 62
     3
 10
-167.2625615959
 20
79.3040644256
  0
VERTEX
  8
Layer0$C$L0
 62
     3
 10
-167.3009553350
 20
79.2758338533
  0
SEQEND
  8
Layer0$C$L0
 62
     3
  0
ARC
  8
Layer0$C$L0
 62
     3
 10
-167.0485280309
 20
79.0628646984
 40
0.3302656579
 50
139.8461726223
 51
185.2594505311
  0
LINE
  8
Layer0$C$L0
 62
     3
 10
-167.3774032115
 20
79.0325906101
 11
-167.5372487713
 21
79.0325906101
  0
POLYLINE
  8
Layer0$C$L0
 62
     3
 66
     1
  0
VERTEX
  8
Layer0$C$L0
 62
     3
 10
-164.6009219890
 20
74.8651524733
  0
VERTEX
  8
Layer0$C$L0
 62
     3
 10
-164.5494842688
 20
74.9370596961
  0
VERTEX
  8
Layer0$C$L0
 62
     3
 10
-164.5314239195
 20
75.0041486123
  0
SEQEND
  8
Layer0$C$L0
 62
     3
  0
LINE
  8
Layer0$C$L0
 62
     3
 10
-164.5314239195
 20
75.0041486123
 11
-164.4480262361
 21
75.0041486123
  0
LINE
  8
Layer0$C$L0
 62
     3
 10
-164.4480262361
 20
75.0041486123
 11
-164.4480262361
 21
73.8018320100
  0
LINE
  8
Layer0$C$L0
 62
     3
 10
-164.4480262361
 20
73.8018320100
 11
-164.6125050006
 21
73.8018320100
  0
LINE
  8
Layer0$C$L0
 62
     3
 10
-164.6125050006
 20
73.8018320100
 11
-164.6125050006
 21
74.7274433356
  0
LINE
  8
Layer0$C$L0
 62
     3
 10
-164.6125050006
 20
74.7274433356
 11
-164.8163660044
 21
74.7274433356
  0
LINE
  8
Layer0$C$L0
 62
     3
 10
-164.8163660044
 20
74.7274433356
 11
-164.8163660044
 21
74.8095540177
  0
LINE
  8
Layer0$C$L0
 62
     3
 10
-164.8163660044
 20
74.8095540177
 11
-164.7538177419
 21
74.8095540177
  0
POLYLINE
  8
Layer0$C$L0
 62
     3
 66
     1
  0
VERTEX
  8
Layer0$C$L0
 62
     3
 10
-164.7538177419
 20
74.8095540177
  0
VERTEX
  8
Layer0$C$L0
 62
     3
 10
-164.6620949083
 20
74.8252406871
  0
VERTEX
  8
Layer0$C$L0
 62
     3
 10
-164.6009219890
 20
74.8651524733
  0
SEQEND
  8
Layer0$C$L0
 62
     3
  0
POLYLINE
  8
Layer0$C$L0
 62
     3
 66
     1
  0
VERTEX
  8
Layer0$C$L0
 62
     3
 10
-167.5819942200
 20
80.1760685267
  0
VERTEX
  8
Layer0$C$L0
 62
     3
 10
-167.5447461699
 20
80.4574615872
  0
VERTEX
  8
Layer0$C$L0
 62
     3
 10
-167.4435128815
 20
80.6556052062
  0
SEQEND
  8
Layer0$C$L0
 62
     3
  0
POLYLINE
  8
Layer0$C$L0
 62
     3
 66
     1
  0
VERTEX
  8
Layer0$C$L0
 62
     3
 10
-167.4435128815
 20
80.6556052062
  0
VERTEX
  8
Layer0$C$L0
 62
     3
 10
-167.3067948034
 20
80.7621070928
  0
VERTEX
  8
Layer0$C$L0
 62
     3
 10
-167.1724704105
 20
80.7876515383
  0
SEQEND
  8
Layer0$C$L0
 62
     3
  0
POLYLINE
  8
Layer0$C$L0
 62
     3
 66
     1
  0
VERTEX
  8
Layer0$C$L0
 62
     3
 10
-167.1724704105
 20
80.7876515383
  0
VERTEX
  8
Layer0$C$L0
 62
     3
 10
-167.0119243029
 20
80.7520372443
  0
VERTEX
  8
Layer0$C$L0
 62
     3
 10
-166.9122387502
 20
80.6695048201
  0
SEQEND
  8
Layer0$C$L0
 62
     3
  0
POLYLINE
  8
Layer0$C$L0
 62
     3
 66
     1
  0
VERTEX
  8
Layer0$C$L0
 62
     3
 10
-166.9122387502
 20
80.6695048201
  0
VERTEX
  8
Layer0$C$L0
 62
     3
 10
-166.8276967271
 20
80.4988072913
  0
VERTEX
  8
Layer0$C$L0
 62
     3
 10
-166.8072194452
 20
80.3498137005
  0
SEQEND
  8
Layer0$C$L0
 62
     3
  0
LINE
  8
Layer0$C$L0
 62
     3
 10
-166.8072194452
 20
80.3498137005
 11
-166.9400379780
 21
80.3498137005
  0
POLYLINE
  8
Layer0$C$L0
 62
     3
 66
     1
  0
VERTEX
  8
Layer0$C$L0
 62
     3
 10
-166.9400379780
 20
80.3498137005
  0
VERTEX
  8
Layer0$C$L0
 62
     3
 10
-166.9639846329
 20
80.4801045318
  0
VERTEX
  8
Layer0$C$L0
 62
     3
 10
-167.0118526498
 20
80.5722075229
  0
SEQEND
  8
Layer0$C$L0
 62
     3
  0
POLYLINE
  8
Layer0$C$L0
 62
     3
 66
     1
  0
VERTEX
  8
Layer0$C$L0
 62
     3
 10
-167.0118526498
 20
80.5722075229
  0
VERTEX
  8
Layer0$C$L0
 62
     3
 10
-167.0923979484
 20
80.6382499084
  0
VERTEX
  8
Layer0$C$L0
 62
     3
 10
-167.1724704105
 20
80.6556052062
  0
SEQEND
  8
Layer0$C$L0
 62
     3
  0
ARC
  8
Layer0$C$L0
 62
     3
 10
-167.1653369818
 20
80.4328104396
 40
0.2229089363
 50
91.8338661245
 51
145.7365587087
  0
POLYLINE
  8
Layer0$C$L0
 62
     3
 66
     1
  0
VERTEX
  8
Layer0$C$L0
 62
     3
 10
-167.3495617875
 20
80.5583079090
  0
VERTEX
  8
Layer0$C$L0
 62
     3
 10
-167.4349288992
 20
80.3522274518
  0
VERTEX
  8
Layer0$C$L0
 62
     3
 10
-167.4491756872
 20
80.1760685267
  0
SEQEND
  8
Layer0$C$L0
 62
     3
  0
POLYLINE
  8
Layer0$C$L0
 62
     3
 66
     1
  0
VERTEX
  8
Layer0$C$L0
 62
     3
 10
-167.4491756872
 20
80.1760685267
  0
VERTEX
  8
Layer0$C$L0
 62
     3
 10
-167.4244501318
 20
79.9528022775
  0
VERTEX
  8
Layer0$C$L0
 62
     3
 10
-167.3495617875
 20
79.7938291445
  0
SEQEND
  8
Layer0$C$L0
 62
     3
  0
POLYLINE
  8
Layer0$C$L0
 62
     3
 66
     1
  0
VERTEX
  8
Layer0$C$L0
 62
     3
 10
-167.3495617875
 20
79.7938291445
  0
VERTEX
  8
Layer0$C$L0
 62
     3
 10
-167.2605960654
 20
79.7219005501
  0
VERTEX
  8
Layer0$C$L0
 62
     3
 10
-167.1724704105
 20
79.7034816541
  0
SEQEND
  8
Layer0$C$L0
 62
     3
  0
POLYLINE
  8
Layer0$C$L0
 62
     3
 66
     1
  0
VERTEX
  8
Layer0$C$L0
 62
     3
 10
-167.1724704105
 20
79.7034816541
  0
VERTEX
  8
Layer0$C$L0
 62
     3
 10
-167.0666498939
 20
79.7260680214
  0
VERTEX
  8
Layer0$C$L0
 62
     3
 10
-167.0007844388
 20
79.7799295306
  0
SEQEND
  8
Layer0$C$L0
 62
     3
  0
POLYLINE
  8
Layer0$C$L0
 62
     3
 66
     1
  0
VERTEX
  8
Layer0$C$L0
 62
     3
 10
-167.0007844388
 20
79.7799295306
  0
VERTEX
  8
Layer0$C$L0
 62
     3
 10
-166.9350693077
 20
79.9292858984
  0
VERTEX
  8
Layer0$C$L0
 62
     3
 10
-166.9233069613
 20
80.0579218086
  0
SEQEND
  8
Layer0$C$L0
 62
     3
  0
LINE
  8
Layer0$C$L0
 62
     3
 10
-166.9233069613
 20
80.0579218086
 11
-166.7904884285
 21
80.0579218086
  0
POLYLINE
  8
Layer0$C$L0
 62
     3
 66
     1
  0
VERTEX
  8
Layer0$C$L0
 62
     3
 10
-166.7904884285
 20
80.0579218086
  0
VERTEX
  8
Layer0$C$L0
 62
     3
 10
-166.8226422185
 20
79.8418010877
  0
VERTEX
  8
Layer0$C$L0
 62
     3
 10
-166.9011705392
 20
79.6895820402
  0
SEQEND
  8
Layer0$C$L0
 62
     3
  0
ARC
  8
Layer0$C$L0
 62
     3
 10
-167.1523640483
 20
79.8958309610
 40
0.3250181478
 50
266.4532880767
 51
320.6114090451
  0
POLYLINE
  8
Layer0$C$L0
 62
     3
 66
     1
  0
VERTEX
  8
Layer0$C$L0
 62
     3
 10
-167.1724704105
 20
79.5714353221
  0
VERTEX
  8
Layer0$C$L0
 62
     3
 10
-167.3405425298
 20
79.6133880342
  0
VERTEX
  8
Layer0$C$L0
 62
     3
 10
-167.4435128815
 20
79.7034816541
  0
SEQEND
  8
Layer0$C$L0
 62
     3
  0
ARC
  8
Layer0$C$L0
 62
     3
 10
-166.8514717498
 20
80.1335493872
 40
0.7317588105
 50
176.6689295158
 51
215.9952283837
  0
LINE
  8
Layer0$C$L0
 62
     3
 10
-164.8738031206
 20
76.4108633816
 11
-164.7317181785
 21
76.4108633816
  0
LINE
  8
Layer0$C$L0
 62
     3
 10
-164.7317181785
 20
76.4108633816
 11
-164.2928507396
 21
75.4726394434
  0
LINE
  8
Layer0$C$L0
 62
     3
 10
-164.2928507396
 20
75.4726394434
 11
-164.2928507396
 21
76.4108633816
  0
LINE
  8
Layer0$C$L0
 62
     3
 10
-164.2928507396
 20
76.4108633816
 11
-164.1618340086
 21
76.4108633816
  0
LINE
  8
Layer0$C$L0
 62
     3
 10
-164.1618340086
 20
76.4108633816
 11
-164.1618340086
 21
75.2224463932
  0
LINE
  8
Layer0$C$L0
 62
     3
 10
-164.1618340086
 20
75.2224463932
 11
-164.3000579468
 21
75.2224463932
  0
LINE
  8
Layer0$C$L0
 62
     3
 10
-164.3000579468
 20
75.2224463932
 11
-164.7427863896
 21
76.1606703314
  0
LINE
  8
Layer0$C$L0
 62
     3
 10
-164.7427863896
 20
76.1606703314
 11
-164.7427863896
 21
75.2224463932
  0
LINE
  8
Layer0$C$L0
 62
     3
 10
-164.8738031206
 20
75.2224463932
 11
-164.8738031206
 21
76.4108633816
  0
LINE
  8
Layer0$C$L0
 62
     3
 10
-164.7427863896
 20
75.2224463932
 11
-164.8738031206
 21
75.2224463932
  0
LINE
  8
Layer0$C$L0
 62
     3
 10
-163.5908833790
 20
74.7400559482
 11
-163.8989914871
 21
74.2327200408
  0
LINE
  8
Layer0$C$L0
 62
     3
 10
-163.8989914871
 20
74.2327200408
 11
-163.5908833790
 21
74.2327200408
  0
LINE
  8
Layer0$C$L0
 62
     3
 10
-163.5908833790
 20
74.2327200408
 11
-163.5908833790
 21
74.7400559482
  0
LINE
  8
Layer0$C$L0
 62
     3
 10
-163.5862501743
 20
74.9971988053
 11
-163.4264046145
 21
74.9971988053
  0
LINE
  8
Layer0$C$L0
 62
     3
 10
-163.4264046145
 20
74.9971988053
 11
-163.4264046145
 21
74.2327200408
  0
LINE
  8
Layer0$C$L0
 62
     3
 10
-163.4264046145
 20
74.2327200408
 11
-163.2804586685
 21
74.2327200408
  0
LINE
  8
Layer0$C$L0
 62
     3
 10
-163.2804586685
 20
74.2327200408
 11
-163.2804586685
 21
74.1011885093
  0
LINE
  8
Layer0$C$L0
 62
     3
 10
-163.2804586685
 20
74.1011885093
 11
-163.4264046145
 21
74.1011885093
  0
LINE
  8
Layer0$C$L0
 62
     3
 10
-163.4264046145
 20
74.1011885093
 11
-163.4264046145
 21
73.7948822030
  0
LINE
  8
Layer0$C$L0
 62
     3
 10
-163.4264046145
 20
73.7948822030
 11
-163.5908833790
 21
73.7948822030
  0
LINE
  8
Layer0$C$L0
 62
     3
 10
-163.5908833790
 20
73.7948822030
 11
-163.5908833790
 21
74.1011885093
  0
LINE
  8
Layer0$C$L0
 62
     3
 10
-163.5908833790
 20
74.1011885093
 11
-164.0518872400
 21
74.1011885093
  0
LINE
  8
Layer0$C$L0
 62
     3
 10
-164.0518872400
 20
74.1011885093
 11
-164.0518872400
 21
74.2396698478
  0
LINE
  8
Layer0$C$L0
 62
     3
 10
-164.0518872400
 20
74.2396698478
 11
-163.5862501743
 21
74.9971988053
  0
POLYLINE
  8
Layer0$C$L0
 62
     3
 66
     1
  0
VERTEX
  8
Layer0$C$L0
 62
     3
 10
-163.7538546006
 20
76.1884695592
  0
VERTEX
  8
Layer0$C$L0
 62
     3
 10
-163.8346014170
 20
75.9896841615
  0
VERTEX
  8
Layer0$C$L0
 62
     3
 10
-163.8478056946
 20
75.8201297909
  0
SEQEND
  8
Layer0$C$L0
 62
     3
  0
POLYLINE
  8
Layer0$C$L0
 62
     3
 66
     1
  0
VERTEX
  8
Layer0$C$L0
 62
     3
 10
-163.8478056946
 20
75.8201297909
  0
VERTEX
  8
Layer0$C$L0
 62
     3
 10
-163.8249633663
 20
75.6051548495
  0
VERTEX
  8
Layer0$C$L0
 62
     3
 10
-163.7538546006
 20
75.4517900225
  0
SEQEND
  8
Layer0$C$L0
 62
     3
  0
POLYLINE
  8
Layer0$C$L0
 62
     3
 66
     1
  0
VERTEX
  8
Layer0$C$L0
 62
     3
 10
-163.7538546006
 20
75.4517900225
  0
VERTEX
  8
Layer0$C$L0
 62
     3
 10
-163.6600500680
 20
75.3707465491
  0
VERTEX
  8
Layer0$C$L0
 62
     3
 10
-163.5656950125
 20
75.3475429183
  0
SEQEND
  8
Layer0$C$L0
 62
     3
  0
ARC
  8
Layer0$C$L0
 62
     3
 10
-163.5736396389
 20
75.5838142516
 40
0.2364048646
 50
271.9258456763
 51
326.0501785290
  0
POLYLINE
  8
Layer0$C$L0
 62
     3
 66
     1
  0
VERTEX
  8
Layer0$C$L0
 62
     3
 10
-163.3775354243
 20
75.4517900225
  0
VERTEX
  8
Layer0$C$L0
 62
     3
 10
-163.2965386448
 20
75.6505335058
  0
VERTEX
  8
Layer0$C$L0
 62
     3
 10
-163.2833269301
 20
75.8201297909
  0
SEQEND
  8
Layer0$C$L0
 62
     3
  0
POLYLINE
  8
Layer0$C$L0
 62
     3
 66
     1
  0
VERTEX
  8
Layer0$C$L0
 62
     3
 10
-163.2833269301
 20
75.8201297909
  0
VERTEX
  8
Layer0$C$L0
 62
     3
 10
-163.3061845709
 20
76.0351564853
  0
VERTEX
  8
Layer0$C$L0
 62
     3
 10
-163.3775354243
 20
76.1884695592
  0
SEQEND
  8
Layer0$C$L0
 62
     3
  0
POLYLINE
  8
Layer0$C$L0
 62
     3
 66
     1
  0
VERTEX
  8
Layer0$C$L0
 62
     3
 10
-163.3775354243
 20
76.1884695592
  0
VERTEX
  8
Layer0$C$L0
 62
     3
 10
-163.4713268974
 20
76.2695375175
  0
VERTEX
  8
Layer0$C$L0
 62
     3
 10
-163.5656950125
 20
76.2927166635
  0
SEQEND
  8
Layer0$C$L0
 62
     3
  0
ARC
  8
Layer0$C$L0
 62
     3
 10
-163.5576953889
 20
76.0563460636
 40
0.2365059290
 50
91.9383535703
 51
146.0376706351
  0
POLYLINE
  8
Layer0$C$L0
 62
     3
 66
     1
  0
VERTEX
  8
Layer0$C$L0
 62
     3
 10
-163.9806242274
 20
75.8201297909
  0
VERTEX
  8
Layer0$C$L0
 62
     3
 10
-163.9449032009
 20
76.0893409496
  0
VERTEX
  8
Layer0$C$L0
 62
     3
 10
-163.8478056946
 20
76.2788170496
  0
SEQEND
  8
Layer0$C$L0
 62
     3
  0
POLYLINE
  8
Layer0$C$L0
 62
     3
 66
     1
  0
VERTEX
  8
Layer0$C$L0
 62
     3
 10
-163.8478056946
 20
76.2788170496
  0
VERTEX
  8
Layer0$C$L0
 62
     3
 10
-163.7062582354
 20
76.3944684663
  0
VERTEX
  8
Layer0$C$L0
 62
     3
 10
-163.5656950125
 20
76.4247629955
  0
SEQEND
  8
Layer0$C$L0
 62
     3
  0
POLYLINE
  8
Layer0$C$L0
 62
     3
 66
     1
  0
VERTEX
  8
Layer0$C$L0
 62
     3
 10
-163.5656950125
 20
76.4247629955
  0
VERTEX
  8
Layer0$C$L0
 62
     3
 10
-163.3900906769
 20
76.3759373332
  0
VERTEX
  8
Layer0$C$L0
 62
     3
 10
-163.2833269301
 20
76.2788170496
  0
SEQEND
  8
Layer0$C$L0
 62
     3
  0
ARC
  8
Layer0$C$L0
 62
     3
 10
-163.8599184700
 20
75.8632846345
 40
0.7107214587
 50
356.5188721034
 51
395.7791736356
  0
POLYLINE
  8
Layer0$C$L0
 62
     3
 66
     1
  0
VERTEX
  8
Layer0$C$L0
 62
     3
 10
-163.1505083973
 20
75.8201297909
  0
VERTEX
  8
Layer0$C$L0
 62
     3
 10
-163.1862945497
 20
75.5509374951
  0
VERTEX
  8
Layer0$C$L0
 62
     3
 10
-163.2833269301
 20
75.3614425322
  0
SEQEND
  8
Layer0$C$L0
 62
     3
  0
POLYLINE
  8
Layer0$C$L0
 62
     3
 66
     1
  0
VERTEX
  8
Layer0$C$L0
 62
     3
 10
-163.2833269301
 20
75.3614425322
  0
VERTEX
  8
Layer0$C$L0
 62
     3
 10
-163.4249980334
 20
75.2457282766
  0
VERTEX
  8
Layer0$C$L0
 62
     3
 10
-163.5656950125
 20
75.2154965862
  0
SEQEND
  8
Layer0$C$L0
 62
     3
  0
POLYLINE
  8
Layer0$C$L0
 62
     3
 66
     1
  0
VERTEX
  8
Layer0$C$L0
 62
     3
 10
-163.5656950125
 20
75.2154965862
  0
VERTEX
  8
Layer0$C$L0
 62
     3
 10
-163.7411348504
 20
75.2643772483
  0
VERTEX
  8
Layer0$C$L0
 62
     3
 10
-163.8478056946
 20
75.3614425322
  0
SEQEND
  8
Layer0$C$L0
 62
     3
  0
ARC
  8
Layer0$C$L0
 62
     3
 10
-163.2711600459
 20
75.7769906150
 40
0.7107745165
 50
176.5203976072
 51
215.7776481318
  0
POLYLINE
  8
Layer0$C$L0
 62
     3
 66
     1
  0
VERTEX
  8
Layer0$C$L0
 62
     3
 10
-164.5594731329
 20
79.2733650933
  0
VERTEX
  8
Layer0$C$L0
 62
     3
 10
-164.5080354127
 20
79.3452723161
  0
VERTEX
  8
Layer0$C$L0
 62
     3
 10
-164.4899750634
 20
79.4123612323
  0
SEQEND
  8
Layer0$C$L0
 62
     3
  0
LINE
  8
Layer0$C$L0
 62
     3
 10
-164.4899750634
 20
79.4123612323
 11
-164.4065773800
 21
79.4123612323
  0
LINE
  8
Layer0$C$L0
 62
     3
 10
-164.4065773800
 20
79.4123612323
 11
-164.4065773800
 21
78.2100446300
  0
LINE
  8
Layer0$C$L0
 62
     3
 10
-164.4065773800
 20
78.2100446300
 11
-164.5710561445
 21
78.2100446300
  0
LINE
  8
Layer0$C$L0
 62
     3
 10
-164.5710561445
 20
78.2100446300
 11
-164.5710561445
 21
79.1356559556
  0
LINE
  8
Layer0$C$L0
 62
     3
 10
-164.5710561445
 20
79.1356559556
 11
-164.7749171484
 21
79.1356559556
  0
LINE
  8
Layer0$C$L0
 62
     3
 10
-164.7749171484
 20
79.1356559556
 11
-164.7749171484
 21
79.2177666377
  0
LINE
  8
Layer0$C$L0
 62
     3
 10
-164.7749171484
 20
79.2177666377
 11
-164.7123688858
 21
79.2177666377
  0
POLYLINE
  8
Layer0$C$L0
 62
     3
 66
     1
  0
VERTEX
  8
Layer0$C$L0
 62
     3
 10
-164.7123688858
 20
79.2177666377
  0
VERTEX
  8
Layer0$C$L0
 62
     3
 10
-164.6206460522
 20
79.2334533071
  0
VERTEX
  8
Layer0$C$L0
 62
     3
 10
-164.5594731329
 20
79.2733650933
  0
SEQEND
  8
Layer0$C$L0
 62
     3
  0
LINE
  8
Layer0$C$L0
 62
     3
 10
-164.8713234869
 20
80.7732413099
 11
-164.7292385449
 21
80.7732413099
  0
LINE
  8
Layer0$C$L0
 62
     3
 10
-164.7292385449
 20
80.7732413099
 11
-164.2903711060
 21
79.8350173717
  0
LINE
  8
Layer0$C$L0
 62
     3
 10
-164.2903711060
 20
79.8350173717
 11
-164.2903711060
 21
80.7732413099
  0
LINE
  8
Layer0$C$L0
 62
     3
 10
-164.2903711060
 20
80.7732413099
 11
-164.1593543750
 21
80.7732413099
  0
LINE
  8
Layer0$C$L0
 62
     3
 10
-164.1593543750
 20
80.7732413099
 11
-164.1593543750
 21
79.5848243215
  0
LINE
  8
Layer0$C$L0
 62
     3
 10
-164.1593543750
 20
79.5848243215
 11
-164.2975783132
 21
79.5848243215
  0
LINE
  8
Layer0$C$L0
 62
     3
 10
-164.2975783132
 20
79.5848243215
 11
-164.7403067559
 21
80.5230482597
  0
LINE
  8
Layer0$C$L0
 62
     3
 10
-164.7403067559
 20
80.5230482597
 11
-164.7403067559
 21
79.5848243215
  0
LINE
  8
Layer0$C$L0
 62
     3
 10
-164.7403067559
 20
79.5848243215
 11
-164.8713234869
 21
79.5848243215
  0
LINE
  8
Layer0$C$L0
 62
     3
 10
-164.8713234869
 20
79.5848243215
 11
-164.8713234869
 21
80.7732413099
  0
POLYLINE
  8
Layer0$C$L0
 62
     3
 66
     1
  0
VERTEX
  8
Layer0$C$L0
 62
     3
 10
-163.9548399283
 20
78.9884230084
  0
VERTEX
  8
Layer0$C$L0
 62
     3
 10
-163.9250381216
 20
79.1835942394
  0
VERTEX
  8
Layer0$C$L0
 62
     3
 10
-163.8436430171
 20
79.3150639350
  0
SEQEND
  8
Layer0$C$L0
 62
     3
  0
POLYLINE
  8
Layer0$C$L0
 62
     3
 66
     1
  0
VERTEX
  8
Layer0$C$L0
 62
     3
 10
-163.8436430171
 20
79.3150639350
  0
VERTEX
  8
Layer0$C$L0
 62
     3
 10
-163.7318266075
 20
79.3878395436
  0
VERTEX
  8
Layer0$C$L0
 62
     3
 10
-163.6281990016
 20
79.4054114254
  0
SEQEND
  8
Layer0$C$L0
 62
     3
  0
POLYLINE
  8
Layer0$C$L0
 62
     3
 66
     1
  0
VERTEX
  8
Layer0$C$L0
 62
     3
 10
-163.6281990016
 20
79.4054114254
  0
VERTEX
  8
Layer0$C$L0
 62
     3
 10
-163.4821482567
 20
79.3793430270
  0
VERTEX
  8
Layer0$C$L0
 62
     3
 10
-163.3849557584
 20
79.3150639350
  0
SEQEND
  8
Layer0$C$L0
 62
     3
  0
POLYLINE
  8
Layer0$C$L0
 62
     3
 66
     1
  0
VERTEX
  8
Layer0$C$L0
 62
     3
 10
-163.3849557584
 20
79.3150639350
  0
VERTEX
  8
Layer0$C$L0
 62
     3
 10
-163.3115512570
 20
79.1993958406
  0
VERTEX
  8
Layer0$C$L0
 62
     3
 10
-163.2946082681
 20
79.0926701126
  0
SEQEND
  8
Layer0$C$L0
 62
     3
  0
POLYLINE
  8
Layer0$C$L0
 62
     3
 66
     1
  0
VERTEX
  8
Layer0$C$L0
 62
     3
 10
-163.2946082681
 20
79.0926701126
  0
VERTEX
  8
Layer0$C$L0
 62
     3
 10
-163.3270091544
 20
78.9194794425
  0
VERTEX
  8
Layer0$C$L0
 62
     3
 10
-163.3988553723
 20
78.8007782207
  0
SEQEND
  8
Layer0$C$L0
 62
     3
  0
POLYLINE
  8
Layer0$C$L0
 62
     3
 66
     1
  0
VERTEX
  8
Layer0$C$L0
 62
     3
 10
-163.3988553723
 20
78.8007782207
  0
VERTEX
  8
Layer0$C$L0
 62
     3
 10
-163.5099832014
 20
78.6708192548
  0
VERTEX
  8
Layer0$C$L0
 62
     3
 10
-163.6003997738
 20
78.5714345914
  0
SEQEND
  8
Layer0$C$L0
 62
     3
  0
LINE
  8
Layer0$C$L0
 62
     3
 10
-163.6003997738
 20
78.5714345914
 11
-163.7115966850
 21
78.4463380663
  0
POLYLINE
  8
Layer0$C$L0
 62
     3
 66
     1
  0
VERTEX
  8
Layer0$C$L0
 62
     3
 10
-163.7115966850
 20
78.4463380663
  0
VERTEX
  8
Layer0$C$L0
 62
     3
 10
-163.7604055634
 20
78.3856437712
  0
VERTEX
  8
Layer0$C$L0
 62
     3
 10
-163.7949943684
 20
78.3351411551
  0
SEQEND
  8
Layer0$C$L0
 62
     3
  0
LINE
  8
Layer0$C$L0
 62
     3
 10
-163.7949943684
 20
78.3351411551
 11
-163.2737588472
 21
78.3351411551
  0
LINE
  8
Layer0$C$L0
 62
     3
 10
-163.2737588472
 20
78.3351411551
 11
-163.2737588472
 21
78.2036096236
  0
LINE
  8
Layer0$C$L0
 62
     3
 10
-163.2737588472
 20
78.2036096236
 11
-163.9826391561
 21
78.2036096236
  0
LINE
  8
Layer0$C$L0
 62
     3
 10
-163.9826391561
 20
78.2036096236
 11
-163.9826391561
 21
78.3212415412
  0
POLYLINE
  8
Layer0$C$L0
 62
     3
 66
     1
  0
VERTEX
  8
Layer0$C$L0
 62
     3
 10
-163.9826391561
 20
78.3212415412
  0
VERTEX
  8
Layer0$C$L0
 62
     3
 10
-163.9259209080
 20
78.4357317463
  0
VERTEX
  8
Layer0$C$L0
 62
     3
 10
-163.8644924379
 20
78.5158361358
  0
SEQEND
  8
Layer0$C$L0
 62
     3
  0
POLYLINE
  8
Layer0$C$L0
 62
     3
 66
     1
  0
VERTEX
  8
Layer0$C$L0
 62
     3
 10
-163.8644924379
 20
78.5158361358
  0
VERTEX
  8
Layer0$C$L0
 62
     3
 10
-163.7041617126
 20
78.6902772893
  0
VERTEX
  8
Layer0$C$L0
 62
     3
 10
-163.5795503530
 20
78.8285774485
  0
SEQEND
  8
Layer0$C$L0
 62
     3
  0
POLYLINE
  8
Layer0$C$L0
 62
     3
 66
     1
  0
VERTEX
  8
Layer0$C$L0
 62
     3
 10
-163.5795503530
 20
78.8285774485
  0
VERTEX
  8
Layer0$C$L0
 62
     3
 10
-163.4874169129
 20
78.9656465860
  0
VERTEX
  8
Layer0$C$L0
 62
     3
 10
-163.4614036349
 20
79.0926701126
  0
SEQEND
  8
Layer0$C$L0
 62
     3
  0
POLYLINE
  8
Layer0$C$L0
 62
     3
 66
     1
  0
VERTEX
  8
Layer0$C$L0
 62
     3
 10
-163.4614036349
 20
79.0926701126
  0
VERTEX
  8
Layer0$C$L0
 62
     3
 10
-163.4784010609
 20
79.1764854024
  0
VERTEX
  8
Layer0$C$L0
 62
     3
 10
-163.5170020905
 20
79.2316662516
  0
SEQEND
  8
Layer0$C$L0
 62
     3
  0
POLYLINE
  8
Layer0$C$L0
 62
     3
 66
     1
  0
VERTEX
  8
Layer0$C$L0
 62
     3
 10
-163.5170020905
 20
79.2316662516
  0
VERTEX
  8
Layer0$C$L0
 62
     3
 10
-163.5712545747
 20
79.2657794071
  0
VERTEX
  8
Layer0$C$L0
 62
     3
 10
-163.6212491947
 20
79.2733650933
  0
SEQEND
  8
Layer0$C$L0
 62
     3
  0
POLYLINE
  8
Layer0$C$L0
 62
     3
 66
     1
  0
VERTEX
  8
Layer0$C$L0
 62
     3
 10
-163.6212491947
 20
79.2733650933
  0
VERTEX
  8
Layer0$C$L0
 62
     3
 10
-163.6801527529
 20
79.2598968239
  0
VERTEX
  8
Layer0$C$L0
 62
     3
 10
-163.7185464920
 20
79.2316662516
  0
SEQEND
  8
Layer0$C$L0
 62
     3
  0
ARC
  8
Layer0$C$L0
 62
     3
 10
-163.4661191879
 20
79.0186970967
 40
0.3302656579
 50
139.8461726224
 51
185.2594505311
  0
LINE
  8
Layer0$C$L0
 62
     3
 10
-163.7949943684
 20
78.9884230084
 11
-163.9548399283
 21
78.9884230084
  0
POLYLINE
  8
Layer0$C$L0
 62
     3
 66
     1
  0
VERTEX
  8
Layer0$C$L0
 62
     3
 10
-163.9838073994
 20
80.1755579122
  0
VERTEX
  8
Layer0$C$L0
 62
     3
 10
-163.9465593494
 20
80.4569509727
  0
VERTEX
  8
Layer0$C$L0
 62
     3
 10
-163.8453260609
 20
80.6550945918
  0
SEQEND
  8
Layer0$C$L0
 62
     3
  0
POLYLINE
  8
Layer0$C$L0
 62
     3
 66
     1
  0
VERTEX
  8
Layer0$C$L0
 62
     3
 10
-163.8453260609
 20
80.6550945918
  0
VERTEX
  8
Layer0$C$L0
 62
     3
 10
-163.7086079828
 20
80.7615964783
  0
VERTEX
  8
Layer0$C$L0
 62
     3
 10
-163.5742835899
 20
80.7871409238
  0
SEQEND
  8
Layer0$C$L0
 62
     3
  0
POLYLINE
  8
Layer0$C$L0
 62
     3
 66
     1
  0
VERTEX
  8
Layer0$C$L0
 62
     3
 10
-163.5742835899
 20
80.7871409238
  0
VERTEX
  8
Layer0$C$L0
 62
     3
 10
-163.4137374824
 20
80.7515266298
  0
VERTEX
  8
Layer0$C$L0
 62
     3
 10
-163.3140519297
 20
80.6689942057
  0
SEQEND
  8
Layer0$C$L0
 62
     3
  0
POLYLINE
  8
Layer0$C$L0
 62
     3
 66
     1
  0
VERTEX
  8
Layer0$C$L0
 62
     3
 10
-163.3140519297
 20
80.6689942057
  0
VERTEX
  8
Layer0$C$L0
 62
     3
 10
-163.2295099065
 20
80.4982966768
  0
VERTEX
  8
Layer0$C$L0
 62
     3
 10
-163.2090326247
 20
80.3493030860
  0
SEQEND
  8
Layer0$C$L0
 62
     3
  0
LINE
  8
Layer0$C$L0
 62
     3
 10
-163.2090326247
 20
80.3493030860
 11
-163.3418511575
 21
80.3493030860
  0
POLYLINE
  8
Layer0$C$L0
 62
     3
 66
     1
  0
VERTEX
  8
Layer0$C$L0
 62
     3
 10
-163.3418511575
 20
80.3493030860
  0
VERTEX
  8
Layer0$C$L0
 62
     3
 10
-163.3657978124
 20
80.4795939173
  0
VERTEX
  8
Layer0$C$L0
 62
     3
 10
-163.4136658293
 20
80.5716969084
  0
SEQEND
  8
Layer0$C$L0
 62
     3
  0
POLYLINE
  8
Layer0$C$L0
 62
     3
 66
     1
  0
VERTEX
  8
Layer0$C$L0
 62
     3
 10
-163.4136658293
 20
80.5716969084
  0
VERTEX
  8
Layer0$C$L0
 62
     3
 10
-163.4942111279
 20
80.6377392939
  0
VERTEX
  8
Layer0$C$L0
 62
     3
 10
-163.5742835899
 20
80.6550945918
  0
SEQEND
  8
Layer0$C$L0
 62
     3
  0
ARC
  8
Layer0$C$L0
 62
     3
 10
-163.5671501613
 20
80.4322998251
 40
0.2229089363
 50
91.8338661245
 51
145.7365587088
  0
POLYLINE
  8
Layer0$C$L0
 62
     3
 66
     1
  0
VERTEX
  8
Layer0$C$L0
 62
     3
 10
-163.7513749670
 20
80.5577972945
  0
VERTEX
  8
Layer0$C$L0
 62
     3
 10
-163.8367420787
 20
80.3517168373
  0
VERTEX
  8
Layer0$C$L0
 62
     3
 10
-163.8509888666
 20
80.1755579122
  0
SEQEND
  8
Layer0$C$L0
 62
     3
  0
POLYLINE
  8
Layer0$C$L0
 62
     3
 66
     1
  0
VERTEX
  8
Layer0$C$L0
 62
     3
 10
-163.8509888666
 20
80.1755579122
  0
VERTEX
  8
Layer0$C$L0
 62
     3
 10
-163.8262633113
 20
79.9522916630
  0
VERTEX
  8
Layer0$C$L0
 62
     3
 10
-163.7513749670
 20
79.7933185300
  0
SEQEND
  8
Layer0$C$L0
 62
     3
  0
POLYLINE
  8
Layer0$C$L0
 62
     3
 66
     1
  0
VERTEX
  8
Layer0$C$L0
 62
     3
 10
-163.7513749670
 20
79.7933185300
  0
VERTEX
  8
Layer0$C$L0
 62
     3
 10
-163.6624092449
 20
79.7213899357
  0
VERTEX
  8
Layer0$C$L0
 62
     3
 10
-163.5742835899
 20
79.7029710396
  0
SEQEND
  8
Layer0$C$L0
 62
     3
  0
POLYLINE
  8
Layer0$C$L0
 62
     3
 66
     1
  0
VERTEX
  8
Layer0$C$L0
 62
     3
 10
-163.5742835899
 20
79.7029710396
  0
VERTEX
  8
Layer0$C$L0
 62
     3
 10
-163.4684630734
 20
79.7255574069
  0
VERTEX
  8
Layer0$C$L0
 62
     3
 10
-163.4025976182
 20
79.7794189161
  0
SEQEND
  8
Layer0$C$L0
 62
     3
  0
POLYLINE
  8
Layer0$C$L0
 62
     3
 66
     1
  0
VERTEX
  8
Layer0$C$L0
 62
     3
 10
-163.4025976182
 20
79.7794189161
  0
VERTEX
  8
Layer0$C$L0
 62
     3
 10
-163.3368824871
 20
79.9287752839
  0
VERTEX
  8
Layer0$C$L0
 62
     3
 10
-163.3251201407
 20
80.0574111941
  0
SEQEND
  8
Layer0$C$L0
 62
     3
  0
LINE
  8
Layer0$C$L0
 62
     3
 10
-163.3251201407
 20
80.0574111941
 11
-163.1923016079
 21
80.0574111941
  0
POLYLINE
  8
Layer0$C$L0
 62
     3
 66
     1
  0
VERTEX
  8
Layer0$C$L0
 62
     3
 10
-163.1923016079
 20
80.0574111941
  0
VERTEX
  8
Layer0$C$L0
 62
     3
 10
-163.2244553980
 20
79.8412904732
  0
VERTEX
  8
Layer0$C$L0
 62
     3
 10
-163.3029837186
 20
79.6890714257
  0
SEQEND
  8
Layer0$C$L0
 62
     3
  0
ARC
  8
Layer0$C$L0
 62
     3
 10
-163.5541772278
 20
79.8953203466
 40
0.3250181478
 50
266.4532880767
 51
320.6114090451
  0
POLYLINE
  8
Layer0$C$L0
 62
     3
 66
     1
  0
VERTEX
  8
Layer0$C$L0
 62
     3
 10
-163.5742835899
 20
79.5709247076
  0
VERTEX
  8
Layer0$C$L0
 62
     3
 10
-163.7423557092
 20
79.6128774197
  0
VERTEX
  8
Layer0$C$L0
 62
     3
 10
-163.8453260609
 20
79.7029710396
  0
SEQEND
  8
Layer0$C$L0
 62
     3
  0
ARC
  8
Layer0$C$L0
 62
     3
 10
-163.2532849292
 20
80.1330387727
 40
0.7317588105
 50
176.6689295158
 51
215.9952283837
  0
ARC
  8
Layer0$C$L0
 62
     3
 10
-174.0465252650
 20
82.2011340539
 40
0.8000000000
 50
90.0000000000
 51
180.0000000000
  0
LINE
  8
Layer0$C$L0
 62
     3
 10
-168.4465252650
 20
82.8011340539
 11
-168.4465252650
 21
83.0011340539
  0
LINE
  8
Layer0$C$L0
 62
     3
 10
-168.4465252650
 20
82.8011340539
 11
-163.4465252650
 21
82.8011340539
  0
LINE
  8
Layer0$C$L0
 62
     3
 10
-163.4465252650
 20
82.8011340539
 11
-163.4465252650
 21
83.0011340539
  0
ARC
  8
Layer0$C$L0
 62
     3
 10
-157.8465252650
 20
82.2011340539
 40
0.8000000000
 50
0.0000000000
 51
90.0000000000
  0
ARC
  8
Layer0$C$L0
 62
     3
 10
-157.8465252650
 20
68.0011340539
 40
0.8000000000
 50
270.0000000000
 51
360.0000000000
  0
LINE
  8
Layer0$C$L0
 62
     3
 10
-157.8465252650
 20
67.2011340539
 11
-174.0465252650
 21
67.2011340539
  0
LINE
  8
Layer0$C$L0
 62
     3
 10
-157.6465252650
 20
82.2011340539
 11
-158.7465252650
 21
82.2011340539
  0
LINE
  8
Layer0$C$L0
 62
     3
 10
-164.2465252650
 20
82.2011340539
 11
-159.2465252650
 21
82.2011340539
  0
LINE
  8
Layer0$C$L0
 62
     3
 10
-164.2465252650
 20
81.7011340539
 11
-164.2465252650
 21
82.2011340539
  0
LINE
  8
Layer0$C$L0
 62
     3
 10
-164.6465252650
 20
81.7011340539
 11
-164.2465252650
 21
81.7011340539
  0
LINE
  8
Layer0$C$L0
 62
     3
 10
-164.6465252650
 20
82.2011340539
 11
-164.6465252650
 21
81.7011340539
  0
LINE
  8
Layer0$C$L0
 62
     3
 10
-167.2465252650
 20
82.2011340539
 11
-164.6465252650
 21
82.2011340539
  0
LINE
  8
Layer0$C$L0
 62
     3
 10
-167.2465252650
 20
81.7011340539
 11
-167.2465252650
 21
82.2011340539
  0
LINE
  8
Layer0$C$L0
 62
     3
 10
-167.6465252650
 20
81.7011340539
 11
-167.2465252650
 21
81.7011340539
  0
LINE
  8
Layer0$C$L0
 62
     3
 10
-167.6465252650
 20
82.2011340539
 11
-167.6465252650
 21
81.7011340539
  0
LINE
  8
Layer0$C$L0
 62
     3
 10
-174.0465252650
 20
82.2011340539
 11
-170.0465252650
 21
82.2011340539
  0
LINE
  8
Layer0$C$L0
 62
     3
 10
-169.5465252650
 20
82.2011340539
 11
-167.6465252650
 21
82.2011340539
  0
LINE
  8
Layer0$C$L0
 62
     3
 10
-174.0465252650
 20
68.0011340539
 11
-174.0465252650
 21
82.2011340539
  0
LINE
  8
Layer0$C$L0
 62
     3
 10
-168.8465252650
 20
68.0011340539
 11
-169.5465252650
 21
68.0011340539
  0
LINE
  8
Layer0$C$L0
 62
     3
 10
-170.0465252650
 20
68.0011340539
 11
-174.0465252650
 21
68.0011340539
  0
LINE
  8
Layer0$C$L0
 62
     3
 10
-168.8465252650
 20
67.4011340539
 11
-168.8465252650
 21
68.0011340539
  0
LINE
  8
Layer0$C$L0
 62
     3
 10
-167.5465252650
 20
67.4011340539
 11
-168.8465252650
 21
67.4011340539
  0
LINE
  8
Layer0$C$L0
 62
     3
 10
-167.5465252650
 20
68.0011340539
 11
-167.5465252650
 21
67.4011340539
  0
LINE
  8
Layer0$C$L0
 62
     3
 10
-164.3465252650
 20
68.0011340539
 11
-167.5465252650
 21
68.0011340539
  0
LINE
  8
Layer0$C$L0
 62
     3
 10
-164.3465252650
 20
67.4011340539
 11
-164.3465252650
 21
68.0011340539
  0
LINE
  8
Layer0$C$L0
 62
     3
 10
-163.0465252650
 20
67.4011340539
 11
-164.3465252650
 21
67.4011340539
  0
LINE
  8
Layer0$C$L0
 62
     3
 10
-163.0465252650
 20
68.0011340539
 11
-163.0465252650
 21
67.4011340539
  0
LINE
  8
Layer0$C$L0
 62
     3
 10
-163.0465252650
 20
68.0011340539
 11
-159.2465252650
 21
68.0011340539
  0
LINE
  8
Layer0$C$L0
 62
     3
 10
-157.6465252650
 20
68.0011340539
 11
-158.7465252650
 21
68.0011340539
  0
LINE
  8
Layer0$C$L0
 62
     3
 10
-157.6465252650
 20
82.2011340539
 11
-157.6465252650
 21
68.0011340539
  0
ARC
  8
Layer0$C$L0
 62
     3
 10
-174.0465252650
 20
68.0011340539
 40
0.8000000000
 50
180.0000000000
 51
270.0000000000
  0
LINE
  8
Layer0$C$L0
 62
     3
 10
-174.0465252650
 20
82.2011340539
 11
-173.8465252650
 21
82.0011340539
  0
LINE
  8
Layer0$C$L0
 62
     3
 10
-174.0465252650
 20
68.0011340539
 11
-173.8465252650
 21
68.2011340539
  0
LINE
  8
Layer0$C$L0
 62
     3
 10
-168.8465252650
 20
68.0011340539
 11
-168.6465252650
 21
68.2011340539
  0
LINE
  8
Layer0$C$L0
 62
     3
 10
-168.8465252650
 20
67.4011340539
 11
-168.6465252650
 21
67.6011340539
  0
LINE
  8
Layer0$C$L0
 62
     3
 10
-168.6465252650
 20
67.6011340539
 11
-167.7465252650
 21
67.6011340539
  0
LINE
  8
Layer0$C$L0
 62
     3
 10
-167.5465252650
 20
67.4011340539
 11
-167.7465252650
 21
67.6011340539
  0
LINE
  8
Layer0$C$L0
 62
     3
 10
-168.6465252650
 20
82.0011340539
 11
-168.6465252650
 21
67.6011340539
  0
LINE
  8
Layer0$C$L0
 62
     3
 10
-167.7465252650
 20
67.6011340539
 11
-167.7465252650
 21
68.2011340539
  0
LINE
  8
Layer0$C$L0
 62
     3
 10
-167.5465252650
 20
68.0011340539
 11
-167.7465252650
 21
68.2011340539
  0
LINE
  8
Layer0$C$L0
 62
     3
 10
-167.8465252650
 20
68.2011340539
 11
-164.0465252650
 21
68.2011340539
  0
LINE
  8
Layer0$C$L0
 62
     3
 10
-164.3465252650
 20
68.0011340539
 11
-164.1465252650
 21
68.2011340539
  0
LINE
  8
Layer0$C$L0
 62
     3
 10
-167.6465252650
 20
82.2011340539
 11
-167.8465252650
 21
82.0011340539
  0
LINE
  8
Layer0$C$L0
 62
     3
 10
-164.1465252650
 20
68.2011340539
 11
-164.1465252650
 21
67.6011340539
  0
LINE
  8
Layer0$C$L0
 62
     3
 10
-164.3465252650
 20
67.4011340539
 11
-164.1465252650
 21
67.6011340539
  0
LINE
  8
Layer0$C$L0
 62
     3
 10
-164.1465252650
 20
67.6011340539
 11
-163.2465252650
 21
67.6011340539
  0
LINE
  8
Layer0$C$L0
 62
     3
 10
-163.0465252650
 20
67.4011340539
 11
-163.2465252650
 21
67.6011340539
  0
LINE
  8
Layer0$C$L0
 62
     3
 10
-163.2465252650
 20
67.6011340539
 11
-163.2465252650
 21
68.2011340539
  0
LINE
  8
Layer0$C$L0
 62
     3
 10
-163.0465252650
 20
68.0011340539
 11
-163.2465252650
 21
68.2011340539
  0
LINE
  8
Layer0$C$L0
 62
     3
 10
-159.8465252650
 20
68.2011340539
 11
-159.8465252650
 21
68.0011340539
  0
LINE
  8
Layer0$C$L0
 62
     3
 10
-167.6465252650
 20
81.7011340539
 11
-167.8465252650
 21
81.5011340539
  0
LINE
  8
Layer0$C$L0
 62
     3
 10
-167.2465252650
 20
81.7011340539
 11
-167.0465252650
 21
81.5011340539
  0
LINE
  8
Layer0$C$L0
 62
     3
 10
-166.9465252650
 20
81.5011340539
 11
-167.8465252650
 21
81.5011340539
  0
LINE
  8
Layer0$C$L0
 62
     3
 10
-167.2465252650
 20
82.2011340539
 11
-167.0465252650
 21
82.0011340539
  0
LINE
  8
Layer0$C$L0
 62
     3
 10
-167.0465252650
 20
82.0011340539
 11
-167.0465252650
 21
81.5011340539
  0
LINE
  8
Layer0$C$L0
 62
     3
 10
-164.6465252650
 20
82.2011340539
 11
-164.8465252650
 21
82.0011340539
  0
LINE
  8
Layer0$C$L0
 62
     3
 10
-164.8465252650
 20
82.0011340539
 11
-167.0465252650
 21
82.0011340539
  0
LINE
  8
Layer0$C$L0
 62
     3
 10
-157.6465252650
 20
68.0011340539
 11
-157.8465252650
 21
68.2011340539
  0
LINE
  8
Layer0$C$L0
 62
     3
 10
-158.5465252650
 20
68.0011340539
 11
-158.5465252650
 21
68.2011340539
  0
LINE
  8
Layer0$C$L0
 62
     3
 10
-164.2465252650
 20
81.7011340539
 11
-164.0465252650
 21
81.5011340539
  0
LINE
  8
Layer0$C$L0
 62
     3
 10
-164.0465252650
 20
81.5011340539
 11
-164.9465252650
 21
81.5011340539
  0
LINE
  8
Layer0$C$L0
 62
     3
 10
-164.6465252650
 20
81.7011340539
 11
-164.8465252650
 21
81.5011340539
  0
LINE
  8
Layer0$C$L0
 62
     3
 10
-164.8465252650
 20
81.5011340539
 11
-164.8465252650
 21
82.0011340539
  0
LINE
  8
Layer0$C$L0
 62
     3
 10
-157.6465252650
 20
82.2011340539
 11
-157.8465252650
 21
82.0011340539
  0
LINE
  8
Layer0$C$L0
 62
     3
 10
-164.2465252650
 20
82.2011340539
 11
-164.0465252650
 21
82.0011340539
  0
LINE
  8
Layer0$C$L0
 62
     3
 10
-159.8465252650
 20
82.2011340539
 11
-159.8465252650
 21
82.0011340539
  0
LINE
  8
Layer0$C$L0
 62
     3
 10
-158.5465252650
 20
82.0011340539
 11
-158.5465252650
 21
82.2011340539
  0
LINE
  8
Layer0$C$L0
 62
     3
 10
-166.3084442072
 20
82.9511340539
 11
-166.3084442072
 21
82.8011340539
  0
LINE
  8
Layer0$C$L0
 62
     3
 10
-165.9540040528
 20
82.9511340539
 11
-165.9540040528
 21
82.8011340539
  0
LINE
  8
Layer0$C$L0
 62
     3
 10
-165.5995638983
 20
82.9511340539
 11
-165.5995638983
 21
82.8011340539
  0
LINE
  8
Layer0$C$L0
 62
     3
 10
-167.0291649279
 20
82.9511340539
 11
-167.0291649279
 21
82.8011340539
  0
LINE
  8
Layer0$C$L0
 62
     3
 10
-167.1936436924
 20
82.9511340539
 11
-167.1936436924
 21
82.8011340539
  0
LINE
  8
Layer0$C$L0
 62
     3
 10
-165.2209281197
 20
82.9511340539
 11
-165.2209281197
 21
82.8011340539
  0
LINE
  8
Layer0$C$L0
 62
     3
 10
-165.0564493552
 20
82.9511340539
 11
-165.0564493552
 21
82.8011340539
  0
LINE
  8
Layer0$C$L0
 62
     3
 10
-166.4752395740
 20
82.9511340539
 11
-166.4752395740
 21
82.8011340539
  0
LINE
  8
Layer0$C$L0
 62
     3
 10
-165.4327685315
 20
82.9511340539
 11
-165.4327685315
 21
82.8011340539
  0
LINE
  8
Layer0$C$L0
 62
     3
 10
-165.4327685315
 20
82.9511340539
 11
-166.4752395740
 21
82.9511340539
  0
LINE
  8
Layer0$C$L0
 62
     3
 10
-164.6603103591
 20
82.9511340539
 11
-165.2209281197
 21
82.9511340539
  0
LINE
  8
Layer0$C$L0
 62
     3
 10
-164.4031675019
 20
82.9511340539
 11
-164.4031675019
 21
82.8011340539
  0
LINE
  8
Layer0$C$L0
 62
     3
 10
-164.3128200116
 20
82.9511340539
 11
-164.3128200116
 21
82.8011340539
  0
LINE
  8
Layer0$C$L0
 62
     3
 10
-164.3128200116
 20
82.9511340539
 11
-164.6603103591
 21
82.9511340539
  0
LINE
  8
Layer0$C$L0
 62
     3
 10
-167.5851494839
 20
82.9511340539
 11
-167.5851494839
 21
82.8011340539
  0
LINE
  8
Layer0$C$L0
 62
     3
 10
-166.6330259318
 20
82.9511340539
 11
-166.6330259318
 21
82.8011340539
  0
LINE
  8
Layer0$C$L0
 62
     3
 10
-166.6330259318
 20
82.9511340539
 11
-167.5851494839
 21
82.9511340539
  0
LINE
  8
Layer0$C$L0
 62
     3
 10
-167.0465252650
 20
83.0011340539
 11
-167.0465252650
 21
82.9511340539
  0
LINE
  8
Layer0$C$L0
 62
     3
 10
-164.8465252650
 20
83.0011340539
 11
-164.8465252650
 21
82.9511340539
  0
LINE
  8
Layer0$C$L0
 62
     3
 10
-157.8465252650
 20
83.0011340539
 11
-174.0465252650
 21
83.0011340539
  0
LINE
  8
Layer0$C$L0
 62
     3
 10
-174.8465252650
 20
68.0011340539
 11
-174.8465252650
 21
82.2011340539
  0
LINE
  8
Layer0$C$L0
 62
     3
 10
-157.0465252650
 20
82.2011340539
 11
-157.0465252650
 21
68.0011340539
  0
ARC
  8
Layer0$C$L0
 62
     3
 10
-165.1635645911
 20
84.1134353815
 40
0.1000000000
 50
168.0000000000
 51
258.0000000000
  0
LINE
  8
Layer0$C$L0
 62
     3
 10
-165.2613793511
 20
84.1342265506
 11
-165.1158411676
 21
84.8189298711
  0
LINE
  8
Layer0$C$L0
 62
     3
 10
-165.1158411676
 20
84.8189298711
 11
-164.8223968873
 21
84.7565563639
  0
ARC
  8
Layer0$C$L0
 62
     3
 10
-164.4788612705
 20
83.9678971980
 40
1.0000000000E-01
 50
258.0000000000
 51
348.0000000000
  0
LINE
  8
Layer0$C$L0
 62
     3
 10
-164.2355083269
 20
84.6318093494
 11
-164.3810465105
 21
83.9471060289
  0
ARC
  8
Layer0$C$L0
 62
     3
 10
-163.1094546295
 20
83.6768208308
 40
0.1000000000
 50
168.0000000000
 51
258.0000000000
  0
LINE
  8
Layer0$C$L0
 62
     3
 10
-163.2072693896
 20
83.6976119999
 11
-163.0617312060
 21
84.3823153204
  0
ARC
  8
Layer0$C$L0
 62
     3
 10
-162.4247513090
 20
83.5312826472
 40
1.0000000000E-01
 50
258.0000000000
 51
348.0000000000
  0
LINE
  8
Layer0$C$L0
 62
     3
 10
-162.4455424781
 20
83.4334678871
 11
-165.1843557601
 21
84.0156206215
  0
LINE
  8
Layer0$C$L0
 62
     3
 10
-164.8223968873
 20
84.7565563639
 11
-162.1813983654
 21
84.1951947986
  0
ARC
  8
Layer0$C$L0
 62
     3
 10
-165.9465252769
 20
76.1011340539
 40
8.5000000000
 50
84.7563270306
 51
108.7563270306
  0
ARC
  8
Layer0$C$L0
 62
     3
 10
-169.5465252769
 20
84.8011340539
 40
0.2000000000
 50
90.0000000000
 51
180.0000000000
  0
LINE
  8
Layer0$C$L0
 62
     3
 10
-169.7465252769
 20
83.0011340539
 11
-169.7465252769
 21
84.8011340539
  0
ARC
  8
Layer0$C$L0
 62
     3
 10
-169.0225760773
 20
84.8011340539
 40
0.2000000000
 50
12.0000000000
 51
90.0000000000
  0
LINE
  8
Layer0$C$L0
 62
     3
 10
-168.8269465572
 20
84.8427163921
 11
-168.4355061473
 21
83.0011340539
  0
LINE
  8
Layer0$C$L0
 62
     3
 10
-162.4352038117
 20
83.0011340539
 11
-162.0437634019
 21
84.8427163921
  0
ARC
  8
Layer0$C$L0
 62
     3
 10
-161.8481338817
 20
84.8011340539
 40
0.2000000000
 50
90.0000000000
 51
168.0000000000
  0
LINE
  8
Layer0$C$L0
 62
     3
 10
-161.1465252769
 20
84.8011340539
 11
-161.1465252769
 21
83.0011340539
  0
ARC
  8
Layer0$C$L0
 62
     3
 10
-161.3465252769
 20
84.8011340539
 40
0.2000000000
 50
0.0000000000
 51
90.0000000000
  0
LINE
  8
Layer0$C$L0
 62
     3
 10
-174.8465252769
 20
82.2011340539
 11
-174.8465252769
 21
84.2011340539
  0
ARC
  8
Layer0$C$L0
 62
     3
 10
-174.0465252769
 20
84.2011340539
 40
0.8000000000
 50
90.0000000000
 51
180.0000000000
  0
LINE
  8
Layer0$C$L0
 62
     3
 10
-174.0465252769
 20
85.0011340539
 11
-169.0225760773
 21
85.0011340539
  0
LINE
  8
Layer0$C$L0
 62
     3
 10
-163.3600493803
 20
83.4598120898
 11
-163.3258753187
 21
83.6205884089
  0
LINE
  8
Layer0$C$L0
 62
     3
 10
-163.1595459661
 20
84.4031064895
 11
-163.1465252769
 21
84.4643640157
  0
LINE
  8
Layer0$C$L0
 62
     3
 10
-163.1465252769
 20
84.4643640157
 11
-163.1465252769
 21
84.8011340539
  0
ARC
  8
Layer0$C$L0
 62
     3
 10
-165.9465252769
 20
76.1011340539
 40
7.8000000000
 50
70.6341141710
 51
109.3658858290
  0
ARC
  8
Layer0$C$L0
 62
     3
 10
-162.9465252769
 20
84.8011340539
 40
0.2000000000
 50
90.0000000000
 51
180.0000000000
  0
LINE
  8
Layer0$C$L0
 62
     3
 10
-162.9465252769
 20
85.0011340539
 11
-157.8465252769
 21
85.0011340539
  0
ARC
  8
Layer0$C$L0
 62
     3
 10
-157.8465252769
 20
84.2011340539
 40
0.8000000000
 50
0.0000000000
 51
90.0000000000
  0
LINE
  8
Layer0$C$L0
 62
     3
 10
-157.0465252769
 20
84.2011340539
 11
-157.0465252769
 21
82.2011340539
  0
LINE
  8
Layer0$C$L0
 62
     3
 10
-88.3549532428
 20
70.1977449970
 11
-88.5549529031
 21
70.1977449970
  0
LINE
  8
Layer0$C$L0
 62
     3
 10
-88.3549532428
 20
70.5612783821
 11
-88.5549529031
 21
70.5612783821
  0
ARC
  8
Layer0$C$L0
 62
     3
 10
-88.1400745048
 20
69.8842442591
 40
0.2152365166
 50
176.6959469727
 51
266.0362890802
  0
LINE
  8
Layer0$C$L0
 62
     3
 10
-88.3549532428
 20
69.8966493400
 11
-88.3549532428
 21
73.0935661158
  0
ARC
  8
Layer0$C$L0
 62
     3
 10
-88.4433773210
 20
73.4553884074
 40
0.3759793603
 50
286.5665145700
 51
320.0967707261
  0
LINE
  8
Layer0$C$L0
 62
     3
 10
-88.3549532428
 20
78.9787774010
 11
-88.3549532428
 21
82.3220943144
  0
ARC
  8
Layer0$C$L0
 62
     3
 10
-88.4565189145
 20
78.6184136306
 40
0.3934282374
 50
39.9585781103
 51
72.3898876491
  0
POLYLINE
  8
Layer0$C$L0
 62
     3
 66
     1
  0
VERTEX
  8
Layer0$C$L0
 62
     3
 10
-88.5625003412
 20
77.6586809697
  0
VERTEX
  8
Layer0$C$L0
 62
     3
 10
-88.4271484375
 20
77.5233294152
  0
VERTEX
  8
Layer0$C$L0
 62
     3
 10
-88.2912833750
 20
77.3874640035
  0
VERTEX
  8
Layer0$C$L0
 62
     3
 10
-88.1549526513
 20
77.2511338618
  0
SEQEND
  8
Layer0$C$L0
 62
     3
  0
LINE
  8
Layer0$C$L0
 62
     3
 10
-88.1549526513
 20
74.9587508652
 11
-88.1549526513
 21
77.2511338618
  0
POLYLINE
  8
Layer0$C$L0
 62
     3
 66
     1
  0
VERTEX
  8
Layer0$C$L0
 62
     3
 10
-88.1549526513
 20
74.9587508652
  0
VERTEX
  8
Layer0$C$L0
 62
     3
 10
-88.2887427271
 20
74.8199125554
  0
VERTEX
  8
Layer0$C$L0
 62
     3
 10
-88.4220699355
 20
74.6815542260
  0
VERTEX
  8
Layer0$C$L0
 62
     3
 10
-88.5548839852
 20
74.5437276818
  0
SEQEND
  8
Layer0$C$L0
 62
     3
  0
LINE
  8
Layer0$C$L0
 62
     3
 10
-87.9549529910
 20
69.6695225814
 11
-88.1549526513
 21
69.6695225814
  0
LINE
  8
Layer0$C$L0
 62
     3
 10
-87.9549529910
 20
69.6695225814
 11
-87.9549529910
 21
69.2278164358
  0
LINE
  8
Layer0$C$L0
 62
     3
 10
-87.5549527392
 20
68.2646802196
 11
-87.5549527392
 21
83.9375874529
  0
LINE
  8
Layer0$C$L0
 62
     3
 10
-88.4012669832
 20
77.4974478444
 11
-88.4549530730
 21
77.4287256680
  0
LINE
  8
Layer0$C$L0
 62
     3
 10
-88.4549530730
 20
74.7735420045
 11
-88.4005433455
 21
74.7038931621
  0
LINE
  8
Layer0$C$L0
 62
     3
 10
-88.2549534127
 20
77.2261337878
 11
-88.2549534127
 21
74.9761338847
  0
LINE
  8
Layer0$C$L0
 62
     3
 10
-88.2549534127
 20
77.2261337878
 11
-88.5549529031
 21
77.5261338021
  0
LINE
  8
Layer0$C$L0
 62
     3
 10
-88.5549529031
 20
74.6761338705
 11
-88.2549534127
 21
74.9761338847
  0
LINE
  8
Layer0$C$L0
 62
     3
 10
-88.5549529031
 20
73.0935661158
 11
-88.3361749858
 21
73.0935661158
  0
LINE
  8
Layer0$C$L0
 62
     3
 10
-88.3374918759
 20
78.9949365461
 11
-88.5549529031
 21
78.9949365461
  0
LINE
  8
Layer0$C$L0
 62
     3
 10
-87.5549527392
 20
79.1210676579
 11
-86.4589114257
 21
79.1210676579
  0
LINE
  8
Layer0$C$L0
 62
     3
 10
-87.5549527392
 20
73.0812000146
 11
-86.4589114257
 21
73.0812000146
  0
LINE
  8
Layer0$C$L0
 62
     3
 10
-87.5549527392
 20
68.2646802196
 11
-86.4589114257
 21
68.2646802196
  0
LINE
  8
Layer0$C$L0
 62
     3
 10
-87.5549527392
 20
83.9375874529
 11
-86.4589114257
 21
83.9375874529
  0
LINE
  8
Layer0$C$L0
 62
     3
 10
-88.3549532428
 20
126.9193120694
 11
-88.5549529031
 21
126.9193120694
  0
LINE
  8
Layer0$C$L0
 62
     3
 10
-88.3549532428
 20
114.8353956102
 11
-88.5549529031
 21
114.8353956102
  0
ARC
  8
Layer0$C$L0
 62
     3
 10
-88.0733572574
 20
127.4462600139
 40
0.2820926205
 50
106.8130818892
 51
176.5996456521
  0
LINE
  8
Layer0$C$L0
 62
     3
 10
-88.3549532428
 20
124.1734413358
 11
-88.3549532428
 21
127.4629916458
  0
LINE
  8
Layer0$C$L0
 62
     3
 10
-88.3549532428
 20
114.3100989445
 11
-88.3549532428
 21
117.3734412456
  0
ARC
  8
Layer0$C$L0
 62
     3
 10
-88.0469533095
 20
114.3360130789
 40
0.3090881773
 50
184.8093574499
 51
249.5486011296
  0
LINE
  8
Layer0$C$L0
 62
     3
 10
-88.5549529031
 20
122.9734412788
 11
-87.9549529910
 21
122.9734412788
  0
LINE
  8
Layer0$C$L0
 62
     3
 10
-88.5549529031
 20
122.4734413133
 11
-87.7549533308
 21
122.4734413133
  0
LINE
  8
Layer0$C$L0
 62
     3
 10
-87.7549533308
 20
119.0734412682
 11
-87.7549533308
 21
122.4734413133
  0
LINE
  8
Layer0$C$L0
 62
     3
 10
-88.5549529031
 20
119.0734412682
 11
-87.7549533308
 21
119.0734412682
  0
LINE
  8
Layer0$C$L0
 62
     3
 10
-87.9549529910
 20
118.5734413026
 11
-88.5549529031
 21
118.5734413026
  0
LINE
  8
Layer0$C$L0
 62
     3
 10
-87.9549529910
 20
118.5734413026
 11
-87.9549529910
 21
117.3734412456
  0
LINE
  8
Layer0$C$L0
 62
     3
 10
-87.9549529910
 20
117.3734412456
 11
-88.5549529031
 21
117.3734412456
  0
ARC
  8
Layer0$C$L0
 62
     3
 10
-87.0050419387
 20
120.7729980743
 40
7.2745480308
 50
257.6374484078
 51
260.9049274591
  0
LINE
  8
Layer0$C$L0
 62
     3
 10
-88.1549526513
 20
113.4984410761
 11
-88.1549526513
 21
113.5899099915
  0
POLYLINE
  8
Layer0$C$L0
 62
     3
 66
     1
  0
VERTEX
  8
Layer0$C$L0
 62
     3
 10
-88.1549526513
 20
113.5886946155
  0
VERTEX
  8
Layer0$C$L0
 62
     3
 10
-88.2887427271
 20
113.6121495089
  0
VERTEX
  8
Layer0$C$L0
 62
     3
 10
-88.3568047121
 20
113.6251461154
  0
SEQEND
  8
Layer0$C$L0
 62
     3
  0
POLYLINE
  8
Layer0$C$L0
 62
     3
 66
     1
  0
VERTEX
  8
Layer0$C$L0
 62
     3
 10
-88.3568047121
 20
127.9217364660
  0
VERTEX
  8
Layer0$C$L0
 62
     3
 10
-88.2887427271
 20
127.9347330725
  0
VERTEX
  8
Layer0$C$L0
 62
     3
 10
-88.1549526513
 20
127.9581879659
  0
SEQEND
  8
Layer0$C$L0
 62
     3
  0
LINE
  8
Layer0$C$L0
 62
     3
 10
-88.1549526513
 20
127.9569725900
 11
-88.1549526513
 21
128.0484415053
  0
ARC
  8
Layer0$C$L0
 62
     3
 10
-87.0050419387
 20
120.7738845071
 40
7.2745480308
 50
99.0950725409
 51
102.3625515922
  0
LINE
  8
Layer0$C$L0
 62
     3
 10
-87.9549529910
 20
124.1734413358
 11
-88.5549529031
 21
124.1734413358
  0
LINE
  8
Layer0$C$L0
 62
     3
 10
-87.9549529910
 20
124.1734413358
 11
-87.9549529910
 21
122.8299784868
  0
LINE
  8
Layer0$C$L0
 62
     3
 10
-87.5549527392
 20
119.7734412432
 11
-85.5589115575
 21
119.7734412432
  0
LINE
  8
Layer0$C$L0
 62
     3
 10
-87.5549527392
 20
119.7734412432
 11
-87.5549527392
 21
113.4734411186
  0
LINE
  8
Layer0$C$L0
 62
     3
 10
-87.5549527392
 20
113.4734411186
 11
-86.4589114257
 21
113.4734411186
  0
LINE
  8
Layer0$C$L0
 62
     3
 10
-87.5549527392
 20
121.7734413382
 11
-85.5589115575
 21
121.7734413382
  0
LINE
  8
Layer0$C$L0
 62
     3
 10
-87.5549527392
 20
128.0734414628
 11
-86.4589114257
 21
128.0734414628
  0
LINE
  8
Layer0$C$L0
 62
     3
 10
-87.5549527392
 20
128.0734414628
 11
-87.5549527392
 21
121.7734413382
  0
LINE
  8
Layer0$C$L0
 62
     3
 10
-87.9549529910
 20
117.6734412017
 11
-88.2549534127
 21
117.6734412017
  0
LINE
  8
Layer0$C$L0
 62
     3
 10
-88.2549534127
 20
123.8734413798
 11
-87.9549529910
 21
123.8734413798
  0
LINE
  8
Layer0$C$L0
 62
     3
 10
-87.9549529910
 20
118.4496513030
 11
-88.5549529031
 21
118.4496513030
  0
LINE
  8
Layer0$C$L0
 62
     3
 10
-87.9549529910
 20
123.0972312784
 11
-88.5549529031
 21
123.0972312784
  0
POLYLINE
  8
Layer0$C$L0
 62
     3
 66
     1
  0
VERTEX
  8
Layer0$C$L0
 62
     3
 10
-88.2549534127
 20
117.6734412017
  0
VERTEX
  8
Layer0$C$L0
 62
     3
 10
-88.2622251794
 20
117.6879854335
  0
VERTEX
  8
Layer0$C$L0
 62
     3
 10
-88.2930323988
 20
117.7495996396
  0
VERTEX
  8
Layer0$C$L0
 62
     3
 10
-88.3858340368
 20
117.9352040796
  0
VERTEX
  8
Layer0$C$L0
 62
     3
 10
-88.4549530730
 20
118.0734412207
  0
SEQEND
  8
Layer0$C$L0
 62
     3
  0
LINE
  8
Layer0$C$L0
 62
     3
 10
-88.2549534127
 20
117.6734412017
 11
-88.2549534127
 21
117.3626192773
  0
POLYLINE
  8
Layer0$C$L0
 62
     3
 66
     1
  0
VERTEX
  8
Layer0$C$L0
 62
     3
 10
-88.4549530730
 20
123.4734413608
  0
VERTEX
  8
Layer0$C$L0
 62
     3
 10
-88.3219574154
 20
123.7394315118
  0
VERTEX
  8
Layer0$C$L0
 62
     3
 10
-88.2830504835
 20
123.8172460741
  0
VERTEX
  8
Layer0$C$L0
 62
     3
 10
-88.2567862555
 20
123.8697745299
  0
VERTEX
  8
Layer0$C$L0
 62
     3
 10
-88.2549534127
 20
123.8734413798
  0
SEQEND
  8
Layer0$C$L0
 62
     3
  0
LINE
  8
Layer0$C$L0
 62
     3
 10
-88.2549534127
 20
124.1826909988
 11
-88.2549534127
 21
123.8734413798
  0
LINE
  8
Layer0$C$L0
 62
     3
 10
-88.4549530730
 20
118.0734412207
 11
-88.4549530730
 21
117.4734413086
  0
LINE
  8
Layer0$C$L0
 62
     3
 10
-88.5549529031
 20
118.4734412397
 11
-87.9549529910
 21
118.4734412397
  0
LINE
  8
Layer0$C$L0
 62
     3
 10
-88.5549529031
 20
117.4734413086
 11
-88.4549530730
 21
117.4734413086
  0
LINE
  8
Layer0$C$L0
 62
     3
 10
-87.9549529910
 20
123.0734413418
 11
-88.5549529031
 21
123.0734413418
  0
LINE
  8
Layer0$C$L0
 62
     3
 10
-88.4549530730
 20
124.0734412728
 11
-88.4549530730
 21
123.4734413608
  0
LINE
  8
Layer0$C$L0
 62
     3
 10
-88.4549530730
 20
124.0734412728
 11
-88.5549529031
 21
124.0734412728
  0
LINE
  8
Layer0$C$L0
 62
     3
 10
-88.1549526513
 20
113.4984410761
 11
-87.5549527392
 21
113.4984410761
  0
LINE
  8
Layer0$C$L0
 62
     3
 10
-87.5549527392
 20
128.0484415053
 11
-88.1549526513
 21
128.0484415053
  0
ARC
  8
Layer0$C$L0
 62
     3
 10
-88.1446975439
 20
82.3220943144
 40
0.2109002535
 50
92.7871287708
 51
184.4806351763
  0
LINE
  8
Layer0$C$L0
 62
     3
 10
-87.7549533308
 20
83.1747201772
 11
-87.7549533308
 21
83.3761340508
  0
LINE
  8
Layer0$C$L0
 62
     3
 10
-87.9549529910
 20
83.0355139950
 11
-88.5549529031
 21
83.0355139950
  0
LINE
  8
Layer0$C$L0
 62
     3
 10
-87.9549529910
 20
83.0355139950
 11
-87.9549529910
 21
82.5327450911
  0
LINE
  8
Layer0$C$L0
 62
     3
 10
-87.9549529910
 20
82.5327450911
 11
-88.1549526513
 21
82.5327450911
  0
LINE
  8
Layer0$C$L0
 62
     3
 10
-87.7549533308
 20
83.1761339249
 11
-88.5549529031
 21
83.1761339249
  0
LINE
  8
Layer0$C$L0
 62
     3
 10
-88.5549529031
 20
68.8261336217
 11
-87.5549527392
 21
68.8261336217
  0
LINE
  8
Layer0$C$L0
 62
     3
 10
-87.5549527392
 20
83.3761340508
 11
-87.7549533308
 21
83.3761340508
  0
LINE
  8
Layer1$C$L1
 62
     3
 10
-88.4549530730
 20
118.0734412207
 11
-88.5549529031
 21
118.2734412338
  0
LINE
  8
Layer1$C$L1
 62
     3
 10
-88.4549530730
 20
123.4734413608
 11
-88.5549529031
 21
123.2734413476
  0
LINE
  8
Layer1$C$L1
  6
CENTER
 62
     3
 10
-41.5748248385
 20
76.1011338363
 11
-13.5748246299
 21
76.1011338363
  0
LINE
  8
Layer0$C$L0
 62
     3
 10
-18.6160864370
 20
155.0598721335
 11
-20.1637210386
 21
155.1359360421
  0
LINE
  8
Layer0$C$L0
 62
     3
 10
-18.7953883843
 20
154.8805701862
 11
-18.6160864370
 21
155.0598721335
  0
LINE
  8
Layer0$C$L0
 62
     3
 10
-18.7953883843
 20
154.8805701862
 11
-20.3430229859
 21
154.9566340948
  0
LINE
  8
Layer0$C$L0
 62
     3
 10
-20.3430229859
 20
154.9566340948
 11
-20.1637210386
 21
155.1359360421
  0
LINE
  8
Layer0$C$L0
 62
     3
 10
-18.7193244757
 20
153.3329355846
 11
-18.7953883843
 21
154.8805701862
  0
LINE
  8
Layer0$C$L0
 62
     3
 10
-18.5400225283
 20
153.5122375319
 11
-18.6160864370
 21
155.0598721335
  0
LINE
  8
Layer0$C$L0
 62
     3
 10
-18.5400225283
 20
153.5122375319
 11
-18.7193244757
 21
153.3329355846
  0
LINE
  8
Layer0$C$L0
 62
     3
 10
-18.6160864370
 20
137.1423955391
 11
-18.5400225283
 21
138.6900301407
  0
LINE
  8
Layer0$C$L0
 62
     3
 10
-18.7953883843
 20
137.3216974864
 11
-18.6160864370
 21
137.1423955391
  0
LINE
  8
Layer0$C$L0
 62
     3
 10
-18.7953883843
 20
137.3216974864
 11
-18.7193244757
 21
138.8693320880
  0
LINE
  8
Layer0$C$L0
 62
     3
 10
-18.7193244757
 20
138.8693320880
 11
-18.5400225283
 21
138.6900301407
  0
LINE
  8
Layer0$C$L0
 62
     3
 10
-20.3430229859
 20
137.2456335778
 11
-18.7953883843
 21
137.3216974864
  0
LINE
  8
Layer0$C$L0
 62
     3
 10
-20.1637210386
 20
137.0663316304
 11
-18.6160864370
 21
137.1423955391
  0
LINE
  8
Layer0$C$L0
 62
     3
 10
-20.1637210386
 20
137.0663316304
 11
-20.3430229859
 21
137.2456335778
  0
LINE
  8
Layer0$C$L0
 62
     3
 10
-34.8066264825
 20
154.9566340948
 11
-36.3542610841
 21
154.8805701862
  0
LINE
  8
Layer0$C$L0
 62
     3
 10
-36.3542610841
 20
154.8805701862
 11
-36.5335630314
 21
155.0598721335
  0
LINE
  8
Layer0$C$L0
 62
     3
 10
-34.9859284298
 20
155.1359360421
 11
-36.5335630314
 21
155.0598721335
  0
LINE
  8
Layer0$C$L0
 62
     3
 10
-34.9859284298
 20
155.1359360421
 11
-34.8066264825
 21
154.9566340948
  0
LINE
  8
Layer0$C$L0
 62
     3
 10
-36.3542610841
 20
154.8805701862
 11
-36.4303249927
 21
153.3329355846
  0
LINE
  8
Layer0$C$L0
 62
     3
 10
-36.5335630314
 20
155.0598721335
 11
-36.6096269401
 21
153.5122375319
  0
LINE
  8
Layer0$C$L0
 62
     3
 10
-36.4303249927
 20
153.3329355846
 11
-36.6096269401
 21
153.5122375319
  0
LINE
  8
Layer0$C$L0
 62
     3
 10
-36.4303249927
 20
138.8693320880
 11
-36.3542610841
 21
137.3216974864
  0
LINE
  8
Layer0$C$L0
 62
     3
 10
-36.3542610841
 20
137.3216974864
 11
-34.8066264825
 21
137.2456335778
  0
LINE
  8
Layer0$C$L0
 62
     3
 10
-36.5335630314
 20
137.1423955391
 11
-34.9859284298
 21
137.0663316304
  0
LINE
  8
Layer0$C$L0
 62
     3
 10
-36.3542610841
 20
137.3216974864
 11
-36.5335630314
 21
137.1423955391
  0
LINE
  8
Layer0$C$L0
 62
     3
 10
-34.8066264825
 20
137.2456335778
 11
-34.9859284298
 21
137.0663316304
  0
LINE
  8
Layer0$C$L0
 62
     3
 10
-36.6096269401
 20
138.6900301407
 11
-36.5335630314
 21
137.1423955391
  0
LINE
  8
Layer0$C$L0
 62
     3
 10
-36.6096269401
 20
138.6900301407
 11
-36.4303249927
 21
138.8693320880
  0
LINE
  8
Layer0$C$L0
 62
     3
 10
-18.6248250367
 20
153.1189018244
 11
-18.7193244757
 21
153.3329355846
  0
LINE
  8
Layer0$C$L0
 62
     3
 10
-20.3430229859
 20
154.9566340948
 11
-20.5570567461
 21
155.0511335338
  0
LINE
  8
Layer0$C$L0
 62
     3
 10
-20.1637210386
 20
155.1359360421
 11
-20.5570567461
 21
155.0511335338
  0
LINE
  8
Layer0$C$L0
 62
     3
 10
-18.6248250367
 20
153.1189018244
 11
-18.5400225283
 21
153.5122375319
  0
LINE
  8
Layer0$C$L0
 62
     3
 10
-20.5570567461
 20
137.1511341388
 11
-20.3430229859
 21
137.2456335778
  0
LINE
  8
Layer0$C$L0
 62
     3
 10
-18.7193244757
 20
138.8693320880
 11
-18.6248250367
 21
139.0833658481
  0
LINE
  8
Layer0$C$L0
 62
     3
 10
-18.5400225283
 20
138.6900301407
 11
-18.6248250367
 21
139.0833658481
  0
LINE
  8
Layer0$C$L0
 62
     3
 10
-20.5570567461
 20
137.1511341388
 11
-20.1637210386
 21
137.0663316304
  0
LINE
  8
Layer0$C$L0
 62
     3
 10
-34.5925927223
 20
155.0511335338
 11
-34.8066264825
 21
154.9566340948
  0
LINE
  8
Layer0$C$L0
 62
     3
 10
-36.4303249927
 20
153.3329355846
 11
-36.5248244317
 21
153.1189018244
  0
LINE
  8
Layer0$C$L0
 62
     3
 10
-34.5925927223
 20
155.0511335338
 11
-34.9859284298
 21
155.1359360421
  0
LINE
  8
Layer0$C$L0
 62
     3
 10
-36.6096269401
 20
153.5122375319
 11
-36.5248244317
 21
153.1189018244
  0
LINE
  8
Layer0$C$L0
 62
     3
 10
-34.9859284298
 20
137.0663316304
 11
-34.5925927223
 21
137.1511341388
  0
LINE
  8
Layer0$C$L0
 62
     3
 10
-34.8066264825
 20
137.2456335778
 11
-34.5925927223
 21
137.1511341388
  0
LINE
  8
Layer0$C$L0
 62
     3
 10
-36.5248244317
 20
139.0833658481
 11
-36.4303249927
 21
138.8693320880
  0
LINE
  8
Layer0$C$L0
 62
     3
 10
-36.5248244317
 20
139.0833658481
 11
-36.6096269401
 21
138.6900301407
  0
LINE
  8
Layer0$C$L0
 62
     3
 10
-20.5570567461
 20
155.0511335338
 11
-26.6274599536
 21
155.0511335338
  0
LINE
  8
Layer0$C$L0
 62
     3
 10
-28.5221895148
 20
155.0511335338
 11
-34.5925927223
 21
155.0511335338
  0
LINE
  8
Layer0$C$L0
 62
     3
 10
-18.6248250367
 20
139.0833658481
 11
-18.6248250367
 21
145.1537690557
  0
LINE
  8
Layer0$C$L0
 62
     3
 10
-18.6248250367
 20
147.0484986169
 11
-18.6248250367
 21
153.1189018244
  0
LINE
  8
Layer0$C$L0
 62
     3
 10
-34.5925927223
 20
137.1511341388
 11
-28.5221895148
 21
137.1511341388
  0
LINE
  8
Layer0$C$L0
 62
     3
 10
-26.6274599536
 20
137.1511341388
 11
-20.5570567461
 21
137.1511341388
  0
LINE
  8
Layer0$C$L0
 62
     3
 10
-36.5248244317
 20
153.1189018244
 11
-36.5248244317
 21
147.0484986169
  0
LINE
  8
Layer0$C$L0
 62
     3
 10
-36.5248244317
 20
145.1537690557
 11
-36.5248244317
 21
139.0833658481
  0
LINE
  8
Layer0$C$L0
 62
     3
 10
-35.4112783508
 20
145.1011337888
 11
-35.3609524729
 21
145.1011337888
  0
LINE
  8
Layer0$C$L0
 62
     3
 10
-35.4112783508
 20
147.1011338838
 11
-35.3609524729
 21
147.1011338838
  0
LINE
  8
Layer0$C$L0
 62
     3
 10
-19.7383711176
 20
147.1011338838
 11
-19.7886969955
 21
147.1011338838
  0
LINE
  8
Layer0$C$L0
 62
     3
 10
-19.7383711176
 20
145.1011337888
 11
-19.7886969955
 21
145.1011337888
  0
LINE
  8
Layer0$C$L0
 62
     3
 10
-33.7875551605
 20
141.3026167395
 11
-33.8231409961
 21
141.2670313696
  0
LINE
  8
Layer0$C$L0
 62
     3
 10
-32.3733418310
 20
139.8884034099
 11
-32.4089272009
 21
139.8528175744
  0
LINE
  8
Layer0$C$L0
 62
     3
 10
-33.7875551605
 20
150.8996509331
 11
-33.8231409961
 21
150.9352363030
  0
LINE
  8
Layer0$C$L0
 62
     3
 10
-32.3733418310
 20
152.3138642626
 11
-32.4089272009
 21
152.3494500982
  0
LINE
  8
Layer0$C$L0
 62
     3
 10
-21.3620943079
 20
150.8996509331
 11
-21.3265084723
 21
150.9352363030
  0
LINE
  8
Layer0$C$L0
 62
     3
 10
-22.7763076374
 20
152.3138642626
 11
-22.7407222675
 21
152.3494500982
  0
LINE
  8
Layer0$C$L0
 62
     3
 10
-21.3620943079
 20
141.3026167395
 11
-21.3265084723
 21
141.2670313696
  0
LINE
  8
Layer0$C$L0
 62
     3
 10
-22.7763076374
 20
139.8884034099
 11
-22.7407222675
 21
139.8528175744
  0
LINE
  8
Layer0$C$L0
 62
     3
 10
-28.5748247817
 20
138.3655056542
 11
-28.5748247817
 21
138.3150885197
  0
LINE
  8
Layer0$C$L0
 62
     3
 10
-32.3732831577
 20
139.8884616176
 11
-32.3376330506
 21
139.9241118671
  0
LINE
  8
Layer0$C$L0
 62
     3
 10
-33.7518467654
 20
141.3383256003
 11
-33.7874969529
 21
141.3026754128
  0
LINE
  8
Layer0$C$L0
 62
     3
 10
-35.3608700508
 20
145.1011337888
 11
-35.3104529163
 21
145.1011337888
  0
ARC
  8
Layer0$C$L0
 62
     3
 10
-27.5748247342
 20
146.1011338363
 40
7.8500000000
 50
142.3187116745
 51
172.6812883255
  0
LINE
  8
Layer0$C$L0
 62
     3
 10
-33.7874969529
 20
150.8995922598
 11
-33.7518467654
 21
150.8639420722
  0
LINE
  8
Layer0$C$L0
 62
     3
 10
-35.3104529163
 20
147.1011338838
 11
-35.3608700508
 21
147.1011338838
  0
LINE
  8
Layer0$C$L0
 62
     3
 10
-26.5748246867
 20
138.3150885197
 11
-26.5748246867
 21
138.3655056542
  0
LINE
  8
Layer0$C$L0
 62
     3
 10
-22.8120164982
 20
139.9241118051
 11
-22.7763663107
 21
139.8884616176
  0
LINE
  8
Layer0$C$L0
 62
     3
 10
-32.3376330486
 20
152.2781558070
 11
-32.3732831577
 21
152.3138060550
  0
LINE
  8
Layer0$C$L0
 62
     3
 10
-28.5748247817
 20
153.8871791529
 11
-28.5748247817
 21
153.8367620183
  0
LINE
  8
Layer0$C$L0
 62
     3
 10
-19.8391965521
 20
145.1011337888
 11
-19.7887794176
 21
145.1011337888
  0
LINE
  8
Layer0$C$L0
 62
     3
 10
-21.3621525155
 20
141.3026754128
 11
-21.3978027030
 21
141.3383256003
  0
LINE
  8
Layer0$C$L0
 62
     3
 10
-19.7887794176
 20
147.1011338838
 11
-19.8391965521
 21
147.1011338838
  0
LINE
  8
Layer0$C$L0
 62
     3
 10
-21.3978027030
 20
150.8639420723
 11
-21.3621525155
 21
150.8995922598
  0
LINE
  8
Layer0$C$L0
 62
     3
 10
-26.5748246867
 20
153.8367620183
 11
-26.5748246867
 21
153.8871791529
  0
LINE
  8
Layer0$C$L0
 62
     3
 10
-22.7763663107
 20
152.3138060550
 11
-22.8120164224
 21
152.2781558090
  0
ARC
  8
Layer0$C$L0
 62
     3
 10
-27.5748247342
 20
146.1011338363
 40
7.8500000000
 50
7.3187116745
 51
83.4162888775
  0
ARC
  8
Layer0$C$L0
 62
     3
 10
-27.5748247342
 20
146.1011338363
 40
7.8500000000
 50
187.3187116745
 51
263.4174099818
  0
LINE
  8
Layer0$C$L0
 62
     3
 10
-36.1248269738
 20
121.9568659941
 11
-28.4747118191
 21
121.9568659941
  0
LINE
  8
Layer0$C$L0
 62
     3
 10
-19.0305044936
 20
121.9568659941
 11
-19.0248243572
 21
121.6511342133
  0
LINE
  8
Layer0$C$L0
 62
     3
 10
-19.0248243572
 20
121.6511342133
 11
-26.6747850613
 21
121.6511342133
  0
LINE
  8
Layer0$C$L0
 62
     3
 10
-36.1248269738
 20
121.9568659941
 11
-36.1248251112
 21
121.6511342133
  0
LINE
  8
Layer0$C$L0
 62
     3
 10
-18.7190925764
 20
121.6511360759
 11
-19.0248243572
 21
121.6511342133
  0
LINE
  8
Layer0$C$L0
 62
     3
 10
-18.7190925764
 20
121.6511360759
 11
-19.0305044936
 21
121.9568659941
  0
LINE
  8
Layer0$C$L0
 62
     3
 10
-36.1248251112
 20
121.6511342133
 11
-36.1248251112
 21
104.5511334593
  0
LINE
  8
Layer0$C$L0
 62
     3
 10
-36.1248251112
 20
104.5511334593
 11
-36.4305568920
 21
104.5511315967
  0
LINE
  8
Layer0$C$L0
 62
     3
 10
-36.4305568920
 20
104.5511315967
 11
-36.4305568920
 21
121.6454540769
  0
LINE
  8
Layer0$C$L0
 62
     3
 10
-36.1248251112
 20
121.6511342133
 11
-36.4305568920
 21
121.6454540769
  0
LINE
  8
Layer0$C$L0
 62
     3
 10
-18.7190925764
 20
121.6511360759
 11
-18.7190925764
 21
104.5511315967
  0
LINE
  8
Layer0$C$L0
 62
     3
 10
-18.7190925764
 20
104.5511315967
 11
-19.0248243572
 21
104.5511334593
  0
LINE
  8
Layer0$C$L0
 62
     3
 10
-19.0248243572
 20
104.5511334593
 11
-19.0248243572
 21
121.6511342133
  0
LINE
  8
Layer0$C$L0
 62
     3
 10
-36.1248269738
 20
121.9568659941
 11
-36.4305568920
 21
121.6454540769
  0
LINE
  8
Layer0$C$L0
 62
     3
 10
-36.1248251112
 20
104.5511334593
 11
-19.0248243572
 21
104.5511334593
  0
LINE
  8
Layer0$C$L0
 62
     3
 10
-19.0248243572
 20
104.5511334593
 11
-19.0305044936
 21
104.2454016785
  0
LINE
  8
Layer0$C$L0
 62
     3
 10
-19.0305044936
 20
104.2454016785
 11
-36.1191449748
 21
104.2454016785
  0
LINE
  8
Layer0$C$L0
 62
     3
 10
-36.1248251112
 20
104.5511334593
 11
-36.1191449748
 21
104.2454016785
  0
LINE
  8
Layer0$C$L0
 62
     3
 10
-36.4305568920
 20
104.5511315967
 11
-36.1191449748
 21
104.2454016785
  0
LINE
  8
Layer0$C$L0
 62
     3
 10
-18.7190925764
 20
104.5511315967
 11
-19.0305044936
 21
104.2454016785
  0
LINE
  8
Layer0$C$L0
 62
     3
 10
-18.7190925764
 20
104.5511315967
 11
-18.5748251216
 21
104.4068641419
  0
LINE
  8
Layer0$C$L0
 62
     3
 10
-18.5748251216
 20
104.4068641419
 11
-18.8862370388
 21
104.1011342237
  0
LINE
  8
Layer0$C$L0
 62
     3
 10
-18.8862370388
 20
104.1011342237
 11
-19.0305044936
 21
104.2454016785
  0
LINE
  8
Layer0$C$L0
 62
     3
 10
-18.5748251216
 20
121.7954035307
 11
-18.7190925764
 21
121.6511360759
  0
LINE
  8
Layer0$C$L0
 62
     3
 10
-18.5748251216
 20
104.4068641419
 11
-18.5748251216
 21
121.7954035307
  0
LINE
  8
Layer0$C$L0
 62
     3
 10
-36.2690944286
 20
122.1011334489
 11
-36.1248269738
 21
121.9568659941
  0
LINE
  8
Layer0$C$L0
 62
     3
 10
-36.2690944286
 20
122.1011334489
 11
-28.4747118191
 21
122.1011334489
  0
LINE
  8
Layer0$C$L0
 62
     3
 10
-19.0305044936
 20
121.9568659941
 11
-18.8862370388
 21
122.1011334489
  0
LINE
  8
Layer0$C$L0
 62
     3
 10
-36.4305568920
 20
121.6454540769
 11
-36.5748243468
 21
121.7897215317
  0
LINE
  8
Layer0$C$L0
 62
     3
 10
-36.5748243468
 20
121.7897215317
 11
-36.2690944286
 21
122.1011334489
  0
LINE
  8
Layer0$C$L0
 62
     3
 10
-18.8862370388
 20
122.1011334489
 11
-18.5748251216
 21
121.7954035307
  0
LINE
  8
Layer0$C$L0
 62
     3
 10
-36.5748243468
 20
104.4068641419
 11
-36.4305568920
 21
104.5511315967
  0
LINE
  8
Layer0$C$L0
 62
     3
 10
-36.1191449748
 20
104.2454016785
 11
-36.2634124295
 21
104.1011342237
  0
LINE
  8
Layer0$C$L0
 62
     3
 10
-36.2634124295
 20
104.1011342237
 11
-36.5748243468
 21
104.4068641419
  0
LINE
  8
Layer0$C$L0
 62
     3
 10
-36.5748243468
 20
121.7897215317
 11
-36.5748243468
 21
104.4068641419
  0
LINE
  8
Layer0$C$L0
 62
     3
 10
-18.8862370388
 20
104.1011342237
 11
-36.2634124295
 21
104.1011342237
  0
LINE
  8
Layer0$C$L0
 62
     3
 10
-35.4112783508
 20
114.1011338838
 11
-35.3609524728
 21
114.1011338838
  0
LINE
  8
Layer0$C$L0
 62
     3
 10
-35.4112783508
 20
112.1011337888
 11
-35.3609524728
 21
112.1011337888
  0
LINE
  8
Layer0$C$L0
 62
     3
 10
-19.7886969955
 20
112.1011337888
 11
-19.7383711176
 21
112.1011337888
  0
LINE
  8
Layer0$C$L0
 62
     3
 10
-19.7886969955
 20
114.1011338838
 11
-19.7383711176
 21
114.1011338838
  0
LINE
  8
Layer0$C$L0
 62
     3
 10
-26.5748246867
 20
120.9375874529
 11
-26.5748246867
 21
120.8872615750
  0
LINE
  8
Layer0$C$L0
 62
     3
 10
-28.5748247817
 20
120.9375874529
 11
-28.5748247817
 21
120.8872615750
  0
LINE
  8
Layer0$C$L0
 62
     3
 10
-26.5748246867
 20
105.3150060976
 11
-26.5748246867
 21
105.2646802197
  0
LINE
  8
Layer0$C$L0
 62
     3
 10
-28.5748247817
 20
105.3150060976
 11
-28.5748247817
 21
105.2646802197
  0
LINE
  8
Layer0$C$L0
 62
     3
 10
-31.9138286696
 20
119.7028795647
 11
-31.8777203621
 21
119.6667707915
  0
LINE
  8
Layer0$C$L0
 62
     3
 10
-34.1765704626
 20
117.4401377718
 11
-34.1404616894
 21
117.4040294642
  0
LINE
  8
Layer0$C$L0
 62
     3
 10
-34.1765704626
 20
108.7621299008
 11
-34.1404616894
 21
108.7982382084
  0
LINE
  8
Layer0$C$L0
 62
     3
 10
-31.9138286696
 20
106.4993881079
 11
-31.8777203621
 21
106.5354968811
  0
LINE
  8
Layer0$C$L0
 62
     3
 10
-23.2719291063
 20
119.6667707915
 11
-23.2358207987
 21
119.7028795647
  0
LINE
  8
Layer0$C$L0
 62
     3
 10
-21.0091877790
 20
117.4040294642
 11
-20.9730790058
 21
117.4401377718
  0
LINE
  8
Layer0$C$L0
 62
     3
 10
-21.0091877790
 20
108.7982382084
 11
-20.9730790058
 21
108.7621299008
  0
LINE
  8
Layer0$C$L0
 62
     3
 10
-23.2719291063
 20
106.5354968811
 11
-23.2358207987
 21
106.4993881079
  0
LINE
  8
Layer0$C$L0
 62
     3
 10
-18.7290977748
 20
121.9468607957
 11
-18.6160864370
 21
122.0598721335
  0
LINE
  8
Layer0$C$L0
 62
     3
 10
-18.5400225283
 20
120.5122375319
 11
-18.5748251216
 21
121.2203407119
  0
LINE
  8
Layer0$C$L0
 62
     3
 10
-18.6045212732
 20
121.8245576526
 11
-18.6160864370
 21
122.0598721335
  0
LINE
  8
Layer0$C$L0
 62
     3
 10
-18.5400225283
 20
120.5122375319
 11
-18.5748251216
 21
120.4774354043
  0
LINE
  8
Layer0$C$L0
 62
     3
 10
-18.6160864370
 20
122.0598721335
 11
-18.8562307568
 21
122.0716747845
  0
LINE
  8
Layer0$C$L0
 62
     3
 10
-19.4556178586
 20
122.1011334489
 11
-20.1637210385
 21
122.1359360422
  0
LINE
  8
Layer0$C$L0
 62
     3
 10
-20.1985231662
 20
122.1011334489
 11
-20.1637210385
 21
122.1359360422
  0
LINE
  8
Layer0$C$L0
 62
     3
 10
-18.6160864370
 20
104.1423955391
 11
-18.6045212732
 21
104.3777100200
  0
LINE
  8
Layer0$C$L0
 62
     3
 10
-18.5748251216
 20
104.9819269607
 11
-18.5400225283
 21
105.6900301407
  0
LINE
  8
Layer0$C$L0
 62
     3
 10
-18.7290977748
 20
104.2554068769
 11
-18.6160864370
 21
104.1423955391
  0
LINE
  8
Layer0$C$L0
 62
     3
 10
-18.5748251216
 20
105.7248322683
 11
-18.5400225283
 21
105.6900301407
  0
LINE
  8
Layer0$C$L0
 62
     3
 10
-20.1637210385
 20
104.0663316304
 11
-19.4556178586
 21
104.1011342237
  0
LINE
  8
Layer0$C$L0
 62
     3
 10
-18.8562307568
 20
104.1305928881
 11
-18.6160864370
 21
104.1423955391
  0
LINE
  8
Layer0$C$L0
 62
     3
 10
-20.1637210385
 20
104.0663316304
 11
-20.1985231662
 21
104.1011342237
  0
LINE
  8
Layer0$C$L0
 62
     3
 10
-36.4205516936
 20
121.9468607957
 11
-36.5335630314
 21
122.0598721335
  0
LINE
  8
Layer0$C$L0
 62
     3
 10
-34.9859284298
 20
122.1359360422
 11
-35.6940316097
 21
122.1011334489
  0
LINE
  8
Layer0$C$L0
 62
     3
 10
-36.2982485504
 20
122.0714372973
 11
-36.5335630314
 21
122.0598721335
  0
LINE
  8
Layer0$C$L0
 62
     3
 10
-34.9859284298
 20
122.1359360422
 11
-34.9511263022
 21
122.1011334489
  0
LINE
  8
Layer0$C$L0
 62
     3
 10
-36.5335630314
 20
122.0598721335
 11
-36.5453656824
 21
121.8197278137
  0
LINE
  8
Layer0$C$L0
 62
     3
 10
-36.5748243468
 20
121.2203407119
 11
-36.6096269400
 21
120.5122375319
  0
LINE
  8
Layer0$C$L0
 62
     3
 10
-36.5748243468
 20
120.4774354043
 11
-36.6096269400
 21
120.5122375319
  0
LINE
  8
Layer0$C$L0
 62
     3
 10
-36.5335630314
 20
104.1423955391
 11
-36.2934187116
 21
104.1305928881
  0
LINE
  8
Layer0$C$L0
 62
     3
 10
-35.6940316097
 20
104.1011342237
 11
-34.9859284298
 21
104.0663316304
  0
LINE
  8
Layer0$C$L0
 62
     3
 10
-36.4205516936
 20
104.2554068769
 11
-36.5335630314
 21
104.1423955391
  0
LINE
  8
Layer0$C$L0
 62
     3
 10
-34.9511263022
 20
104.1011342237
 11
-34.9859284298
 21
104.0663316304
  0
LINE
  8
Layer0$C$L0
 62
     3
 10
-36.6096269400
 20
105.6900301407
 11
-36.5748243468
 21
104.9819269607
  0
LINE
  8
Layer0$C$L0
 62
     3
 10
-36.5451281951
 20
104.3777100200
 11
-36.5335630314
 21
104.1423955391
  0
LINE
  8
Layer0$C$L0
 62
     3
 10
-36.6096269400
 20
105.6900301407
 11
-36.5748243468
 21
105.7248322683
  0
LINE
  8
Layer0$C$L0
 62
     3
 10
-20.1637210385
 20
122.1359360422
 11
-20.3251434551
 21
122.1011334489
  0
LINE
  8
Layer0$C$L0
 62
     3
 10
-18.5748251216
 20
120.3508151154
 11
-18.5400225283
 21
120.5122375319
  0
LINE
  8
Layer0$C$L0
 62
     3
 10
-18.5400225283
 20
105.6900301407
 11
-18.5748251216
 21
105.8514525572
  0
LINE
  8
Layer0$C$L0
 62
     3
 10
-20.3251434551
 20
104.1011342237
 11
-20.1637210385
 21
104.0663316304
  0
LINE
  8
Layer0$C$L0
 62
     3
 10
-34.8245060132
 20
122.1011334489
 11
-34.9859284298
 21
122.1359360422
  0
LINE
  8
Layer0$C$L0
 62
     3
 10
-36.6096269400
 20
120.5122375319
 11
-36.5748243468
 21
120.3508151154
  0
LINE
  8
Layer0$C$L0
 62
     3
 10
-34.9859284298
 20
104.0663316304
 11
-34.8245060132
 21
104.1011342237
  0
LINE
  8
Layer0$C$L0
 62
     3
 10
-36.5748243468
 20
105.8514525572
 11
-36.6096269400
 21
105.6900301407
  0
LINE
  8
Layer0$C$L0
 62
     3
 10
-33.7518467654
 20
108.3383256003
 11
-33.7874969529
 21
108.3026754128
  0
LINE
  8
Layer0$C$L0
 62
     3
 10
-35.3608700508
 20
112.1011337888
 11
-35.3104529163
 21
112.1011337888
  0
LINE
  8
Layer0$C$L0
 62
     3
 10
-35.3104529163
 20
114.1011338838
 11
-35.3608700508
 21
114.1011338838
  0
ARC
  8
Layer0$C$L0
 62
     3
 10
-27.5748247342
 20
113.1011338363
 40
7.8500000000
 50
142.3187116745
 51
172.6812883255
  0
LINE
  8
Layer0$C$L0
 62
     3
 10
-33.7874969529
 20
117.8995922598
 11
-33.7518467654
 21
117.8639420722
  0
LINE
  8
Layer0$C$L0
 62
     3
 10
-28.5748247817
 20
105.3655056542
 11
-28.5748247817
 21
105.3150885197
  0
LINE
  8
Layer0$C$L0
 62
     3
 10
-32.3732831576
 20
106.8884616176
 11
-32.3376330506
 21
106.9241118671
  0
LINE
  8
Layer0$C$L0
 62
     3
 10
-22.8120164982
 20
106.9241118051
 11
-22.7763663107
 21
106.8884616176
  0
LINE
  8
Layer0$C$L0
 62
     3
 10
-26.5748246867
 20
105.3150885197
 11
-26.5748246867
 21
105.3655056542
  0
LINE
  8
Layer0$C$L0
 62
     3
 10
-19.8391965521
 20
112.1011337888
 11
-19.7887794176
 21
112.1011337888
  0
LINE
  8
Layer0$C$L0
 62
     3
 10
-21.3621525155
 20
108.3026754128
 11
-21.3978027030
 21
108.3383256003
  0
LINE
  8
Layer0$C$L0
 62
     3
 10
-32.3376330485
 20
119.2781558070
 11
-32.3732831576
 21
119.3138060550
  0
LINE
  8
Layer0$C$L0
 62
     3
 10
-28.5748247817
 20
120.8871791529
 11
-28.5748247817
 21
120.8367620183
  0
ARC
  8
Layer0$C$L0
 62
     3
 10
-27.5748247342
 20
113.1011338363
 40
7.8500000000
 50
52.3187116745
 51
82.6812883255
  0
LINE
  8
Layer0$C$L0
 62
     3
 10
-26.5748246867
 20
120.8367620183
 11
-26.5748246867
 21
120.8871791529
  0
LINE
  8
Layer0$C$L0
 62
     3
 10
-22.7763663107
 20
119.3138060550
 11
-22.8120164224
 21
119.2781558090
  0
LINE
  8
Layer0$C$L0
 62
     3
 10
-19.7887794176
 20
114.1011338838
 11
-19.8391965521
 21
114.1011338838
  0
LINE
  8
Layer0$C$L0
 62
     3
 10
-21.3978027030
 20
117.8639420723
 11
-21.3621525155
 21
117.8995922598
  0
ARC
  8
Layer0$C$L0
 62
     3
 10
-27.5748247342
 20
113.1011338363
 40
7.8500000000
 50
97.3187116745
 51
142.3187116745
  0
ARC
  8
Layer0$C$L0
 62
     3
 10
-27.5748247342
 20
113.1011338363
 40
7.8500000000
 50
187.3187116745
 51
262.6812883255
  0
ARC
  8
Layer0$C$L0
 62
     3
 10
-27.5748247342
 20
113.1011338363
 40
7.8500000000
 50
277.3187116745
 51
352.6812883255
  0
ARC
  8
Layer0$C$L0
 62
     3
 10
-27.5748247342
 20
113.1011338363
 40
7.8500000000
 50
7.3187116745
 51
52.3187116745
  0
LINE
  8
Layer0$C$L0
 62
     3
 10
-39.1248246716
 20
84.6511342133
 11
-39.4305573837
 21
84.6454540769
  0
LINE
  8
Layer0$C$L0
 62
     3
 10
-39.1248265342
 20
84.9568659941
 11
-39.4305573837
 21
84.6454540769
  0
LINE
  8
Layer0$C$L0
 62
     3
 10
-39.1248265342
 20
84.9568659941
 11
-39.1248246716
 21
84.6511342133
  0
LINE
  8
Layer0$C$L0
 62
     3
 10
-39.1248246716
 20
67.5511334593
 11
-39.1191445352
 21
67.2454016784
  0
LINE
  8
Layer0$C$L0
 62
     3
 10
-39.4305573837
 20
67.5511315966
 11
-39.1191445352
 21
67.2454016784
  0
LINE
  8
Layer0$C$L0
 62
     3
 10
-39.1248246716
 20
67.5511334593
 11
-39.4305573837
 21
67.5511315966
  0
LINE
  8
Layer0$C$L0
 62
     3
 10
-15.7190920846
 20
84.6511360759
 11
-15.7190920846
 21
67.5511315966
  0
LINE
  8
Layer0$C$L0
 62
     3
 10
-15.7190920846
 20
67.5511315966
 11
-16.0248247968
 21
67.5511334593
  0
LINE
  8
Layer0$C$L0
 62
     3
 10
-16.0248247968
 20
67.5511334593
 11
-16.0248247968
 21
84.6511342133
  0
LINE
  8
Layer0$C$L0
 62
     3
 10
-15.7190920846
 20
84.6511360759
 11
-16.0248247968
 21
84.6511342133
  0
LINE
  8
Layer0$C$L0
 62
     3
 10
-39.1248246716
 20
84.6511342133
 11
-39.1248246716
 21
67.5511334593
  0
LINE
  8
Layer0$C$L0
 62
     3
 10
-39.4305573837
 20
67.5511315966
 11
-39.4305573837
 21
84.6454540769
  0
LINE
  8
Layer0$C$L0
 62
     3
 10
-39.1248246716
 20
67.5511334593
 11
-16.0248247968
 21
67.5511334593
  0
LINE
  8
Layer0$C$L0
 62
     3
 10
-16.0248247968
 20
84.6511342133
 11
-26.6747850613
 21
84.6511342133
  0
LINE
  8
Layer0$C$L0
 62
     3
 10
-39.1248265342
 20
84.9568659941
 11
-28.4747118191
 21
84.9568659941
  0
LINE
  8
Layer0$C$L0
 62
     3
 10
-16.0305049331
 20
84.9568659941
 11
-16.0248247968
 21
84.6511342133
  0
LINE
  8
Layer0$C$L0
 62
     3
 10
-16.0248247968
 20
67.5511334593
 11
-16.0305049331
 21
67.2454016784
  0
LINE
  8
Layer0$C$L0
 62
     3
 10
-16.0305049331
 20
67.2454016784
 11
-39.1191445352
 21
67.2454016784
  0
LINE
  8
Layer0$C$L0
 62
     3
 10
-15.7190920846
 20
84.6511360759
 11
-16.0305049331
 21
84.9568659941
  0
LINE
  8
Layer0$C$L0
 62
     3
 10
-15.7190920846
 20
67.5511315966
 11
-16.0305049331
 21
67.2454016784
  0
LINE
  8
Layer0$C$L0
 62
     3
 10
-39.1191445352
 20
67.2454016784
 11
-39.2634129213
 21
67.1011342237
  0
LINE
  8
Layer0$C$L0
 62
     3
 10
-15.8862365471
 20
67.1011342237
 11
-16.0305049331
 21
67.2454016784
  0
LINE
  8
Layer0$C$L0
 62
     3
 10
-15.8862365471
 20
67.1011342237
 11
-39.2634129213
 21
67.1011342237
  0
LINE
  8
Layer0$C$L0
 62
     3
 10
-15.5748246299
 20
84.7954035307
 11
-15.7190920846
 21
84.6511360759
  0
LINE
  8
Layer0$C$L0
 62
     3
 10
-16.0305049331
 20
84.9568659941
 11
-15.8862365471
 21
85.1011334488
  0
LINE
  8
Layer0$C$L0
 62
     3
 10
-15.8862365471
 20
85.1011334488
 11
-15.5748246299
 21
84.7954035307
  0
LINE
  8
Layer0$C$L0
 62
     3
 10
-39.4305573837
 20
84.6454540769
 11
-39.5748248385
 21
84.7897215316
  0
LINE
  8
Layer0$C$L0
 62
     3
 10
-39.5748248385
 20
84.7897215316
 11
-39.2690939890
 21
85.1011334488
  0
LINE
  8
Layer0$C$L0
 62
     3
 10
-39.2690939890
 20
85.1011334488
 11
-39.1248265342
 21
84.9568659941
  0
LINE
  8
Layer0$C$L0
 62
     3
 10
-39.2690939890
 20
85.1011334488
 11
-28.4747118191
 21
85.1011334488
  0
LINE
  8
Layer0$C$L0
 62
     3
 10
-15.5748246299
 20
67.4068641419
 11
-15.5748246299
 21
84.7954035307
  0
LINE
  8
Layer0$C$L0
 62
     3
 10
-15.7190920846
 20
67.5511315966
 11
-15.5748246299
 21
67.4068641419
  0
LINE
  8
Layer0$C$L0
 62
     3
 10
-39.5748248385
 20
67.4068641419
 11
-39.4305573837
 21
67.5511315966
  0
LINE
  8
Layer0$C$L0
 62
     3
 10
-39.2634129213
 20
67.1011342237
 11
-39.5748248385
 21
67.4068641419
  0
LINE
  8
Layer0$C$L0
 62
     3
 10
-39.5748248385
 20
84.7897215316
 11
-39.5748248385
 21
67.4068641419
  0
LINE
  8
Layer0$C$L0
 62
     3
 10
-15.5748246299
 20
67.4068641419
 11
-15.8862365471
 21
67.1011342237
  0
LINE
  8
Layer0$C$L0
 62
     3
 10
-35.4112783508
 20
77.1011338838
 11
-35.3609524728
 21
77.1011338838
  0
LINE
  8
Layer0$C$L0
 62
     3
 10
-35.4112783508
 20
75.1011337888
 11
-35.3609524728
 21
75.1011337888
  0
LINE
  8
Layer0$C$L0
 62
     3
 10
-28.5748247817
 20
68.3150060976
 11
-28.5748247817
 21
68.2646802197
  0
LINE
  8
Layer0$C$L0
 62
     3
 10
-26.5748246867
 20
68.3150060976
 11
-26.5748246867
 21
68.2646802197
  0
LINE
  8
Layer0$C$L0
 62
     3
 10
-28.5748247817
 20
83.9375874529
 11
-28.5748247817
 21
83.8872615749
  0
LINE
  8
Layer0$C$L0
 62
     3
 10
-26.5748246867
 20
83.9375874529
 11
-26.5748246867
 21
83.8872615749
  0
LINE
  8
Layer0$C$L0
 62
     3
 10
-19.7886969955
 20
77.1011338838
 11
-19.7383711176
 21
77.1011338838
  0
LINE
  8
Layer0$C$L0
 62
     3
 10
-19.7886969955
 20
75.1011337888
 11
-19.7383711176
 21
75.1011337888
  0
LINE
  8
Layer0$C$L0
 62
     3
 10
-34.1765704626
 20
71.7621299008
 11
-34.1404616894
 21
71.7982382084
  0
LINE
  8
Layer0$C$L0
 62
     3
 10
-31.9138286696
 20
69.4993881079
 11
-31.8777203621
 21
69.5354968811
  0
LINE
  8
Layer0$C$L0
 62
     3
 10
-31.9138286696
 20
82.7028795647
 11
-31.8777203621
 21
82.6667707915
  0
LINE
  8
Layer0$C$L0
 62
     3
 10
-34.1765704626
 20
80.4401377717
 11
-34.1404616894
 21
80.4040294642
  0
LINE
  8
Layer0$C$L0
 62
     3
 10
-21.0091877790
 20
80.4040294642
 11
-20.9730790058
 21
80.4401377717
  0
LINE
  8
Layer0$C$L0
 62
     3
 10
-23.2719291063
 20
82.6667707915
 11
-23.2358207987
 21
82.7028795647
  0
LINE
  8
Layer0$C$L0
 62
     3
 10
-23.2719291063
 20
69.5354968811
 11
-23.2358207987
 21
69.4993881079
  0
LINE
  8
Layer0$C$L0
 62
     3
 10
-21.0091877790
 20
71.7982382084
 11
-20.9730790058
 21
71.7621299008
  0
LINE
  8
Layer0$C$L0
 62
     3
 10
-19.4556178586
 20
85.1011334488
 11
-20.1637210385
 21
85.1359360421
  0
LINE
  8
Layer0$C$L0
 62
     3
 10
-20.1985231662
 20
85.1011334488
 11
-20.1637210385
 21
85.1359360421
  0
LINE
  8
Layer0$C$L0
 62
     3
 10
-20.1637210385
 20
67.0663316304
 11
-19.4556178586
 21
67.1011342237
  0
LINE
  8
Layer0$C$L0
 62
     3
 10
-20.1637210385
 20
67.0663316304
 11
-20.1985231662
 21
67.1011342237
  0
LINE
  8
Layer0$C$L0
 62
     3
 10
-34.9859284298
 20
85.1359360421
 11
-35.6940316097
 21
85.1011334488
  0
LINE
  8
Layer0$C$L0
 62
     3
 10
-34.9859284298
 20
85.1359360421
 11
-34.9511263022
 21
85.1011334488
  0
LINE
  8
Layer0$C$L0
 62
     3
 10
-35.6940316097
 20
67.1011342237
 11
-34.9859284298
 21
67.0663316304
  0
LINE
  8
Layer0$C$L0
 62
     3
 10
-34.9511263022
 20
67.1011342237
 11
-34.9859284298
 21
67.0663316304
  0
LINE
  8
Layer0$C$L0
 62
     3
 10
-20.1637210385
 20
85.1359360421
 11
-20.3251434551
 21
85.1011334488
  0
LINE
  8
Layer0$C$L0
 62
     3
 10
-20.3251434551
 20
67.1011342237
 11
-20.1637210385
 21
67.0663316304
  0
LINE
  8
Layer0$C$L0
 62
     3
 10
-34.8245060132
 20
85.1011334488
 11
-34.9859284298
 21
85.1359360421
  0
LINE
  8
Layer0$C$L0
 62
     3
 10
-34.9859284298
 20
67.0663316304
 11
-34.8245060132
 21
67.1011342237
  0
LINE
  8
Layer0$C$L0
 62
     3
 10
-28.5748247817
 20
68.3655056542
 11
-28.5748247817
 21
68.3150885197
  0
LINE
  8
Layer0$C$L0
 62
     3
 10
-32.3732831576
 20
69.8884616176
 11
-32.3376329701
 21
69.9241118051
  0
LINE
  8
Layer0$C$L0
 62
     3
 10
-35.3608700508
 20
75.1011337888
 11
-35.3104529163
 21
75.1011337888
  0
LINE
  8
Layer0$C$L0
 62
     3
 10
-33.7518467021
 20
71.3383255183
 11
-33.7874969529
 21
71.3026754128
  0
LINE
  8
Layer0$C$L0
 62
     3
 10
-35.3104529163
 20
77.1011338838
 11
-35.3608700508
 21
77.1011338838
  0
ARC
  8
Layer0$C$L0
 62
     3
 10
-27.5748247342
 20
76.1011338363
 40
7.8500000000
 50
142.3187116745
 51
172.6812883255
  0
LINE
  8
Layer0$C$L0
 62
     3
 10
-33.7874969529
 20
80.8995922597
 11
-33.7518467008
 21
80.8639421560
  0
LINE
  8
Layer0$C$L0
 62
     3
 10
-22.8120164982
 20
69.9241118051
 11
-22.7763663107
 21
69.8884616176
  0
LINE
  8
Layer0$C$L0
 62
     3
 10
-26.5748246867
 20
68.3150885197
 11
-26.5748246867
 21
68.3655056542
  0
LINE
  8
Layer0$C$L0
 62
     3
 10
-19.8391965521
 20
75.1011337888
 11
-19.7887794176
 21
75.1011337888
  0
LINE
  8
Layer0$C$L0
 62
     3
 10
-21.3621525155
 20
71.3026754128
 11
-21.3978027030
 21
71.3383256003
  0
LINE
  8
Layer0$C$L0
 62
     3
 10
-28.5748247817
 20
83.8871791529
 11
-28.5748247817
 21
83.8367620183
  0
LINE
  8
Layer0$C$L0
 62
     3
 10
-32.3376329701
 20
82.2781558675
 11
-32.3732831576
 21
82.3138060550
  0
LINE
  8
Layer0$C$L0
 62
     3
 10
-26.5748246867
 20
83.8367620183
 11
-26.5748246867
 21
83.8871791529
  0
ARC
  8
Layer0$C$L0
 62
     3
 10
-27.5748247342
 20
76.1011338363
 40
7.8500000000
 50
52.3187116745
 51
82.6812883255
  0
LINE
  8
Layer0$C$L0
 62
     3
 10
-22.7763663107
 20
82.3138060550
 11
-22.8120164982
 21
82.2781558675
  0
LINE
  8
Layer0$C$L0
 62
     3
 10
-19.7887794176
 20
77.1011338838
 11
-19.8391965521
 21
77.1011338838
  0
LINE
  8
Layer0$C$L0
 62
     3
 10
-21.3978027030
 20
80.8639420722
 11
-21.3621525155
 21
80.8995922597
  0
ARC
  8
Layer0$C$L0
 62
     3
 10
-27.5748247342
 20
76.1011338363
 40
7.8500000000
 50
97.3187116745
 51
142.3187116745
  0
ARC
  8
Layer0$C$L0
 62
     3
 10
-27.5748247342
 20
76.1011338363
 40
7.8500000000
 50
187.3187116745
 51
262.6812883255
  0
ARC
  8
Layer0$C$L0
 62
     3
 10
-27.5748247342
 20
76.1011338363
 40
7.8500000000
 50
277.3187116745
 51
352.6812883255
  0
ARC
  8
Layer0$C$L0
 62
     3
 10
-27.5748247342
 20
76.1011338363
 40
7.8500000000
 50
7.3187116745
 51
52.3187116745
  0
LINE
  8
Layer0$C$L0
 62
     3
 10
-71.8606858119
 20
84.6454540769
 11
-79.5549529559
 21
84.7897215316
  0
LINE
  8
Layer0$C$L0
 62
     3
 10
-79.5549529559
 20
67.4068641419
 11
-71.8606858119
 21
67.5511315966
  0
LINE
  8
Layer0$C$L0
 62
     3
 10
-71.8606858119
 20
67.2454016784
 11
-79.5549529559
 21
67.1011342237
  0
LINE
  8
Layer0$C$L0
 62
     3
 10
-79.5549529559
 20
85.1011334488
 11
-71.8606858119
 21
84.9568659941
  0
LINE
  8
Layer0$C$L0
 62
     3
 10
-71.8606858119
 20
84.9568659941
 11
-71.8606858119
 21
67.2454016784
  0
LINE
  8
Layer0$C$L0
 62
     3
 10
-71.5549530998
 20
84.6511342133
 11
-71.5549530998
 21
67.5511334593
  0
LINE
  8
Layer0$C$L0
 62
     3
 10
-71.5549530998
 20
67.5511334593
 11
-71.8606858119
 21
67.5511315966
  0
LINE
  8
Layer0$C$L0
 62
     3
 10
-71.5549530998
 20
84.6511342133
 11
-71.8606858119
 21
84.6454540769
  0
LINE
  8
Layer0$C$L0
 62
     3
 10
-71.5549530998
 20
67.5511334593
 11
-71.8606858119
 21
67.2454016784
  0
LINE
  8
Layer0$C$L0
 62
     3
 10
-71.8606858119
 20
84.9568659941
 11
-71.5549530998
 21
84.6511342133
  0
LINE
  8
Layer0$C$L0
 62
     3
 10
-79.5549529559
 20
109.0791720359
 11
-71.8606858119
 21
109.2234394907
  0
LINE
  8
Layer0$C$L0
 62
     3
 10
-71.8606858119
 20
132.3177610918
 11
-79.5549529559
 21
132.4620294778
  0
LINE
  8
Layer0$C$L0
 62
     3
 10
-79.5549529559
 20
132.7734413950
 11
-71.8606858119
 21
132.6291739403
  0
LINE
  8
Layer0$C$L0
 62
     3
 10
-71.8606858119
 20
132.6291739403
 11
-71.8606858119
 21
132.3177610918
  0
LINE
  8
Layer0$C$L0
 62
     3
 10
-71.8606858119
 20
108.9177086412
 11
-79.5549529559
 21
108.7734411864
  0
LINE
  8
Layer0$C$L0
 62
     3
 10
-71.8606858119
 20
132.3177610918
 11
-71.8606858119
 21
108.9177086412
  0
LINE
  8
Layer0$C$L0
 62
     3
 10
-71.8606858119
 20
132.3177610918
 11
-71.5549530998
 21
132.3234412281
  0
LINE
  8
Layer0$C$L0
 62
     3
 10
-71.5549530998
 20
132.3234412281
 11
-71.5549530998
 21
109.2234413533
  0
LINE
  8
Layer0$C$L0
 62
     3
 10
-71.8606858119
 20
109.2234394907
 11
-71.5549530998
 21
109.2234413533
  0
LINE
  8
Layer0$C$L0
 62
     3
 10
-71.8606858119
 20
132.6291739403
 11
-71.5549530998
 21
132.3234412281
  0
LINE
  8
Layer0$C$L0
 62
     3
 10
-71.5549530998
 20
109.2234413533
 11
-71.8606858119
 21
108.9177086412
  0
LINE
  8
Layer1$C$L1
  6
CENTER
 62
     3
 10
-177.8965249625
 20
76.1011338363
 11
-153.9965255675
 21
76.1011338363
  0
LINE
  8
Layer1$C$L1
  6
CENTER
 62
     3
 10
-165.9465252650
 20
64.1511341387
 11
-165.9465252650
 21
88.0511335338
  0
LINE
  8
Layer1$C$L1
  6
CENTER
 62
     3
 10
-27.5748247342
 20
134.1011338363
 11
-27.5748247342
 21
158.1011338363
  0
LINE
  8
Layer1$C$L1
  6
CENTER
 62
     3
 10
-39.5748247342
 20
146.1011338363
 11
-15.5748247342
 21
146.1011338363
  0
POLYLINE
  8
Layer7$C$L7
 62
     3
 66
     1
  0
VERTEX
  8
Layer7$C$L7
 62
     3
 10
-164.9991604844
 20
85.0511335338
  0
VERTEX
  8
Layer7$C$L7
 62
     3
 10
-165.2575820097
 20
85.0747257973
  0
VERTEX
  8
Layer7$C$L7
 62
     3
 10
-165.9465252650
 20
85.1011334489
  0
SEQEND
  8
Layer7$C$L7
 62
     3
  0
ARC
  8
Layer7$C$L7
 62
     3
 10
-165.9465252650
 20
76.1011338363
 40
9.0000000000
 50
353.9576949793
 51
366.0423050207
  0
ARC
  8
Layer7$C$L7
 62
     3
 10
-165.9465252650
 20
76.1011338363
 40
9.0000000000
 50
263.9576949792
 51
276.0423050208
  0
ARC
  8
Layer7$C$L7
 62
     3
 10
-165.9465252650
 20
76.1011338363
 40
9.0000000000
 50
173.9576949792
 51
186.0423050208
  0
POLYLINE
  8
Layer7$C$L7
 62
     3
 66
     1
  0
VERTEX
  8
Layer7$C$L7
 62
     3
 10
-165.9465252650
 20
85.1011334489
  0
VERTEX
  8
Layer7$C$L7
 62
     3
 10
-166.6354685202
 20
85.0747257973
  0
VERTEX
  8
Layer7$C$L7
 62
     3
 10
-166.8938900455
 20
85.0511335338
  0
SEQEND
  8
Layer7$C$L7
 62
     3
  0
ARC
  8
Layer7$C$L7
 62
     3
 10
-165.9465252650
 20
76.1011338363
 40
8.9000000000
 50
71.6629252192
 51
108.4513512701
  0
LINE
  8
Layer7$C$L7
 62
     3
 10
-158.5354215693
 20
85.1359360422
 11
-156.9877869677
 21
85.0598721335
  0
LINE
  8
Layer7$C$L7
 62
     3
 10
-156.9877869677
 20
85.0598721335
 11
-156.9117230591
 21
83.5122375319
  0
LINE
  8
Layer7$C$L7
 62
     3
 10
-156.9877869677
 20
67.1423955391
 11
-158.5354215693
 21
67.0663316304
  0
LINE
  8
Layer7$C$L7
 62
     3
 10
-156.9117230591
 20
68.6900301407
 11
-156.9877869677
 21
67.1423955391
  0
LINE
  8
Layer7$C$L7
 62
     3
 10
-174.9813274708
 20
83.5122375319
 11
-174.9052635622
 21
85.0598721335
  0
LINE
  8
Layer7$C$L7
 62
     3
 10
-174.9052635622
 20
85.0598721335
 11
-173.3576289606
 21
85.1359360422
  0
LINE
  8
Layer7$C$L7
 62
     3
 10
-174.9052635622
 20
67.1423955391
 11
-174.9813274708
 21
68.6900301407
  0
LINE
  8
Layer7$C$L7
 62
     3
 10
-173.3576289606
 20
67.0663316304
 11
-174.9052635622
 21
67.1423955391
  0
LINE
  8
Layer7$C$L7
 62
     3
 10
-156.9117230591
 20
83.5122375319
 11
-156.9965255675
 21
83.1189018245
  0
LINE
  8
Layer7$C$L7
 62
     3
 10
-158.9287572768
 20
85.0511335338
 11
-158.5354215693
 21
85.1359360422
  0
LINE
  8
Layer7$C$L7
 62
     3
 10
-158.5354215693
 20
67.0663316304
 11
-158.9287572768
 21
67.1511341388
  0
LINE
  8
Layer7$C$L7
 62
     3
 10
-156.9965255675
 20
69.0833658482
 11
-156.9117230591
 21
68.6900301407
  0
LINE
  8
Layer7$C$L7
 62
     3
 10
-173.3576289606
 20
85.1359360422
 11
-172.9642932531
 21
85.0511335338
  0
LINE
  8
Layer7$C$L7
 62
     3
 10
-174.8965249625
 20
83.1189018245
 11
-174.9813274708
 21
83.5122375319
  0
LINE
  8
Layer7$C$L7
 62
     3
 10
-156.9965255675
 20
83.1189018245
 11
-156.9965255675
 21
69.0833658482
  0
LINE
  8
Layer7$C$L7
 62
     3
 10
-172.9642932531
 20
85.0511335338
 11
-158.9287572768
 21
85.0511335338
  0
LINE
  8
Layer7$C$L7
 62
     3
 10
-174.8965249625
 20
69.0833658482
 11
-174.8965249625
 21
83.1189018245
  0
LINE
  8
Layer7$C$L7
 62
     3
 10
-158.9287572768
 20
67.1511341388
 11
-172.9642932531
 21
67.1511341388
  0
LINE
  8
Layer7$C$L7
 62
     3
 10
-174.9813274708
 20
68.6900301407
 11
-174.8965249625
 21
69.0833658482
  0
LINE
  8
Layer7$C$L7
 62
     3
 10
-172.9642932531
 20
67.1511341388
 11
-173.3576289606
 21
67.0663316304
  0
LINE
  8
Layer8$C$L8
 62
     3
 10
-88.7549525634
 20
129.6734410732
 11
-91.4549526334
 21
129.6734410732
  0
LINE
  8
Layer8$C$L8
 62
     3
 10
-100.6549528376
 20
129.6734410732
 11
-100.6549528376
 21
111.8734415083
  0
LINE
  8
Layer8$C$L8
 62
     3
 10
-98.9549538628
 20
123.2734412349
 11
-98.9549538628
 21
118.2734413466
  0
LINE
  8
Layer8$C$L8
 62
     3
 10
-90.8549527213
 20
128.4643450215
 11
-89.9549533189
 21
128.4643450215
  0
LINE
  8
Layer8$C$L8
 62
     3
 10
-100.4008191213
 20
120.0478441476
 11
-99.2124012247
 21
120.0478441476
  0
LINE
  8
Layer8$C$L8
 62
     3
 10
-100.4008191213
 20
119.8833653632
 11
-100.4008191213
 21
120.0478441476
  0
LINE
  8
Layer8$C$L8
 62
     3
 10
-99.9346679583
 20
119.8833653632
 11
-100.4008191213
 21
119.8833653632
  0
LINE
  8
Layer8$C$L8
 62
     3
 10
-99.9346679583
 20
119.4872263747
 11
-99.9346679583
 21
119.8833653632
  0
POLYLINE
  8
Layer8$C$L8
 62
     3
 66
     1
  0
VERTEX
  8
Layer8$C$L8
 62
     3
 10
-99.8448344454
 20
119.2300835553
  0
VERTEX
  8
Layer8$C$L8
 62
     3
 10
-99.9201505021
 20
119.3653576936
  0
VERTEX
  8
Layer8$C$L8
 62
     3
 10
-99.9346679583
 20
119.4872263747
  0
SEQEND
  8
Layer8$C$L8
 62
     3
  0
POLYLINE
  8
Layer8$C$L8
 62
     3
 66
     1
  0
VERTEX
  8
Layer8$C$L8
 62
     3
 10
-99.5807411656
 20
119.1397360687
  0
VERTEX
  8
Layer8$C$L8
 62
     3
 10
-99.7385500506
 20
119.1641193743
  0
VERTEX
  8
Layer8$C$L8
 62
     3
 10
-99.8448344454
 20
119.2300835553
  0
SEQEND
  8
Layer8$C$L8
 62
     3
  0
POLYLINE
  8
Layer8$C$L8
 62
     3
 66
     1
  0
VERTEX
  8
Layer8$C$L8
 62
     3
 10
-99.3097002194
 20
119.2370333172
  0
VERTEX
  8
Layer8$C$L8
 62
     3
 10
-99.4519634679
 20
119.1557940490
  0
VERTEX
  8
Layer8$C$L8
 62
     3
 10
-99.5807411656
 20
119.1397360687
  0
SEQEND
  8
Layer8$C$L8
 62
     3
  0
POLYLINE
  8
Layer8$C$L8
 62
     3
 66
     1
  0
VERTEX
  8
Layer8$C$L8
 62
     3
 10
-99.2124012247
 20
119.4872263747
  0
VERTEX
  8
Layer8$C$L8
 62
     3
 10
-99.2414659396
 20
119.3365886736
  0
VERTEX
  8
Layer8$C$L8
 62
     3
 10
-99.3097002194
 20
119.2370333172
  0
SEQEND
  8
Layer8$C$L8
 62
     3
  0
LINE
  8
Layer8$C$L8
 62
     3
 10
-99.2124012247
 20
120.0478441476
 11
-99.2124012247
 21
119.4872263747
  0
LINE
  8
Layer8$C$L8
 62
     3
 10
-99.3439337746
 20
119.8833653632
 11
-99.8031354085
 21
119.8833653632
  0
LINE
  8
Layer8$C$L8
 62
     3
 10
-99.3439337746
 20
119.5219754170
 11
-99.3439337746
 21
119.8833653632
  0
POLYLINE
  8
Layer8$C$L8
 62
     3
 66
     1
  0
VERTEX
  8
Layer8$C$L8
 62
     3
 10
-99.4069973514
 20
119.3621298459
  0
VERTEX
  8
Layer8$C$L8
 62
     3
 10
-99.3552567944
 20
119.4453974183
  0
VERTEX
  8
Layer8$C$L8
 62
     3
 10
-99.3439337746
 20
119.5219754170
  0
SEQEND
  8
Layer8$C$L8
 62
     3
  0
POLYLINE
  8
Layer8$C$L8
 62
     3
 66
     1
  0
VERTEX
  8
Layer8$C$L8
 62
     3
 10
-99.5807411656
 20
119.3065314016
  0
VERTEX
  8
Layer8$C$L8
 62
     3
 10
-99.4773196563
 20
119.3207446647
  0
VERTEX
  8
Layer8$C$L8
 62
     3
 10
-99.4069973514
 20
119.3621298459
  0
SEQEND
  8
Layer8$C$L8
 62
     3
  0
POLYLINE
  8
Layer8$C$L8
 62
     3
 66
     1
  0
VERTEX
  8
Layer8$C$L8
 62
     3
 10
-99.7475373134
 20
119.3690797242
  0
VERTEX
  8
Layer8$C$L8
 62
     3
 10
-99.6602463112
 20
119.3173638473
  0
VERTEX
  8
Layer8$C$L8
 62
     3
 10
-99.5807411656
 20
119.3065314016
  0
SEQEND
  8
Layer8$C$L8
 62
     3
  0
POLYLINE
  8
Layer8$C$L8
 62
     3
 66
     1
  0
VERTEX
  8
Layer8$C$L8
 62
     3
 10
-99.8031354085
 20
119.5219754170
  0
VERTEX
  8
Layer8$C$L8
 62
     3
 10
-99.7874482110
 20
119.4302525998
  0
VERTEX
  8
Layer8$C$L8
 62
     3
 10
-99.7475373134
 20
119.3690797242
  0
SEQEND
  8
Layer8$C$L8
 62
     3
  0
LINE
  8
Layer8$C$L8
 62
     3
 10
-99.8031354085
 20
119.8833653632
 11
-99.8031354085
 21
119.5219754170
  0
POLYLINE
  8
Layer8$C$L8
 62
     3
 66
     1
  0
VERTEX
  8
Layer8$C$L8
 62
     3
 10
-100.2618229524
 20
121.1353602282
  0
VERTEX
  8
Layer8$C$L8
 62
     3
 10
-100.0212604687
 20
121.2741881188
  0
VERTEX
  8
Layer8$C$L8
 62
     3
 10
-99.8031354085
 20
121.3021556193
  0
SEQEND
  8
Layer8$C$L8
 62
     3
  0
POLYLINE
  8
Layer8$C$L8
 62
     3
 66
     1
  0
VERTEX
  8
Layer8$C$L8
 62
     3
 10
-100.4077686504
 20
120.7809200784
  0
VERTEX
  8
Layer8$C$L8
 62
     3
 10
-100.3620127723
 20
120.9949407655
  0
VERTEX
  8
Layer8$C$L8
 62
     3
 10
-100.2618229524
 20
121.1353602282
  0
SEQEND
  8
Layer8$C$L8
 62
     3
  0
POLYLINE
  8
Layer8$C$L8
 62
     3
 66
     1
  0
VERTEX
  8
Layer8$C$L8
 62
     3
 10
-100.2618229524
 20
120.4264799178
  0
VERTEX
  8
Layer8$C$L8
 62
     3
 10
-100.3797730938
 20
120.6107078340
  0
VERTEX
  8
Layer8$C$L8
 62
     3
 10
-100.4077686504
 20
120.7809200784
  0
SEQEND
  8
Layer8$C$L8
 62
     3
  0
POLYLINE
  8
Layer8$C$L8
 62
     3
 66
     1
  0
VERTEX
  8
Layer8$C$L8
 62
     3
 10
-99.8031354085
 20
120.2596845849
  0
VERTEX
  8
Layer8$C$L8
 62
     3
 10
-100.0782574103
 20
120.3069035125
  0
VERTEX
  8
Layer8$C$L8
 62
     3
 10
-100.2618229524
 20
120.4264799178
  0
SEQEND
  8
Layer8$C$L8
 62
     3
  0
POLYLINE
  8
Layer8$C$L8
 62
     3
 66
     1
  0
VERTEX
  8
Layer8$C$L8
 62
     3
 10
-99.3444478646
 20
120.4264799178
  0
VERTEX
  8
Layer8$C$L8
 62
     3
 10
-99.5850028977
 20
120.2876516779
  0
VERTEX
  8
Layer8$C$L8
 62
     3
 10
-99.8031354085
 20
120.2596845849
  0
SEQEND
  8
Layer8$C$L8
 62
     3
  0
POLYLINE
  8
Layer8$C$L8
 62
     3
 66
     1
  0
VERTEX
  8
Layer8$C$L8
 62
     3
 10
-99.1985021666
 20
120.7809200784
  0
VERTEX
  8
Layer8$C$L8
 62
     3
 10
-99.2442580447
 20
120.5668993950
  0
VERTEX
  8
Layer8$C$L8
 62
     3
 10
-99.3444478646
 20
120.4264799178
  0
SEQEND
  8
Layer8$C$L8
 62
     3
  0
POLYLINE
  8
Layer8$C$L8
 62
     3
 66
     1
  0
VERTEX
  8
Layer8$C$L8
 62
     3
 10
-99.3444478646
 20
121.1353602282
  0
VERTEX
  8
Layer8$C$L8
 62
     3
 10
-99.2264977232
 20
120.9511323266
  0
VERTEX
  8
Layer8$C$L8
 62
     3
 10
-99.1985021666
 20
120.7809200784
  0
SEQEND
  8
Layer8$C$L8
 62
     3
  0
POLYLINE
  8
Layer8$C$L8
 62
     3
 66
     1
  0
VERTEX
  8
Layer8$C$L8
 62
     3
 10
-99.8031354085
 20
121.3021556193
  0
VERTEX
  8
Layer8$C$L8
 62
     3
 10
-99.5279854670
 20
121.2550162324
  0
VERTEX
  8
Layer8$C$L8
 62
     3
 10
-99.3444478646
 20
121.1353602282
  0
SEQEND
  8
Layer8$C$L8
 62
     3
  0
POLYLINE
  8
Layer8$C$L8
 62
     3
 66
     1
  0
VERTEX
  8
Layer8$C$L8
 62
     3
 10
-99.3305488065
 20
120.7809200784
  0
VERTEX
  8
Layer8$C$L8
 62
     3
 10
-99.3651697919
 20
120.9240022888
  0
VERTEX
  8
Layer8$C$L8
 62
     3
 10
-99.4347954676
 20
121.0172135195
  0
SEQEND
  8
Layer8$C$L8
 62
     3
  0
POLYLINE
  8
Layer8$C$L8
 62
     3
 66
     1
  0
VERTEX
  8
Layer8$C$L8
 62
     3
 10
-99.4347954676
 20
120.5446266410
  0
VERTEX
  8
Layer8$C$L8
 62
     3
 10
-99.3519636378
 20
120.6668147222
  0
VERTEX
  8
Layer8$C$L8
 62
     3
 10
-99.3305488065
 20
120.7809200784
  0
SEQEND
  8
Layer8$C$L8
 62
     3
  0
POLYLINE
  8
Layer8$C$L8
 62
     3
 66
     1
  0
VERTEX
  8
Layer8$C$L8
 62
     3
 10
-99.8031354085
 20
120.4264799178
  0
VERTEX
  8
Layer8$C$L8
 62
     3
 10
-99.5838480577
 20
120.4567324764
  0
VERTEX
  8
Layer8$C$L8
 62
     3
 10
-99.4347954676
 20
120.5446266410
  0
SEQEND
  8
Layer8$C$L8
 62
     3
  0
ARC
  8
Layer8$C$L8
 62
     3
 10
-99.8469650061
 20
120.9230852161
 40
0.4985357118
 50
229.3884716004
 51
275.0437656874
  0
POLYLINE
  8
Layer8$C$L8
 62
     3
 66
     1
  0
VERTEX
  8
Layer8$C$L8
 62
     3
 10
-100.2757220105
 20
120.7809200784
  0
VERTEX
  8
Layer8$C$L8
 62
     3
 10
-100.2411010251
 20
120.6378378572
  0
VERTEX
  8
Layer8$C$L8
 62
     3
 10
-100.1714753494
 20
120.5446266410
  0
SEQEND
  8
Layer8$C$L8
 62
     3
  0
POLYLINE
  8
Layer8$C$L8
 62
     3
 66
     1
  0
VERTEX
  8
Layer8$C$L8
 62
     3
 10
-100.1714753494
 20
121.0172135195
  0
VERTEX
  8
Layer8$C$L8
 62
     3
 10
-100.2543071792
 20
120.8950254383
  0
VERTEX
  8
Layer8$C$L8
 62
     3
 10
-100.2757220105
 20
120.7809200784
  0
SEQEND
  8
Layer8$C$L8
 62
     3
  0
POLYLINE
  8
Layer8$C$L8
 62
     3
 66
     1
  0
VERTEX
  8
Layer8$C$L8
 62
     3
 10
-99.8031354085
 20
121.1353602282
  0
VERTEX
  8
Layer8$C$L8
 62
     3
 10
-100.0224227593
 20
121.1051076695
  0
VERTEX
  8
Layer8$C$L8
 62
     3
 10
-100.1714753494
 20
121.0172135195
  0
SEQEND
  8
Layer8$C$L8
 62
     3
  0
ARC
  8
Layer8$C$L8
 62
     3
 10
-99.7593069253
 20
120.6387514088
 40
0.4985391213
 50
49.3886388662
 51
95.0436025265
  0
LINE
  8
Layer8$C$L8
 62
     3
 10
-96.1124102161
 20
120.2005924585
 11
-96.4859618381
 21
120.6957661795
  0
LINE
  8
Layer8$C$L8
 62
     3
 10
-96.1037228391
 20
120.2005924585
 11
-96.1124102161
 21
120.2005924585
  0
LINE
  8
Layer8$C$L8
 62
     3
 10
-95.7301693544
 20
120.6957661795
 11
-96.1037228391
 21
120.2005924585
  0
LINE
  8
Layer8$C$L8
 62
     3
 10
-95.7649188623
 20
120.7305152109
 11
-95.7301693544
 21
120.6957661795
  0
LINE
  8
Layer8$C$L8
 62
     3
 10
-96.0255364463
 20
120.5307082580
 11
-95.7649188623
 21
120.7305152109
  0
LINE
  8
Layer8$C$L8
 62
     3
 10
-96.0255364463
 20
122.1986619218
 11
-96.0255364463
 21
120.5307082580
  0
LINE
  8
Layer8$C$L8
 62
     3
 10
-96.1899521336
 20
122.1986619218
 11
-96.0255364463
 21
122.1986619218
  0
LINE
  8
Layer8$C$L8
 62
     3
 10
-96.1899521336
 20
120.5307082580
 11
-96.1899521336
 21
122.1986619218
  0
LINE
  8
Layer8$C$L8
 62
     3
 10
-96.4512123302
 20
120.7305152109
 11
-96.1899521336
 21
120.5307082580
  0
LINE
  8
Layer8$C$L8
 62
     3
 10
-96.4859618381
 20
120.6957661795
 11
-96.4512123302
 21
120.7305152109
  0
LINE
  8
Layer8$C$L8
 62
     3
 10
-99.3439337746
 20
122.4120655258
 11
-99.2124012247
 21
122.4120655258
  0
LINE
  8
Layer8$C$L8
 62
     3
 10
-99.3439337746
 20
122.0205597508
 11
-99.3439337746
 21
122.4120655258
  0
LINE
  8
Layer8$C$L8
 62
     3
 10
-100.4008191213
 20
122.0205597508
 11
-99.3439337746
 21
122.0205597508
  0
LINE
  8
Layer8$C$L8
 62
     3
 10
-100.4008191213
 20
121.8560809664
 11
-100.4008191213
 21
122.0205597508
  0
LINE
  8
Layer8$C$L8
 62
     3
 10
-99.3439337746
 20
121.8560809664
 11
-100.4008191213
 21
121.8560809664
  0
LINE
  8
Layer8$C$L8
 62
     3
 10
-99.3439337746
 20
121.4599419779
 11
-99.3439337746
 21
121.8560809664
  0
LINE
  8
Layer8$C$L8
 62
     3
 10
-99.2124012247
 20
121.4599419779
 11
-99.3439337746
 21
121.4599419779
  0
LINE
  8
Layer8$C$L8
 62
     3
 10
-99.2124012247
 20
122.4120655258
 11
-99.2124012247
 21
121.4599419779
  0
LINE
  8
Layer8$C$L8
 62
     3
 10
-95.3913672403
 20
123.5168728906
 11
-95.3913672403
 21
123.3112745847
  0
LINE
  8
Layer8$C$L8
 62
     3
 10
-96.8768882141
 20
123.3112745847
 11
-96.8768882141
 21
123.5168728906
  0
LINE
  8
Layer8$C$L8
 62
     3
 10
-96.8768882141
 20
123.5168728906
 11
-95.3913672403
 21
123.5168728906
  0
LINE
  8
Layer8$C$L8
 62
     3
 10
-96.3209035382
 20
123.3112745847
 11
-96.8768882141
 21
123.3112745847
  0
LINE
  8
Layer8$C$L8
 62
     3
 10
-96.1210975930
 20
123.1114677082
 11
-96.3209035382
 21
123.3112745847
  0
LINE
  8
Layer8$C$L8
 62
     3
 10
-96.8768882141
 20
122.6076065957
 11
-96.1210975930
 21
123.1114677082
  0
LINE
  8
Layer8$C$L8
 62
     3
 10
-96.8768882141
 20
122.3730505605
 11
-96.8768882141
 21
122.6076065957
  0
LINE
  8
Layer8$C$L8
 62
     3
 10
-95.9821014241
 20
122.9724715392
 11
-96.8768882141
 21
122.3730505605
  0
LINE
  8
Layer8$C$L8
 62
     3
 10
-95.3913672403
 20
122.3817378211
 11
-95.9821014241
 21
122.9724715392
  0
LINE
  8
Layer8$C$L8
 62
     3
 10
-95.3913672403
 20
122.6336683774
 11
-95.3913672403
 21
122.3817378211
  0
LINE
  8
Layer8$C$L8
 62
     3
 10
-96.0689733312
 20
123.3112745847
 11
-95.3913672403
 21
122.6336683774
  0
LINE
  8
Layer8$C$L8
 62
     3
 10
-95.3913672403
 20
123.3112745847
 11
-96.0689733312
 21
123.3112745847
  0
ARC
  8
Layer8$C$L8
 62
     3
 10
-96.1823852891
 20
124.2359150194
 40
0.7937569386
 50
86.8284770578
 51
133.5431195994
  0
POLYLINE
  8
Layer8$C$L8
 62
     3
 66
     1
  0
VERTEX
  8
Layer8$C$L8
 62
     3
 10
-96.8942629680
 20
124.3855989466
  0
VERTEX
  8
Layer8$C$L8
 62
     3
 10
-96.8450984493
 20
124.6418563112
  0
VERTEX
  8
Layer8$C$L8
 62
     3
 10
-96.7292046681
 20
124.8112745977
  0
SEQEND
  8
Layer8$C$L8
 62
     3
  0
POLYLINE
  8
Layer8$C$L8
 62
     3
 66
     1
  0
VERTEX
  8
Layer8$C$L8
 62
     3
 10
-96.7465794221
 20
123.9599232956
  0
VERTEX
  8
Layer8$C$L8
 62
     3
 10
-96.8704714015
 20
124.1839780866
  0
VERTEX
  8
Layer8$C$L8
 62
     3
 10
-96.8942629680
 20
124.3855989466
  0
SEQEND
  8
Layer8$C$L8
 62
     3
  0
POLYLINE
  8
Layer8$C$L8
 62
     3
 66
     1
  0
VERTEX
  8
Layer8$C$L8
 62
     3
 10
-96.2861540303
 20
123.7861780844
  0
VERTEX
  8
Layer8$C$L8
 62
     3
 10
-96.5621756897
 20
123.8389798834
  0
VERTEX
  8
Layer8$C$L8
 62
     3
 10
-96.7465794221
 20
123.9599232956
  0
SEQEND
  8
Layer8$C$L8
 62
     3
  0
LINE
  8
Layer8$C$L8
 62
     3
 10
-96.2861540303
 20
123.9946723378
 11
-96.2861540303
 21
123.7861780844
  0
POLYLINE
  8
Layer8$C$L8
 62
     3
 66
     1
  0
VERTEX
  8
Layer8$C$L8
 62
     3
 10
-96.6336453840
 20
124.1162937529
  0
VERTEX
  8
Layer8$C$L8
 62
     3
 10
-96.4509124443
 20
124.0142242911
  0
VERTEX
  8
Layer8$C$L8
 62
     3
 10
-96.2861540303
 20
123.9946723378
  0
SEQEND
  8
Layer8$C$L8
 62
     3
  0
POLYLINE
  8
Layer8$C$L8
 62
     3
 66
     1
  0
VERTEX
  8
Layer8$C$L8
 62
     3
 10
-96.7292046681
 20
124.3855989466
  0
VERTEX
  8
Layer8$C$L8
 62
     3
 10
-96.7027495191
 20
124.2242622118
  0
VERTEX
  8
Layer8$C$L8
 62
     3
 10
-96.6336453840
 20
124.1162937529
  0
SEQEND
  8
Layer8$C$L8
 62
     3
  0
POLYLINE
  8
Layer8$C$L8
 62
     3
 66
     1
  0
VERTEX
  8
Layer8$C$L8
 62
     3
 10
-96.6162706301
 20
124.6635910518
  0
VERTEX
  8
Layer8$C$L8
 62
     3
 10
-96.7079630628
 20
124.5189769122
  0
VERTEX
  8
Layer8$C$L8
 62
     3
 10
-96.7292046681
 20
124.3855989466
  0
SEQEND
  8
Layer8$C$L8
 62
     3
  0
POLYLINE
  8
Layer8$C$L8
 62
     3
 66
     1
  0
VERTEX
  8
Layer8$C$L8
 62
     3
 10
-96.1384704843
 20
124.8199619747
  0
VERTEX
  8
Layer8$C$L8
 62
     3
 10
-96.4232186362
 20
124.7792045049
  0
VERTEX
  8
Layer8$C$L8
 62
     3
 10
-96.6162706301
 20
124.6635910518
  0
SEQEND
  8
Layer8$C$L8
 62
     3
  0
POLYLINE
  8
Layer8$C$L8
 62
     3
 66
     1
  0
VERTEX
  8
Layer8$C$L8
 62
     3
 10
-95.6606722012
 20
124.6635910518
  0
VERTEX
  8
Layer8$C$L8
 62
     3
 10
-95.9132040426
 20
124.7963394432
  0
VERTEX
  8
Layer8$C$L8
 62
     3
 10
-96.1384704843
 20
124.8199619747
  0
SEQEND
  8
Layer8$C$L8
 62
     3
  0
POLYLINE
  8
Layer8$C$L8
 62
     3
 66
     1
  0
VERTEX
  8
Layer8$C$L8
 62
     3
 10
-95.5390507862
 20
124.3855989466
  0
VERTEX
  8
Layer8$C$L8
 62
     3
 10
-95.5792336300
 20
124.5538465607
  0
VERTEX
  8
Layer8$C$L8
 62
     3
 10
-95.6606722012
 20
124.6635910518
  0
SEQEND
  8
Layer8$C$L8
 62
     3
  0
POLYLINE
  8
Layer8$C$L8
 62
     3
 66
     1
  0
VERTEX
  8
Layer8$C$L8
 62
     3
 10
-95.6432974473
 20
124.1336682740
  0
VERTEX
  8
Layer8$C$L8
 62
     3
 10
-95.5591561780
 20
124.2645582113
  0
VERTEX
  8
Layer8$C$L8
 62
     3
 10
-95.5390507862
 20
124.3855989466
  0
SEQEND
  8
Layer8$C$L8
 62
     3
  0
POLYLINE
  8
Layer8$C$L8
 62
     3
 66
     1
  0
VERTEX
  8
Layer8$C$L8
 62
     3
 10
-95.9212897852
 20
124.0207340031
  0
VERTEX
  8
Layer8$C$L8
 62
     3
 10
-95.7550561562
 20
124.0599277823
  0
VERTEX
  8
Layer8$C$L8
 62
     3
 10
-95.6432974473
 20
124.1336682740
  0
SEQEND
  8
Layer8$C$L8
 62
     3
  0
LINE
  8
Layer8$C$L8
 62
     3
 10
-95.9212897852
 20
123.8122397496
 11
-95.9212897852
 21
124.0207340031
  0
POLYLINE
  8
Layer8$C$L8
 62
     3
 66
     1
  0
VERTEX
  8
Layer8$C$L8
 62
     3
 10
-95.5216760323
 20
123.9772978167
  0
VERTEX
  8
Layer8$C$L8
 62
     3
 10
-95.7300538704
 20
123.8464320938
  0
VERTEX
  8
Layer8$C$L8
 62
     3
 10
-95.9212897852
 20
123.8122397496
  0
SEQEND
  8
Layer8$C$L8
 62
     3
  0
POLYLINE
  8
Layer8$C$L8
 62
     3
 66
     1
  0
VERTEX
  8
Layer8$C$L8
 62
     3
 10
-95.3739924863
 20
124.3855989466
  0
VERTEX
  8
Layer8$C$L8
 62
     3
 10
-95.4156710342
 20
124.1407668146
  0
VERTEX
  8
Layer8$C$L8
 62
     3
 10
-95.5216760323
 20
123.9772978167
  0
SEQEND
  8
Layer8$C$L8
 62
     3
  0
POLYLINE
  8
Layer8$C$L8
 62
     3
 66
     1
  0
VERTEX
  8
Layer8$C$L8
 62
     3
 10
-95.5390507862
 20
124.8112745977
  0
VERTEX
  8
Layer8$C$L8
 62
     3
 10
-95.4034725711
 20
124.5891192391
  0
VERTEX
  8
Layer8$C$L8
 62
     3
 10
-95.3739924863
 20
124.3855989466
  0
SEQEND
  8
Layer8$C$L8
 62
     3
  0
POLYLINE
  8
Layer8$C$L8
 62
     3
 66
     1
  0
VERTEX
  8
Layer8$C$L8
 62
     3
 10
-96.1384704843
 20
125.0284562281
  0
VERTEX
  8
Layer8$C$L8
 62
     3
 10
-95.7790302620
 20
124.9671626299
  0
VERTEX
  8
Layer8$C$L8
 62
     3
 10
-95.5390507862
 20
124.8112745977
  0
SEQEND
  8
Layer8$C$L8
 62
     3
  0
ARC
  8
Layer8$C$L8
 62
     3
 10
-96.1753879747
 20
125.8175587401
 40
0.7685577729
 50
86.5983099380
 51
133.3680077216
  0
POLYLINE
  8
Layer8$C$L8
 62
     3
 66
     1
  0
VERTEX
  8
Layer8$C$L8
 62
     3
 10
-96.8855755911
 20
125.9332179486
  0
VERTEX
  8
Layer8$C$L8
 62
     3
 10
-96.8283793465
 20
126.2007436178
  0
VERTEX
  8
Layer8$C$L8
 62
     3
 10
-96.7031425372
 20
126.3762681208
  0
SEQEND
  8
Layer8$C$L8
 62
     3
  0
POLYLINE
  8
Layer8$C$L8
 62
     3
 66
     1
  0
VERTEX
  8
Layer8$C$L8
 62
     3
 10
-96.7031425372
 20
125.4901677764
  0
VERTEX
  8
Layer8$C$L8
 62
     3
 10
-96.8505820766
 20
125.7204526498
  0
VERTEX
  8
Layer8$C$L8
 62
     3
 10
-96.8855755911
 20
125.9332179486
  0
SEQEND
  8
Layer8$C$L8
 62
     3
  0
POLYLINE
  8
Layer8$C$L8
 62
     3
 66
     1
  0
VERTEX
  8
Layer8$C$L8
 62
     3
 10
-96.1297849700
 20
125.2816735230
  0
VERTEX
  8
Layer8$C$L8
 62
     3
 10
-96.4736851439
 20
125.3406970224
  0
VERTEX
  8
Layer8$C$L8
 62
     3
 10
-96.7031425372
 20
125.4901677764
  0
SEQEND
  8
Layer8$C$L8
 62
     3
  0
ARC
  8
Layer8$C$L8
 62
     3
 10
-96.0837239544
 20
126.0476223414
 40
0.7673325287
 50
266.5586115753
 51
313.4075865234
  0
POLYLINE
  8
Layer8$C$L8
 62
     3
 66
     1
  0
VERTEX
  8
Layer8$C$L8
 62
     3
 10
-95.3739924863
 20
125.9332179486
  0
VERTEX
  8
Layer8$C$L8
 62
     3
 10
-95.4311887309
 20
125.6656922794
  0
VERTEX
  8
Layer8$C$L8
 62
     3
 10
-95.5564255402
 20
125.4901677764
  0
SEQEND
  8
Layer8$C$L8
 62
     3
  0
POLYLINE
  8
Layer8$C$L8
 62
     3
 66
     1
  0
VERTEX
  8
Layer8$C$L8
 62
     3
 10
-95.5564255402
 20
126.3762681208
  0
VERTEX
  8
Layer8$C$L8
 62
     3
 10
-95.4089860007
 20
126.1459832474
  0
VERTEX
  8
Layer8$C$L8
 62
     3
 10
-95.3739924863
 20
125.9332179486
  0
SEQEND
  8
Layer8$C$L8
 62
     3
  0
POLYLINE
  8
Layer8$C$L8
 62
     3
 66
     1
  0
VERTEX
  8
Layer8$C$L8
 62
     3
 10
-96.1297849700
 20
126.5847623742
  0
VERTEX
  8
Layer8$C$L8
 62
     3
 10
-95.7858475432
 20
126.5258380606
  0
VERTEX
  8
Layer8$C$L8
 62
     3
 10
-95.5564255402
 20
126.3762681208
  0
SEQEND
  8
Layer8$C$L8
 62
     3
  0
POLYLINE
  8
Layer8$C$L8
 62
     3
 66
     1
  0
VERTEX
  8
Layer8$C$L8
 62
     3
 10
-95.5390507862
 20
125.9332179486
  0
VERTEX
  8
Layer8$C$L8
 62
     3
 10
-95.5823274836
 20
126.1120705328
  0
VERTEX
  8
Layer8$C$L8
 62
     3
 10
-95.6693595782
 20
126.2285845748
  0
SEQEND
  8
Layer8$C$L8
 62
     3
  0
POLYLINE
  8
Layer8$C$L8
 62
     3
 66
     1
  0
VERTEX
  8
Layer8$C$L8
 62
     3
 10
-95.6693595782
 20
125.6378513224
  0
VERTEX
  8
Layer8$C$L8
 62
     3
 10
-95.5658188597
 20
125.7905863619
  0
VERTEX
  8
Layer8$C$L8
 62
     3
 10
-95.5390507862
 20
125.9332179486
  0
SEQEND
  8
Layer8$C$L8
 62
     3
  0
POLYLINE
  8
Layer8$C$L8
 62
     3
 66
     1
  0
VERTEX
  8
Layer8$C$L8
 62
     3
 10
-96.1297849700
 20
125.4901677764
  0
VERTEX
  8
Layer8$C$L8
 62
     3
 10
-95.8556762472
 20
125.5279831982
  0
VERTEX
  8
Layer8$C$L8
 62
     3
 10
-95.6693595782
 20
125.6378513224
  0
SEQEND
  8
Layer8$C$L8
 62
     3
  0
ARC
  8
Layer8$C$L8
 62
     3
 10
-96.1845727982
 20
126.1109175164
 40
0.6231628566
 50
229.3882067010
 51
275.0438974509
  0
POLYLINE
  8
Layer8$C$L8
 62
     3
 66
     1
  0
VERTEX
  8
Layer8$C$L8
 62
     3
 10
-96.7205172912
 20
125.9332179486
  0
VERTEX
  8
Layer8$C$L8
 62
     3
 10
-96.6772405938
 20
125.7543653644
  0
VERTEX
  8
Layer8$C$L8
 62
     3
 10
-96.5902084992
 20
125.6378513224
  0
SEQEND
  8
Layer8$C$L8
 62
     3
  0
POLYLINE
  8
Layer8$C$L8
 62
     3
 66
     1
  0
VERTEX
  8
Layer8$C$L8
 62
     3
 10
-96.5902084992
 20
126.2285845748
  0
VERTEX
  8
Layer8$C$L8
 62
     3
 10
-96.6937492177
 20
126.0758495352
  0
VERTEX
  8
Layer8$C$L8
 62
     3
 10
-96.7205172912
 20
125.9332179486
  0
SEQEND
  8
Layer8$C$L8
 62
     3
  0
POLYLINE
  8
Layer8$C$L8
 62
     3
 66
     1
  0
VERTEX
  8
Layer8$C$L8
 62
     3
 10
-96.1297849700
 20
126.3762681208
  0
VERTEX
  8
Layer8$C$L8
 62
     3
 10
-96.4038918302
 20
126.3384522333
  0
VERTEX
  8
Layer8$C$L8
 62
     3
 10
-96.5902084992
 20
126.2285845748
  0
SEQEND
  8
Layer8$C$L8
 62
     3
  0
ARC
  8
Layer8$C$L8
 62
     3
 10
-96.0749957536
 20
125.7555175926
 40
0.6231637637
 50
49.3882207546
 51
95.0440182216
  0
LINE
  8
Layer8$C$L8
 62
     3
 10
-95.3913672403
 20
127.7414547674
 11
-95.3913672403
 21
127.5358564614
  0
LINE
  8
Layer8$C$L8
 62
     3
 10
-96.8762456015
 20
127.7414547674
 11
-95.3913672403
 21
127.7414547674
  0
LINE
  8
Layer8$C$L8
 62
     3
 10
-96.8762456015
 20
126.7366284899
 11
-96.8762456015
 21
127.7414547674
  0
LINE
  8
Layer8$C$L8
 62
     3
 10
-96.7118299142
 20
126.7366284899
 11
-96.8762456015
 21
126.7366284899
  0
LINE
  8
Layer8$C$L8
 62
     3
 10
-96.7118299142
 20
127.5358564614
 11
-96.7118299142
 21
126.7366284899
  0
LINE
  8
Layer8$C$L8
 62
     3
 10
-95.3913672403
 20
127.5358564614
 11
-96.7118299142
 21
127.5358564614
  0
LINE
  8
Layer8$C$L8
 62
     3
 10
-88.7549525634
 20
111.8734415083
 11
-100.6549528376
 21
111.8734415083
  0
LINE
  8
Layer8$C$L8
 62
     3
 10
-97.1549531952
 20
119.7734412433
 11
-95.0549530372
 21
119.7734412433
  0
LINE
  8
Layer8$C$L8
 62
     3
 10
-97.1549531952
 20
128.2734411231
 11
-97.1549531952
 21
119.7734412433
  0
LINE
  8
Layer8$C$L8
 62
     3
 10
-95.0549530372
 20
128.2734411231
 11
-97.1549531952
 21
128.2734411231
  0
LINE
  8
Layer8$C$L8
 62
     3
 10
-98.9549538628
 20
123.2734412349
 11
-100.6549528376
 21
123.2734412349
  0
LINE
  8
Layer8$C$L8
 62
     3
 10
-98.9549538628
 20
121.8734412848
 11
-97.6549523458
 21
121.8734412848
  0
LINE
  8
Layer8$C$L8
 62
     3
 10
-97.6549523458
 20
121.8734412848
 11
-97.6549523458
 21
119.6734412967
  0
LINE
  8
Layer8$C$L8
 62
     3
 10
-97.6549523458
 20
119.6734412967
 11
-98.9549538628
 21
119.6734412967
  0
LINE
  8
Layer8$C$L8
 62
     3
 10
-100.6549528376
 20
118.2734413466
 11
-98.9549538628
 21
118.2734413466
  0
LINE
  8
Layer8$C$L8
 62
     3
 10
-97.6549523458
 20
126.7734413429
 11
-97.6549523458
 21
124.1734413358
  0
LINE
  8
Layer8$C$L8
 62
     3
 10
-97.6549523458
 20
124.1734413358
 11
-98.9549538628
 21
124.1734413358
  0
LINE
  8
Layer8$C$L8
 62
     3
 10
-98.9549538628
 20
124.1734413358
 11
-98.9549538628
 21
126.7734413429
  0
LINE
  8
Layer8$C$L8
 62
     3
 10
-98.9549538628
 20
126.7734413429
 11
-97.6549523458
 21
126.7734413429
  0
LINE
  8
Layer8$C$L8
 62
     3
 10
-97.6549523458
 20
115.9734410628
 11
-97.6549523458
 21
113.3734412885
  0
LINE
  8
Layer8$C$L8
 62
     3
 10
-97.6549523458
 20
113.3734412885
 11
-98.9549538628
 21
113.3734412885
  0
LINE
  8
Layer8$C$L8
 62
     3
 10
-98.9549538628
 20
113.3734412885
 11
-98.9549538628
 21
115.9734410628
  0
LINE
  8
Layer8$C$L8
 62
     3
 10
-98.9549538628
 20
115.9734410628
 11
-97.6549523458
 21
115.9734410628
  0
LINE
  8
Layer8$C$L8
 62
     3
 10
-100.6549528376
 20
129.6734410732
 11
-91.4549526334
 21
129.6734410732
  0
LINE
  8
Layer8$C$L8
 62
     3
 10
-90.8549527213
 20
113.9936760462
 11
-90.7549528912
 21
113.9936760462
  0
LINE
  8
Layer8$C$L8
 62
     3
 10
-88.5549529031
 20
112.6734410807
 11
-88.5549529031
 21
115.4480801358
  0
LINE
  8
Layer8$C$L8
 62
     3
 10
-88.7549525634
 20
115.5013187251
 11
-89.0549529851
 21
115.5013187251
  0
LINE
  8
Layer8$C$L8
 62
     3
 10
-89.0549529851
 20
115.4173385746
 11
-88.7549525634
 21
115.4173385746
  0
LINE
  8
Layer8$C$L8
 62
     3
 10
-88.5549529031
 20
115.1886676832
 11
-88.7549525634
 21
115.4173385746
  0
LINE
  8
Layer8$C$L8
 62
     3
 10
-88.7549525634
 20
115.5013187251
 11
-88.5549529031
 21
115.4480801358
  0
LINE
  8
Layer8$C$L8
 62
     3
 10
-88.7549525634
 20
115.4173385746
 11
-88.7549525634
 21
115.5013187251
  0
LINE
  8
Layer8$C$L8
 62
     3
 10
-91.6549532250
 20
123.3599170971
 11
-91.6549532250
 21
120.0904806189
  0
LINE
  8
Layer8$C$L8
 62
     3
 10
-89.4549532369
 20
123.5275004453
 11
-89.4549532369
 21
120.0904806189
  0
ARC
  8
Layer8$C$L8
 62
     3
 10
-88.7956370402
 20
117.7983006664
 40
0.2408844226
 50
2.3366197829
 51
54.2653372428
  0
POLYLINE
  8
Layer8$C$L8
 62
     3
 66
     1
  0
VERTEX
  8
Layer8$C$L8
 62
     3
 10
-88.7549525634
 20
118.0193821362
  0
VERTEX
  8
Layer8$C$L8
 62
     3
 10
-88.6891071260
 20
118.0087487607
  0
VERTEX
  8
Layer8$C$L8
 62
     3
 10
-88.6549527332
 20
117.9938338625
  0
SEQEND
  8
Layer8$C$L8
 62
     3
  0
LINE
  8
Layer8$C$L8
 62
     3
 10
-91.6549532250
 20
117.9864619787
 11
-91.6549532250
 21
116.8795180435
  0
LINE
  8
Layer8$C$L8
 62
     3
 10
-88.7549525634
 20
118.0193821362
 11
-88.8771774754
 21
118.0193821362
  0
ARC
  8
Layer8$C$L8
 62
     3
 10
-94.8472068083
 20
117.0578133802
 40
0.2077462918
 50
147.5856511901
 51
180.0446056000
  0
LINE
  8
Layer8$C$L8
 62
     3
 10
-95.0549530372
 20
116.1734411887
 11
-95.0549530372
 21
117.0576516467
  0
LINE
  8
Layer8$C$L8
 62
     3
 10
-92.2166059301
 20
117.2621197927
 11
-91.6549532250
 21
117.2621197927
  0
ARC
  8
Layer8$C$L8
 62
     3
 10
-94.8526007175
 20
123.4647717909
 40
0.2023634082
 50
179.4001958921
 51
269.3338692045
  0
LINE
  8
Layer8$C$L8
 62
     3
 10
-94.8549533770
 20
123.2624220590
 11
-91.6549532250
 21
123.2624220590
  0
LINE
  8
Layer8$C$L8
 62
     3
 10
-91.6549532250
 20
123.3599170971
 11
-89.4549532369
 21
123.3599170971
  0
LINE
  8
Layer8$C$L8
 62
     3
 10
-89.4549532369
 20
123.5275004453
 11
-88.7549525634
 21
123.5275004453
  0
POLYLINE
  8
Layer8$C$L8
 62
     3
 66
     1
  0
VERTEX
  8
Layer8$C$L8
 62
     3
 10
-88.6549527332
 20
123.5530487190
  0
VERTEX
  8
Layer8$C$L8
 62
     3
 10
-88.7125019491
 20
123.5318466949
  0
VERTEX
  8
Layer8$C$L8
 62
     3
 10
-88.7549525634
 20
123.5275004453
  0
SEQEND
  8
Layer8$C$L8
 62
     3
  0
ARC
  8
Layer8$C$L8
 62
     3
 10
-88.7941835643
 20
123.7477992670
 40
0.2394013372
 50
305.5616898825
 51
357.8363530918
  0
LINE
  8
Layer8$C$L8
 62
     3
 10
-88.5549529031
 20
123.7734413168
 11
-88.5549529031
 21
117.2734411827
  0
LINE
  8
Layer8$C$L8
 62
     3
 10
-88.5549529031
 20
128.8734415009
 11
-88.5549529031
 21
123.7807354353
  0
LINE
  8
Layer8$C$L8
 62
     3
 10
-91.6549532250
 20
112.0734411686
 11
-91.6549532250
 21
115.9734410628
  0
ARC
  8
Layer8$C$L8
 62
     3
 10
-91.4549529508
 20
112.0734412908
 40
0.2000000000
 50
180.0000000000
 51
270.0000000000
  0
ARC
  8
Layer8$C$L8
 62
     3
 10
-88.7549529508
 20
112.0734412908
 40
0.2000000000
 50
270.0000000000
 51
360.0000000000
  0
LINE
  8
Layer8$C$L8
 62
     3
 10
-88.5549529031
 20
112.6734410807
 11
-88.5549529031
 21
112.0734411686
  0
LINE
  8
Layer8$C$L8
 62
     3
 10
-90.8549527213
 20
117.7234413496
 11
-90.8549527213
 21
112.4734414204
  0
LINE
  8
Layer8$C$L8
 62
     3
 10
-89.9549533189
 20
112.4734414204
 11
-89.9549533189
 21
117.7234413496
  0
LINE
  8
Layer8$C$L8
 62
     3
 10
-90.8549527213
 20
112.4734414204
 11
-89.9549533189
 21
112.4734414204
  0
LINE
  8
Layer8$C$L8
 62
     3
 10
-89.0549529851
 20
115.0734411947
 11
-88.5549529031
 21
115.0734411947
  0
LINE
  8
Layer8$C$L8
 62
     3
 10
-91.6549532250
 20
115.9734410628
 11
-94.8549533770
 21
115.9734410628
  0
ARC
  8
Layer8$C$L8
 62
     3
 10
-94.8549529508
 20
116.1734412908
 40
0.2000000000
 50
180.0000000000
 51
270.0000000000
  0
POLYLINE
  8
Layer8$C$L8
 62
     3
 66
     1
  0
VERTEX
  8
Layer8$C$L8
 62
     3
 10
-91.4549526334
 20
116.1734411887
  0
VERTEX
  8
Layer8$C$L8
 62
     3
 10
-91.4939713240
 20
116.1344234294
  0
VERTEX
  8
Layer8$C$L8
 62
     3
 10
-91.5314896539
 20
116.0969046339
  0
VERTEX
  8
Layer8$C$L8
 62
     3
 10
-91.5660668671
 20
116.0623274206
  0
VERTEX
  8
Layer8$C$L8
 62
     3
 10
-91.5963739664
 20
116.0320198557
  0
VERTEX
  8
Layer8$C$L8
 62
     3
 10
-91.6212467984
 20
116.0071474894
  0
VERTEX
  8
Layer8$C$L8
 62
     3
 10
-91.6397288949
 20
115.9886653929
  0
VERTEX
  8
Layer8$C$L8
 62
     3
 10
-91.6511096567
 20
115.9772841654
  0
VERTEX
  8
Layer8$C$L8
 62
     3
 10
-91.6549532250
 20
115.9734410628
  0
SEQEND
  8
Layer8$C$L8
 62
     3
  0
ARC
  8
Layer8$C$L8
 62
     3
 10
-88.7549529508
 20
117.7734412908
 40
0.2000000000
 50
0.0000000000
 51
90.0000000000
  0
LINE
  8
Layer8$C$L8
 62
     3
 10
-88.5549529031
 20
117.2734411827
 11
-89.0549529851
 21
117.2734411827
  0
LINE
  8
Layer8$C$L8
 62
     3
 10
-91.6549532250
 20
117.9734413906
 11
-88.7549525634
 21
117.9734413906
  0
LINE
  8
Layer8$C$L8
 62
     3
 10
-89.9549533189
 20
117.7234413496
 11
-90.8549527213
 21
117.7234413496
  0
LINE
  8
Layer8$C$L8
 62
     3
 10
-89.0549529851
 20
117.2734411827
 11
-89.0549529851
 21
115.0734411947
  0
ARC
  8
Layer8$C$L8
 62
     3
 10
-91.6422200568
 20
116.8803145239
 40
1.2758054415E-02
 50
183.5792806822
 51
229.0450034687
  0
POLYLINE
  8
Layer8$C$L8
 62
     3
 66
     1
  0
VERTEX
  8
Layer8$C$L8
 62
     3
 10
-91.4549526334
 20
116.6750496647
  0
VERTEX
  8
Layer8$C$L8
 62
     3
 10
-91.4936043829
 20
116.7137009486
  0
VERTEX
  8
Layer8$C$L8
 62
     3
 10
-91.5307976812
 20
116.7508951782
  0
VERTEX
  8
Layer8$C$L8
 62
     3
 10
-91.5651327506
 20
116.7852293163
  0
VERTEX
  8
Layer8$C$L8
 62
     3
 10
-91.5953122586
 20
116.8154092900
  0
VERTEX
  8
Layer8$C$L8
 62
     3
 10
-91.6202009231
 20
116.8402974888
  0
VERTEX
  8
Layer8$C$L8
 62
     3
 10
-91.6388581082
 20
116.8589556052
  0
VERTEX
  8
Layer8$C$L8
 62
     3
 10
-91.6505825281
 20
116.8706793266
  0
SEQEND
  8
Layer8$C$L8
 62
     3
  0
POLYLINE
  8
Layer8$C$L8
 62
     3
 66
     1
  0
VERTEX
  8
Layer8$C$L8
 62
     3
 10
-91.4549526334
 20
117.7734412647
  0
VERTEX
  8
Layer8$C$L8
 62
     3
 10
-91.4939713240
 20
117.8124592568
  0
VERTEX
  8
Layer8$C$L8
 62
     3
 10
-91.5314896539
 20
117.8499780524
  0
VERTEX
  8
Layer8$C$L8
 62
     3
 10
-91.5660668671
 20
117.8845552656
  0
VERTEX
  8
Layer8$C$L8
 62
     3
 10
-91.5963739664
 20
117.9148625976
  0
VERTEX
  8
Layer8$C$L8
 62
     3
 10
-91.6212467984
 20
117.9397351968
  0
VERTEX
  8
Layer8$C$L8
 62
     3
 10
-91.6397288949
 20
117.9582172933
  0
VERTEX
  8
Layer8$C$L8
 62
     3
 10
-91.6511096567
 20
117.9695982880
  0
VERTEX
  8
Layer8$C$L8
 62
     3
 10
-91.6549532250
 20
117.9734413906
  0
SEQEND
  8
Layer8$C$L8
 62
     3
  0
ARC
  8
Layer8$C$L8
 62
     3
 10
-94.8549529508
 20
124.3734412908
 40
0.2000000000
 50
90.0000000000
 51
180.0000000000
  0
LINE
  8
Layer8$C$L8
 62
     3
 10
-94.8549533770
 20
124.5734413548
 11
-91.6549532250
 21
124.5734413548
  0
POLYLINE
  8
Layer8$C$L8
 62
     3
 66
     1
  0
VERTEX
  8
Layer8$C$L8
 62
     3
 10
-91.6549532250
 20
124.5734413548
  0
VERTEX
  8
Layer8$C$L8
 62
     3
 10
-91.6511096567
 20
124.5695982522
  0
VERTEX
  8
Layer8$C$L8
 62
     3
 10
-91.6397288949
 20
124.5582172575
  0
VERTEX
  8
Layer8$C$L8
 62
     3
 10
-91.6212467984
 20
124.5397351611
  0
VERTEX
  8
Layer8$C$L8
 62
     3
 10
-91.5963739664
 20
124.5148625619
  0
VERTEX
  8
Layer8$C$L8
 62
     3
 10
-91.5660668671
 20
124.4845552298
  0
VERTEX
  8
Layer8$C$L8
 62
     3
 10
-91.5314896539
 20
124.4499780166
  0
VERTEX
  8
Layer8$C$L8
 62
     3
 10
-91.4939713240
 20
124.4124594539
  0
VERTEX
  8
Layer8$C$L8
 62
     3
 10
-91.4549526334
 20
124.3734412289
  0
SEQEND
  8
Layer8$C$L8
 62
     3
  0
LINE
  8
Layer8$C$L8
 62
     3
 10
-91.6549532250
 20
124.5734413548
 11
-91.6549532250
 21
129.4734414130
  0
ARC
  8
Layer8$C$L8
 62
     3
 10
-88.7549529508
 20
129.4734412908
 40
0.2000000000
 50
0.0000000000
 51
90.0000000000
  0
LINE
  8
Layer8$C$L8
 62
     3
 10
-88.5549529031
 20
129.4734414130
 11
-88.5549529031
 21
128.8734415009
  0
LINE
  8
Layer8$C$L8
 62
     3
 10
-90.8549527213
 20
129.6734410732
 11
-90.8549527213
 21
124.6302252564
  0
LINE
  8
Layer8$C$L8
 62
     3
 10
-89.9549533189
 20
124.6302252564
 11
-89.9549533189
 21
129.6734410732
  0
ARC
  8
Layer8$C$L8
 62
     3
 10
-91.4549529508
 20
129.4734412908
 40
0.2000000000
 50
90.0000000000
 51
180.0000000000
  0
LINE
  8
Layer8$C$L8
 62
     3
 10
-89.9549533189
 20
124.6302252564
 11
-90.8549527213
 21
124.6302252564
  0
LINE
  8
Layer8$C$L8
 62
     3
 10
-90.7549528912
 20
112.6851217284
 11
-90.7549528912
 21
113.9256732001
  0
POLYLINE
  8
Layer8$C$L8
 62
     3
 66
     1
  0
VERTEX
  8
Layer8$C$L8
 62
     3
 10
-90.7549528912
 20
114.2465827449
  0
VERTEX
  8
Layer8$C$L8
 62
     3
 10
-90.7395814121
 20
114.3712276987
  0
VERTEX
  8
Layer8$C$L8
 62
     3
 10
-90.7323897392
 20
114.3972521111
  0
SEQEND
  8
Layer8$C$L8
 62
     3
  0
LINE
  8
Layer8$C$L8
 62
     3
 10
-90.7549528912
 20
113.9256732001
 11
-90.7549528912
 21
114.2465827449
  0
LINE
  8
Layer8$C$L8
 62
     3
 10
-90.1549529791
 20
112.6699048488
 11
-90.5549532309
 21
112.6699048488
  0
ARC
  8
Layer8$C$L8
 62
     3
 10
-90.6769481663
 20
112.6807614837
 40
7.8691135167E-02
 50
172.4267408691
 51
286.2310729326
  0
ARC
  8
Layer8$C$L8
 62
     3
 10
-90.7435515589
 20
112.8517789457
 40
0.2620067106
 50
289.7644178689
 51
316.0398284313
  0
LINE
  8
Layer8$C$L8
 62
     3
 10
-90.5549532309
 20
113.8474993802
 11
-90.5549532309
 21
112.6699048488
  0
POLYLINE
  8
Layer8$C$L8
 62
     3
 66
     1
  0
VERTEX
  8
Layer8$C$L8
 62
     3
 10
-90.6549530611
 20
113.9388113677
  0
VERTEX
  8
Layer8$C$L8
 62
     3
 10
-90.6723175705
 20
113.9530810922
  0
VERTEX
  8
Layer8$C$L8
 62
     3
 10
-90.6891549513
 20
113.9637428730
  0
VERTEX
  8
Layer8$C$L8
 62
     3
 10
-90.7049529761
 20
113.9704740069
  0
VERTEX
  8
Layer8$C$L8
 62
     3
 10
-90.7192320138
 20
113.9730691372
  0
VERTEX
  8
Layer8$C$L8
 62
     3
 10
-90.7315571368
 20
113.9714495673
  0
VERTEX
  8
Layer8$C$L8
 62
     3
 10
-90.7415558160
 20
113.9656651228
  0
VERTEX
  8
Layer8$C$L8
 62
     3
 10
-90.7489225775
 20
113.9558904267
  0
VERTEX
  8
Layer8$C$L8
 62
     3
 10
-90.7534339041
 20
113.9424235023
  0
VERTEX
  8
Layer8$C$L8
 62
     3
 10
-90.7549528912
 20
113.9256732001
  0
SEQEND
  8
Layer8$C$L8
 62
     3
  0
ARC
  8
Layer8$C$L8
 62
     3
 10
-89.9505798235
 20
112.8753985805
 40
0.2898207385
 50
225.1566462638
 51
269.1353540170
  0
LINE
  8
Layer8$C$L8
 62
     3
 10
-90.1549529791
 20
112.6699048488
 11
-90.1549529791
 21
113.8474993802
  0
LINE
  8
Layer8$C$L8
 62
     3
 10
-90.6549530611
 20
113.9388113677
 11
-90.5549532309
 21
113.8474993802
  0
LINE
  8
Layer8$C$L8
 62
     3
 10
-90.5549532309
 20
113.8474993802
 11
-90.1549529791
 21
113.8474993802
  0
LINE
  8
Layer8$C$L8
 62
     3
 10
-90.1549529791
 20
113.8474993802
 11
-89.9549533189
 21
114.0301238208
  0
LINE
  8
Layer8$C$L8
 62
     3
 10
-90.1549529791
 20
125.3703237905
 11
-89.9549533189
 21
125.3703237905
  0
LINE
  8
Layer8$C$L8
 62
     3
 10
-90.7549528912
 20
125.4501870296
 11
-90.7549528912
 21
126.8100995964
  0
LINE
  8
Layer8$C$L8
 62
     3
 10
-88.5549529031
 20
118.0403171036
 11
-88.7655891985
 21
118.0403171036
  0
LINE
  8
Layer8$C$L8
 62
     3
 10
-90.5549532309
 20
126.9942216038
 11
-90.1549529791
 21
126.9942216038
  0
LINE
  8
Layer8$C$L8
 62
     3
 10
-89.9549533189
 20
125.5300507343
 11
-90.1549529791
 21
125.3703237905
  0
LINE
  8
Layer8$C$L8
 62
     3
 10
-90.1549529791
 20
125.3703237905
 11
-90.1549529791
 21
125.7920466757
  0
ARC
  8
Layer8$C$L8
 62
     3
 10
-89.3698929603
 20
125.6501316000
 40
0.7977838817
 50
137.1685627160
 51
169.7533146465
  0
LINE
  8
Layer8$C$L8
 62
     3
 10
-90.1549529791
 20
126.4699228502
 11
-90.5549532309
 21
126.4699228502
  0
POLYLINE
  8
Layer8$C$L8
 62
     3
 66
     1
  0
VERTEX
  8
Layer8$C$L8
 62
     3
 10
-90.7549528912
 20
126.2604469827
  0
VERTEX
  8
Layer8$C$L8
 62
     3
 10
-90.7526637003
 20
126.2528101376
  0
VERTEX
  8
Layer8$C$L8
 62
     3
 10
-90.7448526979
 20
126.2511277034
  0
VERTEX
  8
Layer8$C$L8
 62
     3
 10
-90.7333955676
 20
126.2557619645
  0
VERTEX
  8
Layer8$C$L8
 62
     3
 10
-90.7199947670
 20
126.2647529527
  0
VERTEX
  8
Layer8$C$L8
 62
     3
 10
-90.6989776105
 20
126.2829100176
  0
VERTEX
  8
Layer8$C$L8
 62
     3
 10
-90.6705173239
 20
126.3129111773
  0
VERTEX
  8
Layer8$C$L8
 62
     3
 10
-90.6549530611
 20
126.3316535785
  0
SEQEND
  8
Layer8$C$L8
 62
     3
  0
ARC
  8
Layer8$C$L8
 62
     3
 10
-91.9827421962
 20
127.3972400599
 40
1.7024977347
 50
321.2520200298
 51
326.9971714969
  0
LINE
  8
Layer8$C$L8
 62
     3
 10
-90.5549532309
 20
126.9942216038
 11
-90.5549532309
 21
126.4699228502
  0
LINE
  8
Layer8$C$L8
 62
     3
 10
-90.6549530611
 20
126.9254126980
 11
-90.5549532309
 21
126.9942216038
  0
ARC
  8
Layer8$C$L8
 62
     3
 10
-90.5469499382
 20
126.7307354901
 40
0.2226294901
 50
119.0206598970
 51
159.1155069389
  0
LINE
  8
Layer8$C$L8
 62
     3
 10
-95.0549530372
 20
118.0341855086
 11
-95.0549530372
 21
117.3017587441
  0
ARC
  8
Layer8$C$L8
 62
     3
 10
-88.4055511519
 20
127.6279892115
 40
2.0979810415
 50
213.5037018411
 51
222.3944566357
  0
LINE
  8
Layer8$C$L8
 62
     3
 10
-90.1549529791
 20
126.9942216038
 11
-89.9549533189
 21
126.8566037922
  0
LINE
  8
Layer8$C$L8
 62
     3
 10
-90.1549529791
 20
126.4699228502
 11
-90.1549529791
 21
126.9942216038
  0
ARC
  8
Layer8$C$L8
 62
     3
 10
-94.7581947235
 20
119.7915362701
 40
0.2967768264
 50
89.3740656942
 51
179.3600311715
  0
ARC
  8
Layer8$C$L8
 62
     3
 10
-94.7581947230
 20
119.6459980828
 40
0.2967768275
 50
89.3740657798
 51
179.3600197234
  0
LINE
  8
Layer8$C$L8
 62
     3
 10
-95.0549530372
 20
119.0624243043
 11
-95.0549530372
 21
128.2734411231
  0
LINE
  8
Layer8$C$L8
 62
     3
 10
-93.5549527914
 20
119.0624243043
 11
-95.0549530372
 21
119.0624243043
  0
LINE
  8
Layer8$C$L8
 62
     3
 10
-93.5549527914
 20
119.0624243043
 11
-93.5549527914
 21
117.8886472642
  0
LINE
  8
Layer8$C$L8
 62
     3
 10
-95.0549530372
 20
117.8886472642
 11
-93.5549527914
 21
117.8886472642
  0
ARC
  8
Layer8$C$L8
 62
     3
 10
-94.7581948151
 20
117.3050733902
 40
0.2967767331
 50
180.6399395799
 51
270.6259521920
  0
LINE
  8
Layer8$C$L8
 62
     3
 10
-94.7549526155
 20
117.0083143677
 11
-92.6549533889
 21
117.0083143677
  0
ARC
  8
Layer8$C$L8
 62
     3
 10
-92.6495485248
 20
117.5029108874
 40
0.4946260506
 50
269.3739066846
 51
359.3602544940
  0
LINE
  8
Layer8$C$L8
 62
     3
 10
-92.1549533069
 20
117.4973881732
 11
-92.1549533069
 21
117.9864619787
  0
LINE
  8
Layer8$C$L8
 62
     3
 10
-92.1549533069
 20
117.9864619787
 11
-89.3549534068
 21
117.9864619787
  0
LINE
  8
Layer8$C$L8
 62
     3
 10
-94.7549526155
 20
119.9427572007
 11
-89.3549534068
 21
119.9427572007
  0
ARC
  8
Layer8$C$L8
 62
     3
 10
-89.3166252370
 20
120.8188019134
 40
2.8325992576
 50
269.2247017032
 51
281.2174854403
  0
POLYLINE
  8
Layer8$C$L8
 62
     3
 66
     1
  0
VERTEX
  8
Layer8$C$L8
 62
     3
 10
-88.7655891985
 20
118.0403171036
  0
VERTEX
  8
Layer8$C$L8
 62
     3
 10
-88.7179818511
 20
118.0521595686
  0
VERTEX
  8
Layer8$C$L8
 62
     3
 10
-88.6758599937
 20
118.0648683964
  0
VERTEX
  8
Layer8$C$L8
 62
     3
 10
-88.6395849794
 20
118.0783343895
  0
VERTEX
  8
Layer8$C$L8
 62
     3
 10
-88.6094697327
 20
118.0924415982
  0
VERTEX
  8
Layer8$C$L8
 62
     3
 10
-88.5857731611
 20
118.1070684849
  0
VERTEX
  8
Layer8$C$L8
 62
     3
 10
-88.5687001556
 20
118.1220888554
  0
VERTEX
  8
Layer8$C$L8
 62
     3
 10
-88.5583969340
 20
118.1373737215
  0
VERTEX
  8
Layer8$C$L8
 62
     3
 10
-88.5549529031
 20
118.1527913011
  0
SEQEND
  8
Layer8$C$L8
 62
     3
  0
ARC
  8
Layer8$C$L8
 62
     3
 10
-89.3166264556
 20
122.7751164768
 40
2.8326185807
 50
269.2247316424
 51
281.2174330536
  0
LINE
  8
Layer8$C$L8
 62
     3
 10
-89.2549526453
 20
119.9966122092
 11
-88.5549529031
 21
119.9966122092
  0
LINE
  8
Layer8$C$L8
 62
     3
 10
-89.3549534068
 20
120.0175505526
 11
-89.3549534068
 21
123.5275004453
  0
POLYLINE
  8
Layer8$C$L8
 62
     3
 66
     1
  0
VERTEX
  8
Layer8$C$L8
 62
     3
 10
-89.2549526453
 20
119.9966122092
  0
VERTEX
  8
Layer8$C$L8
 62
     3
 10
-89.2878804863
 20
119.9977797967
  0
VERTEX
  8
Layer8$C$L8
 62
     3
 10
-89.3170951441
 20
120.0011455382
  0
VERTEX
  8
Layer8$C$L8
 62
     3
 10
-89.3394142896
 20
120.0063403391
  0
VERTEX
  8
Layer8$C$L8
 62
     3
 10
-89.3523615361
 20
120.0128148355
  0
VERTEX
  8
Layer8$C$L8
 62
     3
 10
-89.3549534068
 20
120.0175505526
  0
SEQEND
  8
Layer8$C$L8
 62
     3
  0
LINE
  8
Layer8$C$L8
 62
     3
 10
-100.7549526677
 20
123.3851519807
 11
-100.6549528376
 21
123.3851519807
  0
LINE
  8
Layer8$C$L8
 62
     3
 10
-100.7549526677
 20
118.9937073666
 11
-100.6549528376
 21
118.9937073666
  0
LINE
  8
Layer8$C$L8
 62
     3
 10
-100.7549526677
 20
118.9747580954
 11
-100.7549526677
 21
118.4376502804
  0
LINE
  8
Layer8$C$L8
 62
     3
 10
-100.7549526677
 20
118.5160709008
 11
-100.6549528376
 21
118.5160709008
  0
LINE
  8
Layer8$C$L8
 62
     3
 10
-100.7549526677
 20
123.3687104120
 11
-100.7549526677
 21
122.8378546818
  0
LINE
  8
Layer8$C$L8
 62
     3
 10
-100.7549526677
 20
122.9100231010
 11
-100.6549528376
 21
122.9100231010
  0
LINE
  8
Layer8$C$L8
 62
     3
 10
-100.7549526677
 20
118.9747580954
 11
-100.6549528376
 21
118.9747580954
  0
LINE
  8
Layer8$C$L8
 62
     3
 10
-100.7549526677
 20
118.4274609129
 11
-100.7549526677
 21
118.0625959694
  0
LINE
  8
Layer8$C$L8
 62
     3
 10
-100.7549526677
 20
118.0625959694
 11
-100.6549528376
 21
118.0625959694
  0
LINE
  8
Layer8$C$L8
 62
     3
 10
-100.7549526677
 20
123.3687104120
 11
-100.6549528376
 21
123.3687104120
  0
LINE
  8
Layer8$C$L8
 62
     3
 10
-100.7549526677
 20
122.8214131131
 11
-100.7549526677
 21
122.4565481695
  0
LINE
  8
Layer8$C$L8
 62
     3
 10
-100.7549526677
 20
122.4565481695
 11
-100.6549528376
 21
122.4565481695
  0
LINE
  8
Layer8$C$L8
 62
     3
 10
-100.7549526677
 20
118.8861481075
 11
-100.6549528376
 21
118.8861481075
  0
LINE
  8
Layer8$C$L8
 62
     3
 10
-100.7549526677
 20
118.6463796928
 11
-100.6549528376
 21
118.6463796928
  0
LINE
  8
Layer8$C$L8
 62
     3
 10
-100.7549526677
 20
118.4274609129
 11
-100.6549528376
 21
118.4274609129
  0
LINE
  8
Layer8$C$L8
 62
     3
 10
-100.7549526677
 20
118.1512059572
 11
-100.6549528376
 21
118.1512059572
  0
LINE
  8
Layer8$C$L8
 62
     3
 10
-100.7549526677
 20
123.2801004241
 11
-100.6549528376
 21
123.2801004241
  0
LINE
  8
Layer8$C$L8
 62
     3
 10
-100.7549526677
 20
123.0403318930
 11
-100.6549528376
 21
123.0403318930
  0
LINE
  8
Layer8$C$L8
 62
     3
 10
-100.7549526677
 20
122.8214131131
 11
-100.6549528376
 21
122.8214131131
  0
LINE
  8
Layer8$C$L8
 62
     3
 10
-100.7549526677
 20
122.5451582738
 11
-100.6549528376
 21
122.5451582738
  0
LINE
  8
Layer8$C$L8
 62
     3
 10
-97.6549523458
 20
119.7734412433
 11
-98.9549538628
 21
119.7734412433
  0
LINE
  8
Layer8$C$L8
 62
     3
 10
-97.6549523458
 20
121.7734413383
 11
-98.9549538628
 21
121.7734413383
  0
LINE
  8
Layer8$C$L8
 62
     3
 10
-98.9549538628
 20
119.8734413062
 11
-97.6549523458
 21
119.8734413062
  0
LINE
  8
Layer8$C$L8
 62
     3
 10
-98.9549538628
 20
121.6734412753
 11
-97.6549523458
 21
121.6734412753
  0
LINE
  8
Layer8$C$L8
 62
     3
 10
-98.1549533591
 20
119.8734413062
 11
-98.1549533591
 21
121.6734412753
  0
LINE
  8
Layer8$C$L8
 62
     3
 10
-98.9549538628
 20
115.7734414025
 11
-97.6549523458
 21
115.7734414025
  0
LINE
  8
Layer8$C$L8
 62
     3
 10
-98.9549538628
 20
113.5734414144
 11
-97.6549523458
 21
113.5734414144
  0
LINE
  8
Layer8$C$L8
 62
     3
 10
-98.1549533591
 20
113.5734414144
 11
-98.1549533591
 21
115.7734414025
  0
LINE
  8
Layer8$C$L8
 62
     3
 10
-98.9549538628
 20
126.5734412170
 11
-97.6549523458
 21
126.5734412170
  0
LINE
  8
Layer8$C$L8
 62
     3
 10
-98.9549538628
 20
124.3734412289
 11
-97.6549523458
 21
124.3734412289
  0
LINE
  8
Layer8$C$L8
 62
     3
 10
-98.1549533591
 20
124.3734412289
 11
-98.1549533591
 21
126.5734412170
  0
LINE
  8
Layer8$C$L8
 62
     3
 10
-107.1520099923
 20
114.0734414964
 11
-100.6549528376
 21
114.0734414964
  0
LINE
  8
Layer8$C$L8
 62
     3
 10
-107.1520099923
 20
113.5734414144
 11
-100.6549528376
 21
113.5734414144
  0
POLYLINE
  8
Layer8$C$L8
 62
     3
 66
     1
  0
VERTEX
  8
Layer8$C$L8
 62
     3
 10
-107.1549529717
 20
114.0734414964
  0
VERTEX
  8
Layer8$C$L8
 62
     3
 10
-107.3477069423
 20
114.0348903298
  0
VERTEX
  8
Layer8$C$L8
 62
     3
 10
-107.4963478878
 20
114.0051625132
  0
VERTEX
  8
Layer8$C$L8
 62
     3
 10
-107.5974075631
 20
113.9849504850
  0
VERTEX
  8
Layer8$C$L8
 62
     3
 10
-107.6485334471
 20
113.9747250288
  0
VERTEX
  8
Layer8$C$L8
 62
     3
 10
-107.6549521223
 20
113.9734412006
  0
SEQEND
  8
Layer8$C$L8
 62
     3
  0
POLYLINE
  8
Layer8$C$L8
 62
     3
 66
     1
  0
VERTEX
  8
Layer8$C$L8
 62
     3
 10
-107.6549521223
 20
113.6734412446
  0
VERTEX
  8
Layer8$C$L8
 62
     3
 10
-107.6485334471
 20
113.6721574164
  0
VERTEX
  8
Layer8$C$L8
 62
     3
 10
-107.5974075631
 20
113.6619324259
  0
VERTEX
  8
Layer8$C$L8
 62
     3
 10
-107.4963478878
 20
113.6417199320
  0
VERTEX
  8
Layer8$C$L8
 62
     3
 10
-107.3477069423
 20
113.6119921154
  0
VERTEX
  8
Layer8$C$L8
 62
     3
 10
-107.1549529717
 20
113.5734414144
  0
SEQEND
  8
Layer8$C$L8
 62
     3
  0
LINE
  8
Layer8$C$L8
 62
     3
 10
-107.1520099923
 20
113.5734414144
 11
-107.1520099923
 21
114.0734414964
  0
LINE
  8
Layer8$C$L8
 62
     3
 10
-101.3549535111
 20
113.5734414144
 11
-101.3549535111
 21
114.0734414964
  0
LINE
  8
Layer8$C$L8
 62
     3
 10
-107.1520099923
 20
124.8734413109
 11
-100.6549528376
 21
124.8734413109
  0
LINE
  8
Layer8$C$L8
 62
     3
 10
-107.1520099923
 20
124.3734412289
 11
-100.6549528376
 21
124.3734412289
  0
POLYLINE
  8
Layer8$C$L8
 62
     3
 66
     1
  0
VERTEX
  8
Layer8$C$L8
 62
     3
 10
-107.1549529717
 20
124.8734413109
  0
VERTEX
  8
Layer8$C$L8
 62
     3
 10
-107.3477069423
 20
124.8348906099
  0
VERTEX
  8
Layer8$C$L8
 62
     3
 10
-107.4963478878
 20
124.8051623277
  0
VERTEX
  8
Layer8$C$L8
 62
     3
 10
-107.5974075631
 20
124.7849502995
  0
VERTEX
  8
Layer8$C$L8
 62
     3
 10
-107.6485334471
 20
124.7747248433
  0
VERTEX
  8
Layer8$C$L8
 62
     3
 10
-107.6549521223
 20
124.7734414808
  0
SEQEND
  8
Layer8$C$L8
 62
     3
  0
POLYLINE
  8
Layer8$C$L8
 62
     3
 66
     1
  0
VERTEX
  8
Layer8$C$L8
 62
     3
 10
-107.6549521223
 20
124.4734412919
  0
VERTEX
  8
Layer8$C$L8
 62
     3
 10
-107.6485334471
 20
124.4721574637
  0
VERTEX
  8
Layer8$C$L8
 62
     3
 10
-107.5974075631
 20
124.4619322403
  0
VERTEX
  8
Layer8$C$L8
 62
     3
 10
-107.4963478878
 20
124.4417202122
  0
VERTEX
  8
Layer8$C$L8
 62
     3
 10
-107.3477069423
 20
124.4119921628
  0
VERTEX
  8
Layer8$C$L8
 62
     3
 10
-107.1549529717
 20
124.3734412289
  0
SEQEND
  8
Layer8$C$L8
 62
     3
  0
LINE
  8
Layer8$C$L8
 62
     3
 10
-101.3549535111
 20
124.3734412289
 11
-101.3549535111
 21
124.8734413109
  0
LINE
  8
Layer8$C$L8
 62
     3
 10
-107.1520099923
 20
124.3734412289
 11
-107.1520099923
 21
124.8734413109
  0
LINE
  8
Layer7$C$L7
 62
     3
 10
-80.6549529353
 20
119.7734412433
 11
-80.6549529353
 21
113.4734411187
  0
LINE
  8
Layer7$C$L7
 62
     3
 10
-80.6549529353
 20
128.0734414629
 11
-80.6549529353
 21
121.7734413383
  0
LINE
  8
Layer7$C$L7
 62
     3
 10
-79.5549529559
 20
108.7734416782
 11
-79.5549529559
 21
132.7734409033
  0
LINE
  8
Layer7$C$L7
 62
     3
 10
-79.7549529508
 20
129.4734414130
 11
-79.7549529508
 21
112.0734411686
  0
LINE
  8
Layer7$C$L7
 62
     3
 10
-80.3549529793
 20
129.4734414130
 11
-80.3549529793
 21
112.0734411686
  0
ARC
  8
Layer8$C$L8
 62
     3
 10
-90.6549529508
 20
112.6851221925
 40
1.0000000000E-01
 50
180.0000000000
 51
270.0000000000
  0
LINE
  8
Layer8$C$L8
 62
     3
 10
-90.6549530611
 20
112.5851218983
 11
-89.9558604270
 21
112.5851218983
  0
ARC
  8
Layer8$C$L8
 62
     3
 10
-90.0029045481
 20
114.1322049356
 40
0.7749076736
 50
86.4522748490
 51
159.2513178415
  0
POLYLINE
  8
Layer8$C$L8
 62
     3
 66
     1
  0
VERTEX
  8
Layer8$C$L8
 62
     3
 10
-90.7549528912
 20
125.4501870296
  0
VERTEX
  8
Layer8$C$L8
 62
     3
 10
-90.7461127773
 20
125.3713929488
  0
VERTEX
  8
Layer8$C$L8
 62
     3
 10
-90.6962963328
 20
125.2510642096
  0
VERTEX
  8
Layer8$C$L8
 62
     3
 10
-90.6068437308
 20
125.1445013492
  0
VERTEX
  8
Layer8$C$L8
 62
     3
 10
-90.4790709302
 20
125.0536419845
  0
VERTEX
  8
Layer8$C$L8
 62
     3
 10
-90.3183283791
 20
124.9843608982
  0
VERTEX
  8
Layer8$C$L8
 62
     3
 10
-90.1357342065
 20
124.9420318215
  0
VERTEX
  8
Layer8$C$L8
 62
     3
 10
-89.9549533189
 20
124.9289164714
  0
SEQEND
  8
Layer8$C$L8
 62
     3
  0
LINE
  8
Layer8$C$L8
 62
     3
 10
-93.5549527914
 20
118.0363706241
 11
-95.0527681545
 21
118.0363706241
  0
LINE
  8
Layer8$C$L8
 62
     3
 10
-89.3549534068
 20
120.0904806189
 11
-94.7549526155
 21
120.0904806189
  0
LINE
  8
Layer8$C$L8
 62
     3
 10
-107.6549521223
 20
113.9734412006
 11
-107.6549521223
 21
113.6734412446
  0
LINE
  8
Layer8$C$L8
 62
     3
 10
-107.6549521223
 20
124.7734414808
 11
-107.6549521223
 21
124.4734412919
  0
LINE
  8
Layer7$C$L7
 62
     3
 10
-80.6549529353
 20
113.4984410762
 11
-80.3549529793
 21
113.4984410762
  0
LINE
  8
Layer7$C$L7
 62
     3
 10
-80.3549529793
 20
128.0484415053
 11
-80.6549529353
 21
128.0484415053
  0
LINE
  8
Layer7$C$L7
 62
     3
 10
-79.7549529508
 20
112.4234415053
 11
-79.5549529559
 21
112.4234415053
  0
LINE
  8
Layer7$C$L7
 62
     3
 10
-79.5549529559
 20
129.1234410762
 11
-79.7549529508
 21
129.1234410762
  0
LINE
  8
Layer7$C$L7
 62
     3
 10
-79.7549529508
 20
129.4734414130
 11
-80.3549529793
 21
129.4734414130
  0
LINE
  8
Layer7$C$L7
 62
     3
 10
-80.3549529793
 20
112.0734411686
 11
-79.7549529508
 21
112.0734411686
  0
LINE
  8
Layer8$C$L8
 62
     3
 10
-88.7549525634
 20
85.0011336188
 11
-94.8549533770
 21
85.0011336188
  0
LINE
  8
Layer8$C$L8
 62
     3
 10
-88.7549525634
 20
67.2011340539
 11
-100.6549528376
 21
67.2011340539
  0
ARC
  8
Layer8$C$L8
 62
     3
 10
-94.8549529508
 20
84.8011338363
 40
0.2000000000
 50
90.0000000000
 51
180.0000000000
  0
LINE
  8
Layer8$C$L8
 62
     3
 10
-95.0549530372
 20
83.0011337566
 11
-95.0549530372
 21
84.8011339585
  0
LINE
  8
Layer8$C$L8
 62
     3
 10
-88.7549525634
 20
70.8290112707
 11
-88.5549529031
 21
70.7757726813
  0
LINE
  8
Layer8$C$L8
 62
     3
 10
-88.7549525634
 20
70.7450311201
 11
-88.7549525634
 21
70.8290112707
  0
LINE
  8
Layer8$C$L8
 62
     3
 10
-88.7549525634
 20
70.8290112707
 11
-89.0549529851
 21
70.8290112707
  0
LINE
  8
Layer8$C$L8
 62
     3
 10
-88.5549529031
 20
70.5163602288
 11
-88.7549525634
 21
70.7450311201
  0
LINE
  8
Layer8$C$L8
 62
     3
 10
-89.0549529851
 20
70.7450311201
 11
-88.7549525634
 21
70.7450311201
  0
LINE
  8
Layer8$C$L8
 62
     3
 10
-90.8549527213
 20
69.3213685917
 11
-90.7549528912
 21
69.3213685917
  0
ARC
  8
Layer8$C$L8
 62
     3
 10
-88.7549529508
 20
84.8011338363
 40
0.2000000000
 50
0.0000000000
 51
90.0000000000
  0
LINE
  8
Layer8$C$L8
 62
     3
 10
-88.5549529031
 20
84.8011339585
 11
-88.5549529031
 21
76.1011338363
  0
LINE
  8
Layer8$C$L8
 62
     3
 10
-88.5549529031
 20
72.6011337283
 11
-89.0549529851
 21
72.6011337283
  0
LINE
  8
Layer8$C$L8
 62
     3
 10
-88.5549529031
 20
76.1011338363
 11
-88.5549529031
 21
72.6011337283
  0
ARC
  8
Layer8$C$L8
 62
     3
 10
-88.7549529508
 20
67.4011338363
 40
0.2000000000
 50
270.0000000000
 51
360.0000000000
  0
LINE
  8
Layer8$C$L8
 62
     3
 10
-88.5549529031
 20
70.7757726813
 11
-88.5549529031
 21
67.4011337141
  0
LINE
  8
Layer8$C$L8
 62
     3
 10
-89.9549533189
 20
67.2011340539
 11
-89.9549533189
 21
74.8011338328
  0
LINE
  8
Layer8$C$L8
 62
     3
 10
-89.9549533189
 20
84.9757308642
 11
-89.9549533189
 21
85.0011336188
  0
LINE
  8
Layer8$C$L8
 62
     3
 10
-90.8549527213
 20
84.9757308642
 11
-89.9549533189
 21
84.9757308642
  0
LINE
  8
Layer8$C$L8
 62
     3
 10
-90.8549527213
 20
85.0011336188
 11
-90.8549527213
 21
84.9757308642
  0
LINE
  8
Layer8$C$L8
 62
     3
 10
-91.6549532250
 20
82.7302841971
 11
-91.6549532250
 21
84.8011339585
  0
ARC
  8
Layer8$C$L8
 62
     3
 10
-91.4549529508
 20
84.8011338363
 40
0.2000000000
 50
90.0000000000
 51
180.0000000000
  0
LINE
  8
Layer8$C$L8
 62
     3
 10
-100.6549528376
 20
68.0011336262
 11
-100.6549528376
 21
83.0011337566
  0
LINE
  8
Layer8$C$L8
 62
     3
 10
-100.6549528376
 20
83.0011337566
 11
-91.6549532250
 21
83.0011337566
  0
ARC
  8
Layer8$C$L8
 62
     3
 10
-89.7722781291
 20
83.1394984167
 40
1.9266348367
 50
192.2629436679
 51
209.1467750445
  0
LINE
  8
Layer8$C$L8
 62
     3
 10
-100.6549528376
 20
67.2011340539
 11
-100.6549528376
 21
68.0011336262
  0
LINE
  8
Layer8$C$L8
 62
     3
 10
-90.8549527213
 20
74.8011338328
 11
-90.8549527213
 21
67.2011340539
  0
LINE
  8
Layer8$C$L8
 62
     3
 10
-89.0549529851
 20
70.4011337402
 11
-88.5549529031
 21
70.4011337402
  0
LINE
  8
Layer8$C$L8
 62
     3
 10
-89.0549529851
 20
72.6011337283
 11
-89.0549529851
 21
70.4011337402
  0
LINE
  8
Layer8$C$L8
 62
     3
 10
-89.9549533189
 20
74.8011338328
 11
-90.8549527213
 21
74.8011338328
  0
LINE
  8
Layer8$C$L8
 62
     3
 10
-90.7549528912
 20
68.0128142739
 11
-90.7549528912
 21
69.5742752905
  0
POLYLINE
  8
Layer8$C$L8
 62
     3
 66
     1
  0
VERTEX
  8
Layer8$C$L8
 62
     3
 10
-90.7549528912
 20
69.5742752905
  0
VERTEX
  8
Layer8$C$L8
 62
     3
 10
-90.7395814121
 20
69.6989202442
  0
VERTEX
  8
Layer8$C$L8
 62
     3
 10
-90.7323897392
 20
69.7249446566
  0
SEQEND
  8
Layer8$C$L8
 62
     3
  0
LINE
  8
Layer8$C$L8
 62
     3
 10
-90.1549529791
 20
67.9975973944
 11
-90.5549532309
 21
67.9975973944
  0
ARC
  8
Layer8$C$L8
 62
     3
 10
-90.6769481663
 20
68.0084540293
 40
7.8691135167E-02
 50
172.4267408691
 51
286.2310729326
  0
ARC
  8
Layer8$C$L8
 62
     3
 10
-90.7435515589
 20
68.1794714913
 40
0.2620067106
 50
289.7644178689
 51
316.0398284313
  0
LINE
  8
Layer8$C$L8
 62
     3
 10
-90.5549532309
 20
69.1751919257
 11
-90.5549532309
 21
67.9975973944
  0
POLYLINE
  8
Layer8$C$L8
 62
     3
 66
     1
  0
VERTEX
  8
Layer8$C$L8
 62
     3
 10
-90.6549530611
 20
69.2665039132
  0
VERTEX
  8
Layer8$C$L8
 62
     3
 10
-90.6744624064
 20
69.2823112513
  0
VERTEX
  8
Layer8$C$L8
 62
     3
 10
-90.6932211057
 20
69.2934969010
  0
VERTEX
  8
Layer8$C$L8
 62
     3
 10
-90.7105101779
 20
69.2996315228
  0
VERTEX
  8
Layer8$C$L8
 62
     3
 10
-90.7256637275
 20
69.3004785607
  0
VERTEX
  8
Layer8$C$L8
 62
     3
 10
-90.7380996779
 20
69.2960063497
  0
VERTEX
  8
Layer8$C$L8
 62
     3
 10
-90.7473411918
 20
69.2863867189
  0
VERTEX
  8
Layer8$C$L8
 62
     3
 10
-90.7530315727
 20
69.2719884718
  0
VERTEX
  8
Layer8$C$L8
 62
     3
 10
-90.7549528912
 20
69.2533657456
  0
SEQEND
  8
Layer8$C$L8
 62
     3
  0
ARC
  8
Layer8$C$L8
 62
     3
 10
-89.9505798235
 20
68.2030911260
 40
0.2898207385
 50
225.1566462638
 51
269.1353540170
  0
LINE
  8
Layer8$C$L8
 62
     3
 10
-90.1549529791
 20
67.9975973944
 11
-90.1549529791
 21
69.1751919257
  0
LINE
  8
Layer8$C$L8
 62
     3
 10
-90.6549530611
 20
69.2665039132
 11
-90.5549532309
 21
69.1751919257
  0
LINE
  8
Layer8$C$L8
 62
     3
 10
-90.5549532309
 20
69.1751919257
 11
-90.1549529791
 21
69.1751919257
  0
LINE
  8
Layer8$C$L8
 62
     3
 10
-90.1549529791
 20
69.1751919257
 11
-89.9549533189
 21
69.3578163664
  0
ARC
  8
Layer8$C$L8
 62
     3
 10
-105.4549529508
 20
75.1011338363
 40
2.2000000000
 50
219.4005687537
 51
219.5211963586
  0
ARC
  8
Layer8$C$L8
 62
     3
 10
-105.4549529508
 20
75.1011338363
 40
2.2000000000
 50
140.4788036414
 51
140.5994312463
  0
LINE
  8
Layer8$C$L8
 62
     3
 10
-100.6549528376
 20
73.7011337223
 11
-107.1520099923
 21
73.7011337223
  0
LINE
  8
Layer8$C$L8
 62
     3
 10
-100.6549528376
 20
76.5011338262
 11
-107.1520099923
 21
76.5011338262
  0
LINE
  8
Layer8$C$L8
 62
     3
 10
-104.6549534932
 20
75.7011338464
 11
-106.0549529776
 21
75.7011338464
  0
ARC
  8
Layer8$C$L8
 62
     3
 10
-104.6549529508
 20
75.1011338363
 40
0.6000000000
 50
270.0000000000
 51
450.0000000000
  0
LINE
  8
Layer8$C$L8
 62
     3
 10
-104.6549534932
 20
74.5011338767
 11
-106.0549529776
 21
74.5011338767
  0
ARC
  8
Layer8$C$L8
 62
     3
 10
-106.0549529508
 20
75.1011338363
 40
0.6000000000
 50
90.0000000000
 51
270.0000000000
  0
LINE
  8
Layer8$C$L8
 62
     3
 10
-107.1549529717
 20
76.4975578386
 11
-107.1549529717
 21
73.7047097682
  0
ARC
  8
Layer8$C$L8
 62
     3
 10
-105.4549541629
 20
75.1011338034
 40
2.1999990991
 50
140.5994109338
 51
219.4005890662
  0
ARC
  8
Layer8$C$L8
 62
     3
 10
-105.4549529508
 20
81.1011338363
 40
2.2000000000
 50
219.4005687537
 51
219.5211963586
  0
ARC
  8
Layer8$C$L8
 62
     3
 10
-105.4549529508
 20
81.1011338363
 40
2.2000000000
 50
140.4788036414
 51
140.5994312463
  0
LINE
  8
Layer8$C$L8
 62
     3
 10
-104.6549534932
 20
81.7011336366
 11
-106.0549529776
 21
81.7011336366
  0
ARC
  8
Layer8$C$L8
 62
     3
 10
-104.6549529508
 20
81.1011338363
 40
0.6000000000
 50
270.0000000000
 51
450.0000000000
  0
LINE
  8
Layer8$C$L8
 62
     3
 10
-104.6549534932
 20
80.5011338125
 11
-106.0549529776
 21
80.5011338125
  0
ARC
  8
Layer8$C$L8
 62
     3
 10
-106.0549529508
 20
81.1011338363
 40
0.6000000000
 50
90.0000000000
 51
270.0000000000
  0
LINE
  8
Layer8$C$L8
 62
     3
 10
-100.6549528376
 20
79.7011337745
 11
-107.1520099923
 21
79.7011337745
  0
LINE
  8
Layer8$C$L8
 62
     3
 10
-101.3549535111
 20
81.8011339324
 11
-100.6549528376
 21
81.8011339324
  0
LINE
  8
Layer8$C$L8
 62
     3
 10
-101.3549535111
 20
81.8011339324
 11
-101.3549535111
 21
82.5011336746
  0
LINE
  8
Layer8$C$L8
 62
     3
 10
-101.3549535111
 20
82.5011336746
 11
-107.1520099923
 21
82.5011336746
  0
LINE
  8
Layer8$C$L8
 62
     3
 10
-107.1549529717
 20
82.4975578616
 11
-107.1549529717
 21
79.7047098203
  0
ARC
  8
Layer8$C$L8
 62
     3
 10
-105.4549543061
 20
81.1011338410
 40
2.1999989791
 50
140.5994088590
 51
219.4005911410
  0
LINE
  8
Layer8$C$L8
 62
     3
 10
-107.1549529717
 20
67.7047094832
 11
-107.1520099923
 21
67.7011341358
  0
ARC
  8
Layer8$C$L8
 62
     3
 10
-105.4549529508
 20
69.1011338363
 40
2.2000000000
 50
140.4788036414
 51
219.4005804749
  0
LINE
  8
Layer8$C$L8
 62
     3
 10
-100.6549528376
 20
70.5011340360
 11
-107.1520099923
 21
70.5011340360
  0
LINE
  8
Layer8$C$L8
 62
     3
 10
-101.3549535111
 20
67.7011341358
 11
-107.1520099923
 21
67.7011341358
  0
LINE
  8
Layer8$C$L8
 62
     3
 10
-104.6549534932
 20
69.7011339980
 11
-106.0549529776
 21
69.7011339980
  0
ARC
  8
Layer8$C$L8
 62
     3
 10
-104.6549529508
 20
69.1011338363
 40
0.6000000000
 50
270.0000000000
 51
450.0000000000
  0
LINE
  8
Layer8$C$L8
 62
     3
 10
-104.6549534932
 20
68.5011337082
 11
-106.0549529776
 21
68.5011337082
  0
ARC
  8
Layer8$C$L8
 62
     3
 10
-106.0549529508
 20
69.1011338363
 40
0.6000000000
 50
90.0000000000
 51
270.0000000000
  0
LINE
  8
Layer8$C$L8
 62
     3
 10
-101.3549535111
 20
67.7011341358
 11
-101.3549535111
 21
68.4011338780
  0
LINE
  8
Layer8$C$L8
 62
     3
 10
-101.3549535111
 20
68.4011338780
 11
-100.6549528376
 21
68.4011338780
  0
LINE
  8
Layer8$C$L8
 62
     3
 10
-107.1549529717
 20
70.4975577573
 11
-107.1549529717
 21
67.7047094832
  0
LINE
  8
Layer7$C$L7
 62
     3
 10
-80.6549529353
 20
83.9375874529
 11
-80.6549529353
 21
68.2646802197
  0
LINE
  8
Layer7$C$L7
 62
     3
 10
-79.5549529559
 20
67.1011342237
 11
-79.5549529559
 21
85.1011334489
  0
LINE
  8
Layer7$C$L7
 62
     3
 10
-79.7549529508
 20
84.8011339585
 11
-79.7549529508
 21
67.4011337141
  0
LINE
  8
Layer7$C$L7
 62
     3
 10
-80.3549529793
 20
84.8011339585
 11
-80.3549529793
 21
67.4011337141
  0
ARC
  8
Layer8$C$L8
 62
     3
 10
-90.6549529508
 20
68.0128147380
 40
0.1000000000
 50
180.0000000000
 51
270.0000000000
  0
LINE
  8
Layer8$C$L8
 62
     3
 10
-90.6549530611
 20
67.9128144438
 11
-89.9558604270
 21
67.9128144438
  0
ARC
  8
Layer8$C$L8
 62
     3
 10
-90.0029045481
 20
69.4598974811
 40
0.7749076736
 50
86.4522748490
 51
159.2513178415
  0
LINE
  8
Layer7$C$L7
 62
     3
 10
-80.6549529353
 20
68.8261336217
 11
-80.3549529793
 21
68.8261336217
  0
LINE
  8
Layer7$C$L7
 62
     3
 10
-80.3549529793
 20
83.3761340509
 11
-80.6549529353
 21
83.3761340509
  0
LINE
  8
Layer7$C$L7
 62
     3
 10
-79.7549529508
 20
67.7511340509
 11
-79.5549529559
 21
67.7511340509
  0
LINE
  8
Layer7$C$L7
 62
     3
 10
-79.5549529559
 20
84.4511336217
 11
-79.7549529508
 21
84.4511336217
  0
LINE
  8
Layer7$C$L7
 62
     3
 10
-79.7549529508
 20
84.8011339585
 11
-80.3549529793
 21
84.8011339585
  0
LINE
  8
Layer7$C$L7
 62
     3
 10
-80.3549529793
 20
67.4011337141
 11
-79.7549529508
 21
67.4011337141
  0
LINE
  8
Layer4$C$L4
 62
     3
 10
-82.5589114150
 20
85.0011336187
 11
-85.5589115575
 21
85.0011336187
  0
LINE
  8
Layer4$C$L4
 62
     3
 10
-85.5589115575
 20
67.2011340538
 11
-82.5589114150
 21
67.2011340538
  0
LINE
  8
Layer4$C$L4
 62
     3
 10
-82.5589114150
 20
69.0833658481
 11
-82.4839576429
 21
68.6900301406
  0
LINE
  8
Layer4$C$L4
 62
     3
 10
-82.5589114150
 20
69.0833658481
 11
-81.9589113865
 21
69.0833658481
  0
LINE
  8
Layer4$C$L4
 62
     3
 10
-81.9589113865
 20
69.0833658481
 11
-81.9401729435
 21
68.8693320880
  0
LINE
  8
Layer4$C$L4
 62
     3
 10
-82.4839576429
 20
68.6900301406
 11
-81.9401729435
 21
68.8693320880
  0
LINE
  8
Layer4$C$L4
 62
     3
 10
-82.4839576429
 20
67.0663316304
 11
-82.5589114150
 21
67.1511341387
  0
LINE
  8
Layer4$C$L4
 62
     3
 10
-82.5589114150
 20
85.0511335338
 11
-82.4839576429
 21
85.1359360421
  0
LINE
  8
Layer4$C$L4
 62
     3
 10
-82.4839576429
 20
83.5122375319
 11
-82.5589114150
 21
83.1189018244
  0
LINE
  8
Layer4$C$L4
 62
     3
 10
-81.9401729435
 20
83.3329355845
 11
-82.4839576429
 21
83.5122375319
  0
LINE
  8
Layer4$C$L4
 62
     3
 10
-81.9401729435
 20
83.3329355845
 11
-81.9589113865
 21
83.1189018244
  0
LINE
  8
Layer4$C$L4
 62
     3
 10
-81.9589113865
 20
83.1189018244
 11
-82.5589114150
 21
83.1189018244
  0
LINE
  8
Layer4$C$L4
 62
     3
 10
-81.9401729435
 20
68.8693320880
 11
-81.4549529508
 21
67.3216974864
  0
LINE
  8
Layer4$C$L4
 62
     3
 10
-81.4549529508
 20
67.3216974864
 11
-81.9987376502
 21
67.1423955390
  0
LINE
  8
Layer4$C$L4
 62
     3
 10
-82.4839576429
 20
68.6900301406
 11
-81.9987376502
 21
67.1423955390
  0
LINE
  8
Layer4$C$L4
 62
     3
 10
-81.9987376502
 20
85.0598721335
 11
-82.4839576429
 21
83.5122375319
  0
LINE
  8
Layer4$C$L4
 62
     3
 10
-81.4549529508
 20
84.8805701861
 11
-81.9987376502
 21
85.0598721335
  0
LINE
  8
Layer4$C$L4
 62
     3
 10
-81.4549529508
 20
84.8805701861
 11
-81.9401729435
 21
83.3329355845
  0
LINE
  8
Layer4$C$L4
 62
     3
 10
-82.4839576429
 20
85.1359360421
 11
-81.9987376502
 21
85.0598721335
  0
LINE
  8
Layer4$C$L4
 62
     3
 10
-81.9987376502
 20
67.1423955390
 11
-82.4839576429
 21
67.0663316304
  0
LINE
  8
Layer4$C$L4
 62
     3
 10
-81.9589113865
 20
83.1189018244
 11
-81.9589113865
 21
69.0833658481
  0
LINE
  8
Layer4$C$L4
 62
     3
 10
-82.5589114150
 20
85.0511335338
 11
-82.5589114150
 21
67.1511341387
  0
LINE
  8
Layer4$C$L4
 62
     3
 10
-85.5589115575
 20
84.4802747050
 11
-86.4589114257
 21
84.4802747050
  0
LINE
  8
Layer4$C$L4
 62
     3
 10
-85.5589115575
 20
84.4802747050
 11
-85.5589115575
 21
85.0011336187
  0
LINE
  8
Layer4$C$L4
 62
     3
 10
-85.5589115575
 20
67.2011340538
 11
-85.5589115575
 21
67.7219929675
  0
LINE
  8
Layer4$C$L4
 62
     3
 10
-85.5589115575
 20
67.7219929675
 11
-86.4589114257
 21
67.7219929675
  0
LINE
  8
Layer4$C$L4
 62
     3
 10
-86.4589114257
 20
73.1011338102
 11
-86.4589114257
 21
67.7219929675
  0
LINE
  8
Layer4$C$L4
 62
     3
 10
-85.5589115575
 20
73.1011338102
 11
-86.4589114257
 21
73.1011338102
  0
LINE
  8
Layer4$C$L4
 62
     3
 10
-85.5589115575
 20
73.1011338102
 11
-85.5589115575
 21
79.1011338623
  0
LINE
  8
Layer4$C$L4
 62
     3
 10
-85.5589115575
 20
79.1011338623
 11
-86.4589114257
 21
79.1011338623
  0
LINE
  8
Layer4$C$L4
 62
     3
 10
-86.4589114257
 20
84.4802747050
 11
-86.4589114257
 21
79.1011338623
  0
LINE
  8
Layer4$C$L4
 62
     3
 10
-84.4589113307
 20
84.9808857346
 11
-82.5589114150
 21
84.9808857346
  0
LINE
  8
Layer4$C$L4
 62
     3
 10
-84.4589113307
 20
84.8336073140
 11
-84.4589113307
 21
84.9808857346
  0
LINE
  8
Layer4$C$L4
 62
     3
 10
-84.4589113307
 20
84.8336073140
 11
-82.5589114150
 21
84.8336073140
  0
LINE
  8
Layer4$C$L4
 62
     3
 10
-84.4589113307
 20
84.5230242739
 11
-82.5589114150
 21
84.5230242739
  0
LINE
  8
Layer4$C$L4
 62
     3
 10
-84.4589113307
 20
84.0912249440
 11
-84.4589113307
 21
84.5230242739
  0
LINE
  8
Layer4$C$L4
 62
     3
 10
-84.4589113307
 20
84.0912249440
 11
-82.5589114150
 21
84.0912249440
  0
LINE
  8
Layer4$C$L4
 62
     3
 10
-84.4589113307
 20
83.4912250320
 11
-82.5589114150
 21
83.4912250320
  0
LINE
  8
Layer4$C$L4
 62
     3
 10
-84.4589113307
 20
82.8043308610
 11
-84.4589113307
 21
83.4912250320
  0
LINE
  8
Layer4$C$L4
 62
     3
 10
-84.4589113307
 20
82.8043308610
 11
-82.5589114150
 21
82.8043308610
  0
LINE
  8
Layer4$C$L4
 62
     3
 10
-84.4589113307
 20
81.9558028633
 11
-82.5589114150
 21
81.9558028633
  0
LINE
  8
Layer4$C$L4
 62
     3
 10
-84.4589113307
 20
81.0606253835
 11
-84.4589113307
 21
81.9558028633
  0
LINE
  8
Layer4$C$L4
 62
     3
 10
-84.4589113307
 20
81.0606253835
 11
-82.5589114150
 21
81.0606253835
  0
LINE
  8
Layer4$C$L4
 62
     3
 10
-84.4589113307
 20
80.0213946531
 11
-82.5589114150
 21
80.0213946531
  0
LINE
  8
Layer4$C$L4
 62
     3
 10
-84.4589113307
 20
78.9789382869
 11
-84.4589113307
 21
80.0213946531
  0
LINE
  8
Layer4$C$L4
 62
     3
 10
-84.4589113307
 20
78.9789382869
 11
-82.5589114150
 21
78.9789382869
  0
LINE
  8
Layer4$C$L4
 62
     3
 10
-84.4589113307
 20
77.8198273655
 11
-82.5589114150
 21
77.8198273655
  0
LINE
  8
Layer4$C$L4
 62
     3
 10
-84.4589113307
 20
76.7011338648
 11
-84.4589113307
 21
77.8198273655
  0
LINE
  8
Layer4$C$L4
 62
     3
 10
-84.4589113307
 20
76.7011338648
 11
-82.5589114150
 21
76.7011338648
  0
LINE
  8
Layer4$C$L4
 62
     3
 10
-84.4589113307
 20
75.5011338078
 11
-82.5589114150
 21
75.5011338078
  0
LINE
  8
Layer4$C$L4
 62
     3
 10
-84.4589113307
 20
74.3824403070
 11
-84.4589113307
 21
75.5011338078
  0
LINE
  8
Layer4$C$L4
 62
     3
 10
-84.4589113307
 20
74.3824403070
 11
-82.5589114150
 21
74.3824403070
  0
LINE
  8
Layer4$C$L4
 62
     3
 10
-84.4589113307
 20
73.2233293856
 11
-82.5589114150
 21
73.2233293856
  0
LINE
  8
Layer4$C$L4
 62
     3
 10
-84.4589113307
 20
72.1808730194
 11
-84.4589113307
 21
73.2233293856
  0
LINE
  8
Layer4$C$L4
 62
     3
 10
-84.4589113307
 20
72.1808730194
 11
-82.5589114150
 21
72.1808730194
  0
LINE
  8
Layer4$C$L4
 62
     3
 10
-84.4589113307
 20
71.1416422891
 11
-82.5589114150
 21
71.1416422891
  0
LINE
  8
Layer4$C$L4
 62
     3
 10
-84.4589113307
 20
70.2464648092
 11
-84.4589113307
 21
71.1416422891
  0
LINE
  8
Layer4$C$L4
 62
     3
 10
-84.4589113307
 20
70.2464648092
 11
-82.5589114150
 21
70.2464648092
  0
LINE
  8
Layer4$C$L4
 62
     3
 10
-84.4589113307
 20
69.3979368115
 11
-82.5589114150
 21
69.3979368115
  0
LINE
  8
Layer4$C$L4
 62
     3
 10
-84.4589113307
 20
68.7110426406
 11
-84.4589113307
 21
69.3979368115
  0
LINE
  8
Layer4$C$L4
 62
     3
 10
-84.4589113307
 20
68.7110426406
 11
-82.5589114150
 21
68.7110426406
  0
LINE
  8
Layer4$C$L4
 62
     3
 10
-84.4589113307
 20
68.1110427285
 11
-82.5589114150
 21
68.1110427285
  0
LINE
  8
Layer4$C$L4
 62
     3
 10
-84.4589113307
 20
67.6792433987
 11
-84.4589113307
 21
68.1110427285
  0
LINE
  8
Layer4$C$L4
 62
     3
 10
-84.4589113307
 20
67.6792433987
 11
-82.5589114150
 21
67.6792433987
  0
LINE
  8
Layer4$C$L4
 62
     3
 10
-84.4589113307
 20
67.3686603585
 11
-82.5589114150
 21
67.3686603585
  0
LINE
  8
Layer4$C$L4
 62
     3
 10
-84.4589113307
 20
67.2213819379
 11
-84.4589113307
 21
67.3686603585
  0
LINE
  8
Layer4$C$L4
 62
     3
 10
-84.4589113307
 20
67.2213819379
 11
-82.5589114150
 21
67.2213819379
  0
LINE
  8
Layer4$C$L4
 62
     3
 10
-84.4589113307
 20
74.4343248697
 11
-82.5589114150
 21
74.4343248697
  0
LINE
  8
Layer4$C$L4
 62
     3
 10
-84.4589113307
 20
77.7679428028
 11
-82.5589114150
 21
77.7679428028
  0
LINE
  8
Layer4$C$L4
 62
     3
 10
-84.4589113307
 20
72.2811061459
 11
-82.5589114150
 21
72.2811061459
  0
LINE
  8
Layer4$C$L4
 62
     3
 10
-84.4589113307
 20
79.9211615266
 11
-82.5589114150
 21
79.9211615266
  0
LINE
  8
Layer4$C$L4
 62
     3
 10
-84.4589113307
 20
70.3882162960
 11
-82.5589114150
 21
70.3882162960
  0
LINE
  8
Layer4$C$L4
 62
     3
 10
-84.4589113307
 20
81.8140513765
 11
-82.5589114150
 21
81.8140513765
  0
LINE
  8
Layer4$C$L4
 62
     3
 10
-84.4589113307
 20
68.8846518787
 11
-82.5589114150
 21
68.8846518787
  0
LINE
  8
Layer4$C$L4
 62
     3
 10
-84.4589113307
 20
83.3176157938
 11
-82.5589114150
 21
83.3176157938
  0
LINE
  8
Layer4$C$L4
 62
     3
 10
-84.4589113307
 20
67.8728793318
 11
-82.5589114150
 21
67.8728793318
  0
LINE
  8
Layer4$C$L4
 62
     3
 10
-84.4589113307
 20
84.3293883408
 11
-82.5589114150
 21
84.3293883408
  0
LINE
  8
Layer4$C$L4
 62
     3
 10
-82.5589114150
 20
129.6734690128
 11
-85.5589115575
 21
129.6734690128
  0
LINE
  8
Layer4$C$L4
 62
     3
 10
-85.5589115575
 20
111.8734694479
 11
-82.5589114150
 21
111.8734694479
  0
LINE
  8
Layer4$C$L4
 62
     3
 10
-82.5589114150
 20
129.7234689279
 11
-82.4839576429
 21
129.8082714362
  0
LINE
  8
Layer4$C$L4
 62
     3
 10
-82.4839576429
 20
128.1845729260
 11
-82.5589114150
 21
127.7912372185
  0
LINE
  8
Layer4$C$L4
 62
     3
 10
-81.9401729435
 20
128.0052709786
 11
-82.4839576429
 21
128.1845729260
  0
LINE
  8
Layer4$C$L4
 62
     3
 10
-81.9401729435
 20
128.0052709786
 11
-81.9589113865
 21
127.7912372185
  0
LINE
  8
Layer4$C$L4
 62
     3
 10
-81.9589113865
 20
127.7912372185
 11
-82.5589114150
 21
127.7912372185
  0
LINE
  8
Layer4$C$L4
 62
     3
 10
-82.5589114150
 20
113.7557012422
 11
-82.4839576429
 21
113.3623655347
  0
LINE
  8
Layer4$C$L4
 62
     3
 10
-82.5589114150
 20
113.7557012422
 11
-81.9589113865
 21
113.7557012422
  0
LINE
  8
Layer4$C$L4
 62
     3
 10
-81.9589113865
 20
113.7557012422
 11
-81.9401729435
 21
113.5416674821
  0
LINE
  8
Layer4$C$L4
 62
     3
 10
-82.4839576429
 20
113.3623655347
 11
-81.9401729435
 21
113.5416674821
  0
LINE
  8
Layer4$C$L4
 62
     3
 10
-82.4839576429
 20
111.7386670245
 11
-82.5589114150
 21
111.8234695328
  0
LINE
  8
Layer4$C$L4
 62
     3
 10
-82.4839576429
 20
129.8082714362
 11
-81.9987376502
 21
129.7322075276
  0
LINE
  8
Layer4$C$L4
 62
     3
 10
-81.9987376502
 20
129.7322075276
 11
-82.4839576429
 21
128.1845729260
  0
LINE
  8
Layer4$C$L4
 62
     3
 10
-81.4549529508
 20
129.5529055802
 11
-81.9987376502
 21
129.7322075276
  0
LINE
  8
Layer4$C$L4
 62
     3
 10
-81.4549529508
 20
129.5529055802
 11
-81.9401729435
 21
128.0052709786
  0
LINE
  8
Layer4$C$L4
 62
     3
 10
-82.4839576429
 20
113.3623655347
 11
-81.9987376502
 21
111.8147309331
  0
LINE
  8
Layer4$C$L4
 62
     3
 10
-81.9987376502
 20
111.8147309331
 11
-82.4839576429
 21
111.7386670245
  0
LINE
  8
Layer4$C$L4
 62
     3
 10
-81.9401729435
 20
113.5416674821
 11
-81.4549529508
 21
111.9940328805
  0
LINE
  8
Layer4$C$L4
 62
     3
 10
-81.4549529508
 20
111.9940328805
 11
-81.9987376502
 21
111.8147309331
  0
LINE
  8
Layer4$C$L4
 62
     3
 10
-81.9589113865
 20
127.7912372185
 11
-81.9589113865
 21
113.7557012422
  0
LINE
  8
Layer4$C$L4
 62
     3
 10
-82.5589114150
 20
129.7234689279
 11
-82.5589114150
 21
111.8234695328
  0
LINE
  8
Layer4$C$L4
 62
     3
 10
-85.5589115575
 20
117.7734692043
 11
-86.4589114257
 21
117.7734692043
  0
LINE
  8
Layer4$C$L4
 62
     3
 10
-85.5589115575
 20
123.7734692564
 11
-86.4589114257
 21
123.7734692564
  0
LINE
  8
Layer4$C$L4
 62
     3
 10
-86.4589114257
 20
129.1526100991
 11
-86.4589114257
 21
123.7734692564
  0
LINE
  8
Layer4$C$L4
 62
     3
 10
-85.5589115575
 20
129.1526100991
 11
-86.4589114257
 21
129.1526100991
  0
LINE
  8
Layer4$C$L4
 62
     3
 10
-85.5589115575
 20
112.3943283616
 11
-86.4589114257
 21
112.3943283616
  0
LINE
  8
Layer4$C$L4
 62
     3
 10
-86.4589114257
 20
117.7734692043
 11
-86.4589114257
 21
112.3943283616
  0
LINE
  8
Layer4$C$L4
 62
     3
 10
-84.4589113307
 20
122.4921627596
 11
-82.5589114150
 21
122.4921627596
  0
LINE
  8
Layer4$C$L4
 62
     3
 10
-84.4589113307
 20
121.3734692589
 11
-84.4589113307
 21
122.4921627596
  0
LINE
  8
Layer4$C$L4
 62
     3
 10
-84.4589113307
 20
121.3734692589
 11
-82.5589114150
 21
121.3734692589
  0
LINE
  8
Layer4$C$L4
 62
     3
 10
-84.4589113307
 20
120.1734692019
 11
-82.5589114150
 21
120.1734692019
  0
LINE
  8
Layer4$C$L4
 62
     3
 10
-84.4589113307
 20
119.0547757011
 11
-84.4589113307
 21
120.1734692019
  0
LINE
  8
Layer4$C$L4
 62
     3
 10
-84.4589113307
 20
119.0547757011
 11
-82.5589114150
 21
119.0547757011
  0
LINE
  8
Layer4$C$L4
 62
     3
 10
-84.4589113307
 20
117.8956647797
 11
-82.5589114150
 21
117.8956647797
  0
LINE
  8
Layer4$C$L4
 62
     3
 10
-84.4589113307
 20
116.8532084135
 11
-84.4589113307
 21
117.8956647797
  0
LINE
  8
Layer4$C$L4
 62
     3
 10
-84.4589113307
 20
116.8532084135
 11
-82.5589114150
 21
116.8532084135
  0
LINE
  8
Layer4$C$L4
 62
     3
 10
-84.4589113307
 20
115.8139776832
 11
-82.5589114150
 21
115.8139776832
  0
LINE
  8
Layer4$C$L4
 62
     3
 10
-84.4589113307
 20
114.9188002033
 11
-84.4589113307
 21
115.8139776832
  0
LINE
  8
Layer4$C$L4
 62
     3
 10
-84.4589113307
 20
114.9188002033
 11
-82.5589114150
 21
114.9188002033
  0
LINE
  8
Layer4$C$L4
 62
     3
 10
-84.4589113307
 20
114.0702722056
 11
-82.5589114150
 21
114.0702722056
  0
LINE
  8
Layer4$C$L4
 62
     3
 10
-84.4589113307
 20
113.3833780347
 11
-84.4589113307
 21
114.0702722056
  0
LINE
  8
Layer4$C$L4
 62
     3
 10
-84.4589113307
 20
113.3833780347
 11
-82.5589114150
 21
113.3833780347
  0
LINE
  8
Layer4$C$L4
 62
     3
 10
-84.4589113307
 20
112.7833781226
 11
-82.5589114150
 21
112.7833781226
  0
LINE
  8
Layer4$C$L4
 62
     3
 10
-84.4589113307
 20
112.3515787928
 11
-84.4589113307
 21
112.7833781226
  0
LINE
  8
Layer4$C$L4
 62
     3
 10
-84.4589113307
 20
112.3515787928
 11
-82.5589114150
 21
112.3515787928
  0
LINE
  8
Layer4$C$L4
 62
     3
 10
-84.4589113307
 20
112.0409957526
 11
-82.5589114150
 21
112.0409957526
  0
LINE
  8
Layer4$C$L4
 62
     3
 10
-84.4589113307
 20
111.8937173320
 11
-84.4589113307
 21
112.0409957526
  0
LINE
  8
Layer4$C$L4
 62
     3
 10
-84.4589113307
 20
111.8937173320
 11
-82.5589114150
 21
111.8937173320
  0
LINE
  8
Layer4$C$L4
 62
     3
 10
-84.4589113307
 20
129.6532211287
 11
-82.5589114150
 21
129.6532211287
  0
LINE
  8
Layer4$C$L4
 62
     3
 10
-84.4589113307
 20
129.5059427081
 11
-84.4589113307
 21
129.6532211287
  0
LINE
  8
Layer4$C$L4
 62
     3
 10
-84.4589113307
 20
129.5059427081
 11
-82.5589114150
 21
129.5059427081
  0
LINE
  8
Layer4$C$L4
 62
     3
 10
-84.4589113307
 20
129.1953596680
 11
-82.5589114150
 21
129.1953596680
  0
LINE
  8
Layer4$C$L4
 62
     3
 10
-84.4589113307
 20
128.7635603381
 11
-84.4589113307
 21
129.1953596680
  0
LINE
  8
Layer4$C$L4
 62
     3
 10
-84.4589113307
 20
128.7635603381
 11
-82.5589114150
 21
128.7635603381
  0
LINE
  8
Layer4$C$L4
 62
     3
 10
-84.4589113307
 20
128.1635604261
 11
-82.5589114150
 21
128.1635604261
  0
LINE
  8
Layer4$C$L4
 62
     3
 10
-84.4589113307
 20
127.4766662551
 11
-84.4589113307
 21
128.1635604261
  0
LINE
  8
Layer4$C$L4
 62
     3
 10
-84.4589113307
 20
127.4766662551
 11
-82.5589114150
 21
127.4766662551
  0
LINE
  8
Layer4$C$L4
 62
     3
 10
-84.4589113307
 20
126.6281382574
 11
-82.5589114150
 21
126.6281382574
  0
LINE
  8
Layer4$C$L4
 62
     3
 10
-84.4589113307
 20
125.7329607776
 11
-84.4589113307
 21
126.6281382574
  0
LINE
  8
Layer4$C$L4
 62
     3
 10
-84.4589113307
 20
125.7329607776
 11
-82.5589114150
 21
125.7329607776
  0
LINE
  8
Layer4$C$L4
 62
     3
 10
-84.4589113307
 20
124.6937300472
 11
-82.5589114150
 21
124.6937300472
  0
LINE
  8
Layer4$C$L4
 62
     3
 10
-84.4589113307
 20
123.6512736810
 11
-84.4589113307
 21
124.6937300472
  0
LINE
  8
Layer4$C$L4
 62
     3
 10
-84.4589113307
 20
123.6512736810
 11
-82.5589114150
 21
123.6512736810
  0
LINE
  8
Layer4$C$L4
 62
     3
 10
-85.5589115575
 20
117.7734692043
 11
-85.5589115575
 21
123.7734692564
  0
LINE
  8
Layer4$C$L4
 62
     3
 10
-85.5589115575
 20
111.8734694479
 11
-85.5589115575
 21
112.3943283616
  0
LINE
  8
Layer4$C$L4
 62
     3
 10
-85.5589115575
 20
129.1526100991
 11
-85.5589115575
 21
129.6734690128
  0
LINE
  8
Layer4$C$L4
 62
     3
 10
-84.4589113307
 20
122.4402781969
 11
-82.5589114150
 21
122.4402781969
  0
LINE
  8
Layer4$C$L4
 62
     3
 10
-84.4589113307
 20
119.1066602638
 11
-82.5589114150
 21
119.1066602638
  0
LINE
  8
Layer4$C$L4
 62
     3
 10
-84.4589113307
 20
124.5934969207
 11
-82.5589114150
 21
124.5934969207
  0
LINE
  8
Layer4$C$L4
 62
     3
 10
-84.4589113307
 20
116.9534415400
 11
-82.5589114150
 21
116.9534415400
  0
LINE
  8
Layer4$C$L4
 62
     3
 10
-84.4589113307
 20
126.4863867706
 11
-82.5589114150
 21
126.4863867706
  0
LINE
  8
Layer4$C$L4
 62
     3
 10
-84.4589113307
 20
115.0605516901
 11
-82.5589114150
 21
115.0605516901
  0
LINE
  8
Layer4$C$L4
 62
     3
 10
-84.4589113307
 20
127.9899511879
 11
-82.5589114150
 21
127.9899511879
  0
LINE
  8
Layer4$C$L4
 62
     3
 10
-84.4589113307
 20
113.5569872728
 11
-82.5589114150
 21
113.5569872728
  0
LINE
  8
Layer4$C$L4
 62
     3
 10
-84.4589113307
 20
129.0017237349
 11
-82.5589114150
 21
129.0017237349
  0
LINE
  8
Layer4$C$L4
 62
     3
 10
-84.4589113307
 20
112.5452147259
 11
-82.5589114150
 21
112.5452147259
  0
LINE
  8
Layer1$C$L1
  6
CENTER
 62
     3
 10
-110.1549529717
 20
76.1011338363
 11
-51.2015628220
 21
76.1011338363
  0
LINE
  8
Layer1$C$L1
  6
CENTER
 62
     3
 10
-110.1549529717
 20
120.7734412907
 11
-51.2015628220
 21
120.7734412907
  0
LINE
  8
Layer1$C$L1
  6
CENTER
 62
     3
 10
-108.2707365617
 20
81.1011338363
 11
-103.4572140009
 21
81.1011338363
  0
LINE
  8
Layer1$C$L1
  6
CENTER
 62
     3
 10
-108.2707365617
 20
75.1011338363
 11
-103.4572140009
 21
75.1011338363
  0
LINE
  8
Layer1$C$L1
  6
CENTER
 62
     3
 10
-108.2707365617
 20
69.1011338363
 11
-103.4572140009
 21
69.1011338363
  0
LINE
  8
Layer0$C$L0
 62
     3
 10
-81.9589113865
 20
121.7734413382
 11
-80.6549529353
 21
121.7734413382
  0
LINE
  8
Layer0$C$L0
 62
     3
 10
-81.9589113865
 20
119.7734412432
 11
-80.6549529353
 21
119.7734412432
  0
LINE
  8
Layer0$C$L0
 62
     3
 10
-81.9187823675
 20
113.4734411186
 11
-80.6549529353
 21
113.4734411186
  0
LINE
  8
Layer0$C$L0
 62
     3
 10
-81.9187998869
 20
128.0734414628
 11
-80.6549529353
 21
128.0734414628
  0
LINE
  8
Layer0$C$L0
 62
     3
 10
-81.9589113865
 20
79.1210676579
 11
-80.6549529353
 21
79.1210676579
  0
LINE
  8
Layer0$C$L0
 62
     3
 10
-81.9589113865
 20
73.0812000146
 11
-80.6549529353
 21
73.0812000146
  0
LINE
  8
Layer0$C$L0
 62
     3
 10
-81.7506003048
 20
68.2646802196
 11
-80.6549529353
 21
68.2646802196
  0
LINE
  8
Layer0$C$L0
 62
     3
 10
-81.7506003048
 20
83.9375874529
 11
-80.6549529353
 21
83.9375874529
  0
LINE
  8
Layer1$C$L1
  6
CENTER
 62
     3
 10
-39.5748247342
 20
113.1011338363
 11
-15.5748247342
 21
113.1011338363
  0
LINE
  8
Layer1$C$L1
  6
CENTER
 62
     3
 10
-27.5748247342
 20
64.1011338363
 11
-27.5748247342
 21
88.1011338363
  0
LINE
  8
Layer1$C$L1
  6
CENTER
 62
     3
 10
-27.5748247342
 20
102.1011342237
 11
-27.5748247342
 21
124.1011334488
  0
LINE
  8
Layer1$C$L1
  6
CENTER
 62
     3
 10
-140.7707365617
 20
70.1011338363
 11
-137.4572140009
 21
70.1011338363
  0
LINE
  8
Layer1$C$L1
  6
CENTER
 62
     3
 10
-140.7707365617
 20
75.1011338363
 11
-137.4572140009
 21
75.1011338363
  0
LINE
  8
Layer1$C$L1
  6
CENTER
 62
     3
 10
-140.7707365617
 20
80.1011338363
 11
-137.4572140009
 21
80.1011338363
  0
LINE
  8
Layer1$C$L1
  6
CENTER
 62
     3
 10
-142.6549529717
 20
120.7734412907
 11
-128.2149702190
 21
120.7734412907
  0
LINE
  8
Layer1$C$L1
  6
CENTER
 62
     3
 10
-142.6549529717
 20
76.1011338363
 11
-128.2149702190
 21
76.1011338363
  0
LINE
  8
Layer8$C$L8
 62
     3
 10
-134.6549528376
 20
67.2011340539
 11
-134.6549528376
 21
68.0011336262
  0
LINE
  8
Layer8$C$L8
 62
     3
 10
-134.6549528376
 20
83.0011337566
 11
-130.0549527355
 21
83.0011337566
  0
LINE
  8
Layer8$C$L8
 62
     3
 10
-134.6549528376
 20
68.0011336262
 11
-134.6549528376
 21
83.0011337566
  0
LINE
  8
Layer8$C$L8
 62
     3
 10
-130.0549527355
 20
67.2011340539
 11
-134.6549528376
 21
67.2011340539
  0
LINE
  8
Layer8$C$L8
 62
     3
 10
-132.1549533591
 20
124.3734412289
 11
-132.1549533591
 21
126.5734412170
  0
LINE
  8
Layer8$C$L8
 62
     3
 10
-132.9549538628
 20
124.3734412289
 11
-131.6549523458
 21
124.3734412289
  0
LINE
  8
Layer8$C$L8
 62
     3
 10
-132.9549538628
 20
126.5734412170
 11
-131.6549523458
 21
126.5734412170
  0
LINE
  8
Layer8$C$L8
 62
     3
 10
-132.1549533591
 20
113.5734414144
 11
-132.1549533591
 21
115.7734414025
  0
LINE
  8
Layer8$C$L8
 62
     3
 10
-132.9549538628
 20
113.5734414144
 11
-131.6549523458
 21
113.5734414144
  0
LINE
  8
Layer8$C$L8
 62
     3
 10
-132.9549538628
 20
115.7734414025
 11
-131.6549523458
 21
115.7734414025
  0
LINE
  8
Layer8$C$L8
 62
     3
 10
-132.1549533591
 20
119.8734413062
 11
-132.1549533591
 21
121.6734412753
  0
LINE
  8
Layer8$C$L8
 62
     3
 10
-132.9549538628
 20
121.6734412753
 11
-131.6549523458
 21
121.6734412753
  0
LINE
  8
Layer8$C$L8
 62
     3
 10
-132.9549538628
 20
119.8734413062
 11
-131.6549523458
 21
119.8734413062
  0
LINE
  8
Layer8$C$L8
 62
     3
 10
-131.6549523458
 20
121.7734413383
 11
-132.9549538628
 21
121.7734413383
  0
LINE
  8
Layer8$C$L8
 62
     3
 10
-131.6549523458
 20
119.7734412433
 11
-132.9549538628
 21
119.7734412433
  0
LINE
  8
Layer8$C$L8
 62
     3
 10
-134.7549526677
 20
122.5451582738
 11
-134.6549528376
 21
122.5451582738
  0
LINE
  8
Layer8$C$L8
 62
     3
 10
-134.7549526677
 20
122.8214131131
 11
-134.6549528376
 21
122.8214131131
  0
LINE
  8
Layer8$C$L8
 62
     3
 10
-134.7549526677
 20
123.0403318930
 11
-134.6549528376
 21
123.0403318930
  0
LINE
  8
Layer8$C$L8
 62
     3
 10
-134.7549526677
 20
123.2801004241
 11
-134.6549528376
 21
123.2801004241
  0
LINE
  8
Layer8$C$L8
 62
     3
 10
-134.7549526677
 20
118.1512059572
 11
-134.6549528376
 21
118.1512059572
  0
LINE
  8
Layer8$C$L8
 62
     3
 10
-134.7549526677
 20
118.4274609129
 11
-134.6549528376
 21
118.4274609129
  0
LINE
  8
Layer8$C$L8
 62
     3
 10
-134.7549526677
 20
118.6463796928
 11
-134.6549528376
 21
118.6463796928
  0
LINE
  8
Layer8$C$L8
 62
     3
 10
-134.7549526677
 20
118.8861481075
 11
-134.6549528376
 21
118.8861481075
  0
LINE
  8
Layer8$C$L8
 62
     3
 10
-134.7549526677
 20
122.4565481695
 11
-134.6549528376
 21
122.4565481695
  0
LINE
  8
Layer8$C$L8
 62
     3
 10
-134.7549526677
 20
122.8214131131
 11
-134.7549526677
 21
122.4565481695
  0
LINE
  8
Layer8$C$L8
 62
     3
 10
-134.7549526677
 20
123.3687104120
 11
-134.6549528376
 21
123.3687104120
  0
LINE
  8
Layer8$C$L8
 62
     3
 10
-134.7549526677
 20
118.0625959694
 11
-134.6549528376
 21
118.0625959694
  0
LINE
  8
Layer8$C$L8
 62
     3
 10
-134.7549526677
 20
118.4274609129
 11
-134.7549526677
 21
118.0625959694
  0
LINE
  8
Layer8$C$L8
 62
     3
 10
-134.7549526677
 20
118.9747580954
 11
-134.6549528376
 21
118.9747580954
  0
LINE
  8
Layer8$C$L8
 62
     3
 10
-134.7549526677
 20
122.9100231010
 11
-134.6549528376
 21
122.9100231010
  0
LINE
  8
Layer8$C$L8
 62
     3
 10
-134.7549526677
 20
123.3687104120
 11
-134.7549526677
 21
122.8378546818
  0
LINE
  8
Layer8$C$L8
 62
     3
 10
-134.7549526677
 20
118.5160709008
 11
-134.6549528376
 21
118.5160709008
  0
LINE
  8
Layer8$C$L8
 62
     3
 10
-134.7549526677
 20
118.9747580954
 11
-134.7549526677
 21
118.4376502804
  0
LINE
  8
Layer8$C$L8
 62
     3
 10
-134.7549526677
 20
118.9937073666
 11
-134.6549528376
 21
118.9937073666
  0
LINE
  8
Layer8$C$L8
 62
     3
 10
-134.7549526677
 20
123.3851519807
 11
-134.6549528376
 21
123.3851519807
  0
LINE
  8
Layer8$C$L8
 62
     3
 10
-134.6549528376
 20
129.6734410732
 11
-130.0549527355
 21
129.6734410732
  0
LINE
  8
Layer8$C$L8
 62
     3
 10
-132.9549538628
 20
115.9734410628
 11
-131.6549523458
 21
115.9734410628
  0
LINE
  8
Layer8$C$L8
 62
     3
 10
-132.9549538628
 20
113.3734412885
 11
-132.9549538628
 21
115.9734410628
  0
LINE
  8
Layer8$C$L8
 62
     3
 10
-131.6549523458
 20
113.3734412885
 11
-132.9549538628
 21
113.3734412885
  0
LINE
  8
Layer8$C$L8
 62
     3
 10
-131.6549523458
 20
115.9734410628
 11
-131.6549523458
 21
113.3734412885
  0
LINE
  8
Layer8$C$L8
 62
     3
 10
-132.9549538628
 20
126.7734413429
 11
-131.6549523458
 21
126.7734413429
  0
LINE
  8
Layer8$C$L8
 62
     3
 10
-132.9549538628
 20
124.1734413358
 11
-132.9549538628
 21
126.7734413429
  0
LINE
  8
Layer8$C$L8
 62
     3
 10
-131.6549523458
 20
124.1734413358
 11
-132.9549538628
 21
124.1734413358
  0
LINE
  8
Layer8$C$L8
 62
     3
 10
-131.6549523458
 20
126.7734413429
 11
-131.6549523458
 21
124.1734413358
  0
LINE
  8
Layer8$C$L8
 62
     3
 10
-134.6549528376
 20
118.2734413466
 11
-132.9549538628
 21
118.2734413466
  0
LINE
  8
Layer8$C$L8
 62
     3
 10
-131.6549523458
 20
119.6734412967
 11
-132.9549538628
 21
119.6734412967
  0
LINE
  8
Layer8$C$L8
 62
     3
 10
-131.6549523458
 20
121.8734412848
 11
-131.6549523458
 21
119.6734412967
  0
LINE
  8
Layer8$C$L8
 62
     3
 10
-132.9549538628
 20
121.8734412848
 11
-131.6549523458
 21
121.8734412848
  0
LINE
  8
Layer8$C$L8
 62
     3
 10
-132.9549538628
 20
123.2734412349
 11
-134.6549528376
 21
123.2734412349
  0
LINE
  8
Layer8$C$L8
 62
     3
 10
-130.0549527355
 20
111.8734415083
 11
-134.6549528376
 21
111.8734415083
  0
LINE
  8
Layer8$C$L8
 62
     3
 10
-133.2124012247
 20
122.4120655258
 11
-133.2124012247
 21
121.4599419779
  0
LINE
  8
Layer8$C$L8
 62
     3
 10
-133.2124012247
 20
121.4599419779
 11
-133.3439337746
 21
121.4599419779
  0
LINE
  8
Layer8$C$L8
 62
     3
 10
-133.3439337746
 20
121.4599419779
 11
-133.3439337746
 21
121.8560809664
  0
LINE
  8
Layer8$C$L8
 62
     3
 10
-133.3439337746
 20
121.8560809664
 11
-134.4008191213
 21
121.8560809664
  0
LINE
  8
Layer8$C$L8
 62
     3
 10
-134.4008191213
 20
121.8560809664
 11
-134.4008191213
 21
122.0205597508
  0
LINE
  8
Layer8$C$L8
 62
     3
 10
-134.4008191213
 20
122.0205597508
 11
-133.3439337746
 21
122.0205597508
  0
LINE
  8
Layer8$C$L8
 62
     3
 10
-133.3439337746
 20
122.0205597508
 11
-133.3439337746
 21
122.4120655258
  0
LINE
  8
Layer8$C$L8
 62
     3
 10
-133.3439337746
 20
122.4120655258
 11
-133.2124012247
 21
122.4120655258
  0
ARC
  8
Layer8$C$L8
 62
     3
 10
-133.7593069253
 20
120.6387514088
 40
0.4985391213
 50
49.3886388662
 51
95.0436025265
  0
POLYLINE
  8
Layer8$C$L8
 62
     3
 66
     1
  0
VERTEX
  8
Layer8$C$L8
 62
     3
 10
-133.8031354085
 20
121.1353602282
  0
VERTEX
  8
Layer8$C$L8
 62
     3
 10
-134.0224227593
 20
121.1051076695
  0
VERTEX
  8
Layer8$C$L8
 62
     3
 10
-134.1714753494
 20
121.0172135195
  0
SEQEND
  8
Layer8$C$L8
 62
     3
  0
POLYLINE
  8
Layer8$C$L8
 62
     3
 66
     1
  0
VERTEX
  8
Layer8$C$L8
 62
     3
 10
-134.1714753494
 20
121.0172135195
  0
VERTEX
  8
Layer8$C$L8
 62
     3
 10
-134.2543071792
 20
120.8950254383
  0
VERTEX
  8
Layer8$C$L8
 62
     3
 10
-134.2757220105
 20
120.7809200784
  0
SEQEND
  8
Layer8$C$L8
 62
     3
  0
POLYLINE
  8
Layer8$C$L8
 62
     3
 66
     1
  0
VERTEX
  8
Layer8$C$L8
 62
     3
 10
-134.2757220105
 20
120.7809200784
  0
VERTEX
  8
Layer8$C$L8
 62
     3
 10
-134.2411010251
 20
120.6378378572
  0
VERTEX
  8
Layer8$C$L8
 62
     3
 10
-134.1714753494
 20
120.5446266410
  0
SEQEND
  8
Layer8$C$L8
 62
     3
  0
ARC
  8
Layer8$C$L8
 62
     3
 10
-133.8469650061
 20
120.9230852161
 40
0.4985357118
 50
229.3884716004
 51
275.0437656874
  0
POLYLINE
  8
Layer8$C$L8
 62
     3
 66
     1
  0
VERTEX
  8
Layer8$C$L8
 62
     3
 10
-133.8031354085
 20
120.4264799178
  0
VERTEX
  8
Layer8$C$L8
 62
     3
 10
-133.5838480577
 20
120.4567324764
  0
VERTEX
  8
Layer8$C$L8
 62
     3
 10
-133.4347954676
 20
120.5446266410
  0
SEQEND
  8
Layer8$C$L8
 62
     3
  0
POLYLINE
  8
Layer8$C$L8
 62
     3
 66
     1
  0
VERTEX
  8
Layer8$C$L8
 62
     3
 10
-133.4347954676
 20
120.5446266410
  0
VERTEX
  8
Layer8$C$L8
 62
     3
 10
-133.3519636378
 20
120.6668147222
  0
VERTEX
  8
Layer8$C$L8
 62
     3
 10
-133.3305488065
 20
120.7809200784
  0
SEQEND
  8
Layer8$C$L8
 62
     3
  0
POLYLINE
  8
Layer8$C$L8
 62
     3
 66
     1
  0
VERTEX
  8
Layer8$C$L8
 62
     3
 10
-133.3305488065
 20
120.7809200784
  0
VERTEX
  8
Layer8$C$L8
 62
     3
 10
-133.3651697919
 20
120.9240022888
  0
VERTEX
  8
Layer8$C$L8
 62
     3
 10
-133.4347954676
 20
121.0172135195
  0
SEQEND
  8
Layer8$C$L8
 62
     3
  0
POLYLINE
  8
Layer8$C$L8
 62
     3
 66
     1
  0
VERTEX
  8
Layer8$C$L8
 62
     3
 10
-133.8031354085
 20
121.3021556193
  0
VERTEX
  8
Layer8$C$L8
 62
     3
 10
-133.5279854670
 20
121.2550162324
  0
VERTEX
  8
Layer8$C$L8
 62
     3
 10
-133.3444478646
 20
121.1353602282
  0
SEQEND
  8
Layer8$C$L8
 62
     3
  0
POLYLINE
  8
Layer8$C$L8
 62
     3
 66
     1
  0
VERTEX
  8
Layer8$C$L8
 62
     3
 10
-133.3444478646
 20
121.1353602282
  0
VERTEX
  8
Layer8$C$L8
 62
     3
 10
-133.2264977232
 20
120.9511323266
  0
VERTEX
  8
Layer8$C$L8
 62
     3
 10
-133.1985021666
 20
120.7809200784
  0
SEQEND
  8
Layer8$C$L8
 62
     3
  0
POLYLINE
  8
Layer8$C$L8
 62
     3
 66
     1
  0
VERTEX
  8
Layer8$C$L8
 62
     3
 10
-133.1985021666
 20
120.7809200784
  0
VERTEX
  8
Layer8$C$L8
 62
     3
 10
-133.2442580447
 20
120.5668993950
  0
VERTEX
  8
Layer8$C$L8
 62
     3
 10
-133.3444478646
 20
120.4264799178
  0
SEQEND
  8
Layer8$C$L8
 62
     3
  0
POLYLINE
  8
Layer8$C$L8
 62
     3
 66
     1
  0
VERTEX
  8
Layer8$C$L8
 62
     3
 10
-133.3444478646
 20
120.4264799178
  0
VERTEX
  8
Layer8$C$L8
 62
     3
 10
-133.5850028977
 20
120.2876516779
  0
VERTEX
  8
Layer8$C$L8
 62
     3
 10
-133.8031354085
 20
120.2596845849
  0
SEQEND
  8
Layer8$C$L8
 62
     3
  0
POLYLINE
  8
Layer8$C$L8
 62
     3
 66
     1
  0
VERTEX
  8
Layer8$C$L8
 62
     3
 10
-133.8031354085
 20
120.2596845849
  0
VERTEX
  8
Layer8$C$L8
 62
     3
 10
-134.0782574103
 20
120.3069035125
  0
VERTEX
  8
Layer8$C$L8
 62
     3
 10
-134.2618229524
 20
120.4264799178
  0
SEQEND
  8
Layer8$C$L8
 62
     3
  0
POLYLINE
  8
Layer8$C$L8
 62
     3
 66
     1
  0
VERTEX
  8
Layer8$C$L8
 62
     3
 10
-134.2618229524
 20
120.4264799178
  0
VERTEX
  8
Layer8$C$L8
 62
     3
 10
-134.3797730938
 20
120.6107078340
  0
VERTEX
  8
Layer8$C$L8
 62
     3
 10
-134.4077686504
 20
120.7809200784
  0
SEQEND
  8
Layer8$C$L8
 62
     3
  0
POLYLINE
  8
Layer8$C$L8
 62
     3
 66
     1
  0
VERTEX
  8
Layer8$C$L8
 62
     3
 10
-134.4077686504
 20
120.7809200784
  0
VERTEX
  8
Layer8$C$L8
 62
     3
 10
-134.3620127723
 20
120.9949407655
  0
VERTEX
  8
Layer8$C$L8
 62
     3
 10
-134.2618229524
 20
121.1353602282
  0
SEQEND
  8
Layer8$C$L8
 62
     3
  0
POLYLINE
  8
Layer8$C$L8
 62
     3
 66
     1
  0
VERTEX
  8
Layer8$C$L8
 62
     3
 10
-134.2618229524
 20
121.1353602282
  0
VERTEX
  8
Layer8$C$L8
 62
     3
 10
-134.0212604687
 20
121.2741881188
  0
VERTEX
  8
Layer8$C$L8
 62
     3
 10
-133.8031354085
 20
121.3021556193
  0
SEQEND
  8
Layer8$C$L8
 62
     3
  0
LINE
  8
Layer8$C$L8
 62
     3
 10
-133.8031354085
 20
119.8833653632
 11
-133.8031354085
 21
119.5219754170
  0
POLYLINE
  8
Layer8$C$L8
 62
     3
 66
     1
  0
VERTEX
  8
Layer8$C$L8
 62
     3
 10
-133.8031354085
 20
119.5219754170
  0
VERTEX
  8
Layer8$C$L8
 62
     3
 10
-133.7874482110
 20
119.4302525998
  0
VERTEX
  8
Layer8$C$L8
 62
     3
 10
-133.7475373134
 20
119.3690797242
  0
SEQEND
  8
Layer8$C$L8
 62
     3
  0
POLYLINE
  8
Layer8$C$L8
 62
     3
 66
     1
  0
VERTEX
  8
Layer8$C$L8
 62
     3
 10
-133.7475373134
 20
119.3690797242
  0
VERTEX
  8
Layer8$C$L8
 62
     3
 10
-133.6602463112
 20
119.3173638473
  0
VERTEX
  8
Layer8$C$L8
 62
     3
 10
-133.5807411656
 20
119.3065314016
  0
SEQEND
  8
Layer8$C$L8
 62
     3
  0
POLYLINE
  8
Layer8$C$L8
 62
     3
 66
     1
  0
VERTEX
  8
Layer8$C$L8
 62
     3
 10
-133.5807411656
 20
119.3065314016
  0
VERTEX
  8
Layer8$C$L8
 62
     3
 10
-133.4773196563
 20
119.3207446647
  0
VERTEX
  8
Layer8$C$L8
 62
     3
 10
-133.4069973514
 20
119.3621298459
  0
SEQEND
  8
Layer8$C$L8
 62
     3
  0
POLYLINE
  8
Layer8$C$L8
 62
     3
 66
     1
  0
VERTEX
  8
Layer8$C$L8
 62
     3
 10
-133.4069973514
 20
119.3621298459
  0
VERTEX
  8
Layer8$C$L8
 62
     3
 10
-133.3552567944
 20
119.4453974183
  0
VERTEX
  8
Layer8$C$L8
 62
     3
 10
-133.3439337746
 20
119.5219754170
  0
SEQEND
  8
Layer8$C$L8
 62
     3
  0
LINE
  8
Layer8$C$L8
 62
     3
 10
-133.3439337746
 20
119.5219754170
 11
-133.3439337746
 21
119.8833653632
  0
LINE
  8
Layer8$C$L8
 62
     3
 10
-133.3439337746
 20
119.8833653632
 11
-133.8031354085
 21
119.8833653632
  0
LINE
  8
Layer8$C$L8
 62
     3
 10
-133.2124012247
 20
120.0478441476
 11
-133.2124012247
 21
119.4872263747
  0
POLYLINE
  8
Layer8$C$L8
 62
     3
 66
     1
  0
VERTEX
  8
Layer8$C$L8
 62
     3
 10
-133.2124012247
 20
119.4872263747
  0
VERTEX
  8
Layer8$C$L8
 62
     3
 10
-133.2414659396
 20
119.3365886736
  0
VERTEX
  8
Layer8$C$L8
 62
     3
 10
-133.3097002194
 20
119.2370333172
  0
SEQEND
  8
Layer8$C$L8
 62
     3
  0
POLYLINE
  8
Layer8$C$L8
 62
     3
 66
     1
  0
VERTEX
  8
Layer8$C$L8
 62
     3
 10
-133.3097002194
 20
119.2370333172
  0
VERTEX
  8
Layer8$C$L8
 62
     3
 10
-133.4519634679
 20
119.1557940490
  0
VERTEX
  8
Layer8$C$L8
 62
     3
 10
-133.5807411656
 20
119.1397360687
  0
SEQEND
  8
Layer8$C$L8
 62
     3
  0
POLYLINE
  8
Layer8$C$L8
 62
     3
 66
     1
  0
VERTEX
  8
Layer8$C$L8
 62
     3
 10
-133.5807411656
 20
119.1397360687
  0
VERTEX
  8
Layer8$C$L8
 62
     3
 10
-133.7385500506
 20
119.1641193743
  0
VERTEX
  8
Layer8$C$L8
 62
     3
 10
-133.8448344454
 20
119.2300835553
  0
SEQEND
  8
Layer8$C$L8
 62
     3
  0
POLYLINE
  8
Layer8$C$L8
 62
     3
 66
     1
  0
VERTEX
  8
Layer8$C$L8
 62
     3
 10
-133.8448344454
 20
119.2300835553
  0
VERTEX
  8
Layer8$C$L8
 62
     3
 10
-133.9201505021
 20
119.3653576936
  0
VERTEX
  8
Layer8$C$L8
 62
     3
 10
-133.9346679583
 20
119.4872263747
  0
SEQEND
  8
Layer8$C$L8
 62
     3
  0
LINE
  8
Layer8$C$L8
 62
     3
 10
-133.9346679583
 20
119.4872263747
 11
-133.9346679583
 21
119.8833653632
  0
LINE
  8
Layer8$C$L8
 62
     3
 10
-133.9346679583
 20
119.8833653632
 11
-134.4008191213
 21
119.8833653632
  0
LINE
  8
Layer8$C$L8
 62
     3
 10
-134.4008191213
 20
119.8833653632
 11
-134.4008191213
 21
120.0478441476
  0
LINE
  8
Layer8$C$L8
 62
     3
 10
-134.4008191213
 20
120.0478441476
 11
-133.2124012247
 21
120.0478441476
  0
LINE
  8
Layer8$C$L8
 62
     3
 10
-132.9549538628
 20
123.2734412349
 11
-132.9549538628
 21
118.2734413466
  0
LINE
  8
Layer8$C$L8
 62
     3
 10
-134.6549528376
 20
129.6734410732
 11
-134.6549528376
 21
111.8734415083
  0
ARC
  8
Layer0$C$L0
 62
     3
 10
-139.9549528376
 20
79.9011338363
 40
0.2000000000
 50
180.0000000000
 51
270.0000000000
  0
LINE
  8
Layer0$C$L0
 62
     3
 10
-134.6549528376
 20
79.7011337745
 11
-139.9549526819
 21
79.7011337745
  0
LINE
  8
Layer0$C$L0
 62
     3
 10
-135.3549528126
 20
81.8011339325
 11
-134.6549528376
 21
81.8011339325
  0
LINE
  8
Layer0$C$L0
 62
     3
 10
-135.3549528126
 20
81.8011339325
 11
-135.3549528126
 21
82.5011336747
  0
LINE
  8
Layer0$C$L0
 62
     3
 10
-135.3549528126
 20
82.5011336747
 11
-136.6549529326
 21
82.5011336747
  0
LINE
  8
Layer0$C$L0
 62
     3
 10
-136.6549529326
 20
80.5011338125
 11
-136.6549529326
 21
82.5011336747
  0
LINE
  8
Layer0$C$L0
 62
     3
 10
-139.9549526819
 20
80.5011338125
 11
-136.6549529326
 21
80.5011338125
  0
ARC
  8
Layer0$C$L0
 62
     3
 10
-139.9549528376
 20
80.3011338363
 40
0.2000000000
 50
90.0000000000
 51
180.0000000000
  0
LINE
  8
Layer0$C$L0
 62
     3
 10
-140.1549528078
 20
79.9011339004
 11
-140.1549528078
 21
80.3011336866
  0
LINE
  8
Layer0$C$L0
 62
     3
 10
-134.6549528376
 20
76.5011338262
 11
-136.6549529326
 21
76.5011338262
  0
LINE
  8
Layer0$C$L0
 62
     3
 10
-136.6549529326
 20
75.5011338078
 11
-136.6549529326
 21
76.5011338262
  0
LINE
  8
Layer0$C$L0
 62
     3
 10
-136.6549529326
 20
75.5011338078
 11
-139.9549526819
 21
75.5011338078
  0
ARC
  8
Layer0$C$L0
 62
     3
 10
-139.9549528376
 20
75.3011338363
 40
0.2000000000
 50
90.0000000000
 51
180.0000000000
  0
LINE
  8
Layer0$C$L0
 62
     3
 10
-140.1549528078
 20
74.9011337793
 11
-140.1549528078
 21
75.3011338566
  0
ARC
  8
Layer0$C$L0
 62
     3
 10
-139.9549528376
 20
74.9011338363
 40
0.2000000000
 50
180.0000000000
 51
270.0000000000
  0
LINE
  8
Layer0$C$L0
 62
     3
 10
-136.6549529326
 20
74.7011338863
 11
-139.9549526819
 21
74.7011338863
  0
LINE
  8
Layer0$C$L0
 62
     3
 10
-136.6549529326
 20
73.7011337224
 11
-136.6549529326
 21
74.7011338863
  0
LINE
  8
Layer0$C$L0
 62
     3
 10
-134.6549528376
 20
73.7011337224
 11
-136.6549529326
 21
73.7011337224
  0
LINE
  8
Layer0$C$L0
 62
     3
 10
-134.6549528376
 20
70.5011340360
 11
-139.9549526819
 21
70.5011340360
  0
ARC
  8
Layer0$C$L0
 62
     3
 10
-139.9549528376
 20
70.3011338363
 40
0.2000000000
 50
90.0000000000
 51
180.0000000000
  0
LINE
  8
Layer0$C$L0
 62
     3
 10
-140.1549528078
 20
69.9011336583
 11
-140.1549528078
 21
70.3011339101
  0
ARC
  8
Layer0$C$L0
 62
     3
 10
-139.9549528376
 20
69.9011338363
 40
0.2000000000
 50
180.0000000000
 51
270.0000000000
  0
LINE
  8
Layer0$C$L0
 62
     3
 10
-136.6549529326
 20
69.7011339980
 11
-139.9549526819
 21
69.7011339980
  0
LINE
  8
Layer0$C$L0
 62
     3
 10
-136.6549529326
 20
67.7011341359
 11
-136.6549529326
 21
69.7011339980
  0
LINE
  8
Layer0$C$L0
 62
     3
 10
-135.3549528126
 20
67.7011341359
 11
-136.6549529326
 21
67.7011341359
  0
LINE
  8
Layer0$C$L0
 62
     3
 10
-135.3549528126
 20
67.7011341359
 11
-135.3549528126
 21
68.4011338781
  0
LINE
  8
Layer0$C$L0
 62
     3
 10
-135.3549528126
 20
68.4011338781
 11
-134.6549528376
 21
68.4011338781
  0
LINE
  8
Layer0$C$L0
 62
     3
 10
-139.9549526819
 20
113.5734414144
 11
-136.6549529326
 21
113.5734414144
  0
LINE
  8
Layer0$C$L0
 62
     3
 10
-139.9549526819
 20
114.0734414964
 11
-136.6549529326
 21
114.0734414964
  0
LINE
  8
Layer0$C$L0
 62
     3
 10
-139.9549526819
 20
113.5734414144
 11
-140.1549528078
 21
113.5734414144
  0
LINE
  8
Layer0$C$L0
 62
     3
 10
-140.1549528078
 20
114.0734414964
 11
-139.9549526819
 21
114.0734414964
  0
LINE
  8
Layer0$C$L0
 62
     3
 10
-140.1549528078
 20
113.5734414144
 11
-140.1549528078
 21
114.0734414964
  0
LINE
  8
Layer0$C$L0
 62
     3
 10
-135.3549528126
 20
113.5734414144
 11
-134.6549528376
 21
113.5734414144
  0
LINE
  8
Layer0$C$L0
 62
     3
 10
-135.3549528126
 20
114.0734414964
 11
-134.6549528376
 21
114.0734414964
  0
LINE
  8
Layer0$C$L0
 62
     3
 10
-136.6549529326
 20
113.5734414144
 11
-136.6549529326
 21
114.0734414964
  0
LINE
  8
Layer0$C$L0
 62
     3
 10
-135.3549528126
 20
114.0734414964
 11
-136.6549529326
 21
114.0734414964
  0
LINE
  8
Layer0$C$L0
 62
     3
 10
-135.3549528126
 20
113.5734414144
 11
-136.6549529326
 21
113.5734414144
  0
LINE
  8
Layer0$C$L0
 62
     3
 10
-135.3549528126
 20
113.5734414144
 11
-135.3549528126
 21
114.0734414964
  0
LINE
  8
Layer0$C$L0
 62
     3
 10
-139.9549526819
 20
124.8734413108
 11
-136.6549529326
 21
124.8734413108
  0
LINE
  8
Layer0$C$L0
 62
     3
 10
-139.9549526819
 20
124.3734412289
 11
-136.6549529326
 21
124.3734412289
  0
LINE
  8
Layer0$C$L0
 62
     3
 10
-140.1549528078
 20
124.8734413108
 11
-139.9549526819
 21
124.8734413108
  0
LINE
  8
Layer0$C$L0
 62
     3
 10
-139.9549526819
 20
124.3734412289
 11
-140.1549528078
 21
124.3734412289
  0
LINE
  8
Layer0$C$L0
 62
     3
 10
-140.1549528078
 20
124.3734412289
 11
-140.1549528078
 21
124.8734413108
  0
LINE
  8
Layer0$C$L0
 62
     3
 10
-135.3549528126
 20
124.8734413108
 11
-134.6549528376
 21
124.8734413108
  0
LINE
  8
Layer0$C$L0
 62
     3
 10
-135.3549528126
 20
124.3734412289
 11
-134.6549528376
 21
124.3734412289
  0
LINE
  8
Layer0$C$L0
 62
     3
 10
-135.3549528126
 20
124.8734413108
 11
-136.6549529326
 21
124.8734413108
  0
LINE
  8
Layer0$C$L0
 62
     3
 10
-136.6549529326
 20
124.3734412289
 11
-136.6549529326
 21
124.8734413108
  0
LINE
  8
Layer0$C$L0
 62
     3
 10
-135.3549528126
 20
124.3734412289
 11
-136.6549529326
 21
124.3734412289
  0
LINE
  8
Layer0$C$L0
 62
     3
 10
-135.3549528126
 20
124.3734412289
 11
-135.3549528126
 21
124.8734413108
  0
ARC
  8
Layer4$C$L4
 62
     3
 10
-165.9465252650
 20
76.6511338363
 40
13.3500000000
 50
71.6629252192
 51
108.4513512701
  0
LINE
  8
Layer1$C$L1
 62
     3
 10
-164.7648362985
 20
89.0564744159
 11
-161.7467406241
 21
89.3232298580
  0
LINE
  8
Layer1$C$L1
 62
     3
 10
-161.7467063624
 20
89.3233564605
 11
-164.6601275536
 21
91.0538650300
  0
ARC
  8
Layer1$C$L1
 62
     3
 10
-50.6550507560
 20
76.8511185775
 40
17.0000000000
 50
153.9990184615
 51
206.0014013678
  0
ARC
  8
Layer1$C$L1
 62
     3
 10
-61.6550507560
 20
67.8511185775
 40
17.0000000000
 50
75.4197684380
 51
104.5797584577
  0
ARC
  8
Layer1$C$L1
 62
     3
 10
-72.6549592033
 20
76.8511185775
 40
17.0000000000
 50
333.9987641506
 51
386.0008704343
  0
ARC
  8
Layer1$C$L1
 62
     3
 10
-57.0282349601
 20
84.7283463607
 40
0.5000000000
 50
26.7519726769
 51
74.6692126105
  0
ARC
  8
Layer1$C$L1
 62
     3
 10
-57.0282197013
 20
68.9739213119
 40
0.5000000000
 50
285.3307873895
 51
333.2480239080
  0
ARC
  8
Layer1$C$L1
 62
     3
 10
-66.2818970695
 20
68.9739213119
 40
0.5000000000
 50
206.7518652151
 51
254.6690846581
  0
CIRCLE
  8
Layer1$C$L1
 62
     3
 10
-58.6550660148
 20
82.3511185775
 40
1.5000000000
  0
ARC
  8
Layer1$C$L1
 62
     3
 10
-69.1144318595
 20
81.3511185775
 40
1.0000000000
 50
269.9999633446
 51
346.2997504307
  0
ARC
  8
Layer1$C$L1
 62
     3
 10
-50.6550507560
 20
76.8511185775
 40
18.0000000000
 50
153.2479708603
 51
166.2996973830
  0
ARC
  8
Layer1$C$L1
 62
     3
 10
-50.6550507560
 20
76.8511185775
 40
18.0000000000
 50
193.7001933339
 51
206.7519744982
  0
ARC
  8
Layer1$C$L1
 62
     3
 10
-61.6550507560
 20
67.8511185775
 40
18.0000000000
 50
74.6691579690
 51
105.3308060589
  0
ARC
  8
Layer1$C$L1
 62
     3
 10
-72.6549592033
 20
76.8511185775
 40
18.0000000000
 50
333.2480375684
 51
386.7520273184
  0
ARC
  8
Layer1$C$L1
 62
     3
 10
-66.2819123283
 20
84.7283463607
 40
0.5000000000
 50
105.3309153419
 51
153.2480801434
  0
ARC
  8
Layer1$C$L1
 62
     3
 10
-71.2549958244
 20
68.8011460433
 40
0.5000000000
 50
270.0000179861
 51
360.0000000000
  0
ARC
  8
Layer1$C$L1
 62
     3
 10
-71.2549958244
 20
83.5011429915
 40
0.5000000000
 50
0.0000000000
 51
89.9999820139
  0
LINE
  8
Layer1$C$L1
 62
     3
 10
-69.6549592033
 20
77.8010544906
 11
-70.7549958244
 21
77.8010544906
  0
ARC
  8
Layer1$C$L1
 62
     3
 10
-61.6550660148
 20
85.8510270247
 40
18.0000000000
 50
254.6691939411
 51
285.3308420310
  0
LINE
  8
Layer1$C$L1
 62
     3
 10
-69.1144318595
 20
73.3511185775
 11
-70.7549958244
 21
73.3511185775
  0
LINE
  8
Layer1$C$L1
 62
     3
 10
-70.7549958244
 20
80.1009812484
 11
-69.6549592033
 21
80.1009812484
  0
ARC
  8
Layer1$C$L1
 62
     3
 10
-69.1144318595
 20
72.3511185775
 40
1.0000000000
 50
13.7003007957
 51
90.0000366554
  0
LINE
  8
Layer1$C$L1
 62
     3
 10
-69.1144318595
 20
80.3511033187
 11
-70.7549958244
 21
80.3511033187
  0
LINE
  8
Layer1$C$L1
 62
     3
 10
-61.6549439445
 20
71.8511033187
 11
-64.6549439445
 21
71.8511033187
  0
LINE
  8
Layer1$C$L1
 62
     3
 10
-61.6549439445
 20
81.8511033187
 11
-64.6549439445
 21
81.8511033187
  0
LINE
  8
Layer1$C$L1
 62
     3
 10
-69.6549439445
 20
80.1009812484
 11
-69.6549439445
 21
77.8010544906
  0
LINE
  8
Layer1$C$L1
 62
     3
 10
-64.6549439445
 20
81.8511033187
 11
-64.6549439445
 21
71.8511033187
  0
LINE
  8
Layer1$C$L1
 62
     3
 10
-70.7549958244
 20
83.5011429915
 11
-70.7549958244
 21
68.8011460433
  0
LINE
  8
Layer1$C$L1
 62
     3
 10
-71.2549958244
 20
68.3011460433
 11
-71.5549530998
 21
68.3011460433
  0
LINE
  8
Layer1$C$L1
 62
     3
 10
-71.2549958244
 20
84.0011429915
 11
-71.5549530998
 21
84.0011429915
  0
LINE
  8
Layer1$C$L1
 62
     3
 10
-61.6549439445
 20
81.8511033187
 11
-61.6549439445
 21
71.8511033187
  0
ARC
  8
Layer1$C$L1
 62
     3
 10
-61.6550660148
 20
85.8510270247
 40
17.0000000000
 50
255.4204601083
 51
284.5800676375
  0
LINE
  8
Layer1$C$L1
 62
     3
 10
-68.3114686027
 20
121.4192695378
 11
-68.3114686027
 21
120.2367286442
  0
ARC
  8
Layer1$C$L1
 62
     3
 10
-71.2549653068
 20
128.0734138249
 40
0.5000000000
 50
0.0000000000
 51
89.9999820139
  0
LINE
  8
Layer1$C$L1
 62
     3
 10
-71.2549653068
 20
112.8734168767
 11
-71.5549225822
 21
112.8734168767
  0
LINE
  8
Layer1$C$L1
 62
     3
 10
-71.2549653068
 20
128.5734138249
 11
-71.5549225822
 21
128.5734138249
  0
LINE
  8
Layer1$C$L1
 62
     3
 10
-70.7549653068
 20
113.3734168767
 11
-70.7549653068
 21
128.0734138249
  0
LINE
  8
Layer1$C$L1
 62
     3
 10
-54.6549286857
 20
119.8734168767
 11
-70.7549653068
 21
119.8734168767
  0
LINE
  8
Layer1$C$L1
 62
     3
 10
-54.6549286857
 20
121.6733436345
 11
-70.7549653068
 21
121.6733436345
  0
LINE
  8
Layer1$C$L1
 62
     3
 10
-56.8959717765
 20
121.6733436345
 11
-56.8959717765
 21
119.8734168767
  0
LINE
  8
Layer1$C$L1
 62
     3
 10
-54.6549286857
 20
121.6733436345
 11
-54.6549286857
 21
119.8734168767
  0
LINE
  8
Layer1$C$L1
 62
     3
 10
-66.4140839592
 20
121.6733436345
 11
-66.4140839592
 21
119.8734168767
  0
ARC
  8
Layer1$C$L1
 62
     3
 10
-71.2549653068
 20
113.3734168767
 40
0.5000000000
 50
270.0000179861
 51
360.0000000000
  0
LINE
  8
Layer1$C$L1
 62
     3
 10
-28.4747118191
 20
80.4510789046
 11
-28.6247362332
 21
80.4510789046
  0
LINE
  8
Layer1$C$L1
 62
     3
 10
-28.4747118191
 20
73.2511429915
 11
-28.6247362332
 21
73.2511429915
  0
LINE
  8
Layer1$C$L1
 62
     3
 10
-28.4747118191
 20
85.1507859359
 11
-26.6746629910
 21
85.1507859359
  0
ARC
  8
Layer1$C$L1
 62
     3
 10
-27.5748247342
 20
76.1011338363
 40
7.7999963760
 50
276.6262303867
 51
443.3737696133
  0
ARC
  8
Layer1$C$L1
 62
     3
 10
-27.5748247342
 20
76.1011338363
 40
7.7999963760
 50
96.6252655088
 51
263.3746625468
  0
LINE
  8
Layer1$C$L1
 62
     3
 10
-28.4747118191
 20
68.5515427718
 11
-26.6746629910
 21
68.5515427718
  0
LINE
  8
Layer1$C$L1
 62
     3
 10
-28.4747118191
 20
85.8511033187
 11
-28.4747118191
 21
67.8511033187
  0
LINE
  8
Layer1$C$L1
 62
     3
 10
-26.6747850613
 20
85.8511033187
 11
-26.6747850613
 21
67.8511033187
  0
LINE
  8
Layer1$C$L1
 62
     3
 10
-28.4747118191
 20
85.8511033187
 11
-26.6746629910
 21
85.8511033187
  0
LINE
  8
Layer1$C$L1
 62
     3
 10
-28.4747118191
 20
67.8511033187
 11
-26.6746629910
 21
67.8511033187
  0
LINE
  8
Layer1$C$L1
 62
     3
 10
-26.6747692996
 20
76.2510853574
 11
-26.5248155356
 21
76.4010391214
  0
LINE
  8
Layer1$C$L1
 62
     3
 10
-26.6746629910
 20
75.9011216292
 11
-26.5247606473
 21
75.9011216292
  0
LINE
  8
Layer1$C$L1
 62
     3
 10
-28.6247362332
 20
74.1011490951
 11
-28.4747118191
 21
74.1011490951
  0
LINE
  8
Layer1$C$L1
 62
     3
 10
-28.4747118191
 20
78.0010819564
 11
-28.6247362332
 21
78.0010819564
  0
LINE
  8
Layer1$C$L1
 62
     3
 10
-26.5247606473
 20
79.6011338363
 11
-26.6746629910
 21
79.6011338363
  0
LINE
  8
Layer1$C$L1
 62
     3
 10
-26.5247606473
 20
73.2511429915
 11
-26.6746629910
 21
73.2511429915
  0
LINE
  8
Layer1$C$L1
 62
     3
 10
-26.5247606473
 20
80.4510789046
 11
-26.6746629910
 21
80.4510789046
  0
LINE
  8
Layer1$C$L1
 62
     3
 10
-28.6247362332
 20
80.4510789046
 11
-28.6247362332
 21
73.2511429915
  0
LINE
  8
Layer1$C$L1
 62
     3
 10
-26.5247606473
 20
80.4510789046
 11
-26.5247606473
 21
73.2511429915
  0
LINE
  8
Layer1$C$L1
 62
     3
 10
-28.6247362332
 20
75.3511033187
 11
-28.4747118191
 21
75.3511033187
  0
LINE
  8
Layer1$C$L1
 62
     3
 10
-28.6247362332
 20
112.3511033187
 11
-28.4747118191
 21
112.3511033187
  0
LINE
  8
Layer1$C$L1
 62
     3
 10
-26.5247606473
 20
117.4510789046
 11
-26.5247606473
 21
110.2511429915
  0
LINE
  8
Layer1$C$L1
 62
     3
 10
-28.6247362332
 20
117.4510789046
 11
-28.6247362332
 21
110.2511429915
  0
LINE
  8
Layer1$C$L1
 62
     3
 10
-26.5247606473
 20
117.4510789046
 11
-26.6746629910
 21
117.4510789046
  0
LINE
  8
Layer1$C$L1
 62
     3
 10
-26.5247606473
 20
110.2511429915
 11
-26.6746629910
 21
110.2511429915
  0
LINE
  8
Layer1$C$L1
 62
     3
 10
-26.5247606473
 20
116.6011338363
 11
-26.6746629910
 21
116.6011338363
  0
LINE
  8
Layer1$C$L1
 62
     3
 10
-28.4747118191
 20
115.0010819564
 11
-28.6247362332
 21
115.0010819564
  0
LINE
  8
Layer1$C$L1
 62
     3
 10
-28.6247362332
 20
111.1011490951
 11
-28.4747118191
 21
111.1011490951
  0
LINE
  8
Layer1$C$L1
 62
     3
 10
-26.6746629910
 20
112.9011216292
 11
-26.5247606473
 21
112.9011216292
  0
LINE
  8
Layer1$C$L1
 62
     3
 10
-26.6747692996
 20
113.2510853574
 11
-26.5248155356
 21
113.4010391214
  0
LINE
  8
Layer1$C$L1
 62
     3
 10
-28.4747118191
 20
104.8511033187
 11
-26.6746629910
 21
104.8511033187
  0
LINE
  8
Layer1$C$L1
 62
     3
 10
-28.4747118191
 20
122.8511033187
 11
-26.6746629910
 21
122.8511033187
  0
LINE
  8
Layer1$C$L1
 62
     3
 10
-26.6747850613
 20
122.8511033187
 11
-26.6747850613
 21
104.8511033187
  0
LINE
  8
Layer1$C$L1
 62
     3
 10
-28.4747118191
 20
122.8511033187
 11
-28.4747118191
 21
104.8511033187
  0
LINE
  8
Layer1$C$L1
 62
     3
 10
-28.4747118191
 20
105.5515427718
 11
-26.6746629910
 21
105.5515427718
  0
ARC
  8
Layer1$C$L1
 62
     3
 10
-27.5748247342
 20
113.1011338363
 40
7.7999963760
 50
96.6252655088
 51
263.3746625468
  0
ARC
  8
Layer1$C$L1
 62
     3
 10
-27.5748247342
 20
113.1011338363
 40
7.7999963760
 50
276.6262303867
 51
443.3737696133
  0
LINE
  8
Layer1$C$L1
 62
     3
 10
-28.4747118191
 20
122.1507859359
 11
-26.6746629910
 21
122.1507859359
  0
LINE
  8
Layer1$C$L1
 62
     3
 10
-28.4747118191
 20
110.2511429915
 11
-28.6247362332
 21
110.2511429915
  0
LINE
  8
Layer1$C$L1
 62
     3
 10
-28.4747118191
 20
117.4510789046
 11
-28.6247362332
 21
117.4510789046
  0
LINE
  8
Layer1$C$L1
 62
     3
 10
-28.4747118191
 20
150.4510789046
 11
-28.6247362332
 21
150.4510789046
  0
LINE
  8
Layer1$C$L1
 62
     3
 10
-28.4747118191
 20
143.2511429915
 11
-28.6247362332
 21
143.2511429915
  0
LINE
  8
Layer1$C$L1
 62
     3
 10
-28.4747118191
 20
155.1507859359
 11
-26.6746629910
 21
155.1507859359
  0
ARC
  8
Layer1$C$L1
 62
     3
 10
-27.5748247342
 20
146.1011338363
 40
7.7999963760
 50
276.6262303867
 51
443.3737696133
  0
ARC
  8
Layer1$C$L1
 62
     3
 10
-27.5748247342
 20
146.1011338363
 40
7.7999963760
 50
96.6252655088
 51
263.3746625468
  0
LINE
  8
Layer1$C$L1
 62
     3
 10
-28.4747118191
 20
138.5515427718
 11
-26.6746629910
 21
138.5515427718
  0
LINE
  8
Layer1$C$L1
 62
     3
 10
-28.4747118191
 20
155.8511033187
 11
-28.4747118191
 21
137.8511033187
  0
LINE
  8
Layer1$C$L1
 62
     3
 10
-26.6747850613
 20
155.8511033187
 11
-26.6747850613
 21
137.8511033187
  0
LINE
  8
Layer1$C$L1
 62
     3
 10
-28.4747118191
 20
155.8511033187
 11
-26.6746629910
 21
155.8511033187
  0
LINE
  8
Layer1$C$L1
 62
     3
 10
-28.4747118191
 20
137.8511033187
 11
-26.6746629910
 21
137.8511033187
  0
LINE
  8
Layer1$C$L1
 62
     3
 10
-26.6747692996
 20
146.2510853574
 11
-26.5248155356
 21
146.4010391214
  0
LINE
  8
Layer1$C$L1
 62
     3
 10
-26.6746629910
 20
145.9011216292
 11
-26.5247606473
 21
145.9011216292
  0
LINE
  8
Layer1$C$L1
 62
     3
 10
-28.6247362332
 20
144.1011490951
 11
-28.4747118191
 21
144.1011490951
  0
LINE
  8
Layer1$C$L1
 62
     3
 10
-28.4747118191
 20
148.0010819564
 11
-28.6247362332
 21
148.0010819564
  0
LINE
  8
Layer1$C$L1
 62
     3
 10
-26.5247606473
 20
149.6011338363
 11
-26.6746629910
 21
149.6011338363
  0
LINE
  8
Layer1$C$L1
 62
     3
 10
-26.5247606473
 20
143.2511429915
 11
-26.6746629910
 21
143.2511429915
  0
LINE
  8
Layer1$C$L1
 62
     3
 10
-26.5247606473
 20
150.4510789046
 11
-26.6746629910
 21
150.4510789046
  0
LINE
  8
Layer1$C$L1
 62
     3
 10
-28.6247362332
 20
150.4510789046
 11
-28.6247362332
 21
143.2511429915
  0
LINE
  8
Layer1$C$L1
 62
     3
 10
-26.5247606473
 20
150.4510789046
 11
-26.5247606473
 21
143.2511429915
  0
LINE
  8
Layer1$C$L1
 62
     3
 10
-28.6247362332
 20
145.3511033187
 11
-28.4747118191
 21
145.3511033187
  0
ARC
  8
Layer0$C$L0
 62
     3
 10
-27.5748247342
 20
146.1011338363
 40
7.8500000000
 50
96.5825900182
 51
142.3187116745
  0
ARC
  8
Layer0$C$L0
 62
     3
 10
-27.5748247342
 20
146.1011338363
 40
7.9000000000
 50
0.0000000000
 51
83.4581405441
  0
ARC
  8
Layer0$C$L0
 62
     3
 10
-27.5748247342
 20
146.1011338363
 40
7.9000000000
 50
96.5407455408
 51
263.4592544592
  0
ARC
  8
Layer0$C$L0
 62
     3
 10
-27.5748247342
 20
146.1011338363
 40
7.8500000000
 50
276.5837111225
 51
352.6812883255
  0
ARC
  8
Layer0$C$L0
 62
     3
 10
-27.5748247342
 20
146.1011338363
 40
7.9000000000
 50
276.5418594559
 51
360.0000000000
  0
ARC
  8
Layer0$C$L0
 62
     3
 10
-27.5748247342
 20
76.1011338363
 40
8.0000000000
 50
0.0000000000
 51
83.5402642714
  0
ARC
  8
Layer0$C$L0
 62
     3
 10
-27.5748247342
 20
76.1011338363
 40
8.0000000000
 50
276.4597357286
 51
360.0000000000
  0
ARC
  8
Layer0$C$L0
 62
     3
 10
-27.5748247342
 20
76.1011338363
 40
7.9000000000
 50
0.0000000000
 51
83.4581405441
  0
ARC
  8
Layer0$C$L0
 62
     3
 10
-27.5748247342
 20
76.1011338363
 40
7.9000000000
 50
276.5418594559
 51
360.0000000000
  0
ARC
  8
Layer0$C$L0
 62
     3
 10
-27.5748247342
 20
76.1011338363
 40
7.9000000000
 50
96.5407455408
 51
263.4592544592
  0
ARC
  8
Layer0$C$L0
 62
     3
 10
-27.5748247342
 20
76.1011338363
 40
8.0000000000
 50
96.4586359170
 51
263.5413640830
  0
LINE
  8
Layer0$C$L0
 62
     3
 10
-28.4747118191
 20
84.6511342133
 11
-39.1248246716
 21
84.6511342133
  0
LINE
  8
Layer0$C$L0
 62
     3
 10
-26.6747850613
 20
84.9568659941
 11
-16.0305049331
 21
84.9568659941
  0
LINE
  8
Layer0$C$L0
 62
     3
 10
-26.6747850613
 20
85.1011334488
 11
-15.8862365471
 21
85.1011334488
  0
ARC
  8
Layer0$C$L0
 62
     3
 10
-27.5748247342
 20
113.1011338363
 40
8.0000000000
 50
0.0000000000
 51
83.5402642714
  0
ARC
  8
Layer0$C$L0
 62
     3
 10
-27.5748247342
 20
113.1011338363
 40
8.0000000000
 50
276.4597357286
 51
360.0000000000
  0
ARC
  8
Layer0$C$L0
 62
     3
 10
-27.5748247342
 20
113.1011338363
 40
7.9000000000
 50
0.0000000000
 51
83.4581405441
  0
ARC
  8
Layer0$C$L0
 62
     3
 10
-27.5748247342
 20
113.1011338363
 40
7.9000000000
 50
276.5418594559
 51
360.0000000000
  0
ARC
  8
Layer0$C$L0
 62
     3
 10
-27.5748247342
 20
113.1011338363
 40
7.9000000000
 50
96.5407455408
 51
263.4592544592
  0
ARC
  8
Layer0$C$L0
 62
     3
 10
-27.5748247342
 20
113.1011338363
 40
8.0000000000
 50
96.4586359170
 51
263.5413640830
  0
LINE
  8
Layer0$C$L0
 62
     3
 10
-28.4747118191
 20
121.6511342133
 11
-36.1248251112
 21
121.6511342133
  0
LINE
  8
Layer0$C$L0
 62
     3
 10
-26.6747850613
 20
121.9568659941
 11
-19.0305044936
 21
121.9568659941
  0
LINE
  8
Layer0$C$L0
 62
     3
 10
-26.6747850613
 20
122.1011334489
 11
-18.8862370388
 21
122.1011334489
  0
ARC
  8
Layer0$C$L0
 62
     3
 10
-27.5748247342
 20
146.1011338363
 40
8.5500000000
 50
0.0000000000
 51
83.9574042375
  0
ARC
  8
Layer0$C$L0
 62
     3
 10
-27.5748247342
 20
146.1011338363
 40
8.5500000000
 50
96.0415675192
 51
360.0000000000
  0
ARC
  8
Layer0$C$L0
 62
     3
 10
-27.5748247342
 20
146.1011338363
 40
8.8557324841
 50
0.0000000000
 51
84.1667537531
  0
ARC
  8
Layer0$C$L0
 62
     3
 10
-27.5748247342
 20
146.1011338363
 40
8.8557324841
 50
95.8322538795
 51
360.0000000000
  0
ARC
  8
Layer0$C$L0
 62
     3
 10
-27.5748247342
 20
146.1011338363
 40
9.0000000000
 50
0.0000000000
 51
84.2605756851
  0
ARC
  8
Layer0$C$L0
 62
     3
 10
-27.5748247342
 20
146.1011338363
 40
9.0000000000
 50
95.7384480169
 51
360.0000000000
  0
ENDSEC
  0
EOF
