  0
SECTION
  2
HEADER
  9
$ACADVER
  1
AC1004
  9
$ANGBASE
 50
0.0000000000
  9
$ANGDIR
 70
     0
  9
$ATTDIA
 70
     0
  9
$ATTMODE
 70
     1
  9
$ATTREQ
 70
     1
  9
$AUNITS
 70
     0
  9
$AUPREC
 70
     0
  9
$AXISMODE
 70
     0
  9
$AXISUNIT
 10
0.0000000000
 20
0.0000000000
  9
$BLIPMODE
 70
     1
  9
$CECOLOR
 62
   256
  9
$CELTYPE
  6
BYLAYER
  9
$CHAMFERA
 40
0.0000000000
  9
$CHAMFERB
 40
0.0000000000
  9
$CLAYER
  8
0
  9
$COORDS
 70
     0
  9
$DIMALT
 70
     0
  9
$DIMALTD
 70
     2
  9
$DIMALTF
 40
25.4000000000
  9
$DIMAPOST
  1

  9
$DIMASO
 70
     1
  9
$DIMASZ
 40
1.9727878460
  9
$DIMBLK
  1

  9
$DIMBLK1
  1

  9
$DIMBLK2
  1

  9
$DIMCEN
 40
9.0000000000E-02
  9
$DIMDLE
 40
0.0000000000
  9
$DIMDLI
 40
0.3800000000
  9
$DIMEXE
 40
3.8099999428
  9
$DIMEXO
 40
2.5399999619
  9
$DIMLFAC
 40
1.0000000000
  9
$DIMLIM
 70
     0
  9
$DIMPOST
  1

  9
$DIMRND
 40
0.0000000000
  9
$DIMSCALE
 40
1.0000000000
  9
$DIMSE1
 70
     0
  9
$DIMSE2
 70
     0
  9
$DIMSHO
 70
     0
  9
$DIMTAD
 70
     0
  9
$DIMTIH
 70
     0
  9
$DIMTM
 40
0.0000000000
  9
$DIMTOH
 70
     1
  9
$DIMTOL
 70
     0
  9
$DIMTP
 40
0.0000000000
  9
$DIMTSZ
 40
0.0000000000
  9
$DIMTXT
 40
2.9999940395
  9
$DIMZIN
 70
     0
  9
$DRAGMODE
 70
     1
  9
$ELEVATION
 40
0.0000000000
  9
$EXTMAX
 10
3.1750000000
 20
293.1750000000
 30
0.0000000000
  9
$EXTMIN
 10
-196.7527893066
 20
-3.1750000000
 30
0.0000000000
  9
$FASTZOOM
 70
     1
  9
$FILLETRAD
 40
6.2500000000E-02
  9
$FILLMODE
 70
     1
  9
$GRIDMODE
 70
     0
  9
$GRIDUNIT
 10
0.0000000000
 20
0.0000000000
  9
$INSBASE
 10
0.0000000000
 20
0.0000000000
 30
0.0000000000
  9
$LIMCHECK
 70
     0
  9
$LIMMAX
 10
3.1750000000
 20
293.1750000000
  9
$LIMMIN
 10
-196.7527893066
 20
-3.1750000000
  9
$LTSCALE
 40
1.0000000000
  9
$LUNITS
 70
     2
  9
$LUPREC
 70
     3
  9
$MEASUREMENT
 70
     0
  9
$MENU
  1
ACAD
  9
$MIRRTEXT
 70
     0
  9
$ORTHOMODE
 70
     0
  9
$OSMODE
 70
     0
  9
$PDMODE
 70
     0
  9
$PDSIZE
 40
0.0000000000
  9
$PLINEWID
 40
0.0000000000
  9
$PROXYGRAPHICS
 70
     0
  9
$QTEXTMODE
 70
     0
  9
$REGENMODE
 70
     1
  9
$SKETCHINC
 40
0.1000000000
  9
$SKPOLY
 70
     0
  9
$SNAPANG
 50
0.0000000000
  9
$SNAPBASE
 10
0.0000000000
 20
0.0000000000
  9
$SNAPISOPAIR
 70
     0
  9
$SNAPMODE
 70
     0
  9
$SNAPSTYLE
 70
     0
  9
$SNAPUNIT
 10
1.0000000000
 20
1.0000000000
  9
$SPLFRAME
 70
     0
  9
$SPLINESEGS
 70
     8
  9
$TDCREATE
 40
2454707.6623032464
  9
$TDINDWG
 40
0.0000000000
  9
$TDUPDATE
 40
2454707.6623032464
  9
$TDUSRTIMER
 40
0.0000000000
  9
$TEXTSIZE
 40
2.9999940395
  9
$TEXTSTYLE
  7
STANDARD
  9
$THICKNESS
 40
0.0000000000
  9
$TRACEWID
 40
5.0000000000E-02
  9
$USERI1
 70
     0
  9
$USERI2
 70
     0
  9
$USERI3
 70
     0
  9
$USERI4
 70
     0
  9
$USERI5
 70
     0
  9
$USERR1
 40
0.0000000000
  9
$USERR2
 40
0.0000000000
  9
$USERR3
 40
0.0000000000
  9
$USERR4
 40
0.0000000000
  9
$USERR5
 40
0.0000000000
  9
$USRTIMER
 70
     1
  9
$VIEWCTR
 10
-96.7888946533
 20
145.0000000000
  9
$VIEWDIR
 10
0.0000000000
 20
0.0000000000
 30
1.0000000000
  9
$VIEWSIZE
 40
296.3500000000
  0
ENDSEC
  0
SECTION
  2
TABLES
  0
TABLE
  2
LTYPE
 70
     3
  0
LTYPE
  2
SOLID
  3
Solid
 70
    64
 72
    65
 73
     0
 40
0.0000000000
  0
LTYPE
  2
DASHED
  3
Dashed
 70
    64
 72
    65
 73
     2
 40
4.7625000000
 49
3.1750000000
 49
-1.5875000000
  0
LTYPE
  2
CENTER
  3
Center
 70
    64
 72
    65
 73
     4
 40
9.1000000238
 49
6.5000000000
 49
-0.8000000119
 49
1.0000000000
 49
-0.8000000119
  0
ENDTAB
  0
TABLE
  2
LAYER
 70
     5
  0
LAYER
  2
Layer0$C$L0
 70
     0
  6
SOLID
 62
     3
  0
LAYER
  2
Layer1$C$L1
 70
     0
  6
SOLID
 62
     3
  0
LAYER
  2
Layer2$C$L2
 70
     0
  6
SOLID
 62
     3
  0
LAYER
  2
Layer6$C$L6
 70
     0
  6
SOLID
 62
    31
  0
LAYER
  2
Layer8$C$L8
 70
     0
  6
SOLID
 62
     7
  0
ENDTAB
  0
TABLE
  2
STYLE
 70
     1
  0
STYLE
  2
STANDARD
  3
txt
  4

 40
0.0000000000
 41
1.0000000000
 42
4.7999906540
 50
0.0000000000
 70
     0
 71
     0
  0
ENDTAB
  0
ENDSEC
  0
SECTION
  2
BLOCKS
  0
ENDSEC
  0
SECTION
  2
ENTITIES
  0
TEXT
  8
Layer8$C$L8
 62
     5
 10
-55.8687461554
 20
5.2399170342
 40
4.7999907530
  1
MA4-H01826
 41
0.8594992950
 72
     5
 11
-18.7384481416
 21
5.2399170342
  0
TEXT
  8
Layer8$C$L8
 10
-54.9018681562
 20
18.0154273214
 40
2.9999941014
  1
LA9Z-DS8
 41
0.8796414482
 72
     5
 11
-36.4294340646
 21
18.0154273214
  0
POINT
  8
Layer0$C$L0
 62
     3
 10
-80.6002938539
 20
201.8416166975
  0
POINT
  8
Layer0$C$L0
 62
     3
 10
-80.6002938539
 20
163.9037955453
  0
POINT
  8
Layer0$C$L0
 62
     3
 10
-125.2944845713
 20
163.7708377740
  0
LINE
  8
Layer1$C$L1
  6
CENTER
 62
     3
 10
-90.3944845713
 20
163.7708377740
 11
-127.1944845713
 21
163.7708377740
  0
LINE
  8
Layer1$C$L1
  6
CENTER
 62
     3
 10
-108.7944845713
 20
179.1708377740
 11
-108.7944845713
 21
148.3708377740
  0
LINE
  8
Layer1$C$L1
  6
CENTER
 62
     3
 10
-63.8002938539
 20
163.9037955453
 11
-82.6002938539
 21
163.9037955453
  0
LINE
  8
Layer1$C$L1
  6
CENTER
 62
     3
 10
-63.8002938539
 20
201.8416166975
 11
-82.6002938539
 21
201.8416166975
  0
ARC
  8
Layer1$C$L1
 62
     3
 10
-79.6002938539
 20
153.6037955453
 40
1.0000000000
 50
180.0000000000
 51
270.0000000000
  0
ARC
  8
Layer1$C$L1
 62
     3
 10
-79.6002938539
 20
174.2037955453
 40
1.0000000000
 50
90.0000000000
 51
180.0000000000
  0
ARC
  8
Layer1$C$L1
 62
     3
 10
-78.8002938539
 20
154.2037955453
 40
0.3000000000
 50
180.0000000000
 51
270.0000000000
  0
ARC
  8
Layer1$C$L1
 62
     3
 10
-78.8002938539
 20
173.6037955453
 40
0.3000000000
 50
90.0000000000
 51
180.0000000000
  0
LINE
  8
Layer1$C$L1
 62
     3
 10
-80.6002938539
 20
153.6037955453
 11
-80.6002938539
 21
174.2037955453
  0
LINE
  8
Layer1$C$L1
 62
     3
 10
-79.8002938539
 20
174.4037955453
 11
-79.8002938539
 21
153.4037955453
  0
LINE
  8
Layer1$C$L1
 62
     3
 10
-79.1002938539
 20
154.2037955453
 11
-79.1002938539
 21
173.6037955453
  0
LINE
  8
Layer1$C$L1
 62
     3
 10
-70.8002938539
 20
175.2037955453
 11
-70.8002938539
 21
174.4037955453
  0
LINE
  8
Layer1$C$L1
 62
     3
 10
-70.8002938539
 20
175.2037955453
 11
-79.6002938539
 21
175.2037955453
  0
LINE
  8
Layer1$C$L1
 62
     3
 10
-70.8002938539
 20
174.4037955453
 11
-79.8002938539
 21
174.4037955453
  0
LINE
  8
Layer1$C$L1
 62
     3
 10
-70.8002938539
 20
153.4037955453
 11
-79.8002938539
 21
153.4037955453
  0
LINE
  8
Layer1$C$L1
 62
     3
 10
-70.8002938539
 20
153.4037955453
 11
-70.8002938539
 21
152.6037955453
  0
LINE
  8
Layer1$C$L1
 62
     3
 10
-70.8002938539
 20
152.6037955453
 11
-79.6002938539
 21
152.6037955453
  0
LINE
  8
Layer1$C$L1
 62
     3
 10
-69.8002938539
 20
153.9037955453
 11
-78.8002938539
 21
153.9037955453
  0
LINE
  8
Layer1$C$L1
 62
     3
 10
-69.8002938539
 20
173.9037955453
 11
-78.8002938539
 21
173.9037955453
  0
ARC
  8
Layer1$C$L1
 62
     3
 10
-72.1035192267
 20
191.3416166975
 40
1.0000000000
 50
270.0000000000
 51
345.0000000000
  0
ARC
  8
Layer1$C$L1
 62
     3
 10
-70.8002938539
 20
196.2053200026
 40
1.0000000000
 50
180.0000000000
 51
195.0000000000
  0
ARC
  8
Layer1$C$L1
 62
     3
 10
-70.8002938539
 20
207.4779133923
 40
1.0000000000
 50
165.0000000000
 51
180.0000000000
  0
ARC
  8
Layer1$C$L1
 62
     3
 10
-72.1035192267
 20
212.3416166975
 40
1.0000000000
 50
15.0000000000
 51
90.0000000000
  0
LINE
  8
Layer1$C$L1
 62
     3
 10
-72.1035192267
 20
190.3416166975
 11
-80.6002938539
 21
190.3416166975
  0
LINE
  8
Layer1$C$L1
 62
     3
 10
-69.8002938539
 20
191.8416166975
 11
-70.9342684501
 21
191.8416166975
  0
LINE
  8
Layer1$C$L1
 62
     3
 10
-70.8002938539
 20
192.3416166975
 11
-71.1375934004
 21
191.0827976524
  0
LINE
  8
Layer1$C$L1
 62
     3
 10
-71.7662196802
 20
195.9465009575
 11
-70.8002938539
 21
192.3416166975
  0
LINE
  8
Layer1$C$L1
 62
     3
 10
-71.8002938539
 20
207.4779133923
 11
-71.8002938539
 21
196.2053200026
  0
LINE
  8
Layer1$C$L1
 62
     3
 10
-70.8002938539
 20
211.3416166975
 11
-71.7662196802
 21
207.7367324374
  0
LINE
  8
Layer1$C$L1
 62
     3
 10
-70.9342684501
 20
211.8416166975
 11
-69.8002938539
 21
211.8416166975
  0
LINE
  8
Layer1$C$L1
 62
     3
 10
-71.1375934004
 20
212.6004357426
 11
-70.8002938539
 21
211.3416166975
  0
LINE
  8
Layer1$C$L1
 62
     3
 10
-80.6002938539
 20
213.3416166975
 11
-80.6002938539
 21
190.3416166975
  0
LINE
  8
Layer1$C$L1
 62
     3
 10
-80.6002938539
 20
213.3416166975
 11
-72.1035192267
 21
213.3416166975
  0
ARC
  8
Layer1$C$L1
 62
     3
 10
-66.2373654686
 20
188.5903978829
 40
0.5000000000
 50
128.6947654947
 51
170.0000000000
  0
ARC
  8
Layer1$C$L1
 62
     3
 10
-67.8002938539
 20
190.5416166975
 40
2.0000000000
 50
308.6947654947
 51
360.0000000000
  0
ARC
  8
Layer1$C$L1
 62
     3
 10
-67.8002938539
 20
213.1416166975
 40
2.0000000000
 50
2.0355549961E-13
 51
51.3052345053
  0
ARC
  8
Layer1$C$L1
 62
     3
 10
-66.2373654686
 20
215.0928355121
 40
0.5000000000
 50
190.0000000000
 51
231.3052345054
  0
LINE
  8
Layer1$C$L1
 62
     3
 10
-66.6197109567
 20
189.3013941090
 11
-67.1576476179
 21
186.2506037020
  0
LINE
  8
Layer1$C$L1
 62
     3
 10
-66.5499511457
 20
213.0416166975
 11
-66.5499511457
 21
190.6416166975
  0
LINE
  8
Layer1$C$L1
 62
     3
 10
-65.8002938539
 20
213.1416166975
 11
-65.8002938539
 21
190.5416166975
  0
LINE
  8
Layer1$C$L1
 62
     3
 10
-67.1576476179
 20
217.4326296929
 11
-66.6197109567
 21
214.3818392860
  0
LINE
  8
Layer1$C$L1
 62
     3
 10
-69.8002938539
 20
218.3416166975
 11
-69.8002938539
 21
185.3416166975
  0
POLYLINE
  8
Layer1$C$L1
 62
     3
 66
     1
  0
VERTEX
  8
Layer1$C$L1
 62
     3
 10
-66.4551103179
 20
189.5243685727
  0
VERTEX
  8
Layer1$C$L1
 62
     3
 10
-66.4917578790
 20
189.7260699886
  0
VERTEX
  8
Layer1$C$L1
 62
     3
 10
-66.5334376200
 20
190.1305507836
  0
VERTEX
  8
Layer1$C$L1
 62
     3
 10
-66.5490846381
 20
190.5226019489
  0
VERTEX
  8
Layer1$C$L1
 62
     3
 10
-66.5499511457
 20
190.6416166975
  0
SEQEND
  8
Layer1$C$L1
 62
     3
  0
POLYLINE
  8
Layer1$C$L1
 62
     3
 66
     1
  0
VERTEX
  8
Layer1$C$L1
 62
     3
 10
-66.5499511457
 20
188.9806416458
  0
VERTEX
  8
Layer1$C$L1
 62
     3
 10
-66.5333931371
 20
189.0755359457
  0
VERTEX
  8
Layer1$C$L1
 62
     3
 10
-66.4918087317
 20
189.3139167755
  0
VERTEX
  8
Layer1$C$L1
 62
     3
 10
-66.4551103179
 20
189.5243685727
  0
SEQEND
  8
Layer1$C$L1
 62
     3
  0
POLYLINE
  8
Layer1$C$L1
 62
     3
 66
     1
  0
VERTEX
  8
Layer1$C$L1
 62
     3
 10
-66.5499511457
 20
213.0416166975
  0
VERTEX
  8
Layer1$C$L1
 62
     3
 10
-66.5333931371
 20
213.5533461037
  0
VERTEX
  8
Layer1$C$L1
 62
     3
 10
-66.4918087317
 20
213.9568180496
  0
VERTEX
  8
Layer1$C$L1
 62
     3
 10
-66.4551103179
 20
214.1588648222
  0
SEQEND
  8
Layer1$C$L1
 62
     3
  0
LINE
  8
Layer1$C$L1
 62
     3
 10
-67.6545857321
 20
216.2416166975
 11
-67.6545857321
 21
187.4416166975
  0
POLYLINE
  8
Layer1$C$L1
 62
     3
 66
     1
  0
VERTEX
  8
Layer1$C$L1
 62
     3
 10
-66.4551103179
 20
214.1588648222
  0
VERTEX
  8
Layer1$C$L1
 62
     3
 10
-66.4917578790
 20
214.3690250523
  0
VERTEX
  8
Layer1$C$L1
 62
     3
 10
-66.5334376200
 20
214.6079523989
  0
VERTEX
  8
Layer1$C$L1
 62
     3
 10
-66.5490846381
 20
214.6976260889
  0
VERTEX
  8
Layer1$C$L1
 62
     3
 10
-66.5499511457
 20
214.7025917492
  0
SEQEND
  8
Layer1$C$L1
 62
     3
  0
POLYLINE
  8
Layer1$C$L1
 62
     3
 66
     1
  0
VERTEX
  8
Layer1$C$L1
 62
     3
 10
-97.5944845713
 20
153.9098627223
  0
VERTEX
  8
Layer1$C$L1
 62
     3
 10
-97.0827551651
 20
154.0047570222
  0
VERTEX
  8
Layer1$C$L1
 62
     3
 10
-96.6792832192
 20
154.2431378519
  0
VERTEX
  8
Layer1$C$L1
 62
     3
 10
-96.4772364465
 20
154.4535896492
  0
SEQEND
  8
Layer1$C$L1
 62
     3
  0
POLYLINE
  8
Layer1$C$L1
 62
     3
 66
     1
  0
VERTEX
  8
Layer1$C$L1
 62
     3
 10
-121.6554596230
 20
155.5708377740
  0
VERTEX
  8
Layer1$C$L1
 62
     3
 10
-121.5605653230
 20
155.0591083678
  0
VERTEX
  8
Layer1$C$L1
 62
     3
 10
-121.3221844933
 20
154.6556364219
  0
VERTEX
  8
Layer1$C$L1
 62
     3
 10
-121.1117326960
 20
154.4535896492
  0
SEQEND
  8
Layer1$C$L1
 62
     3
  0
POLYLINE
  8
Layer1$C$L1
 62
     3
 66
     1
  0
VERTEX
  8
Layer1$C$L1
 62
     3
 10
-119.9944845713
 20
173.6318128257
  0
VERTEX
  8
Layer1$C$L1
 62
     3
 10
-120.5062139775
 20
173.5369185257
  0
VERTEX
  8
Layer1$C$L1
 62
     3
 10
-120.9096859234
 20
173.2985376960
  0
VERTEX
  8
Layer1$C$L1
 62
     3
 10
-121.1117326960
 20
173.0880858987
  0
SEQEND
  8
Layer1$C$L1
 62
     3
  0
POLYLINE
  8
Layer1$C$L1
 62
     3
 66
     1
  0
VERTEX
  8
Layer1$C$L1
 62
     3
 10
-95.9335095196
 20
171.9708377740
  0
VERTEX
  8
Layer1$C$L1
 62
     3
 10
-96.0284038195
 20
172.4825671802
  0
VERTEX
  8
Layer1$C$L1
 62
     3
 10
-96.2667846492
 20
172.8860391261
  0
VERTEX
  8
Layer1$C$L1
 62
     3
 10
-96.4772364465
 20
173.0880858987
  0
SEQEND
  8
Layer1$C$L1
 62
     3
  0
POLYLINE
  8
Layer1$C$L1
 62
     3
 66
     1
  0
VERTEX
  8
Layer1$C$L1
 62
     3
 10
-96.4772364465
 20
154.4535896492
  0
VERTEX
  8
Layer1$C$L1
 62
     3
 10
-96.2670762165
 20
154.6552910651
  0
VERTEX
  8
Layer1$C$L1
 62
     3
 10
-96.0281488699
 20
155.0597718601
  0
VERTEX
  8
Layer1$C$L1
 62
     3
 10
-95.9384751798
 20
155.4518230254
  0
VERTEX
  8
Layer1$C$L1
 62
     3
 10
-95.9335095196
 20
155.5708377740
  0
SEQEND
  8
Layer1$C$L1
 62
     3
  0
POLYLINE
  8
Layer1$C$L1
 62
     3
 66
     1
  0
VERTEX
  8
Layer1$C$L1
 62
     3
 10
-121.1117326960
 20
154.4535896492
  0
VERTEX
  8
Layer1$C$L1
 62
     3
 10
-120.9100312801
 20
154.2434294192
  0
VERTEX
  8
Layer1$C$L1
 62
     3
 10
-120.5055504852
 20
154.0045020725
  0
VERTEX
  8
Layer1$C$L1
 62
     3
 10
-120.1134993198
 20
153.9148283825
  0
VERTEX
  8
Layer1$C$L1
 62
     3
 10
-119.9944845713
 20
153.9098627223
  0
SEQEND
  8
Layer1$C$L1
 62
     3
  0
POLYLINE
  8
Layer1$C$L1
 62
     3
 66
     1
  0
VERTEX
  8
Layer1$C$L1
 62
     3
 10
-121.1117326960
 20
173.0880858987
  0
VERTEX
  8
Layer1$C$L1
 62
     3
 10
-121.3218929261
 20
172.8863844828
  0
VERTEX
  8
Layer1$C$L1
 62
     3
 10
-121.5608202727
 20
172.4819036879
  0
VERTEX
  8
Layer1$C$L1
 62
     3
 10
-121.6504939627
 20
172.0898525225
  0
VERTEX
  8
Layer1$C$L1
 62
     3
 10
-121.6554596230
 20
171.9708377740
  0
SEQEND
  8
Layer1$C$L1
 62
     3
  0
POLYLINE
  8
Layer1$C$L1
 62
     3
 66
     1
  0
VERTEX
  8
Layer1$C$L1
 62
     3
 10
-96.4772364465
 20
173.0880858987
  0
VERTEX
  8
Layer1$C$L1
 62
     3
 10
-96.6789378624
 20
173.2982461288
  0
VERTEX
  8
Layer1$C$L1
 62
     3
 10
-97.0834186574
 20
173.5371734754
  0
VERTEX
  8
Layer1$C$L1
 62
     3
 10
-97.4754698227
 20
173.6268471654
  0
VERTEX
  8
Layer1$C$L1
 62
     3
 10
-97.5944845713
 20
173.6318128257
  0
SEQEND
  8
Layer1$C$L1
 62
     3
  0
LINE
  8
Layer1$C$L1
 62
     3
 10
-125.2944845713
 20
152.2708377740
 11
-125.2944845713
 21
175.2708377740
  0
LINE
  8
Layer1$C$L1
 62
     3
 10
-124.7086981336
 20
176.6850513363
 11
-121.1117326960
 21
173.0880858987
  0
LINE
  8
Layer1$C$L1
 62
     3
 10
-124.7086981336
 20
150.8566242116
 11
-121.1117326960
 21
154.4535896492
  0
LINE
  8
Layer1$C$L1
 62
     3
 10
-123.2944845713
 20
150.2708377740
 11
-94.2944845713
 21
150.2708377740
  0
LINE
  8
Layer1$C$L1
 62
     3
 10
-123.2944845713
 20
177.2708377740
 11
-94.2944845713
 21
177.2708377740
  0
LINE
  8
Layer1$C$L1
 62
     3
 10
-121.6554596230
 20
171.9708377740
 11
-121.6554596230
 21
155.5708377740
  0
LINE
  8
Layer1$C$L1
 62
     3
 10
-119.9944845713
 20
153.9098627223
 11
-97.5944845713
 21
153.9098627223
  0
LINE
  8
Layer1$C$L1
 62
     3
 10
-119.9944845713
 20
173.6318128257
 11
-97.5944845713
 21
173.6318128257
  0
LINE
  8
Layer1$C$L1
 62
     3
 10
-118.4944845713
 20
157.9708377740
 11
-118.4944845713
 21
169.5708377740
  0
LINE
  8
Layer1$C$L1
 62
     3
 10
-118.0944845713
 20
169.5708377740
 11
-118.0944845713
 21
157.9708377740
  0
LINE
  8
Layer1$C$L1
 62
     3
 10
-117.5944845713
 20
170.4708377740
 11
-99.9944845713
 21
170.4708377740
  0
LINE
  8
Layer1$C$L1
 62
     3
 10
-117.5944845713
 20
170.0708377740
 11
-99.9944845713
 21
170.0708377740
  0
LINE
  8
Layer1$C$L1
 62
     3
 10
-117.5944845713
 20
157.4708377740
 11
-99.9944845713
 21
157.4708377740
  0
LINE
  8
Layer1$C$L1
 62
     3
 10
-117.5944845713
 20
157.0708377740
 11
-99.9944845713
 21
157.0708377740
  0
LINE
  8
Layer1$C$L1
 62
     3
 10
-99.4944845713
 20
157.9708377740
 11
-99.4944845713
 21
169.5708377740
  0
LINE
  8
Layer1$C$L1
 62
     3
 10
-99.0944845713
 20
157.9708377740
 11
-99.0944845713
 21
169.5708377740
  0
LINE
  8
Layer1$C$L1
 62
     3
 10
-96.4772364465
 20
154.4535896492
 11
-92.8802710089
 21
150.8566242116
  0
LINE
  8
Layer1$C$L1
 62
     3
 10
-96.4772364465
 20
173.0880858987
 11
-92.8802710089
 21
176.6850513363
  0
LINE
  8
Layer1$C$L1
 62
     3
 10
-95.9335095196
 20
155.5708377740
 11
-95.9335095196
 21
171.9708377740
  0
LINE
  8
Layer1$C$L1
 62
     3
 10
-92.2944845713
 20
175.2708377740
 11
-92.2944845713
 21
152.2708377740
  0
ARC
  8
Layer1$C$L1
 62
     3
 10
-117.5944845713
 20
157.9708377740
 40
0.5000000000
 50
180.0000000000
 51
270.0000000000
  0
ARC
  8
Layer1$C$L1
 62
     3
 10
-117.5944845713
 20
169.5708377740
 40
0.5000000000
 50
90.0000000000
 51
180.0000000000
  0
ARC
  8
Layer1$C$L1
 62
     3
 10
-117.5944845713
 20
169.5708377740
 40
0.9000000000
 50
90.0000000000
 51
180.0000000000
  0
ARC
  8
Layer1$C$L1
 62
     3
 10
-117.5944845713
 20
157.9708377740
 40
0.9000000000
 50
180.0000000000
 51
270.0000000000
  0
ARC
  8
Layer1$C$L1
 62
     3
 10
-99.9944845713
 20
157.9708377740
 40
0.9000000000
 50
270.0000000000
 51
360.0000000000
  0
ARC
  8
Layer1$C$L1
 62
     3
 10
-99.9944845713
 20
169.5708377740
 40
0.5000000000
 50
4.8853319907E-12
 51
90.0000000000
  0
ARC
  8
Layer1$C$L1
 62
     3
 10
-99.9944845713
 20
169.5708377740
 40
0.9000000000
 50
4.8061715187E-12
 51
90.0000000000
  0
ARC
  8
Layer1$C$L1
 62
     3
 10
-99.9944845713
 20
157.9708377740
 40
0.5000000000
 50
270.0000000000
 51
360.0000000000
  0
ARC
  8
Layer1$C$L1
 62
     3
 10
-123.2944845713
 20
175.2708377740
 40
2.0000000000
 50
90.0000000000
 51
180.0000000000
  0
ARC
  8
Layer1$C$L1
 62
     3
 10
-94.2944845713
 20
175.2708377740
 40
2.0000000000
 50
360.0000000000
 51
450.0000000000
  0
ARC
  8
Layer1$C$L1
 62
     3
 10
-94.2944845713
 20
152.2708377740
 40
2.0000000000
 50
270.0000000000
 51
360.0000000000
  0
ARC
  8
Layer1$C$L1
 62
     3
 10
-123.2944845713
 20
152.2708377740
 40
2.0000000000
 50
180.0000000000
 51
270.0000000000
  0
LINE
  8
Layer1$C$L1
 62
     3
 10
-67.6545857321
 20
176.4774437230
 11
-67.6545857321
 21
151.3301473677
  0
LINE
  8
Layer1$C$L1
 62
     3
 10
-69.8002938539
 20
177.4037955453
 11
-68.1570261831
 21
177.4037955453
  0
LINE
  8
Layer1$C$L1
 62
     3
 10
-69.8002938539
 20
177.3037955453
 11
-69.8002938539
 21
150.5037955453
  0
LINE
  8
Layer1$C$L1
 62
     3
 10
-69.8002938539
 20
150.4037955453
 11
-68.1570261831
 21
150.4037955453
  0
LINE
  8
Layer1$C$L1
 62
     3
 10
-67.1722184301
 20
151.2301473677
 11
-66.7297693451
 21
153.7394008196
  0
LINE
  8
Layer1$C$L1
 62
     3
 10
-66.5499511457
 20
173.7647705970
 11
-66.5499511457
 21
154.0428204937
  0
LINE
  8
Layer1$C$L1
 62
     3
 10
-65.8002938539
 20
172.2037955453
 11
-65.8002938539
 21
155.6037955453
  0
ARC
  8
Layer1$C$L1
 62
     3
 10
-67.8002938539
 20
172.2037955453
 40
2.0000000000
 50
2.0355549961E-13
 51
51.3052345053
  0
ARC
  8
Layer1$C$L1
 62
     3
 10
-67.8002938539
 20
155.6037955453
 40
2.0000000000
 50
308.6947654947
 51
360.0000000000
  0
ARC
  8
Layer1$C$L1
 62
     3
 10
-66.2373654686
 20
153.6525767307
 40
0.5000000000
 50
128.6947654946
 51
170.0000000000
  0
ARC
  8
Layer1$C$L1
 62
     3
 10
-66.2373654686
 20
174.1550143600
 40
0.5000000000
 50
190.0000000000
 51
231.3052345053
  0
ARC
  8
Layer1$C$L1
 62
     3
 10
-68.1570261831
 20
176.4037955453
 40
1.0000000000
 50
10.0000000000
 51
90.0000000000
  0
LINE
  8
Layer1$C$L1
 62
     3
 10
-67.1722184301
 20
176.5774437230
 11
-66.7297693451
 21
174.0681902711
  0
ARC
  8
Layer1$C$L1
 62
     3
 10
-68.1570261831
 20
151.4037955453
 40
1.0000000000
 50
270.0000000000
 51
350.0000000000
  0
LINE
  8
Layer1$C$L1
 62
     3
 10
-69.8002938539
 20
185.3416166975
 11
-68.2409361463
 21
185.3416166975
  0
LINE
  8
Layer1$C$L1
 62
     3
 10
-68.2409361463
 20
218.3416166975
 11
-69.8002938539
 21
218.3416166975
  0
ARC
  8
Layer1$C$L1
 62
     3
 10
-68.2409361463
 20
217.2416166975
 40
1.1000000000
 50
10.0000000000
 51
90.0000000000
  0
ARC
  8
Layer1$C$L1
 62
     3
 10
-68.2409361463
 20
186.4416166975
 40
1.1000000000
 50
270.0000000000
 51
350.0000000000
  0
LINE
  8
Layer1$C$L1
  6
CENTER
 62
     3
 10
-132.4049491234
 20
163.7280323879
 11
-151.2049491234
 21
163.7280323879
  0
ARC
  8
Layer1$C$L1
 62
     3
 10
-148.2049491234
 20
153.4280323879
 40
1.0000000000
 50
180.0000000000
 51
270.0000000000
  0
ARC
  8
Layer1$C$L1
 62
     3
 10
-148.2049491234
 20
174.0280323879
 40
1.0000000000
 50
90.0000000000
 51
180.0000000000
  0
ARC
  8
Layer1$C$L1
 62
     3
 10
-147.4049491234
 20
154.0280323879
 40
0.3000000000
 50
180.0000000000
 51
270.0000000000
  0
ARC
  8
Layer1$C$L1
 62
     3
 10
-147.4049491234
 20
173.4280323879
 40
0.3000000000
 50
90.0000000000
 51
180.0000000000
  0
LINE
  8
Layer1$C$L1
 62
     3
 10
-149.2049491234
 20
153.4280323879
 11
-149.2049491234
 21
174.0280323879
  0
LINE
  8
Layer1$C$L1
 62
     3
 10
-148.4049491234
 20
174.2280323879
 11
-148.4049491234
 21
153.2280323879
  0
LINE
  8
Layer1$C$L1
 62
     3
 10
-147.7049491234
 20
154.0280323879
 11
-147.7049491234
 21
173.4280323879
  0
LINE
  8
Layer1$C$L1
 62
     3
 10
-139.4049491234
 20
175.0280323879
 11
-139.4049491234
 21
174.2280323879
  0
LINE
  8
Layer1$C$L1
 62
     3
 10
-139.4049491234
 20
175.0280323879
 11
-148.2049491234
 21
175.0280323879
  0
LINE
  8
Layer1$C$L1
 62
     3
 10
-139.4049491234
 20
174.2280323879
 11
-148.4049491234
 21
174.2280323879
  0
LINE
  8
Layer1$C$L1
 62
     3
 10
-139.4049491234
 20
153.2280323879
 11
-148.4049491234
 21
153.2280323879
  0
LINE
  8
Layer1$C$L1
 62
     3
 10
-139.4049491234
 20
153.2280323879
 11
-139.4049491234
 21
152.4280323879
  0
LINE
  8
Layer1$C$L1
 62
     3
 10
-139.4049491234
 20
152.4280323879
 11
-148.2049491234
 21
152.4280323879
  0
LINE
  8
Layer1$C$L1
 62
     3
 10
-138.4049491234
 20
153.7280323879
 11
-147.4049491234
 21
153.7280323879
  0
LINE
  8
Layer1$C$L1
 62
     3
 10
-138.4049491234
 20
173.7280323879
 11
-147.4049491234
 21
173.7280323879
  0
LINE
  8
Layer1$C$L1
 62
     3
 10
-136.2592410016
 20
176.3016805656
 11
-136.2592410016
 21
151.1543842103
  0
LINE
  8
Layer1$C$L1
 62
     3
 10
-138.4049491234
 20
177.2280323879
 11
-136.7616814527
 21
177.2280323879
  0
LINE
  8
Layer1$C$L1
 62
     3
 10
-138.4049491234
 20
177.1280323879
 11
-138.4049491234
 21
150.3280323879
  0
LINE
  8
Layer1$C$L1
 62
     3
 10
-138.4049491234
 20
150.2280323879
 11
-136.7616814527
 21
150.2280323879
  0
LINE
  8
Layer1$C$L1
 62
     3
 10
-135.7768736997
 20
151.0543842103
 11
-135.3344246147
 21
153.5636376622
  0
LINE
  8
Layer1$C$L1
 62
     3
 10
-135.1546064152
 20
173.5890074396
 11
-135.1546064152
 21
153.8670573362
  0
LINE
  8
Layer1$C$L1
 62
     3
 10
-134.4049491234
 20
172.0280323879
 11
-134.4049491234
 21
155.4280323879
  0
ARC
  8
Layer1$C$L1
 62
     3
 10
-136.4049491234
 20
172.0280323879
 40
2.0000000000
 50
2.0355549961E-13
 51
51.3052345053
  0
ARC
  8
Layer1$C$L1
 62
     3
 10
-136.4049491234
 20
155.4280323879
 40
2.0000000000
 50
308.6947654947
 51
360.0000000000
  0
ARC
  8
Layer1$C$L1
 62
     3
 10
-134.8420207382
 20
153.4768135733
 40
0.5000000000
 50
128.6947654946
 51
170.0000000000
  0
ARC
  8
Layer1$C$L1
 62
     3
 10
-134.8420207382
 20
173.9792512026
 40
0.5000000000
 50
190.0000000000
 51
231.3052345053
  0
ARC
  8
Layer1$C$L1
 62
     3
 10
-136.7616814527
 20
176.2280323879
 40
1.0000000000
 50
10.0000000000
 51
90.0000000000
  0
LINE
  8
Layer1$C$L1
 62
     3
 10
-135.7768736997
 20
176.4016805656
 11
-135.3344246147
 21
173.8924271137
  0
ARC
  8
Layer1$C$L1
 62
     3
 10
-136.7616814527
 20
151.2280323879
 40
1.0000000000
 50
270.0000000000
 51
350.0000000000
  0
ARC
  8
Layer2$C$L2
  6
DASHED
 62
     3
 10
-168.4048087426
 20
154.2280934231
 40
1.0000000000
 50
180.0000359722
 51
270.0000179861
  0
ARC
  8
Layer2$C$L2
  6
DASHED
 62
     3
 10
-168.4048087426
 20
173.2280781643
 40
1.0000000000
 50
89.9999820139
 51
179.9999640278
  0
LINE
  8
Layer2$C$L2
  6
DASHED
 62
     3
 10
-162.7048270531
 20
177.6508686917
 11
-161.7048270531
 21
177.6508686917
  0
LINE
  8
Layer2$C$L2
  6
DASHED
 62
     3
 10
-162.7048270531
 20
176.2023365872
 11
-161.7048270531
 21
176.2023365872
  0
LINE
  8
Layer1$C$L1
 62
     3
 10
-149.2054679223
 20
154.8279774563
 11
-149.2054679223
 21
172.6275074856
  0
LINE
  8
Layer2$C$L2
  6
DASHED
 62
     3
 10
-160.6548240014
 20
174.2280323879
 11
-160.6548240014
 21
166.9563038723
  0
LINE
  8
Layer2$C$L2
  6
DASHED
 62
     3
 10
-159.6548240014
 20
174.2280323879
 11
-159.6548240014
 21
166.9563038723
  0
LINE
  8
Layer2$C$L2
  6
DASHED
 62
     3
 10
-161.7048270531
 20
177.6508534329
 11
-161.7048270531
 21
166.9562733547
  0
LINE
  8
Layer2$C$L2
  6
DASHED
 62
     3
 10
-162.7048270531
 20
177.6508534329
 11
-162.7048270531
 21
166.9562733547
  0
LINE
  8
Layer2$C$L2
  6
DASHED
 62
     3
 10
-162.7048270531
 20
174.2280323879
 11
-168.4047934838
 21
174.2280323879
  0
LINE
  8
Layer2$C$L2
  6
DASHED
 62
     3
 10
-161.9048240014
 20
168.7248280422
 11
-161.9048240014
 21
167.7296955959
  0
LINE
  8
Layer2$C$L2
  6
DASHED
 62
     3
 10
-162.7048270531
 20
167.7297261135
 11
-161.7048270531
 21
167.7297261135
  0
LINE
  8
Layer2$C$L2
  6
DASHED
 62
     3
 10
-161.9048240014
 20
168.7248585598
 11
-161.7048270531
 21
168.7248585598
  0
LINE
  8
Layer2$C$L2
  6
DASHED
 62
     3
 10
-162.7048270531
 20
166.9563038723
 11
-158.9048392602
 21
166.9563038723
  0
LINE
  8
Layer2$C$L2
  6
DASHED
 62
     3
 10
-181.4048392602
 20
170.6280415432
 11
-181.4048392602
 21
154.8280537502
  0
LINE
  8
Layer2$C$L2
  6
DASHED
 62
     3
 10
-163.9048392602
 20
163.1280415432
 11
-163.9048392602
 21
153.2280476467
  0
LINE
  8
Layer2$C$L2
  6
DASHED
 62
     3
 10
-163.9047934838
 20
155.1280415432
 11
-168.2047812768
 21
155.1280415432
  0
LINE
  8
Layer2$C$L2
  6
DASHED
 62
     3
 10
-163.9047934838
 20
172.3280384915
 11
-168.2047812768
 21
172.3280384915
  0
LINE
  8
Layer2$C$L2
  6
DASHED
 62
     3
 10
-163.9048392602
 20
174.2280323879
 11
-163.9048392602
 21
164.3280384915
  0
LINE
  8
Layer2$C$L2
  6
DASHED
 62
     3
 10
-168.2048270531
 20
163.1280415432
 11
-168.2048270531
 21
153.2280476467
  0
LINE
  8
Layer2$C$L2
  6
DASHED
 62
     3
 10
-163.9048240014
 20
163.1280415432
 11
-168.2048117943
 21
163.1280415432
  0
LINE
  8
Layer2$C$L2
  6
DASHED
 62
     3
 10
-163.9048240014
 20
164.3280384915
 11
-168.2048117943
 21
164.3280384915
  0
LINE
  8
Layer2$C$L2
  6
DASHED
 62
     3
 10
-168.2048270531
 20
174.2280323879
 11
-168.2048270531
 21
164.3280384915
  0
LINE
  8
Layer2$C$L2
  6
DASHED
 62
     3
 10
-169.4048392602
 20
173.2280323879
 11
-169.4048392602
 21
154.2280934231
  0
LINE
  8
Layer2$C$L2
  6
DASHED
 62
     3
 10
-158.9048392602
 20
174.2280323879
 11
-158.9048392602
 21
153.2280476467
  0
LINE
  8
Layer2$C$L2
  6
DASHED
 62
     3
 10
-169.4047782250
 20
170.6280415432
 11
-181.4047782250
 21
170.6280415432
  0
LINE
  8
Layer2$C$L2
  6
DASHED
 62
     3
 10
-169.4047934838
 20
154.8280537502
 11
-181.4047934838
 21
154.8280537502
  0
LINE
  8
Layer1$C$L1
 62
     3
 10
-158.9048087426
 20
153.2280476467
 11
-168.4047934838
 21
153.2280476467
  0
LINE
  8
Layer2$C$L2
  6
DASHED
 62
     3
 10
-158.9048087426
 20
174.2280323879
 11
-161.7048270531
 21
174.2280323879
  0
LINE
  8
Layer2$C$L2
  6
DASHED
 62
     3
 10
-154.2048575707
 20
171.7279560940
 11
-158.1048514672
 21
171.7279560940
  0
LINE
  8
Layer2$C$L2
  6
DASHED
 62
     3
 10
-154.2048575707
 20
171.1279805081
 11
-158.4048392602
 21
171.1279805081
  0
LINE
  8
Layer2$C$L2
  6
DASHED
 62
     3
 10
-152.2049186059
 20
165.4204457180
 11
-152.2049186059
 21
164.3279927151
  0
LINE
  8
Layer2$C$L2
  6
DASHED
 62
     3
 10
-152.2049186059
 20
164.3279927151
 11
-149.2049186059
 21
164.3279927151
  0
LINE
  8
Layer2$C$L2
  6
DASHED
 62
     3
 10
-152.2049186059
 20
167.6482594387
 11
-152.2049186059
 21
166.6058094875
  0
LINE
  8
Layer2$C$L2
  6
DASHED
 62
     3
 10
-152.2049186059
 20
165.4204457180
 11
-149.2049186059
 21
165.4204457180
  0
LINE
  8
Layer2$C$L2
  6
DASHED
 62
     3
 10
-152.2049186059
 20
166.6058094875
 11
-149.2049186059
 21
166.6058094875
  0
LINE
  8
Layer2$C$L2
  6
DASHED
 62
     3
 10
-152.2049186059
 20
167.6482594387
 11
-149.2049186059
 21
167.6482594387
  0
LINE
  8
Layer2$C$L2
  6
DASHED
 62
     3
 10
-152.2049186059
 20
168.6874745266
 11
-152.2049186059
 21
169.5624897854
  0
LINE
  8
Layer2$C$L2
  6
DASHED
 62
     3
 10
-152.2049186059
 20
168.6874745266
 11
-149.2049186059
 21
168.6874745266
  0
LINE
  8
Layer2$C$L2
  6
DASHED
 62
     3
 10
-152.2049186059
 20
169.5624897854
 11
-149.2049186059
 21
169.5624897854
  0
LINE
  8
Layer2$C$L2
  6
DASHED
 62
     3
 10
-152.2049186059
 20
170.4311879055
 11
-149.2049186059
 21
170.4311879055
  0
LINE
  8
Layer2$C$L2
  6
DASHED
 62
     3
 10
-152.2049186059
 20
170.4311879055
 11
-152.2049186059
 21
171.1180775540
  0
LINE
  8
Layer2$C$L2
  6
DASHED
 62
     3
 10
-152.2049186059
 20
171.1180775540
 11
-149.2049186059
 21
171.1180775540
  0
LINE
  8
Layer2$C$L2
  6
DASHED
 62
     3
 10
-152.2049186059
 20
171.7180683987
 11
-149.2049186059
 21
171.7180683987
  0
LINE
  8
Layer2$C$L2
  6
DASHED
 62
     3
 10
-152.2048728295
 20
172.1411641018
 11
-152.2048728295
 21
171.7180531399
  0
LINE
  8
Layer2$C$L2
  6
DASHED
 62
     3
 10
-152.2049186059
 20
172.1411946194
 11
-149.2049186059
 21
172.1411946194
  0
LINE
  8
Layer2$C$L2
  6
DASHED
 62
     3
 10
-152.2049186059
 20
163.1279652493
 11
-152.2049186059
 21
162.0355122463
  0
LINE
  8
Layer2$C$L2
  6
DASHED
 62
     3
 10
-149.2049186059
 20
163.1279652493
 11
-152.2049186059
 21
163.1279652493
  0
LINE
  8
Layer2$C$L2
  6
DASHED
 62
     3
 10
-152.2049186059
 20
160.8501484768
 11
-152.2049186059
 21
159.8076985256
  0
LINE
  8
Layer2$C$L2
  6
DASHED
 62
     3
 10
-149.2049186059
 20
162.0355122463
 11
-152.2049186059
 21
162.0355122463
  0
LINE
  8
Layer2$C$L2
  6
DASHED
 62
     3
 10
-149.2049186059
 20
160.8501484768
 11
-152.2049186059
 21
160.8501484768
  0
LINE
  8
Layer2$C$L2
  6
DASHED
 62
     3
 10
-149.2049186059
 20
159.8076985256
 11
-152.2049186059
 21
159.8076985256
  0
LINE
  8
Layer2$C$L2
  6
DASHED
 62
     3
 10
-152.2049186059
 20
157.8934681790
 11
-152.2049186059
 21
158.7684834377
  0
LINE
  8
Layer2$C$L2
  6
DASHED
 62
     3
 10
-149.2049186059
 20
158.7684834377
 11
-152.2049186059
 21
158.7684834377
  0
LINE
  8
Layer2$C$L2
  6
DASHED
 62
     3
 10
-149.2049186059
 20
157.8934681790
 11
-152.2049186059
 21
157.8934681790
  0
LINE
  8
Layer2$C$L2
  6
DASHED
 62
     3
 10
-149.2049186059
 20
157.0247700588
 11
-152.2049186059
 21
157.0247700588
  0
LINE
  8
Layer2$C$L2
  6
DASHED
 62
     3
 10
-152.2049186059
 20
156.3378804104
 11
-152.2049186059
 21
157.0247700588
  0
LINE
  8
Layer2$C$L2
  6
DASHED
 62
     3
 10
-149.2049186059
 20
156.3378804104
 11
-152.2049186059
 21
156.3378804104
  0
LINE
  8
Layer2$C$L2
  6
DASHED
 62
     3
 10
-149.2049186059
 20
155.7378895657
 11
-152.2049186059
 21
155.7378895657
  0
LINE
  8
Layer2$C$L2
  6
DASHED
 62
     3
 10
-152.2049491234
 20
155.7378437893
 11
-152.2049491234
 21
155.3147328274
  0
LINE
  8
Layer2$C$L2
  6
DASHED
 62
     3
 10
-149.2049186059
 20
155.3147633450
 11
-152.2049186059
 21
155.3147633450
  0
LINE
  8
Layer2$C$L2
  6
DASHED
 62
     3
 10
-154.2049033471
 20
155.3488667385
 11
-153.0049063988
 21
155.3488667385
  0
LINE
  8
Layer2$C$L2
  6
DASHED
 62
     3
 10
-154.2049033471
 20
160.7279866116
 11
-154.2049033471
 21
155.3488667385
  0
LINE
  8
Layer2$C$L2
  6
DASHED
 62
     3
 10
-153.0049063988
 20
160.7279866116
 11
-154.2049033471
 21
160.7279866116
  0
LINE
  8
Layer2$C$L2
  6
DASHED
 62
     3
 10
-154.2049033471
 20
166.7279866116
 11
-153.0049063988
 21
166.7279866116
  0
LINE
  8
Layer2$C$L2
  6
DASHED
 62
     3
 10
-154.2049033471
 20
172.1071522610
 11
-154.2049033471
 21
166.7279866116
  0
LINE
  8
Layer2$C$L2
  6
DASHED
 62
     3
 10
-153.0049063988
 20
172.1071522610
 11
-154.2049033471
 21
172.1071522610
  0
LINE
  8
Layer2$C$L2
  6
DASHED
 62
     3
 10
-153.0049063988
 20
166.7279866116
 11
-153.0049063988
 21
160.7279866116
  0
LINE
  8
Layer2$C$L2
  6
DASHED
 62
     3
 10
-153.0049329904
 20
154.8279670632
 11
-153.0049177316
 21
155.3488563454
  0
LINE
  8
Layer2$C$L2
  6
DASHED
 62
     3
 10
-153.0049063988
 20
172.6279805081
 11
-153.0049063988
 21
172.1071522610
  0
LINE
  8
Layer2$C$L2
  6
DASHED
 62
     3
 10
-149.2049338646
 20
154.8279774563
 11
-153.0049216576
 21
154.8279774563
  0
LINE
  8
Layer1$C$L1
 62
     3
 10
-149.2049491234
 20
172.6279347317
 11
-149.2049491234
 21
154.8279469387
  0
LINE
  8
Layer2$C$L2
  6
DASHED
 62
     3
 10
-153.0049063988
 20
172.6279805081
 11
-149.2049186059
 21
172.6279805081
  0
LINE
  8
Layer2$C$L2
  6
DASHED
 62
     3
 10
-158.1048514672
 20
171.7279560940
 11
-158.1048514672
 21
155.7280476467
  0
LINE
  8
Layer2$C$L2
  6
DASHED
 62
     3
 10
-158.4048392602
 20
156.3280384915
 11
-154.2048423119
 21
156.3280384915
  0
LINE
  8
Layer2$C$L2
  6
DASHED
 62
     3
 10
-158.1048436433
 20
155.7279157742
 11
-158.4048442225
 21
156.3279174525
  0
LINE
  8
Layer2$C$L2
  6
DASHED
 62
     3
 10
-158.1048514672
 20
155.7280476467
 11
-154.2048423119
 21
155.7280476467
  0
LINE
  8
Layer2$C$L2
  6
DASHED
 62
     3
 10
-158.4049376022
 20
171.1277049339
 11
-158.1049029033
 21
171.7277748515
  0
LINE
  8
Layer2$C$L2
  6
DASHED
 62
     3
 10
-193.5777823754
 20
163.7280323879
 11
-132.9417655297
 21
163.7280323879
  0
LINE
  8
Layer2$C$L2
  6
DASHED
 62
     3
 10
-158.4048392602
 20
171.1279805081
 11
-158.4048392602
 21
156.3280384915
  0
LINE
  8
Layer2$C$L2
  6
DASHED
 62
     3
 10
-158.4048392602
 20
156.3780415432
 11
-158.9048240014
 21
156.3780415432
  0
LINE
  8
Layer2$C$L2
  6
DASHED
 62
     3
 10
-158.4048392602
 20
171.0779316799
 11
-158.9048240014
 21
171.0779316799
  0
ARC
  8
Layer2$C$L2
  6
DASHED
 62
     3
 10
-187.4048240014
 20
156.7280323879
 40
0.6000000000
 50
270.0000000000
 51
450.0000000000
  0
ARC
  8
Layer2$C$L2
  6
DASHED
 62
     3
 10
-188.8048240014
 20
156.7280323879
 40
0.6000000000
 50
90.0000000000
 51
270.0000000000
  0
LINE
  8
Layer2$C$L2
  6
DASHED
 62
     3
 10
-188.8048240014
 20
157.3280323879
 11
-187.4048240014
 21
157.3280323879
  0
LINE
  8
Layer2$C$L2
  6
DASHED
 62
     3
 10
-188.8048240014
 20
156.1280323879
 11
-187.4048240014
 21
156.1280323879
  0
LINE
  8
Layer2$C$L2
  6
DASHED
 62
     3
 10
-190.9048240014
 20
156.7280323879
 11
-185.6325588569
 21
156.7280323879
  0
LINE
  8
Layer2$C$L2
  6
DASHED
 62
     3
 10
-190.9048240014
 20
162.7280323879
 11
-185.6325588569
 21
162.7280323879
  0
LINE
  8
Layer2$C$L2
  6
DASHED
 62
     3
 10
-188.8048240014
 20
162.1280323879
 11
-187.4048240014
 21
162.1280323879
  0
LINE
  8
Layer2$C$L2
  6
DASHED
 62
     3
 10
-188.8048240014
 20
163.3280323879
 11
-187.4048240014
 21
163.3280323879
  0
ARC
  8
Layer2$C$L2
  6
DASHED
 62
     3
 10
-188.8048240014
 20
162.7280323879
 40
0.6000000000
 50
90.0000000000
 51
270.0000000000
  0
ARC
  8
Layer2$C$L2
  6
DASHED
 62
     3
 10
-187.4048240014
 20
162.7280323879
 40
0.6000000000
 50
270.0000000000
 51
450.0000000000
  0
ARC
  8
Layer2$C$L2
  6
DASHED
 62
     3
 10
-187.4048240014
 20
168.7280323879
 40
0.6000000000
 50
270.0000000000
 51
450.0000000000
  0
ARC
  8
Layer2$C$L2
  6
DASHED
 62
     3
 10
-188.8048240014
 20
168.7280323879
 40
0.6000000000
 50
90.0000000000
 51
270.0000000000
  0
LINE
  8
Layer2$C$L2
  6
DASHED
 62
     3
 10
-188.8048240014
 20
169.3280323879
 11
-187.4048240014
 21
169.3280323879
  0
LINE
  8
Layer2$C$L2
  6
DASHED
 62
     3
 10
-188.8048240014
 20
168.1280323879
 11
-187.4048240014
 21
168.1280323879
  0
LINE
  8
Layer2$C$L2
  6
DASHED
 62
     3
 10
-190.9048240014
 20
168.7280323879
 11
-185.6325588569
 21
168.7280323879
  0
LINE
  8
Layer2$C$L2
  6
DASHED
 62
     3
 10
-190.4048316871
 20
161.8280214610
 11
-189.9048311563
 21
161.3280209302
  0
LINE
  8
Layer2$C$L2
  6
DASHED
 62
     3
 10
-189.9047962132
 20
164.1279918908
 11
-190.4048000312
 21
163.6279730260
  0
LINE
  8
Layer2$C$L2
  6
DASHED
 62
     3
 10
-189.9048240014
 20
164.1280415432
 11
-181.4048240014
 21
164.1280415432
  0
LINE
  8
Layer2$C$L2
  6
DASHED
 62
     3
 10
-189.9048240014
 20
161.3280537502
 11
-181.4048240014
 21
161.3280537502
  0
LINE
  8
Layer2$C$L2
  6
DASHED
 62
     3
 10
-190.4048240014
 20
163.6280262844
 11
-190.4048240014
 21
161.8280537502
  0
LINE
  8
Layer2$C$L2
  6
DASHED
 62
     3
 10
-190.4048424767
 20
167.8280170410
 11
-189.9048419459
 21
167.3280165102
  0
LINE
  8
Layer2$C$L2
  6
DASHED
 62
     3
 10
-189.9048109645
 20
170.1279877248
 11
-190.4048147826
 21
169.6279688600
  0
LINE
  8
Layer2$C$L2
  6
DASHED
 62
     3
 10
-189.9048240014
 20
170.1280415432
 11
-181.4048240014
 21
170.1280415432
  0
LINE
  8
Layer2$C$L2
  6
DASHED
 62
     3
 10
-189.9048240014
 20
167.3280537502
 11
-181.4048240014
 21
167.3280537502
  0
LINE
  8
Layer2$C$L2
  6
DASHED
 62
     3
 10
-190.4048240014
 20
169.6280262844
 11
-190.4048240014
 21
167.8280537502
  0
LINE
  8
Layer2$C$L2
  6
DASHED
 62
     3
 10
-190.4048208975
 20
155.8280258811
 11
-189.9048203667
 21
155.3280253503
  0
LINE
  8
Layer2$C$L2
  6
DASHED
 62
     3
 10
-189.9047814618
 20
158.1279960569
 11
-190.4047852799
 21
157.6279771920
  0
LINE
  8
Layer2$C$L2
  6
DASHED
 62
     3
 10
-189.9048240014
 20
158.1280415432
 11
-181.4048240014
 21
158.1280415432
  0
LINE
  8
Layer2$C$L2
  6
DASHED
 62
     3
 10
-189.9048240014
 20
155.3280537502
 11
-181.4048240014
 21
155.3280537502
  0
LINE
  8
Layer2$C$L2
  6
DASHED
 62
     3
 10
-190.4048240014
 20
157.6280262844
 11
-190.4048240014
 21
155.8280537502
  0
ENDSEC
  0
EOF
