  0
SECTION
  2
HEADER
  9
$ACADVER
  1
AC1004
  9
$ANGBASE
 50
0.0000000000
  9
$ANGDIR
 70
     0
  9
$ATTDIA
 70
     0
  9
$ATTMODE
 70
     1
  9
$ATTREQ
 70
     1
  9
$AUNITS
 70
     0
  9
$AUPREC
 70
     0
  9
$AXISMODE
 70
     0
  9
$AXISUNIT
 10
0.0000000000
 20
0.0000000000
  9
$BLIPMODE
 70
     1
  9
$CECOLOR
 62
   256
  9
$CELTYPE
  6
BYLAYER
  9
$CHAMFERA
 40
0.0000000000
  9
$CHAMFERB
 40
0.0000000000
  9
$CLAYER
  8
0
  9
$COORDS
 70
     0
  9
$DIMALT
 70
     0
  9
$DIMALTD
 70
     2
  9
$DIMALTF
 40
25.4000000000
  9
$DIMAPOST
  1

  9
$DIMASO
 70
     1
  9
$DIMASZ
 40
1.9727878460
  9
$DIMBLK
  1

  9
$DIMBLK1
  1

  9
$DIMBLK2
  1

  9
$DIMCEN
 40
9.0000000000E-02
  9
$DIMDLE
 40
0.0000000000
  9
$DIMDLI
 40
0.3800000000
  9
$DIMEXE
 40
3.8099999428
  9
$DIMEXO
 40
2.5399999619
  9
$DIMLFAC
 40
1.0000000000
  9
$DIMLIM
 70
     0
  9
$DIMPOST
  1

  9
$DIMRND
 40
0.0000000000
  9
$DIMSCALE
 40
1.0000000000
  9
$DIMSE1
 70
     0
  9
$DIMSE2
 70
     0
  9
$DIMSHO
 70
     0
  9
$DIMTAD
 70
     0
  9
$DIMTIH
 70
     0
  9
$DIMTM
 40
0.0000000000
  9
$DIMTOH
 70
     1
  9
$DIMTOL
 70
     0
  9
$DIMTP
 40
0.0000000000
  9
$DIMTSZ
 40
0.0000000000
  9
$DIMTXT
 40
2.9999940395
  9
$DIMZIN
 70
     0
  9
$DRAGMODE
 70
     1
  9
$ELEVATION
 40
0.0000000000
  9
$EXTMAX
 10
3.1750000000
 20
293.1750000000
 30
0.0000000000
  9
$EXTMIN
 10
-183.1898925781
 20
-3.1750000000
 30
0.0000000000
  9
$FASTZOOM
 70
     1
  9
$FILLETRAD
 40
6.2500000000E-02
  9
$FILLMODE
 70
     1
  9
$GRIDMODE
 70
     0
  9
$GRIDUNIT
 10
0.0000000000
 20
0.0000000000
  9
$INSBASE
 10
0.0000000000
 20
0.0000000000
 30
0.0000000000
  9
$LIMCHECK
 70
     0
  9
$LIMMAX
 10
3.1750000000
 20
293.1750000000
  9
$LIMMIN
 10
-183.1898925781
 20
-3.1750000000
  9
$LTSCALE
 40
1.0000000000
  9
$LUNITS
 70
     2
  9
$LUPREC
 70
     3
  9
$MEASUREMENT
 70
     0
  9
$MENU
  1
ACAD
  9
$MIRRTEXT
 70
     0
  9
$ORTHOMODE
 70
     0
  9
$OSMODE
 70
     0
  9
$PDMODE
 70
     0
  9
$PDSIZE
 40
0.0000000000
  9
$PLINEWID
 40
0.0000000000
  9
$PROXYGRAPHICS
 70
     0
  9
$QTEXTMODE
 70
     0
  9
$REGENMODE
 70
     1
  9
$SKETCHINC
 40
0.1000000000
  9
$SKPOLY
 70
     0
  9
$SNAPANG
 50
0.0000000000
  9
$SNAPBASE
 10
0.0000000000
 20
0.0000000000
  9
$SNAPISOPAIR
 70
     0
  9
$SNAPMODE
 70
     0
  9
$SNAPSTYLE
 70
     0
  9
$SNAPUNIT
 10
1.0000000000
 20
1.0000000000
  9
$SPLFRAME
 70
     0
  9
$SPLINESEGS
 70
     8
  9
$TDCREATE
 40
2454707.6631713014
  9
$TDINDWG
 40
0.0000000000
  9
$TDUPDATE
 40
2454707.6631713014
  9
$TDUSRTIMER
 40
0.0000000000
  9
$TEXTSIZE
 40
2.9999940395
  9
$TEXTSTYLE
  7
STANDARD
  9
$THICKNESS
 40
0.0000000000
  9
$TRACEWID
 40
5.0000000000E-02
  9
$USERI1
 70
     0
  9
$USERI2
 70
     0
  9
$USERI3
 70
     0
  9
$USERI4
 70
     0
  9
$USERI5
 70
     0
  9
$USERR1
 40
0.0000000000
  9
$USERR2
 40
0.0000000000
  9
$USERR3
 40
0.0000000000
  9
$USERR4
 40
0.0000000000
  9
$USERR5
 40
0.0000000000
  9
$USRTIMER
 70
     1
  9
$VIEWCTR
 10
-90.0074462891
 20
145.0000000000
  9
$VIEWDIR
 10
0.0000000000
 20
0.0000000000
 30
1.0000000000
  9
$VIEWSIZE
 40
296.3500000000
  0
ENDSEC
  0
SECTION
  2
TABLES
  0
TABLE
  2
LTYPE
 70
     3
  0
LTYPE
  2
SOLID
  3
Solid
 70
    64
 72
    65
 73
     0
 40
0.0000000000
  0
LTYPE
  2
DASHED
  3
Dashed
 70
    64
 72
    65
 73
     2
 40
4.7625000000
 49
3.1750000000
 49
-1.5875000000
  0
LTYPE
  2
CENTER
  3
Center
 70
    64
 72
    65
 73
     4
 40
9.1000000238
 49
6.5000000000
 49
-0.8000000119
 49
1.0000000000
 49
-0.8000000119
  0
ENDTAB
  0
TABLE
  2
LAYER
 70
     5
  0
LAYER
  2
Layer0$C$L0
 70
     0
  6
SOLID
 62
     3
  0
LAYER
  2
Layer1$C$L1
 70
     0
  6
SOLID
 62
     3
  0
LAYER
  2
Layer2$C$L2
 70
     0
  6
SOLID
 62
     3
  0
LAYER
  2
Layer6$C$L6
 70
     0
  6
SOLID
 62
    31
  0
LAYER
  2
Layer8$C$L8
 70
     0
  6
SOLID
 62
     7
  0
ENDTAB
  0
TABLE
  2
STYLE
 70
     1
  0
STYLE
  2
STANDARD
  3
txt
  4

 40
0.0000000000
 41
1.0000000000
 42
2.9999940395
 50
0.0000000000
 70
     0
 71
     0
  0
ENDTAB
  0
ENDSEC
  0
SECTION
  2
BLOCKS
  0
ENDSEC
  0
SECTION
  2
ENTITIES
  0
TEXT
  8
Layer8$C$L8
 62
     5
 10
-35.1093470869
 20
6.5357658418
 40
2.9999941014
  1
MA4-H01825
 41
0.8594992950
 72
     5
 11
-11.9029117504
 21
6.5357658418
  0
TEXT
  8
Layer8$C$L8
 10
-34.7134966910
 20
18.0154273214
 40
2.9999941014
  1
LA9Z-DS7
 41
0.8796414482
 72
     5
 11
-16.2410625995
 21
18.0154273214
  0
POINT
  8
Layer0$C$L0
 62
     3
 10
-71.4166472323
 20
153.8419194075
  0
POINT
  8
Layer0$C$L0
 62
     3
 10
-113.8396842932
 20
153.7642873849
  0
POINT
  8
Layer0$C$L0
 62
     3
 10
-71.4166472323
 20
153.8419194075
  0
POINT
  8
Layer0$C$L0
 62
     3
 10
-71.4166472323
 20
191.7797405596
  0
POINT
  8
Layer0$C$L0
 62
     3
 10
-113.8396842932
 20
153.7642873849
  0
LINE
  8
Layer1$C$L1
  6
CENTER
 62
     3
 10
-118.8420564584
 20
153.8419194075
 11
-137.6420564584
 21
153.8419194075
  0
ARC
  8
Layer1$C$L1
 62
     3
 10
-134.6420564584
 20
143.5419194075
 40
1.0000000000
 50
180.0000000000
 51
270.0000000000
  0
ARC
  8
Layer1$C$L1
 62
     3
 10
-134.6420564584
 20
164.1419194075
 40
1.0000000000
 50
90.0000000000
 51
180.0000000000
  0
ARC
  8
Layer1$C$L1
 62
     3
 10
-133.8420564584
 20
144.1419194075
 40
0.3000000000
 50
180.0000000000
 51
270.0000000000
  0
ARC
  8
Layer1$C$L1
 62
     3
 10
-133.8420564584
 20
163.5419194075
 40
0.3000000000
 50
90.0000000000
 51
180.0000000000
  0
LINE
  8
Layer1$C$L1
 62
     3
 10
-135.6420564584
 20
143.5419194075
 11
-135.6420564584
 21
164.1419194075
  0
LINE
  8
Layer1$C$L1
 62
     3
 10
-134.8420564584
 20
164.3419194075
 11
-134.8420564584
 21
143.3419194075
  0
LINE
  8
Layer1$C$L1
 62
     3
 10
-134.1420564584
 20
144.1419194075
 11
-134.1420564584
 21
163.5419194075
  0
LINE
  8
Layer1$C$L1
 62
     3
 10
-125.8420564584
 20
165.1419194075
 11
-125.8420564584
 21
164.3419194075
  0
LINE
  8
Layer1$C$L1
 62
     3
 10
-125.8420564584
 20
165.1419194075
 11
-134.6420564584
 21
165.1419194075
  0
LINE
  8
Layer1$C$L1
 62
     3
 10
-125.8420564584
 20
164.3419194075
 11
-134.8420564584
 21
164.3419194075
  0
LINE
  8
Layer1$C$L1
 62
     3
 10
-125.8420564584
 20
143.3419194075
 11
-134.8420564584
 21
143.3419194075
  0
LINE
  8
Layer1$C$L1
 62
     3
 10
-125.8420564584
 20
143.3419194075
 11
-125.8420564584
 21
142.5419194075
  0
LINE
  8
Layer1$C$L1
 62
     3
 10
-125.8420564584
 20
142.5419194075
 11
-134.6420564584
 21
142.5419194075
  0
LINE
  8
Layer1$C$L1
 62
     3
 10
-124.8420564584
 20
143.8419194075
 11
-133.8420564584
 21
143.8419194075
  0
LINE
  8
Layer1$C$L1
 62
     3
 10
-124.8420564584
 20
163.8419194075
 11
-133.8420564584
 21
163.8419194075
  0
LINE
  8
Layer1$C$L1
 62
     3
 10
-122.6963483366
 20
166.4155675851
 11
-122.6963483366
 21
141.2682712298
  0
LINE
  8
Layer1$C$L1
 62
     3
 10
-124.8420564584
 20
167.3419194075
 11
-123.1987887877
 21
167.3419194075
  0
LINE
  8
Layer1$C$L1
 62
     3
 10
-124.8420564584
 20
167.2419194075
 11
-124.8420564584
 21
140.4419194075
  0
LINE
  8
Layer1$C$L1
 62
     3
 10
-124.8420564584
 20
140.3419194075
 11
-123.1987887877
 21
140.3419194075
  0
LINE
  8
Layer1$C$L1
 62
     3
 10
-122.2139810347
 20
141.1682712298
 11
-121.7715319497
 21
143.6775246817
  0
LINE
  8
Layer1$C$L1
 62
     3
 10
-121.5917137502
 20
163.7028944592
 11
-121.5917137502
 21
143.9809443558
  0
LINE
  8
Layer1$C$L1
 62
     3
 10
-120.8420564584
 20
162.1419194075
 11
-120.8420564584
 21
145.5419194075
  0
ARC
  8
Layer1$C$L1
 62
     3
 10
-122.8420564584
 20
162.1419194075
 40
2.0000000000
 50
2.0355549961E-13
 51
51.3052345053
  0
ARC
  8
Layer1$C$L1
 62
     3
 10
-122.8420564584
 20
145.5419194075
 40
2.0000000000
 50
308.6947654947
 51
360.0000000000
  0
ARC
  8
Layer1$C$L1
 62
     3
 10
-121.2791280732
 20
143.5907005929
 40
0.5000000000
 50
128.6947654946
 51
170.0000000000
  0
ARC
  8
Layer1$C$L1
 62
     3
 10
-121.2791280732
 20
164.0931382221
 40
0.5000000000
 50
190.0000000000
 51
231.3052345053
  0
ARC
  8
Layer1$C$L1
 62
     3
 10
-123.1987887877
 20
166.3419194075
 40
1.0000000000
 50
10.0000000000
 51
90.0000000000
  0
LINE
  8
Layer1$C$L1
 62
     3
 10
-122.2139810347
 20
166.5155675851
 11
-121.7715319497
 21
164.0063141333
  0
ARC
  8
Layer1$C$L1
 62
     3
 10
-123.1987887877
 20
141.3419194075
 40
1.0000000000
 50
270.0000000000
 51
350.0000000000
  0
ARC
  8
Layer2$C$L2
  6
DASHED
 62
     3
 10
-154.8419160776
 20
144.3419804426
 40
1.0000000000
 50
180.0000359722
 51
270.0000179861
  0
ARC
  8
Layer2$C$L2
  6
DASHED
 62
     3
 10
-154.8419160776
 20
163.3419651838
 40
1.0000000000
 50
89.9999820139
 51
179.9999640278
  0
LINE
  8
Layer2$C$L2
  6
DASHED
 62
     3
 10
-149.1419343881
 20
167.7647557112
 11
-148.1419343881
 21
167.7647557112
  0
LINE
  8
Layer2$C$L2
  6
DASHED
 62
     3
 10
-149.1419343881
 20
166.3162236067
 11
-148.1419343881
 21
166.3162236067
  0
LINE
  8
Layer1$C$L1
 62
     3
 10
-135.6425752573
 20
144.9418644758
 11
-135.6425752573
 21
162.7413945051
  0
LINE
  8
Layer2$C$L2
  6
DASHED
 62
     3
 10
-147.0919313364
 20
164.3419194075
 11
-147.0919313364
 21
157.0701908919
  0
LINE
  8
Layer2$C$L2
  6
DASHED
 62
     3
 10
-146.0919313364
 20
164.3419194075
 11
-146.0919313364
 21
157.0701908919
  0
LINE
  8
Layer2$C$L2
  6
DASHED
 62
     3
 10
-148.1419343881
 20
167.7647404524
 11
-148.1419343881
 21
157.0701603743
  0
LINE
  8
Layer2$C$L2
  6
DASHED
 62
     3
 10
-149.1419343881
 20
167.7647404524
 11
-149.1419343881
 21
157.0701603743
  0
LINE
  8
Layer2$C$L2
  6
DASHED
 62
     3
 10
-149.1419343881
 20
164.3419194075
 11
-154.8419008188
 21
164.3419194075
  0
LINE
  8
Layer2$C$L2
  6
DASHED
 62
     3
 10
-148.3419313364
 20
158.8387150618
 11
-148.3419313364
 21
157.8435826155
  0
LINE
  8
Layer2$C$L2
  6
DASHED
 62
     3
 10
-149.1419343881
 20
157.8436131331
 11
-148.1419343881
 21
157.8436131331
  0
LINE
  8
Layer2$C$L2
  6
DASHED
 62
     3
 10
-148.3419313364
 20
158.8387455794
 11
-148.1419343881
 21
158.8387455794
  0
LINE
  8
Layer2$C$L2
  6
DASHED
 62
     3
 10
-149.1419343881
 20
157.0701908919
 11
-145.3419465951
 21
157.0701908919
  0
LINE
  8
Layer2$C$L2
  6
DASHED
 62
     3
 10
-167.8419465951
 20
160.7419285627
 11
-167.8419465951
 21
144.9419407698
  0
LINE
  8
Layer2$C$L2
  6
DASHED
 62
     3
 10
-150.3419465951
 20
153.2419285627
 11
-150.3419465951
 21
143.3419346663
  0
LINE
  8
Layer2$C$L2
  6
DASHED
 62
     3
 10
-150.3419008188
 20
145.2419285627
 11
-154.6418886117
 21
145.2419285627
  0
LINE
  8
Layer2$C$L2
  6
DASHED
 62
     3
 10
-150.3419008188
 20
162.4419255110
 11
-154.6418886117
 21
162.4419255110
  0
LINE
  8
Layer2$C$L2
  6
DASHED
 62
     3
 10
-150.3419465951
 20
164.3419194075
 11
-150.3419465951
 21
154.4419255110
  0
LINE
  8
Layer2$C$L2
  6
DASHED
 62
     3
 10
-154.6419343881
 20
153.2419285627
 11
-154.6419343881
 21
143.3419346663
  0
LINE
  8
Layer2$C$L2
  6
DASHED
 62
     3
 10
-150.3419313364
 20
153.2419285627
 11
-154.6419191293
 21
153.2419285627
  0
LINE
  8
Layer2$C$L2
  6
DASHED
 62
     3
 10
-150.3419313364
 20
154.4419255110
 11
-154.6419191293
 21
154.4419255110
  0
LINE
  8
Layer2$C$L2
  6
DASHED
 62
     3
 10
-154.6419343881
 20
164.3419194075
 11
-154.6419343881
 21
154.4419255110
  0
LINE
  8
Layer2$C$L2
  6
DASHED
 62
     3
 10
-155.8419465951
 20
163.3419194075
 11
-155.8419465951
 21
144.3419804426
  0
LINE
  8
Layer2$C$L2
  6
DASHED
 62
     3
 10
-145.3419465951
 20
164.3419194075
 11
-145.3419465951
 21
143.3419346663
  0
LINE
  8
Layer2$C$L2
  6
DASHED
 62
     3
 10
-155.8418855600
 20
160.7419285627
 11
-167.8418855600
 21
160.7419285627
  0
LINE
  8
Layer2$C$L2
  6
DASHED
 62
     3
 10
-155.8419008188
 20
144.9419407698
 11
-167.8419008188
 21
144.9419407698
  0
LINE
  8
Layer1$C$L1
 62
     3
 10
-145.3419160776
 20
143.3419346663
 11
-154.8419008188
 21
143.3419346663
  0
LINE
  8
Layer2$C$L2
  6
DASHED
 62
     3
 10
-145.3419160776
 20
164.3419194075
 11
-148.1419343881
 21
164.3419194075
  0
LINE
  8
Layer2$C$L2
  6
DASHED
 62
     3
 10
-140.6419649057
 20
161.8418431135
 11
-144.5419588022
 21
161.8418431135
  0
LINE
  8
Layer2$C$L2
  6
DASHED
 62
     3
 10
-140.6419649057
 20
161.2418675276
 11
-144.8419465951
 21
161.2418675276
  0
LINE
  8
Layer2$C$L2
  6
DASHED
 62
     3
 10
-138.6420259408
 20
155.5343327376
 11
-138.6420259408
 21
154.4418797346
  0
LINE
  8
Layer2$C$L2
  6
DASHED
 62
     3
 10
-138.6420259408
 20
154.4418797346
 11
-135.6420259408
 21
154.4418797346
  0
LINE
  8
Layer2$C$L2
  6
DASHED
 62
     3
 10
-138.6420259408
 20
157.7621464583
 11
-138.6420259408
 21
156.7196965071
  0
LINE
  8
Layer2$C$L2
  6
DASHED
 62
     3
 10
-138.6420259408
 20
155.5343327376
 11
-135.6420259408
 21
155.5343327376
  0
LINE
  8
Layer2$C$L2
  6
DASHED
 62
     3
 10
-138.6420259408
 20
156.7196965071
 11
-135.6420259408
 21
156.7196965071
  0
LINE
  8
Layer2$C$L2
  6
DASHED
 62
     3
 10
-138.6420259408
 20
157.7621464583
 11
-135.6420259408
 21
157.7621464583
  0
LINE
  8
Layer2$C$L2
  6
DASHED
 62
     3
 10
-138.6420259408
 20
158.8013615461
 11
-138.6420259408
 21
159.6763768049
  0
LINE
  8
Layer2$C$L2
  6
DASHED
 62
     3
 10
-138.6420259408
 20
158.8013615461
 11
-135.6420259408
 21
158.8013615461
  0
LINE
  8
Layer2$C$L2
  6
DASHED
 62
     3
 10
-138.6420259408
 20
159.6763768049
 11
-135.6420259408
 21
159.6763768049
  0
LINE
  8
Layer2$C$L2
  6
DASHED
 62
     3
 10
-138.6420259408
 20
160.5450749251
 11
-135.6420259408
 21
160.5450749251
  0
LINE
  8
Layer2$C$L2
  6
DASHED
 62
     3
 10
-138.6420259408
 20
160.5450749251
 11
-138.6420259408
 21
161.2319645735
  0
LINE
  8
Layer2$C$L2
  6
DASHED
 62
     3
 10
-138.6420259408
 20
161.2319645735
 11
-135.6420259408
 21
161.2319645735
  0
LINE
  8
Layer2$C$L2
  6
DASHED
 62
     3
 10
-138.6420259408
 20
161.8319554182
 11
-135.6420259408
 21
161.8319554182
  0
LINE
  8
Layer2$C$L2
  6
DASHED
 62
     3
 10
-138.6419801645
 20
162.2550511213
 11
-138.6419801645
 21
161.8319401594
  0
LINE
  8
Layer2$C$L2
  6
DASHED
 62
     3
 10
-138.6420259408
 20
162.2550816389
 11
-135.6420259408
 21
162.2550816389
  0
LINE
  8
Layer2$C$L2
  6
DASHED
 62
     3
 10
-138.6420259408
 20
153.2418522688
 11
-138.6420259408
 21
152.1493992659
  0
LINE
  8
Layer2$C$L2
  6
DASHED
 62
     3
 10
-135.6420259408
 20
153.2418522688
 11
-138.6420259408
 21
153.2418522688
  0
LINE
  8
Layer2$C$L2
  6
DASHED
 62
     3
 10
-138.6420259408
 20
150.9640354963
 11
-138.6420259408
 21
149.9215855452
  0
LINE
  8
Layer2$C$L2
  6
DASHED
 62
     3
 10
-135.6420259408
 20
152.1493992659
 11
-138.6420259408
 21
152.1493992659
  0
LINE
  8
Layer2$C$L2
  6
DASHED
 62
     3
 10
-135.6420259408
 20
150.9640354963
 11
-138.6420259408
 21
150.9640354963
  0
LINE
  8
Layer2$C$L2
  6
DASHED
 62
     3
 10
-135.6420259408
 20
149.9215855452
 11
-138.6420259408
 21
149.9215855452
  0
LINE
  8
Layer2$C$L2
  6
DASHED
 62
     3
 10
-138.6420259408
 20
148.0073551985
 11
-138.6420259408
 21
148.8823704573
  0
LINE
  8
Layer2$C$L2
  6
DASHED
 62
     3
 10
-135.6420259408
 20
148.8823704573
 11
-138.6420259408
 21
148.8823704573
  0
LINE
  8
Layer2$C$L2
  6
DASHED
 62
     3
 10
-135.6420259408
 20
148.0073551985
 11
-138.6420259408
 21
148.0073551985
  0
LINE
  8
Layer2$C$L2
  6
DASHED
 62
     3
 10
-135.6420259408
 20
147.1386570784
 11
-138.6420259408
 21
147.1386570784
  0
LINE
  8
Layer2$C$L2
  6
DASHED
 62
     3
 10
-138.6420259408
 20
146.4517674299
 11
-138.6420259408
 21
147.1386570784
  0
LINE
  8
Layer2$C$L2
  6
DASHED
 62
     3
 10
-135.6420259408
 20
146.4517674299
 11
-138.6420259408
 21
146.4517674299
  0
LINE
  8
Layer2$C$L2
  6
DASHED
 62
     3
 10
-135.6420259408
 20
145.8517765852
 11
-138.6420259408
 21
145.8517765852
  0
LINE
  8
Layer2$C$L2
  6
DASHED
 62
     3
 10
-138.6420564584
 20
145.8517308088
 11
-138.6420564584
 21
145.4286198469
  0
LINE
  8
Layer2$C$L2
  6
DASHED
 62
     3
 10
-135.6420259408
 20
145.4286503645
 11
-138.6420259408
 21
145.4286503645
  0
LINE
  8
Layer2$C$L2
  6
DASHED
 62
     3
 10
-140.6420106821
 20
145.4627537581
 11
-139.4420137338
 21
145.4627537581
  0
LINE
  8
Layer2$C$L2
  6
DASHED
 62
     3
 10
-140.6420106821
 20
150.8418736311
 11
-140.6420106821
 21
145.4627537581
  0
LINE
  8
Layer2$C$L2
  6
DASHED
 62
     3
 10
-139.4420137338
 20
150.8418736311
 11
-140.6420106821
 21
150.8418736311
  0
LINE
  8
Layer2$C$L2
  6
DASHED
 62
     3
 10
-140.6420106821
 20
156.8418736311
 11
-139.4420137338
 21
156.8418736311
  0
LINE
  8
Layer2$C$L2
  6
DASHED
 62
     3
 10
-140.6420106821
 20
162.2210392805
 11
-140.6420106821
 21
156.8418736311
  0
LINE
  8
Layer2$C$L2
  6
DASHED
 62
     3
 10
-139.4420137338
 20
162.2210392805
 11
-140.6420106821
 21
162.2210392805
  0
LINE
  8
Layer2$C$L2
  6
DASHED
 62
     3
 10
-139.4420137338
 20
156.8418736311
 11
-139.4420137338
 21
150.8418736311
  0
LINE
  8
Layer2$C$L2
  6
DASHED
 62
     3
 10
-139.4420403254
 20
144.9418540827
 11
-139.4420250666
 21
145.4627433649
  0
LINE
  8
Layer2$C$L2
  6
DASHED
 62
     3
 10
-139.4420137338
 20
162.7418675276
 11
-139.4420137338
 21
162.2210392805
  0
LINE
  8
Layer2$C$L2
  6
DASHED
 62
     3
 10
-135.6420411996
 20
144.9418644758
 11
-139.4420289926
 21
144.9418644758
  0
LINE
  8
Layer1$C$L1
 62
     3
 10
-135.6420564584
 20
162.7418217512
 11
-135.6420564584
 21
144.9418339583
  0
LINE
  8
Layer2$C$L2
  6
DASHED
 62
     3
 10
-139.4420137338
 20
162.7418675276
 11
-135.6420259408
 21
162.7418675276
  0
LINE
  8
Layer2$C$L2
  6
DASHED
 62
     3
 10
-144.5419588022
 20
161.8418431135
 11
-144.5419588022
 21
145.8419346663
  0
LINE
  8
Layer2$C$L2
  6
DASHED
 62
     3
 10
-144.8419465951
 20
146.4419255110
 11
-140.6419496469
 21
146.4419255110
  0
LINE
  8
Layer2$C$L2
  6
DASHED
 62
     3
 10
-144.5419509783
 20
145.8418027937
 11
-144.8419515575
 21
146.4418044720
  0
LINE
  8
Layer2$C$L2
  6
DASHED
 62
     3
 10
-144.5419588022
 20
145.8419346663
 11
-140.6419496469
 21
145.8419346663
  0
LINE
  8
Layer2$C$L2
  6
DASHED
 62
     3
 10
-144.8420449372
 20
161.2415919534
 11
-144.5420102383
 21
161.8416618711
  0
LINE
  8
Layer2$C$L2
  6
DASHED
 62
     3
 10
-180.0148897104
 20
153.8419194075
 11
-119.3788728647
 21
153.8419194075
  0
LINE
  8
Layer2$C$L2
  6
DASHED
 62
     3
 10
-144.8419465951
 20
161.2418675276
 11
-144.8419465951
 21
146.4419255110
  0
LINE
  8
Layer2$C$L2
  6
DASHED
 62
     3
 10
-144.8419465951
 20
146.4919285627
 11
-145.3419313364
 21
146.4919285627
  0
LINE
  8
Layer2$C$L2
  6
DASHED
 62
     3
 10
-144.8419465951
 20
161.1918186995
 11
-145.3419313364
 21
161.1918186995
  0
ARC
  8
Layer2$C$L2
  6
DASHED
 62
     3
 10
-173.8419313364
 20
146.8419194075
 40
0.6000000000
 50
270.0000000000
 51
450.0000000000
  0
ARC
  8
Layer2$C$L2
  6
DASHED
 62
     3
 10
-175.2419313364
 20
146.8419194075
 40
0.6000000000
 50
90.0000000000
 51
270.0000000000
  0
LINE
  8
Layer2$C$L2
  6
DASHED
 62
     3
 10
-175.2419313364
 20
147.4419194075
 11
-173.8419313364
 21
147.4419194075
  0
LINE
  8
Layer2$C$L2
  6
DASHED
 62
     3
 10
-175.2419313364
 20
146.2419194075
 11
-173.8419313364
 21
146.2419194075
  0
LINE
  8
Layer2$C$L2
  6
DASHED
 62
     3
 10
-177.3419313364
 20
146.8419194075
 11
-172.0696661919
 21
146.8419194075
  0
LINE
  8
Layer2$C$L2
  6
DASHED
 62
     3
 10
-177.3419313364
 20
152.8419194075
 11
-172.0696661919
 21
152.8419194075
  0
LINE
  8
Layer2$C$L2
  6
DASHED
 62
     3
 10
-175.2419313364
 20
152.2419194075
 11
-173.8419313364
 21
152.2419194075
  0
LINE
  8
Layer2$C$L2
  6
DASHED
 62
     3
 10
-175.2419313364
 20
153.4419194075
 11
-173.8419313364
 21
153.4419194075
  0
ARC
  8
Layer2$C$L2
  6
DASHED
 62
     3
 10
-175.2419313364
 20
152.8419194075
 40
0.6000000000
 50
90.0000000000
 51
270.0000000000
  0
ARC
  8
Layer2$C$L2
  6
DASHED
 62
     3
 10
-173.8419313364
 20
152.8419194075
 40
0.6000000000
 50
270.0000000000
 51
450.0000000000
  0
ARC
  8
Layer2$C$L2
  6
DASHED
 62
     3
 10
-173.8419313364
 20
158.8419194075
 40
0.6000000000
 50
270.0000000000
 51
450.0000000000
  0
ARC
  8
Layer2$C$L2
  6
DASHED
 62
     3
 10
-175.2419313364
 20
158.8419194075
 40
0.6000000000
 50
90.0000000000
 51
270.0000000000
  0
LINE
  8
Layer2$C$L2
  6
DASHED
 62
     3
 10
-175.2419313364
 20
159.4419194075
 11
-173.8419313364
 21
159.4419194075
  0
LINE
  8
Layer2$C$L2
  6
DASHED
 62
     3
 10
-175.2419313364
 20
158.2419194075
 11
-173.8419313364
 21
158.2419194075
  0
LINE
  8
Layer2$C$L2
  6
DASHED
 62
     3
 10
-177.3419313364
 20
158.8419194075
 11
-172.0696661919
 21
158.8419194075
  0
LINE
  8
Layer2$C$L2
  6
DASHED
 62
     3
 10
-176.8419390221
 20
151.9419084805
 11
-176.3419384913
 21
151.4419079498
  0
LINE
  8
Layer2$C$L2
  6
DASHED
 62
     3
 10
-176.3419035481
 20
154.2418789104
 11
-176.8419073662
 21
153.7418600455
  0
LINE
  8
Layer2$C$L2
  6
DASHED
 62
     3
 10
-176.3419313364
 20
154.2419285627
 11
-167.8419313364
 21
154.2419285627
  0
LINE
  8
Layer2$C$L2
  6
DASHED
 62
     3
 10
-176.3419313364
 20
151.4419407698
 11
-167.8419313364
 21
151.4419407698
  0
LINE
  8
Layer2$C$L2
  6
DASHED
 62
     3
 10
-176.8419313364
 20
153.7419133040
 11
-176.8419313364
 21
151.9419407698
  0
LINE
  8
Layer2$C$L2
  6
DASHED
 62
     3
 10
-176.8419498117
 20
157.9419040605
 11
-176.3419492809
 21
157.4419035297
  0
LINE
  8
Layer2$C$L2
  6
DASHED
 62
     3
 10
-176.3419182995
 20
160.2418747443
 11
-176.8419221176
 21
159.7418558795
  0
LINE
  8
Layer2$C$L2
  6
DASHED
 62
     3
 10
-176.3419313364
 20
160.2419285627
 11
-167.8419313364
 21
160.2419285627
  0
LINE
  8
Layer2$C$L2
  6
DASHED
 62
     3
 10
-176.3419313364
 20
157.4419407698
 11
-167.8419313364
 21
157.4419407698
  0
LINE
  8
Layer2$C$L2
  6
DASHED
 62
     3
 10
-176.8419313364
 20
159.7419133040
 11
-176.8419313364
 21
157.9419407698
  0
LINE
  8
Layer2$C$L2
  6
DASHED
 62
     3
 10
-176.8419282325
 20
145.9419129006
 11
-176.3419277017
 21
145.4419123698
  0
LINE
  8
Layer2$C$L2
  6
DASHED
 62
     3
 10
-176.3418887968
 20
148.2418830764
 11
-176.8418926149
 21
147.7418642116
  0
LINE
  8
Layer2$C$L2
  6
DASHED
 62
     3
 10
-176.3419313364
 20
148.2419285627
 11
-167.8419313364
 21
148.2419285627
  0
LINE
  8
Layer2$C$L2
  6
DASHED
 62
     3
 10
-176.3419313364
 20
145.4419407698
 11
-167.8419313364
 21
145.4419407698
  0
LINE
  8
Layer2$C$L2
  6
DASHED
 62
     3
 10
-176.8419313364
 20
147.7419133040
 11
-176.8419313364
 21
145.9419407698
  0
LINE
  8
Layer1$C$L1
  6
CENTER
 62
     3
 10
-100.3396842932
 20
138.3642873849
 11
-100.3396842932
 21
169.1642873849
  0
LINE
  8
Layer1$C$L1
  6
CENTER
 62
     3
 10
-84.9396842932
 20
153.7642873849
 11
-115.7396842932
 21
153.7642873849
  0
LINE
  8
Layer1$C$L1
  6
CENTER
 62
     3
 10
-54.6166472323
 20
153.8419194075
 11
-73.4166472323
 21
153.8419194075
  0
LINE
  8
Layer1$C$L1
  6
CENTER
 62
     3
 10
-52.6166472323
 20
191.7797405596
 11
-75.4166472323
 21
191.7797405596
  0
ARC
  8
Layer1$C$L1
 62
     3
 10
-70.4166472323
 20
143.5419194075
 40
1.0000000000
 50
180.0000000000
 51
270.0000000000
  0
ARC
  8
Layer1$C$L1
 62
     3
 10
-70.4166472323
 20
164.1419194075
 40
1.0000000000
 50
90.0000000000
 51
180.0000000000
  0
ARC
  8
Layer1$C$L1
 62
     3
 10
-69.6166472323
 20
144.1419194075
 40
0.3000000000
 50
180.0000000000
 51
270.0000000000
  0
ARC
  8
Layer1$C$L1
 62
     3
 10
-69.6166472323
 20
163.5419194075
 40
0.3000000000
 50
90.0000000000
 51
180.0000000000
  0
LINE
  8
Layer1$C$L1
 62
     3
 10
-71.4166472323
 20
143.5419194075
 11
-71.4166472323
 21
164.1419194075
  0
LINE
  8
Layer1$C$L1
 62
     3
 10
-70.6166472323
 20
164.3419194075
 11
-70.6166472323
 21
143.3419194075
  0
LINE
  8
Layer1$C$L1
 62
     3
 10
-69.9166472323
 20
144.1419194075
 11
-69.9166472323
 21
163.5419194075
  0
LINE
  8
Layer1$C$L1
 62
     3
 10
-61.6166472323
 20
165.1419194075
 11
-61.6166472323
 21
164.3419194075
  0
LINE
  8
Layer1$C$L1
 62
     3
 10
-61.6166472323
 20
165.1419194075
 11
-70.4166472323
 21
165.1419194075
  0
LINE
  8
Layer1$C$L1
 62
     3
 10
-61.6166472323
 20
143.3419194075
 11
-70.6166472323
 21
143.3419194075
  0
LINE
  8
Layer1$C$L1
 62
     3
 10
-61.6166472323
 20
143.3419194075
 11
-61.6166472323
 21
142.5419194075
  0
LINE
  8
Layer1$C$L1
 62
     3
 10
-61.6166472323
 20
142.5419194075
 11
-70.4166472323
 21
142.5419194075
  0
LINE
  8
Layer1$C$L1
 62
     3
 10
-60.6166472323
 20
143.8419194075
 11
-69.6166472323
 21
143.8419194075
  0
LINE
  8
Layer1$C$L1
 62
     3
 10
-60.6166472323
 20
163.8419194075
 11
-69.6166472323
 21
163.8419194075
  0
ARC
  8
Layer1$C$L1
 62
     3
 10
-62.9198726051
 20
181.2797405596
 40
1.0000000000
 50
270.0000000000
 51
345.0000000000
  0
ARC
  8
Layer1$C$L1
 62
     3
 10
-61.6166472323
 20
186.1434438648
 40
1.0000000000
 50
180.0000000000
 51
195.0000000000
  0
ARC
  8
Layer1$C$L1
 62
     3
 10
-61.6166472323
 20
197.4160372544
 40
1.0000000000
 50
165.0000000000
 51
180.0000000000
  0
ARC
  8
Layer1$C$L1
 62
     3
 10
-62.9198726051
 20
202.2797405596
 40
1.0000000000
 50
15.0000000000
 51
90.0000000000
  0
LINE
  8
Layer1$C$L1
 62
     3
 10
-62.9198726051
 20
180.2797405596
 11
-71.4166472323
 21
180.2797405596
  0
LINE
  8
Layer1$C$L1
 62
     3
 10
-60.6166472323
 20
181.7797405596
 11
-61.7506218285
 21
181.7797405596
  0
LINE
  8
Layer1$C$L1
 62
     3
 10
-61.6166472323
 20
182.2797405596
 11
-61.9539467788
 21
181.0209215145
  0
LINE
  8
Layer1$C$L1
 62
     3
 10
-62.5825730586
 20
185.8846248197
 11
-61.6166472323
 21
182.2797405596
  0
LINE
  8
Layer1$C$L1
 62
     3
 10
-62.6166472323
 20
197.4160372544
 11
-62.6166472323
 21
186.1434438648
  0
LINE
  8
Layer1$C$L1
 62
     3
 10
-61.6166472323
 20
201.2797405596
 11
-62.5825730586
 21
197.6748562995
  0
LINE
  8
Layer1$C$L1
 62
     3
 10
-61.7506218285
 20
201.7797405596
 11
-60.6166472323
 21
201.7797405596
  0
LINE
  8
Layer1$C$L1
 62
     3
 10
-61.9539467788
 20
202.5385596047
 11
-61.6166472323
 21
201.2797405596
  0
LINE
  8
Layer1$C$L1
 62
     3
 10
-71.4166472323
 20
203.2797405596
 11
-71.4166472323
 21
180.2797405596
  0
LINE
  8
Layer1$C$L1
 62
     3
 10
-71.4166472323
 20
203.2797405596
 11
-62.9198726051
 21
203.2797405596
  0
LINE
  8
Layer1$C$L1
 62
     3
 10
-61.6166472323
 20
164.3419194075
 11
-70.6166472323
 21
164.3419194075
  0
POLYLINE
  8
Layer1$C$L1
 62
     3
 66
     1
  0
VERTEX
  8
Layer1$C$L1
 62
     3
 10
-92.1396842932
 20
143.9033123332
  0
VERTEX
  8
Layer1$C$L1
 62
     3
 10
-91.6279548870
 20
143.9982066331
  0
VERTEX
  8
Layer1$C$L1
 62
     3
 10
-91.2244829411
 20
144.2365874628
  0
VERTEX
  8
Layer1$C$L1
 62
     3
 10
-91.0224361684
 20
144.4470392601
  0
SEQEND
  8
Layer1$C$L1
 62
     3
  0
POLYLINE
  8
Layer1$C$L1
 62
     3
 66
     1
  0
VERTEX
  8
Layer1$C$L1
 62
     3
 10
-110.2006593449
 20
145.5642873849
  0
VERTEX
  8
Layer1$C$L1
 62
     3
 10
-110.1057650449
 20
145.0525579787
  0
VERTEX
  8
Layer1$C$L1
 62
     3
 10
-109.8673842152
 20
144.6490860328
  0
VERTEX
  8
Layer1$C$L1
 62
     3
 10
-109.6569324179
 20
144.4470392601
  0
SEQEND
  8
Layer1$C$L1
 62
     3
  0
POLYLINE
  8
Layer1$C$L1
 62
     3
 66
     1
  0
VERTEX
  8
Layer1$C$L1
 62
     3
 10
-108.5396842932
 20
163.6252624366
  0
VERTEX
  8
Layer1$C$L1
 62
     3
 10
-109.0514136994
 20
163.5303681366
  0
VERTEX
  8
Layer1$C$L1
 62
     3
 10
-109.4548856453
 20
163.2919873069
  0
VERTEX
  8
Layer1$C$L1
 62
     3
 10
-109.6569324179
 20
163.0815355096
  0
SEQEND
  8
Layer1$C$L1
 62
     3
  0
POLYLINE
  8
Layer1$C$L1
 62
     3
 66
     1
  0
VERTEX
  8
Layer1$C$L1
 62
     3
 10
-90.4787092415
 20
161.9642873849
  0
VERTEX
  8
Layer1$C$L1
 62
     3
 10
-90.5736035414
 20
162.4760167911
  0
VERTEX
  8
Layer1$C$L1
 62
     3
 10
-90.8119843712
 20
162.8794887370
  0
VERTEX
  8
Layer1$C$L1
 62
     3
 10
-91.0224361684
 20
163.0815355096
  0
SEQEND
  8
Layer1$C$L1
 62
     3
  0
POLYLINE
  8
Layer1$C$L1
 62
     3
 66
     1
  0
VERTEX
  8
Layer1$C$L1
 62
     3
 10
-91.0224361684
 20
144.4470392601
  0
VERTEX
  8
Layer1$C$L1
 62
     3
 10
-90.8122759384
 20
144.6487406760
  0
VERTEX
  8
Layer1$C$L1
 62
     3
 10
-90.5733485918
 20
145.0532214710
  0
VERTEX
  8
Layer1$C$L1
 62
     3
 10
-90.4836749018
 20
145.4452726363
  0
VERTEX
  8
Layer1$C$L1
 62
     3
 10
-90.4787092415
 20
145.5642873849
  0
SEQEND
  8
Layer1$C$L1
 62
     3
  0
POLYLINE
  8
Layer1$C$L1
 62
     3
 66
     1
  0
VERTEX
  8
Layer1$C$L1
 62
     3
 10
-109.6569324179
 20
144.4470392601
  0
VERTEX
  8
Layer1$C$L1
 62
     3
 10
-109.4552310021
 20
144.2368790301
  0
VERTEX
  8
Layer1$C$L1
 62
     3
 10
-109.0507502071
 20
143.9979516835
  0
VERTEX
  8
Layer1$C$L1
 62
     3
 10
-108.6586990417
 20
143.9082779934
  0
VERTEX
  8
Layer1$C$L1
 62
     3
 10
-108.5396842932
 20
143.9033123332
  0
SEQEND
  8
Layer1$C$L1
 62
     3
  0
POLYLINE
  8
Layer1$C$L1
 62
     3
 66
     1
  0
VERTEX
  8
Layer1$C$L1
 62
     3
 10
-109.6569324179
 20
163.0815355096
  0
VERTEX
  8
Layer1$C$L1
 62
     3
 10
-109.8670926480
 20
162.8798340937
  0
VERTEX
  8
Layer1$C$L1
 62
     3
 10
-110.1060199946
 20
162.4753532988
  0
VERTEX
  8
Layer1$C$L1
 62
     3
 10
-110.1956936846
 20
162.0833021334
  0
VERTEX
  8
Layer1$C$L1
 62
     3
 10
-110.2006593449
 20
161.9642873849
  0
SEQEND
  8
Layer1$C$L1
 62
     3
  0
POLYLINE
  8
Layer1$C$L1
 62
     3
 66
     1
  0
VERTEX
  8
Layer1$C$L1
 62
     3
 10
-91.0224361684
 20
163.0815355096
  0
VERTEX
  8
Layer1$C$L1
 62
     3
 10
-91.2241375843
 20
163.2916957397
  0
VERTEX
  8
Layer1$C$L1
 62
     3
 10
-91.6286183793
 20
163.5306230863
  0
VERTEX
  8
Layer1$C$L1
 62
     3
 10
-92.0206695446
 20
163.6202967763
  0
VERTEX
  8
Layer1$C$L1
 62
     3
 10
-92.1396842932
 20
163.6252624366
  0
SEQEND
  8
Layer1$C$L1
 62
     3
  0
LINE
  8
Layer1$C$L1
 62
     3
 10
-113.8396842932
 20
142.2642873849
 11
-113.8396842932
 21
165.2642873849
  0
LINE
  8
Layer1$C$L1
 62
     3
 10
-113.2538978556
 20
140.8500738225
 11
-109.6569324179
 21
144.4470392601
  0
LINE
  8
Layer1$C$L1
 62
     3
 10
-113.2538978556
 20
166.6785009472
 11
-109.6569324179
 21
163.0815355096
  0
LINE
  8
Layer1$C$L1
 62
     3
 10
-111.8396842932
 20
167.2642873849
 11
-88.8396842932
 21
167.2642873849
  0
LINE
  8
Layer1$C$L1
 62
     3
 10
-111.8396842932
 20
140.2642873849
 11
-88.8396842932
 21
140.2642873849
  0
LINE
  8
Layer1$C$L1
 62
     3
 10
-110.2006593449
 20
161.9642873849
 11
-110.2006593449
 21
145.5642873849
  0
LINE
  8
Layer1$C$L1
 62
     3
 10
-108.5396842932
 20
143.9033123332
 11
-92.1396842932
 21
143.9033123332
  0
LINE
  8
Layer1$C$L1
 62
     3
 10
-108.5396842932
 20
163.6252624366
 11
-92.1396842932
 21
163.6252624366
  0
LINE
  8
Layer1$C$L1
 62
     3
 10
-107.0396842932
 20
159.5642873849
 11
-107.0396842932
 21
147.9642873849
  0
LINE
  8
Layer1$C$L1
 62
     3
 10
-106.6396842932
 20
159.5642873849
 11
-106.6396842932
 21
147.9642873849
  0
LINE
  8
Layer1$C$L1
 62
     3
 10
-106.1396842932
 20
160.4642873849
 11
-94.5396842932
 21
160.4642873849
  0
LINE
  8
Layer1$C$L1
 62
     3
 10
-106.1396842932
 20
160.0642873849
 11
-94.5396842932
 21
160.0642873849
  0
LINE
  8
Layer1$C$L1
 62
     3
 10
-106.1396842932
 20
147.4642873849
 11
-94.5396842932
 21
147.4642873849
  0
LINE
  8
Layer1$C$L1
 62
     3
 10
-106.1396842932
 20
147.0642873849
 11
-94.5396842932
 21
147.0642873849
  0
LINE
  8
Layer1$C$L1
 62
     3
 10
-94.0396842932
 20
159.5642873849
 11
-94.0396842932
 21
147.9642873849
  0
LINE
  8
Layer1$C$L1
 62
     3
 10
-93.6396842932
 20
159.5642873849
 11
-93.6396842932
 21
147.9642873849
  0
LINE
  8
Layer1$C$L1
 62
     3
 10
-91.0224361684
 20
163.0815355096
 11
-87.4254707308
 21
166.6785009472
  0
LINE
  8
Layer1$C$L1
 62
     3
 10
-91.0224361684
 20
144.4470392601
 11
-87.4254707308
 21
140.8500738225
  0
LINE
  8
Layer1$C$L1
 62
     3
 10
-90.4787092415
 20
161.9642873849
 11
-90.4787092415
 21
145.5642873849
  0
LINE
  8
Layer1$C$L1
 62
     3
 10
-86.8396842932
 20
165.2642873849
 11
-86.8396842932
 21
142.2642873849
  0
ARC
  8
Layer1$C$L1
 62
     3
 10
-106.1396842932
 20
159.5642873849
 40
0.9000000000
 50
90.0000000000
 51
180.0000000000
  0
ARC
  8
Layer1$C$L1
 62
     3
 10
-106.1396842932
 20
147.9642873849
 40
0.5000000000
 50
180.0000000000
 51
270.0000000000
  0
ARC
  8
Layer1$C$L1
 62
     3
 10
-106.1396842932
 20
159.5642873849
 40
0.5000000000
 50
90.0000000000
 51
180.0000000000
  0
ARC
  8
Layer1$C$L1
 62
     3
 10
-106.1396842932
 20
147.9642873849
 40
0.9000000000
 50
180.0000000000
 51
270.0000000000
  0
ARC
  8
Layer1$C$L1
 62
     3
 10
-94.5396842932
 20
147.9642873849
 40
0.5000000000
 50
270.0000000000
 51
360.0000000000
  0
ARC
  8
Layer1$C$L1
 62
     3
 10
-94.5396842932
 20
159.5642873849
 40
0.9000000000
 50
2.2617277735E-13
 51
90.0000000000
  0
ARC
  8
Layer1$C$L1
 62
     3
 10
-94.5396842932
 20
159.5642873849
 40
0.5000000000
 50
1.0177774981E-13
 51
90.0000000000
  0
ARC
  8
Layer1$C$L1
 62
     3
 10
-94.5396842932
 20
147.9642873849
 40
0.9000000000
 50
270.0000000000
 51
360.0000000000
  0
ARC
  8
Layer1$C$L1
 62
     3
 10
-111.8396842932
 20
165.2642873849
 40
2.0000000000
 50
90.0000000000
 51
180.0000000000
  0
ARC
  8
Layer1$C$L1
 62
     3
 10
-88.8396842932
 20
165.2642873849
 40
2.0000000000
 50
0.0000000000
 51
90.0000000000
  0
ARC
  8
Layer1$C$L1
 62
     3
 10
-88.8396842932
 20
142.2642873849
 40
2.0000000000
 50
270.0000000000
 51
360.0000000000
  0
ARC
  8
Layer1$C$L1
 62
     3
 10
-111.8396842932
 20
142.2642873849
 40
2.0000000000
 50
180.0000000000
 51
270.0000000000
  0
ARC
  8
Layer1$C$L1
 62
     3
 10
-58.9733795615
 20
141.3419194075
 40
1.0000000000
 50
270.0000000000
 51
350.0000000000
  0
LINE
  8
Layer1$C$L1
 62
     3
 10
-57.9885718085
 20
166.5155675851
 11
-57.5461227235
 21
164.0063141333
  0
ARC
  8
Layer1$C$L1
 62
     3
 10
-58.9733795615
 20
166.3419194075
 40
1.0000000000
 50
10.0000000000
 51
90.0000000000
  0
ARC
  8
Layer1$C$L1
 62
     3
 10
-57.0537188470
 20
164.0931382221
 40
0.5000000000
 50
190.0000000000
 51
231.3052345053
  0
ARC
  8
Layer1$C$L1
 62
     3
 10
-57.0537188470
 20
143.5907005929
 40
0.5000000000
 50
128.6947654946
 51
170.0000000000
  0
ARC
  8
Layer1$C$L1
 62
     3
 10
-58.6166472323
 20
145.5419194075
 40
2.0000000000
 50
308.6947654947
 51
360.0000000000
  0
ARC
  8
Layer1$C$L1
 62
     3
 10
-58.6166472323
 20
162.1419194075
 40
2.0000000000
 50
2.0355549961E-13
 51
51.3052345053
  0
LINE
  8
Layer1$C$L1
 62
     3
 10
-56.6166472323
 20
162.1419194075
 11
-56.6166472323
 21
145.5419194075
  0
LINE
  8
Layer1$C$L1
 62
     3
 10
-57.3663045241
 20
163.7028944592
 11
-57.3663045241
 21
143.9809443558
  0
LINE
  8
Layer1$C$L1
 62
     3
 10
-57.9885718085
 20
141.1682712298
 11
-57.5461227235
 21
143.6775246817
  0
LINE
  8
Layer1$C$L1
 62
     3
 10
-60.6166472323
 20
140.3419194075
 11
-58.9733795615
 21
140.3419194075
  0
LINE
  8
Layer1$C$L1
 62
     3
 10
-60.6166472323
 20
167.2419194075
 11
-60.6166472323
 21
140.4419194075
  0
LINE
  8
Layer1$C$L1
 62
     3
 10
-60.6166472323
 20
167.3419194075
 11
-58.9733795615
 21
167.3419194075
  0
LINE
  8
Layer1$C$L1
 62
     3
 10
-58.4709391104
 20
166.4155675851
 11
-58.4709391104
 21
141.2682712298
  0
LINE
  8
Layer1$C$L1
 62
     3
 10
-58.4709391104
 20
204.3533887373
 11
-58.4709391104
 21
179.2060923819
  0
LINE
  8
Layer1$C$L1
 62
     3
 10
-60.6166472323
 20
205.2797405596
 11
-58.9733795615
 21
205.2797405596
  0
LINE
  8
Layer1$C$L1
 62
     3
 10
-60.6166472323
 20
205.1797405596
 11
-60.6166472323
 21
178.3797405596
  0
LINE
  8
Layer1$C$L1
 62
     3
 10
-60.6166472323
 20
178.2797405596
 11
-58.9733795615
 21
178.2797405596
  0
LINE
  8
Layer1$C$L1
 62
     3
 10
-57.9885718085
 20
179.1060923819
 11
-57.5461227235
 21
181.6153458338
  0
LINE
  8
Layer1$C$L1
 62
     3
 10
-57.3663045241
 20
201.6407156113
 11
-57.3663045241
 21
181.9187655079
  0
LINE
  8
Layer1$C$L1
 62
     3
 10
-56.6166472323
 20
200.0797405596
 11
-56.6166472323
 21
183.4797405596
  0
ARC
  8
Layer1$C$L1
 62
     3
 10
-58.6166472323
 20
200.0797405596
 40
2.0000000000
 50
2.0355549961E-13
 51
51.3052345053
  0
ARC
  8
Layer1$C$L1
 62
     3
 10
-58.6166472323
 20
183.4797405596
 40
2.0000000000
 50
308.6947654947
 51
360.0000000000
  0
ARC
  8
Layer1$C$L1
 62
     3
 10
-57.0537188470
 20
181.5285217450
 40
0.5000000000
 50
128.6947654946
 51
170.0000000000
  0
ARC
  8
Layer1$C$L1
 62
     3
 10
-57.0537188470
 20
202.0309593742
 40
0.5000000000
 50
190.0000000000
 51
231.3052345053
  0
ARC
  8
Layer1$C$L1
 62
     3
 10
-58.9733795615
 20
204.2797405596
 40
1.0000000000
 50
10.0000000000
 51
90.0000000000
  0
LINE
  8
Layer1$C$L1
 62
     3
 10
-57.9885718085
 20
204.4533887373
 11
-57.5461227235
 21
201.9441352854
  0
ARC
  8
Layer1$C$L1
 62
     3
 10
-58.9733795615
 20
179.2797405596
 40
1.0000000000
 50
270.0000000000
 51
350.0000000000
  0
ENDSEC
  0
EOF
