  0
SECTION
  2
HEADER
  9
$ACADVER
  1
AC1004
  9
$ANGBASE
 50
0.0000000000
  9
$ANGDIR
 70
     0
  9
$ATTDIA
 70
     0
  9
$ATTMODE
 70
     1
  9
$ATTREQ
 70
     1
  9
$AUNITS
 70
     0
  9
$AUPREC
 70
     0
  9
$AXISMODE
 70
     0
  9
$AXISUNIT
 10
0.0000000000
 20
0.0000000000
  9
$BLIPMODE
 70
     1
  9
$CECOLOR
 62
   256
  9
$CELTYPE
  6
BYLAYER
  9
$CHAMFERA
 40
0.0000000000
  9
$CHAMFERB
 40
0.0000000000
  9
$CLAYER
  8
0
  9
$COORDS
 70
     0
  9
$DIMALT
 70
     0
  9
$DIMALTD
 70
     2
  9
$DIMALTF
 40
25.4000000000
  9
$DIMAPOST
  1

  9
$DIMASO
 70
     1
  9
$DIMASZ
 40
1.9727878460
  9
$DIMBLK
  1

  9
$DIMBLK1
  1

  9
$DIMBLK2
  1

  9
$DIMCEN
 40
9.0000000000E-02
  9
$DIMDLE
 40
0.0000000000
  9
$DIMDLI
 40
0.3800000000
  9
$DIMEXE
 40
3.8099999428
  9
$DIMEXO
 40
2.5399999619
  9
$DIMLFAC
 40
1.0000000000
  9
$DIMLIM
 70
     0
  9
$DIMPOST
  1

  9
$DIMRND
 40
0.0000000000
  9
$DIMSCALE
 40
1.0000000000
  9
$DIMSE1
 70
     0
  9
$DIMSE2
 70
     0
  9
$DIMSHO
 70
     0
  9
$DIMTAD
 70
     0
  9
$DIMTIH
 70
     0
  9
$DIMTM
 40
0.0000000000
  9
$DIMTOH
 70
     1
  9
$DIMTOL
 70
     0
  9
$DIMTP
 40
0.0000000000
  9
$DIMTSZ
 40
0.0000000000
  9
$DIMTXT
 40
2.9999940395
  9
$DIMZIN
 70
     0
  9
$DRAGMODE
 70
     1
  9
$ELEVATION
 40
0.0000000000
  9
$EXTMAX
 10
3.1750000000
 20
293.1750000000
 30
0.0000000000
  9
$EXTMIN
 10
-205.4481018066
 20
-3.1750000000
 30
0.0000000000
  9
$FASTZOOM
 70
     1
  9
$FILLETRAD
 40
6.2500000000E-02
  9
$FILLMODE
 70
     1
  9
$GRIDMODE
 70
     0
  9
$GRIDUNIT
 10
0.0000000000
 20
0.0000000000
  9
$INSBASE
 10
0.0000000000
 20
0.0000000000
 30
0.0000000000
  9
$LIMCHECK
 70
     0
  9
$LIMMAX
 10
3.1750000000
 20
293.1750000000
  9
$LIMMIN
 10
-205.4481018066
 20
-3.1750000000
  9
$LTSCALE
 40
1.0000000000
  9
$LUNITS
 70
     2
  9
$LUPREC
 70
     3
  9
$MEASUREMENT
 70
     0
  9
$MENU
  1
ACAD
  9
$MIRRTEXT
 70
     0
  9
$ORTHOMODE
 70
     0
  9
$OSMODE
 70
     0
  9
$PDMODE
 70
     0
  9
$PDSIZE
 40
0.0000000000
  9
$PLINEWID
 40
0.0000000000
  9
$PROXYGRAPHICS
 70
     0
  9
$QTEXTMODE
 70
     0
  9
$REGENMODE
 70
     1
  9
$SKETCHINC
 40
0.1000000000
  9
$SKPOLY
 70
     0
  9
$SNAPANG
 50
0.0000000000
  9
$SNAPBASE
 10
0.0000000000
 20
0.0000000000
  9
$SNAPISOPAIR
 70
     0
  9
$SNAPMODE
 70
     0
  9
$SNAPSTYLE
 70
     0
  9
$SNAPUNIT
 10
1.0000000000
 20
1.0000000000
  9
$SPLFRAME
 70
     0
  9
$SPLINESEGS
 70
     8
  9
$TDCREATE
 40
2454707.6714814863
  9
$TDINDWG
 40
0.0000000000
  9
$TDUPDATE
 40
2454707.6714814863
  9
$TDUSRTIMER
 40
0.0000000000
  9
$TEXTSIZE
 40
2.9999940395
  9
$TEXTSTYLE
  7
STANDARD
  9
$THICKNESS
 40
0.0000000000
  9
$TRACEWID
 40
5.0000000000E-02
  9
$USERI1
 70
     0
  9
$USERI2
 70
     0
  9
$USERI3
 70
     0
  9
$USERI4
 70
     0
  9
$USERI5
 70
     0
  9
$USERR1
 40
0.0000000000
  9
$USERR2
 40
0.0000000000
  9
$USERR3
 40
0.0000000000
  9
$USERR4
 40
0.0000000000
  9
$USERR5
 40
0.0000000000
  9
$USRTIMER
 70
     1
  9
$VIEWCTR
 10
-101.1365509033
 20
145.0000000000
  9
$VIEWDIR
 10
0.0000000000
 20
0.0000000000
 30
1.0000000000
  9
$VIEWSIZE
 40
296.3500000000
  0
ENDSEC
  0
SECTION
  2
TABLES
  0
TABLE
  2
LTYPE
 70
     3
  0
LTYPE
  2
SOLID
  3
Solid
 70
    64
 72
    65
 73
     0
 40
0.0000000000
  0
LTYPE
  2
DASHED
  3
Dashed
 70
    64
 72
    65
 73
     2
 40
4.7625000000
 49
3.1750000000
 49
-1.5875000000
  0
LTYPE
  2
CENTER
  3
Center
 70
    64
 72
    65
 73
     4
 40
9.1000000238
 49
6.5000000000
 49
-0.8000000119
 49
1.0000000000
 49
-0.8000000119
  0
ENDTAB
  0
TABLE
  2
LAYER
 70
     5
  0
LAYER
  2
Layer0$C$L0
 70
     0
  6
SOLID
 62
     3
  0
LAYER
  2
Layer1$C$L1
 70
     0
  6
SOLID
 62
     3
  0
LAYER
  2
Layer2$C$L2
 70
     0
  6
SOLID
 62
     3
  0
LAYER
  2
Layer6$C$L6
 70
     0
  6
SOLID
 62
    31
  0
LAYER
  2
Layer8$C$L8
 70
     0
  6
SOLID
 62
     7
  0
ENDTAB
  0
TABLE
  2
STYLE
 70
     1
  0
STYLE
  2
STANDARD
  3
txt
  4

 40
0.0000000000
 41
1.0000000000
 42
3.0000000000
 50
0.0000000000
 70
     0
 71
     0
  0
ENDTAB
  0
ENDSEC
  0
SECTION
  2
BLOCKS
  0
ENDSEC
  0
SECTION
  2
ENTITIES
  0
TEXT
  8
Layer8$C$L8
 62
     5
 10
-38.8269327540
 20
4.9523642584
 40
2.9999941014
  1
MA4-H01824
 41
0.8595006237
 72
     5
 11
-15.6204615431
 21
4.9523642584
  0
TEXT
  8
Layer8$C$L8
 10
-39.2227831498
 20
17.6195769256
 40
2.9999941014
  1
LA9Z-DS6
 41
0.8796428972
 72
     5
 11
-20.7503186285
 21
17.6195769256
  0
POINT
  8
Layer0$C$L0
 62
     3
 10
-132.2461126666
 20
147.7298662299
  0
LINE
  8
Layer1$C$L1
  6
CENTER
 62
     3
 10
-74.2683330152
 20
147.7298662299
 11
-93.0683330152
 21
147.7298662299
  0
LINE
  8
Layer1$C$L1
  6
CENTER
 62
     3
 10
-74.2683330152
 20
185.6676873820
 11
-93.0683330152
 21
185.6676873820
  0
LINE
  8
Layer1$C$L1
  6
CENTER
 62
     3
 10
-103.3461126666
 20
147.7298662299
 11
-134.1461126666
 21
147.7298662299
  0
LINE
  8
Layer1$C$L1
  6
CENTER
 62
     3
 10
-118.7461126666
 20
132.3298662299
 11
-118.7461126666
 21
163.1298662299
  0
LINE
  8
Layer1$C$L1
 62
     3
 10
-107.2461126666
 20
159.0298662299
 11
-107.2461126666
 21
154.8009340417
  0
LINE
  8
Layer1$C$L1
 62
     3
 10
-107.2461126666
 20
140.6587984180
 11
-107.2461126666
 21
136.4298662299
  0
LINE
  8
Layer1$C$L1
 62
     3
 10
-109.2461126666
 20
136.4298662299
 11
-109.2461126666
 21
137.2298662299
  0
LINE
  8
Layer1$C$L1
 62
     3
 10
-109.2461126666
 20
158.2298662299
 11
-109.2461126666
 21
159.0298662299
  0
LINE
  8
Layer1$C$L1
 62
     3
 10
-110.2608312924
 20
137.2298662299
 11
-107.2461126666
 21
137.2298662299
  0
LINE
  8
Layer1$C$L1
 62
     3
 10
-110.2608312924
 20
158.2298662299
 11
-107.2461126666
 21
158.2298662299
  0
LINE
  8
Layer1$C$L1
 62
     3
 10
-111.3596385416
 20
159.0298662299
 11
-107.2461126666
 21
159.0298662299
  0
LINE
  8
Layer1$C$L1
 62
     3
 10
-111.3596385416
 20
136.4298662299
 11
-107.2461126666
 21
136.4298662299
  0
LINE
  8
Layer1$C$L1
 62
     3
 10
-128.2461126666
 20
137.2298662299
 11
-128.2461126666
 21
136.4298662299
  0
LINE
  8
Layer1$C$L1
 62
     3
 10
-128.2461126666
 20
159.0298662299
 11
-128.2461126666
 21
158.2298662299
  0
LINE
  8
Layer1$C$L1
 62
     3
 10
-130.2461126666
 20
137.2298662299
 11
-127.2313940409
 21
137.2298662299
  0
LINE
  8
Layer1$C$L1
 62
     3
 10
-130.2461126666
 20
158.2298662299
 11
-127.2313940409
 21
158.2298662299
  0
LINE
  8
Layer1$C$L1
 62
     3
 10
-130.2461126666
 20
159.0298662299
 11
-126.1325867917
 21
159.0298662299
  0
LINE
  8
Layer1$C$L1
 62
     3
 10
-130.2461126666
 20
159.0298662299
 11
-130.2461126666
 21
154.8009340417
  0
LINE
  8
Layer1$C$L1
 62
     3
 10
-130.2461126666
 20
140.6587984180
 11
-130.2461126666
 21
136.4298662299
  0
ARC
  8
Layer1$C$L1
 62
     3
 10
-90.0683330152
 20
137.4298662299
 40
1.0000000000
 50
180.0000000000
 51
270.0000000000
  0
ARC
  8
Layer1$C$L1
 62
     3
 10
-90.0683330152
 20
158.0298662299
 40
1.0000000000
 50
90.0000000000
 51
180.0000000000
  0
ARC
  8
Layer1$C$L1
 62
     3
 10
-89.2683330152
 20
138.0298662299
 40
0.3000000000
 50
180.0000000000
 51
270.0000000000
  0
ARC
  8
Layer1$C$L1
 62
     3
 10
-89.2683330152
 20
157.4298662299
 40
0.3000000000
 50
90.0000000000
 51
180.0000000000
  0
LINE
  8
Layer1$C$L1
 62
     3
 10
-91.0683330152
 20
137.4298662299
 11
-91.0683330152
 21
158.0298662299
  0
LINE
  8
Layer1$C$L1
 62
     3
 10
-90.2683330152
 20
158.2298662299
 11
-90.2683330152
 21
137.2298662299
  0
LINE
  8
Layer1$C$L1
 62
     3
 10
-89.5683330152
 20
138.0298662299
 11
-89.5683330152
 21
157.4298662299
  0
LINE
  8
Layer1$C$L1
 62
     3
 10
-81.2683330152
 20
159.0298662299
 11
-81.2683330152
 21
158.2298662299
  0
LINE
  8
Layer1$C$L1
 62
     3
 10
-81.2683330152
 20
159.0298662299
 11
-90.0683330152
 21
159.0298662299
  0
LINE
  8
Layer1$C$L1
 62
     3
 10
-81.2683330152
 20
158.2298662299
 11
-90.2683330152
 21
158.2298662299
  0
LINE
  8
Layer1$C$L1
 62
     3
 10
-81.2683330152
 20
137.2298662299
 11
-90.2683330152
 21
137.2298662299
  0
LINE
  8
Layer1$C$L1
 62
     3
 10
-81.2683330152
 20
137.2298662299
 11
-81.2683330152
 21
136.4298662299
  0
LINE
  8
Layer1$C$L1
 62
     3
 10
-81.2683330152
 20
136.4298662299
 11
-90.0683330152
 21
136.4298662299
  0
LINE
  8
Layer1$C$L1
 62
     3
 10
-80.2683330152
 20
137.7298662299
 11
-89.2683330152
 21
137.7298662299
  0
LINE
  8
Layer1$C$L1
 62
     3
 10
-80.2683330152
 20
157.7298662299
 11
-89.2683330152
 21
157.7298662299
  0
ARC
  8
Layer1$C$L1
 62
     3
 10
-82.5715583880
 20
175.1676873820
 40
1.0000000000
 50
270.0000000000
 51
345.0000000000
  0
ARC
  8
Layer1$C$L1
 62
     3
 10
-81.2683330152
 20
180.0313906871
 40
1.0000000000
 50
180.0000000000
 51
195.0000000000
  0
ARC
  8
Layer1$C$L1
 62
     3
 10
-81.2683330152
 20
191.3039840768
 40
1.0000000000
 50
165.0000000000
 51
180.0000000000
  0
ARC
  8
Layer1$C$L1
 62
     3
 10
-82.5715583880
 20
196.1676873820
 40
1.0000000000
 50
15.0000000000
 51
90.0000000000
  0
LINE
  8
Layer1$C$L1
 62
     3
 10
-82.5715583880
 20
174.1676873820
 11
-91.0683330152
 21
174.1676873820
  0
LINE
  8
Layer1$C$L1
 62
     3
 10
-80.2683330152
 20
175.6676873820
 11
-81.4023076114
 21
175.6676873820
  0
LINE
  8
Layer1$C$L1
 62
     3
 10
-81.2683330152
 20
176.1676873820
 11
-81.6056325617
 21
174.9088683369
  0
LINE
  8
Layer1$C$L1
 62
     3
 10
-82.2342588415
 20
179.7725716420
 11
-81.2683330152
 21
176.1676873820
  0
LINE
  8
Layer1$C$L1
 62
     3
 10
-82.2683330152
 20
191.3039840768
 11
-82.2683330152
 21
180.0313906871
  0
LINE
  8
Layer1$C$L1
 62
     3
 10
-81.2683330152
 20
195.1676873820
 11
-82.2342588415
 21
191.5628031219
  0
LINE
  8
Layer1$C$L1
 62
     3
 10
-81.4023076114
 20
195.6676873820
 11
-80.2683330152
 21
195.6676873820
  0
LINE
  8
Layer1$C$L1
 62
     3
 10
-81.6056325617
 20
196.4265064271
 11
-81.2683330152
 21
195.1676873820
  0
LINE
  8
Layer1$C$L1
 62
     3
 10
-91.0683330152
 20
197.1676873820
 11
-91.0683330152
 21
174.1676873820
  0
LINE
  8
Layer1$C$L1
 62
     3
 10
-91.0683330152
 20
197.1676873820
 11
-82.5715583880
 21
197.1676873820
  0
LINE
  8
Layer1$C$L1
 62
     3
 10
-130.2461126666
 20
136.4298662299
 11
-126.1325867917
 21
136.4298662299
  0
CIRCLE
  8
Layer1$C$L1
 62
     3
 10
-118.7461126666
 20
147.7298662299
 40
9.8609750517
  0
CIRCLE
  8
Layer1$C$L1
 62
     3
 10
-118.7461126666
 20
147.7298662299
 40
6.7000000000
  0
CIRCLE
  8
Layer1$C$L1
 62
     3
 10
-118.7461126666
 20
147.7298662299
 40
10.1643947258
  0
CIRCLE
  8
Layer1$C$L1
 62
     3
 10
-118.7461126666
 20
147.7298662299
 40
6.3000000000
  0
CIRCLE
  8
Layer1$C$L1
 62
     3
 10
-118.7461126666
 20
147.7298662299
 40
13.5000000000
  0
LINE
  8
Layer1$C$L1
 62
     3
 10
-78.1226248934
 20
160.3035144075
 11
-78.1226248934
 21
135.1562180522
  0
LINE
  8
Layer1$C$L1
 62
     3
 10
-80.2683330152
 20
161.2298662299
 11
-78.6250653444
 21
161.2298662299
  0
LINE
  8
Layer1$C$L1
 62
     3
 10
-80.2683330152
 20
161.1298662299
 11
-80.2683330152
 21
134.3298662299
  0
LINE
  8
Layer1$C$L1
 62
     3
 10
-80.2683330152
 20
134.2298662299
 11
-78.6250653444
 21
134.2298662299
  0
LINE
  8
Layer1$C$L1
 62
     3
 10
-77.6402575914
 20
135.0562180522
 11
-77.1978085064
 21
137.5654715041
  0
LINE
  8
Layer1$C$L1
 62
     3
 10
-77.0179903070
 20
157.5908412816
 11
-77.0179903070
 21
137.8688911782
  0
LINE
  8
Layer1$C$L1
 62
     3
 10
-76.2683330152
 20
156.0298662299
 11
-76.2683330152
 21
139.4298662299
  0
ARC
  8
Layer1$C$L1
 62
     3
 10
-78.2683330152
 20
156.0298662299
 40
2.0000000000
 50
2.0355549961E-13
 51
51.3052345053
  0
ARC
  8
Layer1$C$L1
 62
     3
 10
-78.2683330152
 20
139.4298662299
 40
2.0000000000
 50
308.6947654947
 51
360.0000000000
  0
ARC
  8
Layer1$C$L1
 62
     3
 10
-76.7054046299
 20
137.4786474153
 40
0.5000000000
 50
128.6947654946
 51
170.0000000000
  0
ARC
  8
Layer1$C$L1
 62
     3
 10
-76.7054046299
 20
157.9810850445
 40
0.5000000000
 50
190.0000000000
 51
231.3052345053
  0
ARC
  8
Layer1$C$L1
 62
     3
 10
-78.6250653444
 20
160.2298662299
 40
1.0000000000
 50
10.0000000000
 51
90.0000000000
  0
LINE
  8
Layer1$C$L1
 62
     3
 10
-77.6402575914
 20
160.4035144075
 11
-77.1978085064
 21
157.8942609556
  0
ARC
  8
Layer1$C$L1
 62
     3
 10
-78.6250653444
 20
135.2298662299
 40
1.0000000000
 50
270.0000000000
 51
350.0000000000
  0
ARC
  8
Layer1$C$L1
 62
     3
 10
-78.6250653444
 20
173.1676873820
 40
1.0000000000
 50
270.0000000000
 51
350.0000000000
  0
LINE
  8
Layer1$C$L1
 62
     3
 10
-77.6402575914
 20
198.3413355597
 11
-77.1978085064
 21
195.8320821078
  0
ARC
  8
Layer1$C$L1
 62
     3
 10
-78.6250653444
 20
198.1676873820
 40
1.0000000000
 50
10.0000000000
 51
90.0000000000
  0
ARC
  8
Layer1$C$L1
 62
     3
 10
-76.7054046299
 20
195.9189061966
 40
0.5000000000
 50
190.0000000000
 51
231.3052345053
  0
ARC
  8
Layer1$C$L1
 62
     3
 10
-76.7054046299
 20
175.4164685674
 40
0.5000000000
 50
128.6947654946
 51
170.0000000000
  0
ARC
  8
Layer1$C$L1
 62
     3
 10
-78.2683330152
 20
177.3676873820
 40
2.0000000000
 50
308.6947654947
 51
360.0000000000
  0
ARC
  8
Layer1$C$L1
 62
     3
 10
-78.2683330152
 20
193.9676873820
 40
2.0000000000
 50
2.0355549961E-13
 51
51.3052345053
  0
LINE
  8
Layer1$C$L1
 62
     3
 10
-76.2683330152
 20
193.9676873820
 11
-76.2683330152
 21
177.3676873820
  0
LINE
  8
Layer1$C$L1
 62
     3
 10
-77.0179903070
 20
195.5286624337
 11
-77.0179903070
 21
175.8067123303
  0
LINE
  8
Layer1$C$L1
 62
     3
 10
-77.6402575914
 20
172.9940392043
 11
-77.1978085064
 21
175.5032926562
  0
LINE
  8
Layer1$C$L1
 62
     3
 10
-80.2683330152
 20
172.1676873820
 11
-78.6250653444
 21
172.1676873820
  0
LINE
  8
Layer1$C$L1
 62
     3
 10
-80.2683330152
 20
199.0676873820
 11
-80.2683330152
 21
172.2676873820
  0
LINE
  8
Layer1$C$L1
 62
     3
 10
-80.2683330152
 20
199.1676873820
 11
-78.6250653444
 21
199.1676873820
  0
LINE
  8
Layer1$C$L1
 62
     3
 10
-78.1226248934
 20
198.2413355597
 11
-78.1226248934
 21
173.0940392043
  0
LINE
  8
Layer2$C$L2
  6
DASHED
 62
     3
 10
-199.1001454788
 20
141.6298601264
 11
-199.1001454788
 21
139.8298875922
  0
LINE
  8
Layer2$C$L2
  6
DASHED
 62
     3
 10
-198.6001454788
 20
139.3298875922
 11
-190.1001454788
 21
139.3298875922
  0
LINE
  8
Layer2$C$L2
  6
DASHED
 62
     3
 10
-198.6001454788
 20
142.1298753851
 11
-190.1001454788
 21
142.1298753851
  0
LINE
  8
Layer2$C$L2
  6
DASHED
 62
     3
 10
-198.6001029393
 20
142.1298298988
 11
-199.1001067574
 21
141.6298110340
  0
LINE
  8
Layer2$C$L2
  6
DASHED
 62
     3
 10
-199.1001423750
 20
139.8298597230
 11
-198.6001418442
 21
139.3298591922
  0
LINE
  8
Layer2$C$L2
  6
DASHED
 62
     3
 10
-199.1001454788
 20
153.6298601264
 11
-199.1001454788
 21
151.8298875922
  0
LINE
  8
Layer2$C$L2
  6
DASHED
 62
     3
 10
-198.6001454788
 20
151.3298875922
 11
-190.1001454788
 21
151.3298875922
  0
LINE
  8
Layer2$C$L2
  6
DASHED
 62
     3
 10
-198.6001454788
 20
154.1298753851
 11
-190.1001454788
 21
154.1298753851
  0
LINE
  8
Layer2$C$L2
  6
DASHED
 62
     3
 10
-198.6001324419
 20
154.1298215667
 11
-199.1001362600
 21
153.6298027019
  0
LINE
  8
Layer2$C$L2
  6
DASHED
 62
     3
 10
-199.1001639541
 20
151.8298508829
 11
-198.6001634233
 21
151.3298503521
  0
LINE
  8
Layer2$C$L2
  6
DASHED
 62
     3
 10
-199.1001454788
 20
147.6298601264
 11
-199.1001454788
 21
145.8298875922
  0
LINE
  8
Layer2$C$L2
  6
DASHED
 62
     3
 10
-198.6001454788
 20
145.3298875922
 11
-190.1001454788
 21
145.3298875922
  0
LINE
  8
Layer2$C$L2
  6
DASHED
 62
     3
 10
-198.6001454788
 20
148.1298753851
 11
-190.1001454788
 21
148.1298753851
  0
LINE
  8
Layer2$C$L2
  6
DASHED
 62
     3
 10
-198.6001176906
 20
148.1298257328
 11
-199.1001215087
 21
147.6298068679
  0
LINE
  8
Layer2$C$L2
  6
DASHED
 62
     3
 10
-199.1001531645
 20
145.8298553029
 11
-198.6001526337
 21
145.3298547721
  0
LINE
  8
Layer2$C$L2
  6
DASHED
 62
     3
 10
-199.6001454788
 20
152.7298662299
 11
-194.3278803343
 21
152.7298662299
  0
LINE
  8
Layer2$C$L2
  6
DASHED
 62
     3
 10
-197.5001454788
 20
152.1298662299
 11
-196.1001454788
 21
152.1298662299
  0
LINE
  8
Layer2$C$L2
  6
DASHED
 62
     3
 10
-197.5001454788
 20
153.3298662299
 11
-196.1001454788
 21
153.3298662299
  0
ARC
  8
Layer2$C$L2
  6
DASHED
 62
     3
 10
-197.5001454788
 20
152.7298662299
 40
0.6000000000
 50
90.0000000000
 51
270.0000000000
  0
ARC
  8
Layer2$C$L2
  6
DASHED
 62
     3
 10
-196.1001454788
 20
152.7298662299
 40
0.6000000000
 50
270.0000000000
 51
450.0000000000
  0
ARC
  8
Layer2$C$L2
  6
DASHED
 62
     3
 10
-196.1001454788
 20
146.7298662299
 40
0.6000000000
 50
270.0000000000
 51
450.0000000000
  0
ARC
  8
Layer2$C$L2
  6
DASHED
 62
     3
 10
-197.5001454788
 20
146.7298662299
 40
0.6000000000
 50
90.0000000000
 51
270.0000000000
  0
LINE
  8
Layer2$C$L2
  6
DASHED
 62
     3
 10
-197.5001454788
 20
147.3298662299
 11
-196.1001454788
 21
147.3298662299
  0
LINE
  8
Layer2$C$L2
  6
DASHED
 62
     3
 10
-197.5001454788
 20
146.1298662299
 11
-196.1001454788
 21
146.1298662299
  0
LINE
  8
Layer2$C$L2
  6
DASHED
 62
     3
 10
-199.6001454788
 20
146.7298662299
 11
-194.3278803343
 21
146.7298662299
  0
LINE
  8
Layer2$C$L2
  6
DASHED
 62
     3
 10
-199.6001454788
 20
140.7298662299
 11
-194.3278803343
 21
140.7298662299
  0
LINE
  8
Layer2$C$L2
  6
DASHED
 62
     3
 10
-197.5001454788
 20
140.1298662299
 11
-196.1001454788
 21
140.1298662299
  0
LINE
  8
Layer2$C$L2
  6
DASHED
 62
     3
 10
-197.5001454788
 20
141.3298662299
 11
-196.1001454788
 21
141.3298662299
  0
ARC
  8
Layer2$C$L2
  6
DASHED
 62
     3
 10
-197.5001454788
 20
140.7298662299
 40
0.6000000000
 50
90.0000000000
 51
270.0000000000
  0
ARC
  8
Layer2$C$L2
  6
DASHED
 62
     3
 10
-196.1001454788
 20
140.7298662299
 40
0.6000000000
 50
270.0000000000
 51
450.0000000000
  0
LINE
  8
Layer2$C$L2
  6
DASHED
 62
     3
 10
-167.1001607376
 20
155.0797655219
 11
-167.6001454788
 21
155.0797655219
  0
LINE
  8
Layer2$C$L2
  6
DASHED
 62
     3
 10
-167.1001607376
 20
140.3798753851
 11
-167.6001454788
 21
140.3798753851
  0
LINE
  8
Layer2$C$L2
  6
DASHED
 62
     3
 10
-167.1001607376
 20
155.1298143500
 11
-167.1001607376
 21
140.3298723334
  0
LINE
  8
Layer2$C$L2
  6
DASHED
 62
     3
 10
-202.2731038528
 20
147.7298662299
 11
-141.6370870071
 21
147.7298662299
  0
LINE
  8
Layer2$C$L2
  6
DASHED
 62
     3
 10
-167.1002590797
 20
155.1295387758
 11
-166.8002243807
 21
155.7296086935
  0
LINE
  8
Layer2$C$L2
  6
DASHED
 62
     3
 10
-166.8001729446
 20
139.7298814887
 11
-162.9001637894
 21
139.7298814887
  0
LINE
  8
Layer2$C$L2
  6
DASHED
 62
     3
 10
-166.8001651207
 20
139.7297496161
 11
-167.1001657000
 21
140.3297512944
  0
LINE
  8
Layer2$C$L2
  6
DASHED
 62
     3
 10
-167.1001607376
 20
140.3298723334
 11
-162.9001637894
 21
140.3298723334
  0
LINE
  8
Layer2$C$L2
  6
DASHED
 62
     3
 10
-166.8001729446
 20
155.7297899359
 11
-166.8001729446
 21
139.7298814887
  0
LINE
  8
Layer2$C$L2
  6
DASHED
 62
     3
 10
-161.7002278763
 20
156.6298143500
 11
-157.9002400833
 21
156.6298143500
  0
LINE
  8
Layer1$C$L1
 62
     3
 10
-157.9002706009
 20
156.6297685736
 11
-157.9002706009
 21
138.8297807806
  0
LINE
  8
Layer2$C$L2
  6
DASHED
 62
     3
 10
-157.9002553421
 20
138.8298112982
 11
-161.7002431351
 21
138.8298112982
  0
LINE
  8
Layer2$C$L2
  6
DASHED
 62
     3
 10
-161.7002278763
 20
156.6298143500
 11
-161.7002278763
 21
156.1089861029
  0
LINE
  8
Layer2$C$L2
  6
DASHED
 62
     3
 10
-161.7002544679
 20
138.8298009051
 11
-161.7002392091
 21
139.3506901873
  0
LINE
  8
Layer2$C$L2
  6
DASHED
 62
     3
 10
-161.7002278763
 20
150.7298204535
 11
-161.7002278763
 21
144.7298204535
  0
LINE
  8
Layer2$C$L2
  6
DASHED
 62
     3
 10
-161.7002278763
 20
156.1089861029
 11
-162.9002248245
 21
156.1089861029
  0
LINE
  8
Layer2$C$L2
  6
DASHED
 62
     3
 10
-162.9002248245
 20
156.1089861029
 11
-162.9002248245
 21
150.7298204535
  0
LINE
  8
Layer2$C$L2
  6
DASHED
 62
     3
 10
-162.9002248245
 20
150.7298204535
 11
-161.7002278763
 21
150.7298204535
  0
LINE
  8
Layer2$C$L2
  6
DASHED
 62
     3
 10
-161.7002278763
 20
144.7298204535
 11
-162.9002248245
 21
144.7298204535
  0
LINE
  8
Layer2$C$L2
  6
DASHED
 62
     3
 10
-162.9002248245
 20
144.7298204535
 11
-162.9002248245
 21
139.3507005805
  0
LINE
  8
Layer2$C$L2
  6
DASHED
 62
     3
 10
-162.9002248245
 20
139.3507005805
 11
-161.7002278763
 21
139.3507005805
  0
LINE
  8
Layer2$C$L2
  6
DASHED
 62
     3
 10
-157.9002400833
 20
139.3165971869
 11
-160.9002400833
 21
139.3165971869
  0
LINE
  8
Layer2$C$L2
  6
DASHED
 62
     3
 10
-160.9002706009
 20
139.7396776312
 11
-160.9002706009
 21
139.3165666693
  0
LINE
  8
Layer2$C$L2
  6
DASHED
 62
     3
 10
-157.9002400833
 20
139.7397234076
 11
-160.9002400833
 21
139.7397234076
  0
LINE
  8
Layer2$C$L2
  6
DASHED
 62
     3
 10
-157.9002400833
 20
140.3397142523
 11
-160.9002400833
 21
140.3397142523
  0
LINE
  8
Layer2$C$L2
  6
DASHED
 62
     3
 10
-160.9002400833
 20
140.3397142523
 11
-160.9002400833
 21
141.0266039008
  0
LINE
  8
Layer2$C$L2
  6
DASHED
 62
     3
 10
-157.9002400833
 20
141.0266039008
 11
-160.9002400833
 21
141.0266039008
  0
LINE
  8
Layer2$C$L2
  6
DASHED
 62
     3
 10
-157.9002400833
 20
141.8953020209
 11
-160.9002400833
 21
141.8953020209
  0
LINE
  8
Layer2$C$L2
  6
DASHED
 62
     3
 10
-157.9002400833
 20
142.7703172797
 11
-160.9002400833
 21
142.7703172797
  0
LINE
  8
Layer2$C$L2
  6
DASHED
 62
     3
 10
-160.9002400833
 20
141.8953020209
 11
-160.9002400833
 21
142.7703172797
  0
LINE
  8
Layer2$C$L2
  6
DASHED
 62
     3
 10
-157.9002400833
 20
143.8095323676
 11
-160.9002400833
 21
143.8095323676
  0
LINE
  8
Layer2$C$L2
  6
DASHED
 62
     3
 10
-157.9002400833
 20
144.8519823187
 11
-160.9002400833
 21
144.8519823187
  0
LINE
  8
Layer2$C$L2
  6
DASHED
 62
     3
 10
-157.9002400833
 20
146.0373460883
 11
-160.9002400833
 21
146.0373460883
  0
LINE
  8
Layer2$C$L2
  6
DASHED
 62
     3
 10
-160.9002400833
 20
144.8519823187
 11
-160.9002400833
 21
143.8095323676
  0
LINE
  8
Layer2$C$L2
  6
DASHED
 62
     3
 10
-157.9002400833
 20
147.1297990912
 11
-160.9002400833
 21
147.1297990912
  0
LINE
  8
Layer2$C$L2
  6
DASHED
 62
     3
 10
-160.9002400833
 20
147.1297990912
 11
-160.9002400833
 21
146.0373460883
  0
LINE
  8
Layer2$C$L2
  6
DASHED
 62
     3
 10
-160.9002400833
 20
156.1430284613
 11
-157.9002400833
 21
156.1430284613
  0
LINE
  8
Layer2$C$L2
  6
DASHED
 62
     3
 10
-160.9001943069
 20
156.1429979437
 11
-160.9001943069
 21
155.7198869818
  0
LINE
  8
Layer2$C$L2
  6
DASHED
 62
     3
 10
-160.9002400833
 20
155.7199022406
 11
-157.9002400833
 21
155.7199022406
  0
LINE
  8
Layer2$C$L2
  6
DASHED
 62
     3
 10
-160.9002400833
 20
155.1199113959
 11
-157.9002400833
 21
155.1199113959
  0
LINE
  8
Layer2$C$L2
  6
DASHED
 62
     3
 10
-160.9002400833
 20
154.4330217474
 11
-160.9002400833
 21
155.1199113959
  0
LINE
  8
Layer2$C$L2
  6
DASHED
 62
     3
 10
-160.9002400833
 20
154.4330217474
 11
-157.9002400833
 21
154.4330217474
  0
LINE
  8
Layer2$C$L2
  6
DASHED
 62
     3
 10
-160.9002400833
 20
153.5643236273
 11
-157.9002400833
 21
153.5643236273
  0
LINE
  8
Layer2$C$L2
  6
DASHED
 62
     3
 10
-160.9002400833
 20
152.6893083685
 11
-157.9002400833
 21
152.6893083685
  0
LINE
  8
Layer2$C$L2
  6
DASHED
 62
     3
 10
-160.9002400833
 20
152.6893083685
 11
-160.9002400833
 21
153.5643236273
  0
LINE
  8
Layer2$C$L2
  6
DASHED
 62
     3
 10
-160.9002400833
 20
151.6500932806
 11
-157.9002400833
 21
151.6500932806
  0
LINE
  8
Layer2$C$L2
  6
DASHED
 62
     3
 10
-160.9002400833
 20
150.6076433295
 11
-157.9002400833
 21
150.6076433295
  0
LINE
  8
Layer2$C$L2
  6
DASHED
 62
     3
 10
-160.9002400833
 20
149.4222795599
 11
-157.9002400833
 21
149.4222795599
  0
LINE
  8
Layer2$C$L2
  6
DASHED
 62
     3
 10
-160.9002400833
 20
151.6500932806
 11
-160.9002400833
 21
150.6076433295
  0
LINE
  8
Layer2$C$L2
  6
DASHED
 62
     3
 10
-160.9002400833
 20
148.3298265570
 11
-157.9002400833
 21
148.3298265570
  0
LINE
  8
Layer2$C$L2
  6
DASHED
 62
     3
 10
-160.9002400833
 20
149.4222795599
 11
-160.9002400833
 21
148.3298265570
  0
LINE
  8
Layer2$C$L2
  6
DASHED
 62
     3
 10
-162.9001790482
 20
155.1298143500
 11
-167.1001607376
 21
155.1298143500
  0
LINE
  8
Layer2$C$L2
  6
DASHED
 62
     3
 10
-162.9001790482
 20
155.7297899359
 11
-166.8001729446
 21
155.7297899359
  0
LINE
  8
Layer2$C$L2
  6
DASHED
 62
     3
 10
-167.6001302200
 20
158.2298662299
 11
-170.4001485306
 21
158.2298662299
  0
LINE
  8
Layer1$C$L1
 62
     3
 10
-167.6001302200
 20
137.2298814887
 11
-177.1001149612
 21
137.2298814887
  0
LINE
  8
Layer2$C$L2
  6
DASHED
 62
     3
 10
-178.1001149612
 20
138.8298875922
 11
-190.1001149612
 21
138.8298875922
  0
LINE
  8
Layer2$C$L2
  6
DASHED
 62
     3
 10
-178.1000997024
 20
154.6298753851
 11
-190.1000997024
 21
154.6298753851
  0
LINE
  8
Layer2$C$L2
  6
DASHED
 62
     3
 10
-167.6001607376
 20
158.2298662299
 11
-167.6001607376
 21
137.2298814887
  0
LINE
  8
Layer2$C$L2
  6
DASHED
 62
     3
 10
-178.1001607376
 20
157.2298662299
 11
-178.1001607376
 21
138.2299272650
  0
LINE
  8
Layer2$C$L2
  6
DASHED
 62
     3
 10
-176.9001485306
 20
158.2298662299
 11
-176.9001485306
 21
148.3298723334
  0
LINE
  8
Layer2$C$L2
  6
DASHED
 62
     3
 10
-172.6001454788
 20
148.3298723334
 11
-176.9001332718
 21
148.3298723334
  0
LINE
  8
Layer2$C$L2
  6
DASHED
 62
     3
 10
-172.6001454788
 20
147.1298753851
 11
-176.9001332718
 21
147.1298753851
  0
LINE
  8
Layer2$C$L2
  6
DASHED
 62
     3
 10
-176.9001485306
 20
147.1298753851
 11
-176.9001485306
 21
137.2298814887
  0
LINE
  8
Layer2$C$L2
  6
DASHED
 62
     3
 10
-172.6001607376
 20
158.2298662299
 11
-172.6001607376
 21
148.3298723334
  0
LINE
  8
Layer2$C$L2
  6
DASHED
 62
     3
 10
-172.6001149612
 20
156.3298723334
 11
-176.9001027542
 21
156.3298723334
  0
LINE
  8
Layer2$C$L2
  6
DASHED
 62
     3
 10
-172.6001149612
 20
139.1298753851
 11
-176.9001027542
 21
139.1298753851
  0
LINE
  8
Layer2$C$L2
  6
DASHED
 62
     3
 10
-172.6001607376
 20
147.1298753851
 11
-172.6001607376
 21
137.2298814887
  0
LINE
  8
Layer2$C$L2
  6
DASHED
 62
     3
 10
-190.1001607376
 20
154.6298753851
 11
-190.1001607376
 21
138.8298875922
  0
LINE
  8
Layer2$C$L2
  6
DASHED
 62
     3
 10
-171.4001485306
 20
150.9581377142
 11
-167.6001607376
 21
150.9581377142
  0
LINE
  8
Layer2$C$L2
  6
DASHED
 62
     3
 10
-170.6001454788
 20
152.7266924017
 11
-170.4001485306
 21
152.7266924017
  0
LINE
  8
Layer2$C$L2
  6
DASHED
 62
     3
 10
-171.4001485306
 20
151.7315599555
 11
-170.4001485306
 21
151.7315599555
  0
LINE
  8
Layer2$C$L2
  6
DASHED
 62
     3
 10
-170.6001454788
 20
152.7266618842
 11
-170.6001454788
 21
151.7315294379
  0
LINE
  8
Layer2$C$L2
  6
DASHED
 62
     3
 10
-171.4001485306
 20
158.2298662299
 11
-177.1001149612
 21
158.2298662299
  0
LINE
  8
Layer2$C$L2
  6
DASHED
 62
     3
 10
-171.4001485306
 20
161.6526872748
 11
-171.4001485306
 21
150.9581071967
  0
LINE
  8
Layer2$C$L2
  6
DASHED
 62
     3
 10
-170.4001485306
 20
161.6526872748
 11
-170.4001485306
 21
150.9581071967
  0
LINE
  8
Layer2$C$L2
  6
DASHED
 62
     3
 10
-168.3501454788
 20
158.2298662299
 11
-168.3501454788
 21
150.9581377142
  0
LINE
  8
Layer2$C$L2
  6
DASHED
 62
     3
 10
-169.3501454788
 20
158.2298662299
 11
-169.3501454788
 21
150.9581377142
  0
LINE
  8
Layer1$C$L1
 62
     3
 10
-157.9007893997
 20
138.8298112982
 11
-157.9007893997
 21
156.6293413275
  0
LINE
  8
Layer2$C$L2
  6
DASHED
 62
     3
 10
-171.4001485306
 20
160.2041704291
 11
-170.4001485306
 21
160.2041704291
  0
LINE
  8
Layer2$C$L2
  6
DASHED
 62
     3
 10
-171.4001485306
 20
161.6527025336
 11
-170.4001485306
 21
161.6527025336
  0
ARC
  8
Layer2$C$L2
  6
DASHED
 62
     3
 10
-177.1001302200
 20
157.2299120062
 40
1.0000000000
 50
89.9999820139
 51
179.9999640278
  0
ARC
  8
Layer2$C$L2
  6
DASHED
 62
     3
 10
-177.1001302200
 20
138.2299272650
 40
1.0000000000
 50
180.0000359722
 51
270.0000179861
  0
ARC
  8
Layer1$C$L1
 62
     3
 10
-145.4570029301
 20
135.2298662299
 40
1.0000000000
 50
270.0000000000
 51
350.0000000000
  0
LINE
  8
Layer1$C$L1
 62
     3
 10
-144.4721951771
 20
160.4035144075
 11
-144.0297460921
 21
157.8942609556
  0
ARC
  8
Layer1$C$L1
 62
     3
 10
-145.4570029301
 20
160.2298662299
 40
1.0000000000
 50
10.0000000000
 51
90.0000000000
  0
ARC
  8
Layer1$C$L1
 62
     3
 10
-143.5373422156
 20
157.9810850445
 40
0.5000000000
 50
190.0000000000
 51
231.3052345053
  0
ARC
  8
Layer1$C$L1
 62
     3
 10
-143.5373422156
 20
137.4786474153
 40
0.5000000000
 50
128.6947654946
 51
170.0000000000
  0
ARC
  8
Layer1$C$L1
 62
     3
 10
-145.1002706009
 20
139.4298662299
 40
2.0000000000
 50
308.6947654947
 51
360.0000000000
  0
ARC
  8
Layer1$C$L1
 62
     3
 10
-145.1002706009
 20
156.0298662299
 40
2.0000000000
 50
2.0355549961E-13
 51
51.3052345053
  0
LINE
  8
Layer1$C$L1
 62
     3
 10
-143.1002706009
 20
156.0298662299
 11
-143.1002706009
 21
139.4298662299
  0
LINE
  8
Layer1$C$L1
 62
     3
 10
-143.8499278927
 20
157.5908412816
 11
-143.8499278927
 21
137.8688911782
  0
LINE
  8
Layer1$C$L1
 62
     3
 10
-144.4721951771
 20
135.0562180522
 11
-144.0297460921
 21
137.5654715041
  0
LINE
  8
Layer1$C$L1
 62
     3
 10
-147.1002706009
 20
134.2298662299
 11
-145.4570029301
 21
134.2298662299
  0
LINE
  8
Layer1$C$L1
 62
     3
 10
-147.1002706009
 20
161.1298662299
 11
-147.1002706009
 21
134.3298662299
  0
LINE
  8
Layer1$C$L1
 62
     3
 10
-147.1002706009
 20
161.2298662299
 11
-145.4570029301
 21
161.2298662299
  0
LINE
  8
Layer1$C$L1
 62
     3
 10
-144.9545624791
 20
160.3035144075
 11
-144.9545624791
 21
135.1562180522
  0
LINE
  8
Layer1$C$L1
 62
     3
 10
-147.1002706009
 20
157.7298662299
 11
-156.1002706009
 21
157.7298662299
  0
LINE
  8
Layer1$C$L1
 62
     3
 10
-147.1002706009
 20
137.7298662299
 11
-156.1002706009
 21
137.7298662299
  0
LINE
  8
Layer1$C$L1
 62
     3
 10
-148.1002706009
 20
136.4298662299
 11
-156.9002706009
 21
136.4298662299
  0
LINE
  8
Layer1$C$L1
 62
     3
 10
-148.1002706009
 20
137.2298662299
 11
-148.1002706009
 21
136.4298662299
  0
LINE
  8
Layer1$C$L1
 62
     3
 10
-148.1002706009
 20
137.2298662299
 11
-157.1002706009
 21
137.2298662299
  0
LINE
  8
Layer1$C$L1
 62
     3
 10
-148.1002706009
 20
158.2298662299
 11
-157.1002706009
 21
158.2298662299
  0
LINE
  8
Layer1$C$L1
 62
     3
 10
-148.1002706009
 20
159.0298662299
 11
-156.9002706009
 21
159.0298662299
  0
LINE
  8
Layer1$C$L1
 62
     3
 10
-148.1002706009
 20
159.0298662299
 11
-148.1002706009
 21
158.2298662299
  0
LINE
  8
Layer1$C$L1
 62
     3
 10
-156.4002706009
 20
138.0298662299
 11
-156.4002706009
 21
157.4298662299
  0
LINE
  8
Layer1$C$L1
 62
     3
 10
-157.1002706009
 20
158.2298662299
 11
-157.1002706009
 21
137.2298662299
  0
LINE
  8
Layer1$C$L1
 62
     3
 10
-157.9002706009
 20
137.4298662299
 11
-157.9002706009
 21
158.0298662299
  0
ARC
  8
Layer1$C$L1
 62
     3
 10
-156.1002706009
 20
157.4298662299
 40
0.3000000000
 50
90.0000000000
 51
180.0000000000
  0
ARC
  8
Layer1$C$L1
 62
     3
 10
-156.1002706009
 20
138.0298662299
 40
0.3000000000
 50
180.0000000000
 51
270.0000000000
  0
ARC
  8
Layer1$C$L1
 62
     3
 10
-156.9002706009
 20
158.0298662299
 40
1.0000000000
 50
90.0000000000
 51
180.0000000000
  0
ARC
  8
Layer1$C$L1
 62
     3
 10
-156.9002706009
 20
137.4298662299
 40
1.0000000000
 50
180.0000000000
 51
270.0000000000
  0
LINE
  8
Layer1$C$L1
  6
CENTER
 62
     3
 10
-141.1002706009
 20
147.7298662299
 11
-159.9002706009
 21
147.7298662299
  0
ENDSEC
  0
EOF
