  0
SECTION
  2
HEADER
  9
$ACADVER
  1
AC1015
  9
$ACADMAINTVER
 70
    20
  9
$DWGCODEPAGE
  3
ANSI_932
  9
$INSBASE
 10
0.0
 20
0.0
 30
0.0
  9
$EXTMIN
 10
0.0
 20
0.0
 30
0.0
  9
$EXTMAX
 10
210.0
 20
297.0
 30
0.0
  9
$LIMMIN
 10
-185.6282775879
 20
-3.174999999999998
  9
$LIMMAX
 10
3.174999999999998
 20
291.2585876465
  9
$ORTHOMODE
 70
     0
  9
$REGENMODE
 70
     1
  9
$FILLMODE
 70
     1
  9
$QTEXTMODE
 70
     0
  9
$MIRRTEXT
 70
     0
  9
$LTSCALE
 40
1.0
  9
$ATTMODE
 70
     1
  9
$TEXTSIZE
 40
2.999994039499997
  9
$TRACEWID
 40
0.05
  9
$TEXTSTYLE
  7
STANDARD
  9
$CLAYER
  8
0
  9
$CELTYPE
  6
ByLayer
  9
$CECOLOR
 62
   256
  9
$CELTSCALE
 40
1.0
  9
$DISPSILH
 70
     0
  9
$DIMSCALE
 40
1.0
  9
$DIMASZ
 40
1.9727878465
  9
$DIMEXO
 40
2.539999961899999
  9
$DIMDLI
 40
0.38
  9
$DIMRND
 40
0.0
  9
$DIMDLE
 40
0.0
  9
$DIMEXE
 40
3.809999942799997
  9
$DIMTP
 40
0.0
  9
$DIMTM
 40
0.0
  9
$DIMTXT
 40
2.999994039499997
  9
$DIMCEN
 40
0.09
  9
$DIMTSZ
 40
0.0
  9
$DIMTOL
 70
     0
  9
$DIMLIM
 70
     0
  9
$DIMTIH
 70
     0
  9
$DIMTOH
 70
     1
  9
$DIMSE1
 70
     0
  9
$DIMSE2
 70
     0
  9
$DIMTAD
 70
     0
  9
$DIMZIN
 70
     0
  9
$DIMBLK
  1

  9
$DIMASO
 70
     1
  9
$DIMSHO
 70
     0
  9
$DIMPOST
  1

  9
$DIMAPOST
  1

  9
$DIMALT
 70
     0
  9
$DIMALTD
 70
     2
  9
$DIMALTF
 40
25.4
  9
$DIMLFAC
 40
1.0
  9
$DIMTOFL
 70
     0
  9
$DIMTVP
 40
0.0
  9
$DIMTIX
 70
     0
  9
$DIMSOXD
 70
     0
  9
$DIMSAH
 70
     0
  9
$DIMBLK1
  1

  9
$DIMBLK2
  1

  9
$DIMSTYLE
  2
Standard
  9
$DIMCLRD
 70
     0
  9
$DIMCLRE
 70
     0
  9
$DIMCLRT
 70
     0
  9
$DIMTFAC
 40
1.0
  9
$DIMGAP
 40
0.09
  9
$DIMJUST
 70
     0
  9
$DIMSD1
 70
     0
  9
$DIMSD2
 70
     0
  9
$DIMTOLJ
 70
     1
  9
$DIMTZIN
 70
     0
  9
$DIMALTZ
 70
     0
  9
$DIMALTTZ
 70
     0
  9
$DIMUPT
 70
     0
  9
$DIMDEC
 70
     4
  9
$DIMTDEC
 70
     4
  9
$DIMALTU
 70
     2
  9
$DIMALTTD
 70
     2
  9
$DIMTXSTY
  7
STANDARD
  9
$DIMAUNIT
 70
     0
  9
$DIMADEC
 70
     0
  9
$DIMALTRND
 40
0.0
  9
$DIMAZIN
 70
     0
  9
$DIMDSEP
 70
    46
  9
$DIMATFIT
 70
     3
  9
$DIMFRAC
 70
     0
  9
$DIMLDRBLK
  1

  9
$DIMLUNIT
 70
     2
  9
$DIMLWD
 70
    -2
  9
$DIMLWE
 70
    -2
  9
$DIMTMOVE
 70
     0
  9
$LUNITS
 70
     2
  9
$LUPREC
 70
     3
  9
$SKETCHINC
 40
0.1
  9
$FILLETRAD
 40
0.0625
  9
$AUNITS
 70
     0
  9
$AUPREC
 70
     0
  9
$MENU
  1
ACAD
  9
$ELEVATION
 40
0.0
  9
$PELEVATION
 40
0.0
  9
$THICKNESS
 40
0.0
  9
$LIMCHECK
 70
     0
  9
$CHAMFERA
 40
0.0
  9
$CHAMFERB
 40
0.0
  9
$CHAMFERC
 40
0.0
  9
$CHAMFERD
 40
0.0
  9
$SKPOLY
 70
     0
  9
$TDCREATE
 40
2453068.408981482
  9
$TDUCREATE
 40
2453068.033981482
  9
$TDUPDATE
 40
2453396.678640567
  9
$TDUUPDATE
 40
2453396.303640567
  9
$TDINDWG
 40
0.0047658102
  9
$TDUSRTIMER
 40
0.0047640046
  9
$USRTIMER
 70
     1
  9
$ANGBASE
 50
0.0
  9
$ANGDIR
 70
     0
  9
$PDMODE
 70
     0
  9
$PDSIZE
 40
0.0
  9
$PLINEWID
 40
0.0
  9
$SPLFRAME
 70
     0
  9
$SPLINETYPE
 70
     6
  9
$SPLINESEGS
 70
     8
  9
$HANDSEED
  5
1EE
  9
$SURFTAB1
 70
     6
  9
$SURFTAB2
 70
     6
  9
$SURFTYPE
 70
     6
  9
$SURFU
 70
     6
  9
$SURFV
 70
     6
  9
$UCSBASE
  2

  9
$UCSNAME
  2

  9
$UCSORG
 10
0.0
 20
0.0
 30
0.0
  9
$UCSXDIR
 10
1.0
 20
0.0
 30
0.0
  9
$UCSYDIR
 10
0.0
 20
1.0
 30
0.0
  9
$UCSORTHOREF
  2

  9
$UCSORTHOVIEW
 70
     0
  9
$UCSORGTOP
 10
0.0
 20
0.0
 30
0.0
  9
$UCSORGBOTTOM
 10
0.0
 20
0.0
 30
0.0
  9
$UCSORGLEFT
 10
0.0
 20
0.0
 30
0.0
  9
$UCSORGRIGHT
 10
0.0
 20
0.0
 30
0.0
  9
$UCSORGFRONT
 10
0.0
 20
0.0
 30
0.0
  9
$UCSORGBACK
 10
0.0
 20
0.0
 30
0.0
  9
$PUCSBASE
  2

  9
$PUCSNAME
  2

  9
$PUCSORG
 10
0.0
 20
0.0
 30
0.0
  9
$PUCSXDIR
 10
1.0
 20
0.0
 30
0.0
  9
$PUCSYDIR
 10
0.0
 20
1.0
 30
0.0
  9
$PUCSORTHOREF
  2

  9
$PUCSORTHOVIEW
 70
     0
  9
$PUCSORGTOP
 10
0.0
 20
0.0
 30
0.0
  9
$PUCSORGBOTTOM
 10
0.0
 20
0.0
 30
0.0
  9
$PUCSORGLEFT
 10
0.0
 20
0.0
 30
0.0
  9
$PUCSORGRIGHT
 10
0.0
 20
0.0
 30
0.0
  9
$PUCSORGFRONT
 10
0.0
 20
0.0
 30
0.0
  9
$PUCSORGBACK
 10
0.0
 20
0.0
 30
0.0
  9
$USERI1
 70
     9
  9
$USERI2
 70
     0
  9
$USERI3
 70
     0
  9
$USERI4
 70
     0
  9
$USERI5
 70
     0
  9
$USERR1
 40
0.0
  9
$USERR2
 40
0.0
  9
$USERR3
 40
0.0
  9
$USERR4
 40
0.0
  9
$USERR5
 40
0.0
  9
$WORLDVIEW
 70
     1
  9
$SHADEDGE
 70
     3
  9
$SHADEDIF
 70
    70
  9
$TILEMODE
 70
     1
  9
$MAXACTVP
 70
    64
  9
$PINSBASE
 10
0.0
 20
0.0
 30
0.0
  9
$PLIMCHECK
 70
     0
  9
$PEXTMIN
 10
1.000000000000000E+20
 20
1.000000000000000E+20
 30
1.000000000000000E+20
  9
$PEXTMAX
 10
-1.000000000000000E+20
 20
-1.000000000000000E+20
 30
-1.000000000000000E+20
  9
$PLIMMIN
 10
0.0
 20
0.0
  9
$PLIMMAX
 10
12.0
 20
9.0
  9
$UNITMODE
 70
     0
  9
$VISRETAIN
 70
     1
  9
$PLINEGEN
 70
     0
  9
$PSLTSCALE
 70
     1
  9
$TREEDEPTH
 70
  3020
  9
$CMLSTYLE
  2
Standard
  9
$CMLJUST
 70
     0
  9
$CMLSCALE
 40
1.0
  9
$PROXYGRAPHICS
 70
     1
  9
$MEASUREMENT
 70
     0
  9
$CELWEIGHT
370
    -1
  9
$ENDCAPS
280
     0
  9
$JOINSTYLE
280
     0
  9
$LWDISPLAY
290
     0
  9
$INSUNITS
 70
     0
  9
$HYPERLINKBASE
  1

  9
$STYLESHEET
  1

  9
$XEDIT
290
     1
  9
$CEPSNTYPE
380
     0
  9
$PSTYLEMODE
290
     1
  9
$FINGERPRINTGUID
  2
{D57A9196-A5CB-4F46-AE72-41D1FA09543E}
  9
$VERSIONGUID
  2
{8771C23E-BA2D-404F-8EE2-15339135C396}
  9
$EXTNAMES
290
     1
  9
$PSVPSCALE
 40
0.0
  9
$OLESTARTUP
290
     0
  0
ENDSEC
  0
SECTION
  2
CLASSES
  0
CLASS
  1
ACDBDICTIONARYWDFLT
  2
AcDbDictionaryWithDefault
  3
ObjectDBX Classes
 90
        0
280
     0
281
     0
  0
CLASS
  1
ACDBPLACEHOLDER
  2
AcDbPlaceHolder
  3
ObjectDBX Classes
 90
        0
280
     0
281
     0
  0
CLASS
  1
LAYOUT
  2
AcDbLayout
  3
ObjectDBX Classes
 90
        0
280
     0
281
     0
  0
CLASS
  1
DICTIONARYVAR
  2
AcDbDictionaryVar
  3
ObjectDBX Classes
 90
        0
280
     0
281
     0
  0
CLASS
  1
TABLESTYLE
  2
AcDbTableStyle
  3
ObjectDBX Classes
 90
     2047
280
     0
281
     0
  0
ENDSEC
  0
SECTION
  2
TABLES
  0
TABLE
  2
VPORT
  5
19
330
0
100
AcDbSymbolTable
 70
     2
  0
VPORT
  5
1E8
330
19
100
AcDbSymbolTableRecord
100
AcDbViewportTableRecord
  2
*Active
 70
     0
 10
0.0
 20
0.0
 11
1.0
 21
1.0
 12
168.7215034459869
 22
237.0384890478423
 13
0.0
 23
0.0
 14
1.0
 24
1.0
 15
0.0
 25
0.0
 16
0.0
 26
0.0
 36
1.0
 17
0.0
 27
0.0
 37
0.0
 40
478.583362757066
 41
1.25
 42
50.0
 43
0.0
 44
0.0
 50
0.0
 51
0.0
 71
     0
 72
   100
 73
     1
 74
     1
 75
     0
 76
     0
 77
     0
 78
     0
281
     0
 65
     1
110
0.0
120
0.0
130
0.0
111
1.0
121
0.0
131
0.0
112
0.0
122
1.0
132
0.0
 79
     0
146
0.0
  0
ENDTAB
  0
TABLE
  2
LTYPE
  5
14
330
0
100
AcDbSymbolTable
 70
     3
  0
LTYPE
  5
15
330
14
100
AcDbSymbolTableRecord
100
AcDbLinetypeTableRecord
  2
ByBlock
 70
     0
  3

 72
    65
 73
     0
 40
0.0
  0
LTYPE
  5
16
330
14
100
AcDbSymbolTableRecord
100
AcDbLinetypeTableRecord
  2
ByLayer
 70
     0
  3

 72
    65
 73
     0
 40
0.0
  0
LTYPE
  5
8
330
14
100
AcDbSymbolTableRecord
100
AcDbLinetypeTableRecord
  2
Continuous
 70
     0
  3
Solid line
 72
    65
 73
     0
 40
0.0
  0
LTYPE
  5
2F
330
14
100
AcDbSymbolTableRecord
100
AcDbLinetypeTableRecord
  2
CENTER
 70
     0
  3
Center
 72
    65
 73
     4
 40
9.100006759199999
 49
6.5000119209
 74
     0
 49
-0.7999984026000001
 74
     0
 49
0.9999980329999999
 74
     0
 49
-0.7999984026000001
 74
     0
  0
LTYPE
  5
27
330
14
100
AcDbSymbolTableRecord
100
AcDbLinetypeTableRecord
  2
PHANTOM
 70
     0
  3
Phantom
 72
    65
 73
     6
 40
9.499981462999999
 49
4.799990654
 74
     0
 49
-0.8999982475999999
 74
     0
 49
0.9999980329999999
 74
     0
 49
-0.8999982475999999
 74
     0
 49
0.9999980329999999
 74
     0
 49
-0.8999982475999999
 74
     0
  0
ENDTAB
  0
TABLE
  2
LAYER
  5
10
330
0
100
AcDbSymbolTable
 70
     1
  0
LAYER
  5
4
330
10
100
AcDbSymbolTableRecord
100
AcDbLayerTableRecord
  2
0
 70
     0
 62
     7
  6
Continuous
370
    -3
390
5
  0
ENDTAB
  0
TABLE
  2
STYLE
  5
11
330
0
100
AcDbSymbolTable
 70
     1
  0
STYLE
  5
12
330
11
100
AcDbSymbolTableRecord
100
AcDbTextStyleTableRecord
  2
STANDARD
 70
     0
 40
0.0
 41
1.0
 50
0.0
 71
     0
 42
2.999994039499997
  3
romans.shx
  4
bigfont.shx
  0
ENDTAB
  0
TABLE
  2
VIEW
  5
17
330
0
100
AcDbSymbolTable
 70
     0
  0
ENDTAB
  0
TABLE
  2
UCS
  5
18
330
0
100
AcDbSymbolTable
 70
     0
  0
ENDTAB
  0
TABLE
  2
APPID
  5
1B
330
0
100
AcDbSymbolTable
 70
     1
  0
APPID
  5
1C
330
1B
100
AcDbSymbolTableRecord
100
AcDbRegAppTableRecord
  2
ACAD
 70
     0
  0
ENDTAB
  0
TABLE
  2
DIMSTYLE
  5
1D
330
0
100
AcDbSymbolTable
 70
     1
100
AcDbDimStyleTable
 71
     0
  0
DIMSTYLE
105
23
330
1D
100
AcDbSymbolTableRecord
100
AcDbDimStyleTableRecord
  2
Standard
 70
     0
340
12
  0
ENDTAB
  0
TABLE
  2
BLOCK_RECORD
  5
1
330
0
100
AcDbSymbolTable
 70
     0
  0
BLOCK_RECORD
  5
2
330
1
100
AcDbSymbolTableRecord
100
AcDbBlockTableRecord
  2
*Model_Space
340
A
  0
BLOCK_RECORD
  5
C
330
1
100
AcDbSymbolTableRecord
100
AcDbBlockTableRecord
  2
*Paper_Space
340
F
  0
ENDTAB
  0
ENDSEC
  0
SECTION
  2
BLOCKS
  0
BLOCK
  5
3
330
2
100
AcDbEntity
  8
0
100
AcDbBlockBegin
  2
*Model_Space
 70
     2
 10
0.0
 20
0.0
 30
0.0
  3
*Model_Space
  1

  0
ENDBLK
  5
9
330
2
100
AcDbEntity
  8
0
100
AcDbBlockEnd
  0
BLOCK
  5
D
330
C
100
AcDbEntity
 67
     1
  8
0
100
AcDbBlockBegin
  2
*Paper_Space
 70
     0
 10
0.0
 20
0.0
 30
0.0
  3
*Paper_Space
  1

  0
ENDBLK
  5
E
330
C
100
AcDbEntity
 67
     1
  8
0
100
AcDbBlockEnd
  0
ENDSEC
  0
SECTION
  2
ENTITIES
  0
LINE
  5
24
330
2
100
AcDbEntity
  8
0
100
AcDbLine
 10
210.0
 20
0.0
 30
0.0
 11
210.0
 21
297.0
 31
0.0
  0
LINE
  5
25
330
2
100
AcDbEntity
  8
0
100
AcDbLine
 10
0.0
 20
297.0
 30
0.0
 11
0.0
 21
0.0
 31
0.0
  0
LINE
  5
26
330
2
100
AcDbEntity
  8
0
  6
PHANTOM
 62
     3
100
AcDbLine
 10
116.0070596380998
 20
208.8840332030999
 30
0.0
 11
116.0070596380998
 21
230.8840332031
 31
0.0
  0
LINE
  5
28
330
2
100
AcDbEntity
  8
0
  6
PHANTOM
 62
     3
100
AcDbLine
 10
117.5070596380999
 20
208.8840332030999
 30
0.0
 11
117.5070596380999
 21
230.8840332031
 31
0.0
  0
LINE
  5
29
330
2
100
AcDbEntity
  8
0
  6
PHANTOM
 62
     3
100
AcDbLine
 10
117.5070860858999
 20
230.883984541
 30
0.0
 11
120.5070811858999
 21
229.0839868137
 31
0.0
  0
ARC
  5
2A
330
2
100
AcDbEntity
  8
0
 62
     3
100
AcDbCircle
 10
142.7421365423998
 20
227.1840209961
 30
0.0
 40
2.0
100
AcDbArc
 50
13.4234151721
 51
90.000309863
  0
ARC
  5
2B
330
2
100
AcDbEntity
  8
0
 62
     3
100
AcDbCircle
 10
142.742090766
 20
214.1840362548999
 30
0.0
 40
2.0
100
AcDbArc
 50
270.0000179861
 51
346.5766053185
  0
ARC
  5
2C
330
2
100
AcDbEntity
  8
0
 62
     3
100
AcDbCircle
 10
115.5070596380999
 20
220.6840362548998
 30
0.0
 40
30.0
100
AcDbArc
 50
346.5767863185
 51
13.42330588899997
  0
LINE
  5
2D
330
2
100
AcDbEntity
  8
0
100
AcDbLine
 10
0.0
 20
0.0
 30
0.0
 11
210.0
 21
0.0
 31
0.0
  0
LINE
  5
2E
330
2
100
AcDbEntity
  8
0
  6
CENTER
 62
     3
100
AcDbLine
 10
114.2079721135999
 20
220.6840362548998
 30
0.0
 11
147.5611520453
 21
220.6840362548998
 31
0.0
  0
LINE
  5
30
330
2
100
AcDbEntity
  8
0
 62
     3
100
AcDbLine
 10
56.10846955019995
 20
172.649961853
 30
0.0
 11
58.90847260189996
 21
172.649961853
 31
0.0
  0
LINE
  5
31
330
2
100
AcDbEntity
  8
0
 62
     3
100
AcDbLine
 10
56.10846955019995
 20
172.849961853
 30
0.0
 11
58.90847260189996
 21
172.849961853
 31
0.0
  0
LINE
  5
32
330
2
100
AcDbEntity
  8
0
 62
     3
100
AcDbLine
 10
56.10846955019995
 20
173.5799636841
 30
0.0
 11
58.90847260189996
 21
173.5799636841
 31
0.0
  0
LINE
  5
33
330
2
100
AcDbEntity
  8
0
 62
     3
100
AcDbLine
 10
56.10846955019995
 20
163.4200363159
 30
0.0
 11
58.90847260189996
 21
163.4200363159
 31
0.0
  0
LINE
  5
34
330
2
100
AcDbEntity
  8
0
 62
     3
100
AcDbLine
 10
56.10846955019995
 20
164.1500381469999
 30
0.0
 11
58.90847260189996
 21
164.1500381469999
 31
0.0
  0
LINE
  5
35
330
2
100
AcDbEntity
  8
0
 62
     3
100
AcDbLine
 10
56.10846955019995
 20
164.350038147
 30
0.0
 11
58.90847260189996
 21
164.350038147
 31
0.0
  0
LINE
  5
36
330
2
100
AcDbEntity
  8
0
 62
     3
100
AcDbLine
 10
46.90847260189996
 20
166.1500381469999
 30
0.0
 11
58.90847260189996
 21
166.1500381469999
 31
0.0
  0
LINE
  5
37
330
2
100
AcDbEntity
  8
0
 62
     3
100
AcDbLine
 10
46.90847260189996
 20
166.6500137328999
 30
0.0
 11
58.90847260189996
 21
166.6500137328999
 31
0.0
  0
LINE
  5
38
330
2
100
AcDbEntity
  8
0
 62
     3
100
AcDbLine
 10
46.90847260189996
 20
170.3499862671
 30
0.0
 11
58.90847260189996
 21
170.3499862671
 31
0.0
  0
LINE
  5
39
330
2
100
AcDbEntity
  8
0
 62
     3
100
AcDbLine
 10
46.90847260189996
 20
170.849961853
 30
0.0
 11
58.90847260189996
 21
170.849961853
 31
0.0
  0
LINE
  5
3A
330
2
100
AcDbEntity
  8
0
 62
     3
100
AcDbLine
 10
46.90845734309999
 20
162.0
 30
0.0
 11
58.9084573431
 21
162.0
 31
0.0
  0
LINE
  5
3B
330
2
100
AcDbEntity
  8
0
 62
     3
100
AcDbLine
 10
58.9084573431
 20
174.9999923706
 30
0.0
 11
46.90845734309999
 21
174.9999923706
 31
0.0
  0
ARC
  5
3C
330
2
100
AcDbEntity
  8
0
 62
     3
100
AcDbCircle
 10
52.90852600769998
 20
168.5000152588
 30
0.0
 40
9.5
100
AcDbArc
 50
213.738820887
 51
326.2611809342998
  0
ARC
  5
3D
330
2
100
AcDbEntity
  8
0
 62
     3
100
AcDbCircle
 10
52.90852600769998
 20
168.5000152588
 30
0.0
 40
9.5
100
AcDbArc
 50
33.7388190657
 51
146.261179113
  0
LINE
  5
3E
330
2
100
AcDbEntity
  8
0
 62
     3
100
AcDbLine
 10
52.9084174039
 20
180.9999857829
 30
0.0
 11
63.80840221869998
 21
174.7499998834999
 31
0.0
  0
LINE
  5
3F
330
2
100
AcDbEntity
  8
0
  6
CENTER
 62
     3
100
AcDbLine
 10
66.25846344670001
 20
168.5
 30
0.0
 11
39.55846649839998
 21
168.5
 31
0.0
  0
LINE
  5
40
330
2
100
AcDbEntity
  8
0
 62
     3
100
AcDbLine
 10
63.80845075479999
 20
162.2499684874
 30
0.0
 11
52.90846231699998
 21
155.9999728017
 31
0.0
  0
ARC
  5
41
330
2
100
AcDbEntity
  8
0
 62
     3
100
AcDbCircle
 10
52.90846497249997
 20
168.5
 30
0.0
 40
11.8499984741
100
AcDbArc
 50
276.0488335150999
 51
323.6106304041998
  0
ARC
  5
42
330
2
100
AcDbEntity
  8
0
 62
     3
100
AcDbCircle
 10
52.90846497249997
 20
168.5
 30
0.0
 40
11.8499984741
100
AcDbArc
 50
36.3894242373
 51
83.9512211265
  0
ARC
  5
43
330
2
100
AcDbEntity
  8
0
 62
     3
100
AcDbCircle
 10
52.90852600769998
 20
168.5000152588
 30
0.0
 40
8.899993896499998
100
AcDbArc
 50
27.4218229892
 51
90.000309863
  0
ARC
  5
44
330
2
100
AcDbEntity
  8
0
 62
     3
100
AcDbCircle
 10
52.90852600769998
 20
168.5000152588
 30
0.0
 40
8.899993896499998
100
AcDbArc
 50
282.811103284
 51
332.5781223692998
  0
ARC
  5
45
330
2
100
AcDbEntity
  8
0
 62
     3
100
AcDbCircle
 10
52.90846497249997
 20
168.5
 30
0.0
 40
11.8499984741
100
AcDbArc
 50
156.9011385190998
 51
203.0987895366
  0
LINE
  5
46
330
2
100
AcDbEntity
  8
0
  6
CENTER
 62
     3
100
AcDbLine
 10
55.90845734310001
 20
176.680001831
 30
0.0
 11
55.90845734310001
 21
160.3200134277
 31
0.0
  0
LINE
  5
47
330
2
100
AcDbEntity
  8
0
  6
CENTER
 62
     3
100
AcDbLine
 10
49.90847260189998
 20
176.680001831
 30
0.0
 11
49.90847260189998
 21
160.3200134277
 31
0.0
  0
LINE
  5
48
330
2
100
AcDbEntity
  8
0
 62
     3
100
AcDbLine
 10
52.90841253529999
 20
156.0000093726
 30
0.0
 11
42.00842772039999
 21
162.2499952719
 31
0.0
  0
ARC
  5
49
330
2
100
AcDbEntity
  8
0
 62
     3
100
AcDbCircle
 10
52.90852600769998
 20
168.5000152588
 30
0.0
 40
8.899993896499998
100
AcDbArc
 50
207.4217701689
 51
269.999690137
  0
LINE
  5
4A
330
2
100
AcDbEntity
  8
0
  6
CENTER
 62
     3
100
AcDbLine
 10
52.90847260189996
 20
182.4998607544
 30
0.0
 11
52.90847260189996
 21
154.499978699
 31
0.0
  0
ARC
  5
4B
330
2
100
AcDbEntity
  8
0
 62
     3
100
AcDbCircle
 10
52.90846497249997
 20
168.5
 30
0.0
 40
11.8499984741
100
AcDbArc
 50
216.3887157188999
 51
263.9519127968
  0
ARC
  5
4C
330
2
100
AcDbEntity
  8
0
 62
     3
100
AcDbCircle
 10
52.90852600769998
 20
168.5000152588
 30
0.0
 40
8.899993896499998
100
AcDbArc
 50
269.999690137
 51
282.811103284
  0
LINE
  5
4D
330
2
100
AcDbEntity
  8
0
 62
     3
100
AcDbLine
 10
46.90847260189996
 20
173.5799636841
 30
0.0
 11
49.70847565369999
 21
173.5799636841
 31
0.0
  0
LINE
  5
4E
330
2
100
AcDbEntity
  8
0
 62
     3
100
AcDbLine
 10
46.90847260189996
 20
172.649961853
 30
0.0
 11
49.70847565369999
 21
172.649961853
 31
0.0
  0
LINE
  5
4F
330
2
100
AcDbEntity
  8
0
 62
     3
100
AcDbLine
 10
46.90847260189996
 20
172.849961853
 30
0.0
 11
49.70847565369999
 21
172.849961853
 31
0.0
  0
LINE
  5
50
330
2
100
AcDbEntity
  8
0
 62
     3
100
AcDbLine
 10
46.90847260189996
 20
163.4200363159
 30
0.0
 11
49.70847565369999
 21
163.4200363159
 31
0.0
  0
LINE
  5
51
330
2
100
AcDbEntity
  8
0
 62
     3
100
AcDbLine
 10
46.90847260189996
 20
164.1500381469999
 30
0.0
 11
49.70847565369999
 21
164.1500381469999
 31
0.0
  0
LINE
  5
52
330
2
100
AcDbEntity
  8
0
 62
     3
100
AcDbLine
 10
46.90847260189996
 20
164.350038147
 30
0.0
 11
49.70847565369999
 21
164.350038147
 31
0.0
  0
ARC
  5
53
330
2
100
AcDbEntity
  8
0
 62
     3
100
AcDbCircle
 10
52.90852600769998
 20
168.5000152588
 30
0.0
 40
8.899993896499998
100
AcDbArc
 50
90.000309863
 51
152.5781205481
  0
LINE
  5
54
330
2
100
AcDbEntity
  8
0
 62
     3
100
AcDbLine
 10
42.00850786339997
 20
174.7498786577
 30
0.0
 11
52.90849630119999
 21
180.9998743433999
 31
0.0
  0
ARC
  5
55
330
2
100
AcDbEntity
  8
0
 62
     3
100
AcDbCircle
 10
52.90846497249997
 20
168.5
 30
0.0
 40
11.8499984741
100
AcDbArc
 50
96.04808720320001
 51
143.6113389226
  0
LINE
  5
56
330
2
100
AcDbEntity
  8
0
 62
     3
100
AcDbLine
 10
46.90847260189996
 20
174.9999923706
 30
0.0
 11
46.90847260189996
 21
162.0
 31
0.0
  0
LINE
  5
57
330
2
100
AcDbEntity
  8
0
 62
     3
100
AcDbLine
 10
42.00847870539996
 20
162.25
 30
0.0
 11
42.00847870539996
 21
174.7499923706
 31
0.0
  0
LINE
  5
58
330
2
100
AcDbEntity
  8
0
 62
     3
100
AcDbLine
 10
45.00847870539995
 20
163.2236480713
 30
0.0
 11
45.00847870539995
 21
173.7763595581
 31
0.0
  0
LINE
  5
59
330
2
100
AcDbEntity
  8
0
 62
     3
100
AcDbLine
 10
45.17223402629997
 20
172.8998983644
 30
0.0
 11
46.90847260189996
 21
172.8998983644
 31
0.0
  0
LINE
  5
5A
330
2
100
AcDbEntity
  8
0
 62
     3
100
AcDbLine
 10
45.00847870539995
 20
170.599941089
 30
0.0
 11
46.90847260189996
 21
170.599941089
 31
0.0
  0
LINE
  5
5B
330
2
100
AcDbEntity
  8
0
 62
     3
100
AcDbLine
 10
45.00847870539995
 20
169.799941089
 30
0.0
 11
46.90847260189996
 21
169.799941089
 31
0.0
  0
LINE
  5
5C
330
2
100
AcDbEntity
  8
0
 62
     3
100
AcDbLine
 10
45.68562685179995
 20
173.6998983644
 30
0.0
 11
46.90847260189996
 21
173.6998983644
 31
0.0
  0
LINE
  5
5D
330
2
100
AcDbEntity
  8
0
 62
     3
100
AcDbLine
 10
55.70846039489999
 20
172.480001831
 30
0.0
 11
55.70846039489999
 21
174.680001831
 31
0.0
  0
LINE
  5
5E
330
2
100
AcDbEntity
  8
0
 62
     3
100
AcDbLine
 10
56.10846955019995
 20
174.680001831
 30
0.0
 11
56.10846955019995
 21
172.480001831
 31
0.0
  0
LINE
  5
5F
330
2
100
AcDbEntity
  8
0
 62
     3
100
AcDbLine
 10
50.10848480899998
 20
172.480001831
 30
0.0
 11
50.10848480899998
 21
174.680001831
 31
0.0
  0
LINE
  5
60
330
2
100
AcDbEntity
  8
0
 62
     3
100
AcDbLine
 10
49.70847565369999
 20
174.680001831
 30
0.0
 11
49.70847565369999
 21
172.480001831
 31
0.0
  0
LINE
  5
61
330
2
100
AcDbEntity
  8
0
 62
     3
100
AcDbLine
 10
52.90847260189996
 20
162.0
 30
0.0
 11
52.90847260189996
 21
174.9999923706
 31
0.0
  0
LINE
  5
62
330
2
100
AcDbEntity
  8
0
 62
     3
100
AcDbLine
 10
50.10848480899998
 20
163.4200363159
 30
0.0
 11
55.70846039489999
 21
163.4200363159
 31
0.0
  0
LINE
  5
63
330
2
100
AcDbEntity
  8
0
 62
     3
100
AcDbLine
 10
50.10848480899998
 20
164.1500381469999
 30
0.0
 11
55.70846039489999
 21
164.1500381469999
 31
0.0
  0
LINE
  5
64
330
2
100
AcDbEntity
  8
0
 62
     3
100
AcDbLine
 10
50.10848480899998
 20
164.350038147
 30
0.0
 11
55.70846039489999
 21
164.350038147
 31
0.0
  0
LINE
  5
65
330
2
100
AcDbEntity
  8
0
 62
     3
100
AcDbLine
 10
50.10848480899998
 20
172.649961853
 30
0.0
 11
55.70846039489999
 21
172.649961853
 31
0.0
  0
LINE
  5
66
330
2
100
AcDbEntity
  8
0
 62
     3
100
AcDbLine
 10
50.10848480899998
 20
172.849961853
 30
0.0
 11
55.70846039489999
 21
172.849961853
 31
0.0
  0
LINE
  5
67
330
2
100
AcDbEntity
  8
0
 62
     3
100
AcDbLine
 10
50.10848480899998
 20
162.3200134276999
 30
0.0
 11
49.70847565369999
 21
162.3200134276999
 31
0.0
  0
LINE
  5
68
330
2
100
AcDbEntity
  8
0
 62
     3
100
AcDbLine
 10
50.10848480899998
 20
164.5200134277
 30
0.0
 11
49.70847565369999
 21
164.5200134277
 31
0.0
  0
LINE
  5
69
330
2
100
AcDbEntity
  8
0
 62
     3
100
AcDbLine
 10
49.70847565369999
 20
162.3200134276999
 30
0.0
 11
49.70847565369999
 21
164.5200134277
 31
0.0
  0
LINE
  5
6A
330
2
100
AcDbEntity
  8
0
 62
     3
100
AcDbLine
 10
50.10848480899998
 20
164.5200134277
 30
0.0
 11
50.10848480899998
 21
162.3200134276999
 31
0.0
  0
LINE
  5
6B
330
2
100
AcDbEntity
  8
0
 62
     3
100
AcDbLine
 10
50.10848480899998
 20
172.480001831
 30
0.0
 11
49.70847565369999
 21
172.480001831
 31
0.0
  0
LINE
  5
6C
330
2
100
AcDbEntity
  8
0
 62
     3
100
AcDbLine
 10
50.10848480899998
 20
169.6000152588
 30
0.0
 11
49.70847565369999
 21
169.6000152588
 31
0.0
  0
LINE
  5
6D
330
2
100
AcDbEntity
  8
0
 62
     3
100
AcDbLine
 10
50.10848480899998
 20
167.4000152588
 30
0.0
 11
49.70847565369999
 21
167.4000152588
 31
0.0
  0
LINE
  5
6E
330
2
100
AcDbEntity
  8
0
 62
     3
100
AcDbLine
 10
50.10848480899998
 20
167.4000152588
 30
0.0
 11
50.10848480899998
 21
169.6000152588
 31
0.0
  0
LINE
  5
6F
330
2
100
AcDbEntity
  8
0
 62
     3
100
AcDbLine
 10
49.70847565369999
 20
169.6000152588
 30
0.0
 11
49.70847565369999
 21
167.4000152588
 31
0.0
  0
LINE
  5
70
330
2
100
AcDbEntity
  8
0
 62
     3
100
AcDbLine
 10
56.10846955019995
 20
162.3200134276999
 30
0.0
 11
56.10846955019995
 21
164.5200134277
 31
0.0
  0
LINE
  5
71
330
2
100
AcDbEntity
  8
0
 62
     3
100
AcDbLine
 10
55.70846039489999
 20
164.5200134277
 30
0.0
 11
55.70846039489999
 21
162.3200134276999
 31
0.0
  0
LINE
  5
72
330
2
100
AcDbEntity
  8
0
 62
     3
100
AcDbLine
 10
56.10846955019995
 20
162.3200134276999
 30
0.0
 11
55.70846039489999
 21
162.3200134276999
 31
0.0
  0
LINE
  5
73
330
2
100
AcDbEntity
  8
0
 62
     3
100
AcDbLine
 10
56.10846955019995
 20
164.5200134277
 30
0.0
 11
55.70846039489999
 21
164.5200134277
 31
0.0
  0
LINE
  5
74
330
2
100
AcDbEntity
  8
0
 62
     3
100
AcDbLine
 10
56.10846955019995
 20
169.6000152588
 30
0.0
 11
56.10846955019995
 21
167.4000152588
 31
0.0
  0
LINE
  5
75
330
2
100
AcDbEntity
  8
0
 62
     3
100
AcDbLine
 10
55.70846039489999
 20
167.4000152588
 30
0.0
 11
55.70846039489999
 21
169.6000152588
 31
0.0
  0
LINE
  5
76
330
2
100
AcDbEntity
  8
0
 62
     3
100
AcDbLine
 10
56.10846955019995
 20
167.4000152588
 30
0.0
 11
55.70846039489999
 21
167.4000152588
 31
0.0
  0
LINE
  5
77
330
2
100
AcDbEntity
  8
0
 62
     3
100
AcDbLine
 10
56.10846955019995
 20
169.6000152588
 30
0.0
 11
55.70846039489999
 21
169.6000152588
 31
0.0
  0
LINE
  5
78
330
2
100
AcDbEntity
  8
0
 62
     3
100
AcDbLine
 10
56.10846955019995
 20
172.480001831
 30
0.0
 11
55.70846039489999
 21
172.480001831
 31
0.0
  0
LINE
  5
79
330
2
100
AcDbEntity
  8
0
 62
     3
100
AcDbLine
 10
50.10848480899998
 20
173.5799636841
 30
0.0
 11
55.70846039489999
 21
173.5799636841
 31
0.0
  0
LINE
  5
7A
330
2
100
AcDbEntity
  8
0
 62
     3
100
AcDbLine
 10
50.10848480899998
 20
174.680001831
 30
0.0
 11
49.70847565369999
 21
174.680001831
 31
0.0
  0
LINE
  5
7B
330
2
100
AcDbEntity
  8
0
 62
     3
100
AcDbLine
 10
56.10846955019995
 20
174.680001831
 30
0.0
 11
55.70846039489999
 21
174.680001831
 31
0.0
  0
LINE
  5
7C
330
2
100
AcDbEntity
  8
0
 62
     3
100
AcDbLine
 10
58.90847260189996
 20
162.0
 30
0.0
 11
58.90847260189996
 21
174.9999923706
 31
0.0
  0
LINE
  5
7D
330
2
100
AcDbEntity
  8
0
 62
     3
100
AcDbLine
 10
58.90847260189996
 20
162.0
 30
0.0
 11
58.90847260189996
 21
174.9999923706
 31
0.0
  0
LINE
  5
7E
330
2
100
AcDbEntity
  8
0
 62
     3
100
AcDbLine
 10
60.80848175719999
 20
163.2236480713
 30
0.0
 11
60.80848175719999
 21
173.7763595581
 31
0.0
  0
LINE
  5
7F
330
2
100
AcDbEntity
  8
0
 62
     3
100
AcDbLine
 10
60.6447111776
 20
172.8998983644
 30
0.0
 11
58.90847260189996
 21
172.8998983644
 31
0.0
  0
LINE
  5
80
330
2
100
AcDbEntity
  8
0
 62
     3
100
AcDbLine
 10
60.80846649839998
 20
169.799941089
 30
0.0
 11
58.90847260189996
 21
169.799941089
 31
0.0
  0
LINE
  5
81
330
2
100
AcDbEntity
  8
0
 62
     3
100
AcDbLine
 10
60.80846649839998
 20
170.599941089
 30
0.0
 11
58.90847260189996
 21
170.599941089
 31
0.0
  0
LINE
  5
82
330
2
100
AcDbEntity
  8
0
 62
     3
100
AcDbLine
 10
60.13131835199999
 20
173.6998983644
 30
0.0
 11
58.90847260189996
 21
173.6998983644
 31
0.0
  0
ARC
  5
83
330
2
100
AcDbEntity
  8
0
 62
     3
100
AcDbCircle
 10
52.90846497249997
 20
168.5
 30
0.0
 40
11.8499984741
100
AcDbArc
 50
336.9017584723998
 51
23.09831324460002
  0
LINE
  5
84
330
2
100
AcDbEntity
  8
0
 62
     3
100
AcDbLine
 10
63.80848175719997
 20
174.7499923706
 30
0.0
 11
63.80848175719997
 21
162.25
 31
0.0
  0
LINE
  5
85
330
2
100
AcDbEntity
  8
0
 62
     3
100
AcDbLine
 10
124.9085183782999
 20
163.200012207
 30
0.0
 11
111.0085092229998
 21
163.200012207
 31
0.0
  0
LINE
  5
86
330
2
100
AcDbEntity
  8
0
 62
     3
100
AcDbLine
 10
124.9085183782999
 20
159.4999999999999
 30
0.0
 11
110.7198739690999
 21
159.4999999999999
 31
0.0
  0
LINE
  5
87
330
2
100
AcDbEntity
  8
0
 62
     3
100
AcDbLine
 10
124.9085183782999
 20
159.0
 30
0.0
 11
111.0085244817999
 21
159.0
 31
0.0
  0
LINE
  5
88
330
2
100
AcDbEntity
  8
0
 62
     3
100
AcDbLine
 10
111.0085244817999
 20
173.7999572754
 30
0.0
 11
124.9085183782999
 21
173.7999572754
 31
0.0
  0
LINE
  5
89
330
2
100
AcDbEntity
  8
0
 62
     3
100
AcDbLine
 10
110.7198739690999
 20
177.4999847412
 30
0.0
 11
124.9226022405999
 21
177.4999847412
 31
0.0
  0
LINE
  5
8A
330
2
100
AcDbEntity
  8
0
 62
     3
100
AcDbLine
 10
111.0085244817999
 20
177.9999694824
 30
0.0
 11
124.9100747748
 21
177.9999694824
 31
0.0
  0
LINE
  5
8B
330
2
100
AcDbEntity
  8
0
  6
CENTER
 62
     3
100
AcDbLine
 10
88.57850128839997
 20
168.5
 30
0.0
 11
141.0344186467999
 21
168.5
 31
0.0
  0
LINE
  5
8C
330
2
100
AcDbEntity
  8
0
  6
CENTER
 62
     3
100
AcDbLine
 10
111.7404580756
 20
219.8840179442999
 30
0.0
 11
122.9373574895999
 21
219.8840179442999
 31
0.0
  0
LINE
  5
8D
330
2
100
AcDbEntity
  8
0
 62
     3
100
AcDbLine
 10
97.03713388830001
 20
172.5987701415999
 30
0.0
 11
102.7084451360999
 21
172.5987701415999
 31
0.0
  0
LINE
  5
8E
330
2
100
AcDbEntity
  8
0
 62
     3
100
AcDbLine
 10
95.4085183783
 20
164.4012145996
 30
0.0
 11
109.6084695501999
 21
164.4012145996
 31
0.0
  0
LINE
  5
8F
330
2
100
AcDbEntity
  8
0
 62
     3
100
AcDbLine
 10
109.7084451360999
 20
159.5999908447
 30
0.0
 11
95.4085183783
 21
159.5999908447
 31
0.0
  0
LINE
  5
90
330
2
100
AcDbEntity
  8
0
 62
     3
100
AcDbLine
 10
95.4085183783
 20
177.3999938965
 30
0.0
 11
109.7084451360999
 21
177.3999938965
 31
0.0
  0
LINE
  5
91
330
2
100
AcDbEntity
  8
0
 62
     3
100
AcDbLine
 10
95.4085183783
 20
159.5999908447
 30
0.0
 11
95.4085183783
 21
169.8000213622999
 31
0.0
  0
LINE
  5
92
330
2
100
AcDbEntity
  8
0
 62
     3
100
AcDbLine
 10
93.40851837829999
 20
174.1799865722
 30
0.0
 11
92.60851837830001
 21
174.1799865722
 31
0.0
  0
LINE
  5
93
330
2
100
AcDbEntity
  8
0
 62
     3
100
AcDbLine
 10
93.40851837829999
 20
172.9799865722
 30
0.0
 11
92.60851837830001
 21
172.9799865722
 31
0.0
  0
LINE
  5
94
330
2
100
AcDbEntity
  8
0
 62
     3
100
AcDbLine
 10
91.80851837829999
 20
174.6799865722
 30
0.0
 11
94.0085183783
 21
174.6799865722
 31
0.0
  0
LINE
  5
95
330
2
100
AcDbEntity
  8
0
 62
     3
100
AcDbLine
 10
91.80851837829999
 20
172.4799865722
 30
0.0
 11
94.0085183783
 21
172.4799865722
 31
0.0
  0
LINE
  5
96
330
2
100
AcDbEntity
  8
0
 62
     3
100
AcDbLine
 10
91.80851837829999
 20
167.4
 30
0.0
 11
94.0085183783
 21
167.4
 31
0.0
  0
LINE
  5
97
330
2
100
AcDbEntity
  8
0
 62
     3
100
AcDbLine
 10
91.80851837829999
 20
169.6
 30
0.0
 11
94.0085183783
 21
169.6
 31
0.0
  0
LINE
  5
98
330
2
100
AcDbEntity
  8
0
 62
     3
100
AcDbLine
 10
93.40851837829999
 20
167.8999999999999
 30
0.0
 11
92.60851837830001
 21
167.8999999999999
 31
0.0
  0
LINE
  5
99
330
2
100
AcDbEntity
  8
0
 62
     3
100
AcDbLine
 10
93.40851837829999
 20
169.1
 30
0.0
 11
92.60851837830001
 21
169.1
 31
0.0
  0
LINE
  5
9A
330
2
100
AcDbEntity
  8
0
 62
     3
100
AcDbLine
 10
91.80851837829999
 20
162.3199981689
 30
0.0
 11
94.0085183783
 21
162.3199981689
 31
0.0
  0
LINE
  5
9B
330
2
100
AcDbEntity
  8
0
 62
     3
100
AcDbLine
 10
91.80851837829999
 20
164.5199981689
 30
0.0
 11
94.0085183783
 21
164.5199981689
 31
0.0
  0
LINE
  5
9C
330
2
100
AcDbEntity
  8
0
 62
     3
100
AcDbLine
 10
93.40851837829999
 20
162.8199981688999
 30
0.0
 11
92.60851837830001
 21
162.8199981688999
 31
0.0
  0
LINE
  5
9D
330
2
100
AcDbEntity
  8
0
 62
     3
100
AcDbLine
 10
93.40851837829999
 20
164.0199981688999
 30
0.0
 11
92.60851837830001
 21
164.0199981688999
 31
0.0
  0
LINE
  5
9E
330
2
100
AcDbEntity
  8
0
  6
CENTER
 62
     3
100
AcDbLine
 10
90.50861756039996
 20
163.4199981689
 30
0.0
 11
97.1110864325
 21
163.4199981689
 31
0.0
  0
LINE
  5
9F
330
2
100
AcDbEntity
  8
0
  6
CENTER
 62
     3
100
AcDbLine
 10
90.50861756039996
 20
173.5799865721999
 30
0.0
 11
97.1110864325
 21
173.5799865721999
 31
0.0
  0
ARC
  5
A0
330
2
100
AcDbEntity
  8
0
 62
     3
100
AcDbCircle
 10
92.60851837830001
 20
173.5799865721999
 30
0.0
 40
0.6
100
AcDbArc
 50
90.0
 51
270.0
  0
LINE
  5
A1
330
2
100
AcDbEntity
  8
0
 62
     3
100
AcDbLine
 10
91.5085183783
 20
172.7799865722
 30
0.0
 11
91.5085183783
 21
174.3799865721999
 31
0.0
  0
LINE
  5
A2
330
2
100
AcDbEntity
  8
0
 62
     3
100
AcDbLine
 10
91.80851837829999
 20
162.3199981689
 30
0.0
 11
91.5085183783
 21
162.6199981689
 31
0.0
  0
LINE
  5
A3
330
2
100
AcDbEntity
  8
0
 62
     3
100
AcDbLine
 10
91.80851837829999
 20
164.5199981689
 30
0.0
 11
91.5085183783
 21
164.2199981689
 31
0.0
  0
ARC
  5
A4
330
2
100
AcDbEntity
  8
0
 62
     3
100
AcDbCircle
 10
92.60851837830001
 20
163.4199981689
 30
0.0
 40
0.6
100
AcDbArc
 50
90.0
 51
270.0
  0
LINE
  5
A5
330
2
100
AcDbEntity
  8
0
 62
     3
100
AcDbLine
 10
91.5085183783
 20
162.6199981689
 30
0.0
 11
91.5085183783
 21
164.2199981689
 31
0.0
  0
LINE
  5
A6
330
2
100
AcDbEntity
  8
0
 62
     3
100
AcDbLine
 10
91.80851837829999
 20
172.4799865722
 30
0.0
 11
91.5085183783
 21
172.7799865722
 31
0.0
  0
LINE
  5
A7
330
2
100
AcDbEntity
  8
0
 62
     3
100
AcDbLine
 10
91.80851837829999
 20
167.4
 30
0.0
 11
91.5085183783
 21
167.6999999999999
 31
0.0
  0
LINE
  5
A8
330
2
100
AcDbEntity
  8
0
 62
     3
100
AcDbLine
 10
91.80851837829999
 20
169.6
 30
0.0
 11
91.5085183783
 21
169.3
 31
0.0
  0
ARC
  5
A9
330
2
100
AcDbEntity
  8
0
 62
     3
100
AcDbCircle
 10
92.60851837830001
 20
168.5
 30
0.0
 40
0.6
100
AcDbArc
 50
90.0
 51
270.0
  0
LINE
  5
AA
330
2
100
AcDbEntity
  8
0
 62
     3
100
AcDbLine
 10
91.5085183783
 20
167.6999999999999
 30
0.0
 11
91.5085183783
 21
169.3
 31
0.0
  0
LINE
  5
AB
330
2
100
AcDbEntity
  8
0
 62
     3
100
AcDbLine
 10
91.80851837829999
 20
174.6799865722
 30
0.0
 11
91.5085183783
 21
174.3799865721999
 31
0.0
  0
LINE
  5
AC
330
2
100
AcDbEntity
  8
0
 62
     3
100
AcDbLine
 10
94.6085183783
 20
172.8999786376999
 30
0.0
 11
95.40853974059999
 21
173.6999999999999
 31
0.0
  0
LINE
  5
AD
330
2
100
AcDbEntity
  8
0
  6
CENTER
 62
     3
100
AcDbLine
 10
96.50837189389999
 20
173.75
 30
0.0
 11
96.50837189389999
 21
169.7499999999999
 31
0.0
  0
ARC
  5
AE
330
2
100
AcDbEntity
  8
0
 62
     3
100
AcDbCircle
 10
93.40851837829999
 20
173.5799865721999
 30
0.0
 40
0.6
100
AcDbArc
 50
270.0
 51
90.0
  0
ARC
  5
AF
330
2
100
AcDbEntity
  8
0
 62
     3
100
AcDbCircle
 10
94.50851837829999
 20
172.6399865722
 30
0.0
 40
0.5
100
AcDbArc
 50
90.0
 51
180.0
  0
CIRCLE
  5
B0
330
2
100
AcDbEntity
  8
0
 62
     3
100
AcDbCircle
 10
96.50837189389999
 20
171.75
 30
0.0
 40
1.0
  0
LINE
  5
B1
330
2
100
AcDbEntity
  8
0
 62
     3
100
AcDbLine
 10
94.50851837829999
 20
163.8600134277
 30
0.0
 11
95.20851837829999
 21
163.8600134277
 31
0.0
  0
LINE
  5
B2
330
2
100
AcDbEntity
  8
0
 62
     3
100
AcDbLine
 10
94.20851837829998
 20
162.6199981689
 30
0.0
 11
95.4085183783
 21
162.6199981689
 31
0.0
  0
ARC
  5
B3
330
2
100
AcDbEntity
  8
0
 62
     3
100
AcDbCircle
 10
94.20851837829998
 20
162.4199981689
 30
0.0
 40
0.2
100
AcDbArc
 50
90.0
 51
180.0
  0
LINE
  5
B4
330
2
100
AcDbEntity
  8
0
 62
     3
100
AcDbLine
 10
94.0085183783
 20
164.3600134277
 30
0.0
 11
94.0085183783
 21
164.5199981689
 31
0.0
  0
LINE
  5
B5
330
2
100
AcDbEntity
  8
0
 62
     3
100
AcDbLine
 10
94.0085183783
 20
162.3199981689
 30
0.0
 11
94.0085183783
 21
162.4199981689
 31
0.0
  0
ARC
  5
B6
330
2
100
AcDbEntity
  8
0
 62
     3
100
AcDbCircle
 10
93.40851837829999
 20
163.4199981689
 30
0.0
 40
0.6
100
AcDbArc
 50
270.0
 51
90.0
  0
ARC
  5
B7
330
2
100
AcDbEntity
  8
0
 62
     3
100
AcDbCircle
 10
94.50851837829999
 20
164.3600134277
 30
0.0
 40
0.5
100
AcDbArc
 50
180.0
 51
270.0
  0
LINE
  5
B8
330
2
100
AcDbEntity
  8
0
 62
     3
100
AcDbLine
 10
95.20851837829999
 20
163.42
 30
0.0
 11
95.20851837829999
 21
164.15
 31
0.0
  0
LINE
  5
B9
330
2
100
AcDbEntity
  8
0
 62
     3
100
AcDbLine
 10
95.20851837829999
 20
163.42
 30
0.0
 11
95.4085183783
 21
163.42
 31
0.0
  0
LINE
  5
BA
330
2
100
AcDbEntity
  8
0
 62
     3
100
AcDbLine
 10
95.00851837829999
 20
164.35
 30
0.0
 11
95.00851837829999
 21
166.15
 31
0.0
  0
LINE
  5
BB
330
2
100
AcDbEntity
  8
0
 62
     3
100
AcDbLine
 10
95.20851837829999
 20
164.15
 30
0.0
 11
95.00851837829999
 21
164.35
 31
0.0
  0
LINE
  5
BC
330
2
100
AcDbEntity
  8
0
 62
     3
100
AcDbLine
 10
95.4085183783
 20
166.55
 30
0.0
 11
95.00851837829999
 21
166.15
 31
0.0
  0
LINE
  5
BD
330
2
100
AcDbEntity
  8
0
 62
     3
100
AcDbLine
 10
95.20851837829999
 20
163.42
 30
0.0
 11
95.4085183783
 21
163.42
 31
0.0
  0
LINE
  5
BE
330
2
100
AcDbEntity
  8
0
 62
     3
100
AcDbLine
 10
94.60853974059999
 20
172.5987701415999
 30
0.0
 11
95.97960989950001
 21
172.5987701415999
 31
0.0
  0
LINE
  5
BF
330
2
100
AcDbEntity
  8
0
 62
     3
100
AcDbLine
 10
94.6085183783
 20
170.6000213622999
 30
0.0
 11
95.40853974059999
 21
169.8
 31
0.0
  0
LINE
  5
C0
330
2
100
AcDbEntity
  8
0
 62
     3
100
AcDbLine
 10
94.20851837829998
 20
167.6999999999999
 30
0.0
 11
95.4085183783
 21
167.6999999999999
 31
0.0
  0
LINE
  5
C1
330
2
100
AcDbEntity
  8
0
 62
     3
100
AcDbLine
 10
94.20851837829998
 20
169.3
 30
0.0
 11
95.4085183783
 21
169.3
 31
0.0
  0
LINE
  5
C2
330
2
100
AcDbEntity
  8
0
 62
     3
100
AcDbLine
 10
94.50851837829999
 20
173.1399865721999
 30
0.0
 11
94.84852631290001
 21
173.1399865721999
 31
0.0
  0
LINE
  5
C3
330
2
100
AcDbEntity
  8
0
 62
     3
100
AcDbLine
 10
94.6085183783
 20
170.6000213622999
 30
0.0
 11
94.6085183783
 21
172.8999786376999
 31
0.0
  0
LINE
  5
C4
330
2
100
AcDbEntity
  8
0
 62
     3
100
AcDbLine
 10
94.0085183783
 20
172.4799865722
 30
0.0
 11
94.0085183783
 21
172.6399865722
 31
0.0
  0
ARC
  5
C5
330
2
100
AcDbEntity
  8
0
 62
     3
100
AcDbCircle
 10
94.20851837829998
 20
167.5
 30
0.0
 40
0.2
100
AcDbArc
 50
90.0
 51
180.0
  0
ARC
  5
C6
330
2
100
AcDbEntity
  8
0
 62
     3
100
AcDbCircle
 10
94.20851837829998
 20
169.5
 30
0.0
 40
0.2
100
AcDbArc
 50
180.0
 51
270.0
  0
LINE
  5
C7
330
2
100
AcDbEntity
  8
0
 62
     3
100
AcDbLine
 10
94.0085183783
 20
169.5
 30
0.0
 11
94.0085183783
 21
169.6
 31
0.0
  0
LINE
  5
C8
330
2
100
AcDbEntity
  8
0
 62
     3
100
AcDbLine
 10
94.0085183783
 20
167.4
 30
0.0
 11
94.0085183783
 21
167.5
 31
0.0
  0
ARC
  5
C9
330
2
100
AcDbEntity
  8
0
 62
     3
100
AcDbCircle
 10
93.40851837829999
 20
168.5
 30
0.0
 40
0.6
100
AcDbArc
 50
270.0
 51
90.0
  0
LINE
  5
CA
330
2
100
AcDbEntity
  8
0
 62
     3
100
AcDbLine
 10
94.20851837829998
 20
174.3799865721999
 30
0.0
 11
95.4085183783
 21
174.3799865721999
 31
0.0
  0
LINE
  5
CB
330
2
100
AcDbEntity
  8
0
 62
     3
100
AcDbLine
 10
94.0085183783
 20
174.5799865721999
 30
0.0
 11
94.0085183783
 21
174.6799865722
 31
0.0
  0
ARC
  5
CC
330
2
100
AcDbEntity
  8
0
 62
     3
100
AcDbCircle
 10
94.20851837829998
 20
174.5799865721999
 30
0.0
 40
0.2
100
AcDbArc
 50
180.0
 51
270.0
  0
LINE
  5
CD
330
2
100
AcDbEntity
  8
0
 62
     3
100
AcDbLine
 10
95.4085183783
 20
173.6999786377
 30
0.0
 11
95.4085183783
 21
177.3999938965
 31
0.0
  0
LINE
  5
CE
330
2
100
AcDbEntity
  8
0
 62
     3
100
AcDbLine
 10
110.7198587102999
 20
164.400024414
 30
0.0
 11
110.7198587102999
 21
159.4999847412
 31
0.0
  0
LINE
  5
CF
330
2
100
AcDbEntity
  8
0
 62
     3
100
AcDbLine
 10
111.0084787053999
 20
159.0
 30
0.0
 11
111.0084787053999
 21
163.200012207
 31
0.0
  0
LINE
  5
D0
330
2
100
AcDbEntity
  8
0
 62
     3
100
AcDbLine
 10
109.7084451360999
 20
159.5999908447
 30
0.0
 11
109.7084451360999
 21
177.3999938965
 31
0.0
  0
LINE
  5
D1
330
2
100
AcDbEntity
  8
0
 62
     3
100
AcDbLine
 10
108.4083963079998
 20
161.5
 30
0.0
 11
107.1084695501999
 21
161.5
 31
0.0
  0
LINE
  5
D2
330
2
100
AcDbEntity
  8
0
 62
     3
100
AcDbLine
 10
107.1084695501999
 20
161.4601135254
 30
0.0
 11
108.4084878606999
 21
161.4601135254
 31
0.0
  0
LINE
  5
D3
330
2
100
AcDbEntity
  8
0
 62
     3
100
AcDbLine
 10
107.1084770416
 20
160.8462882851999
 30
0.0
 11
107.9083952306999
 21
160.1999918763
 31
0.0
  0
LINE
  5
D4
330
2
100
AcDbEntity
  8
0
 62
     3
100
AcDbLine
 10
107.1084720037999
 20
161.3850721882
 30
0.0
 11
107.9084524998999
 21
160.7849953203
 31
0.0
  0
LINE
  5
D5
330
2
100
AcDbEntity
  8
0
 62
     3
100
AcDbLine
 10
108.4083963079998
 20
159.8276214599
 30
0.0
 11
107.1084695501999
 21
159.8276214599
 31
0.0
  0
LINE
  5
D6
330
2
100
AcDbEntity
  8
0
 62
     3
100
AcDbLine
 10
107.0085549993999
 20
159.5999908447
 30
0.0
 11
110.7199044866999
 21
159.5999908447
 31
0.0
  0
LINE
  5
D7
330
2
100
AcDbEntity
  8
0
 62
     3
100
AcDbLine
 10
107.1084695501999
 20
160.4999999999999
 30
0.0
 11
107.5371804876999
 21
160.4999999999999
 31
0.0
  0
LINE
  5
D8
330
2
100
AcDbEntity
  8
0
 62
     3
100
AcDbLine
 10
107.1084695501999
 20
159.8276214599
 30
0.0
 11
107.1084695501999
 21
161.5
 31
0.0
  0
LINE
  5
D9
330
2
100
AcDbEntity
  8
0
 62
     3
100
AcDbLine
 10
107.9084878606999
 20
160.1999969482
 30
0.0
 11
108.4084878606999
 21
160.1999969482
 31
0.0
  0
LINE
  5
DA
330
2
100
AcDbEntity
  8
0
 62
     3
100
AcDbLine
 10
107.9084878606999
 20
160.7850036621
 30
0.0
 11
108.4084878606999
 21
160.7850036621
 31
0.0
  0
LINE
  5
DB
330
2
100
AcDbEntity
  8
0
 62
     3
100
AcDbLine
 10
107.9084878606999
 20
160.7850036621
 30
0.0
 11
107.9084878606999
 21
160.1999969482
 31
0.0
  0
LINE
  5
DC
330
2
100
AcDbEntity
  8
0
 62
     3
100
AcDbLine
 10
108.4084878606999
 20
161.4601135254
 30
0.0
 11
108.4084878606999
 21
160.1999969482
 31
0.0
  0
LINE
  5
DD
330
2
100
AcDbEntity
  8
0
 62
     3
100
AcDbLine
 10
108.4083963079998
 20
159.8276214599
 30
0.0
 11
108.4083963079998
 21
161.5
 31
0.0
  0
LINE
  5
DE
330
2
100
AcDbEntity
  8
0
 62
     3
100
AcDbLine
 10
110.7198621492999
 20
159.5000824061
 30
0.0
 11
111.0084897393999
 21
159.0001646704999
 31
0.0
  0
LINE
  5
DF
330
2
100
AcDbEntity
  8
0
 62
     3
100
AcDbLine
 10
107.9084464089999
 20
176.799947895
 30
0.0
 11
107.1084807442999
 21
176.1536131279
 31
0.0
  0
LINE
  5
E0
330
2
100
AcDbEntity
  8
0
 62
     3
100
AcDbLine
 10
107.1084695501999
 20
177.1723632812
 30
0.0
 11
108.4083963079998
 21
177.1723632812
 31
0.0
  0
LINE
  5
E1
330
2
100
AcDbEntity
  8
0
 62
     3
100
AcDbLine
 10
107.1084695501999
 20
175.4999999999999
 30
0.0
 11
108.4083963079998
 21
175.4999999999999
 31
0.0
  0
LINE
  5
E2
330
2
100
AcDbEntity
  8
0
 62
     3
100
AcDbLine
 10
107.9084930994999
 20
176.214997995
 30
0.0
 11
107.1084759843999
 21
175.6148936586
 31
0.0
  0
LINE
  5
E3
330
2
100
AcDbEntity
  8
0
 62
     3
100
AcDbLine
 10
108.4084878606999
 20
175.5398864745999
 30
0.0
 11
107.1084695501999
 21
175.5398864745999
 31
0.0
  0
LINE
  5
E4
330
2
100
AcDbEntity
  8
0
 62
     3
100
AcDbLine
 10
106.9083963079998
 20
172.5987701415999
 30
0.0
 11
109.7084451360999
 21
172.5987701415999
 31
0.0
  0
LINE
  5
E5
330
2
100
AcDbEntity
  8
0
 62
     3
100
AcDbLine
 10
110.7199044866999
 20
177.3999938965
 30
0.0
 11
107.0085549993999
 21
177.3999938965
 31
0.0
  0
LINE
  5
E6
330
2
100
AcDbEntity
  8
0
 62
     3
100
AcDbLine
 10
107.0085244817999
 20
172.5999755859
 30
0.0
 11
110.7198739690999
 21
172.5999755859
 31
0.0
  0
LINE
  5
E7
330
2
100
AcDbEntity
  8
0
 62
     3
100
AcDbLine
 10
110.7198739690999
 20
164.4000091553
 30
0.0
 11
107.0085244817999
 21
164.4000091553
 31
0.0
  0
LINE
  5
E8
330
2
100
AcDbEntity
  8
0
 62
     3
100
AcDbLine
 10
105.8084472484999
 20
170.4999808115999
 30
0.0
 11
106.1084964002999
 21
175.1999924639
 31
0.0
  0
LINE
  5
E9
330
2
100
AcDbEntity
  8
0
 62
     3
100
AcDbLine
 10
106.5084939641999
 20
175.1999969481999
 30
0.0
 11
106.5084939641999
 21
166.5
 31
0.0
  0
LINE
  5
EA
330
2
100
AcDbEntity
  8
0
 62
     3
100
AcDbLine
 10
106.9083963079998
 20
166.5
 30
0.0
 11
106.9083963079998
 21
175.1999969481999
 31
0.0
  0
LINE
  5
EB
330
2
100
AcDbEntity
  8
0
 62
     3
100
AcDbLine
 10
103.8085519358
 20
170.5000105511999
 30
0.0
 11
103.4086496719999
 21
176.2923441836
 31
0.0
  0
LINE
  5
EC
330
2
100
AcDbEntity
  8
0
 62
     3
100
AcDbLine
 10
102.7084451360999
 20
166.5
 30
0.0
 11
102.7084451360999
 21
176.2923278807999
 31
0.0
  0
LINE
  5
ED
330
2
100
AcDbEntity
  8
0
 62
     3
100
AcDbLine
 10
102.7084451360999
 20
166.5
 30
0.0
 11
106.9083963079998
 21
166.5
 31
0.0
  0
LINE
  5
EE
330
2
100
AcDbEntity
  8
0
 62
     3
100
AcDbLine
 10
103.6751199407997
 20
172.4339599609
 30
0.0
 11
105.9319558782999
 21
172.4339599609
 31
0.0
  0
LINE
  5
EF
330
2
100
AcDbEntity
  8
0
 62
     3
100
AcDbLine
 10
103.8084207219999
 20
167.5
 30
0.0
 11
105.8084207219999
 21
167.5
 31
0.0
  0
LINE
  5
F0
330
2
100
AcDbEntity
  8
0
 62
     3
100
AcDbLine
 10
103.8084207219999
 20
167.5
 30
0.0
 11
103.8084207219999
 21
170.5
 31
0.0
  0
LINE
  5
F1
330
2
100
AcDbEntity
  8
0
 62
     3
100
AcDbLine
 10
105.8084207219999
 20
167.5
 30
0.0
 11
105.8084207219999
 21
170.5
 31
0.0
  0
LINE
  5
F2
330
2
100
AcDbEntity
  8
0
 62
     3
100
AcDbLine
 10
103.6049295110999
 20
173.4507446289
 30
0.0
 11
105.9968972844999
 21
173.4507446289
 31
0.0
  0
LINE
  5
F3
330
2
100
AcDbEntity
  8
0
 62
     3
100
AcDbLine
 10
102.7084451360999
 20
176.2923278807999
 30
0.0
 11
103.4085183782997
 21
176.2923278807999
 31
0.0
  0
LINE
  5
F4
330
2
100
AcDbEntity
  8
0
 62
     3
100
AcDbLine
 10
102.7084451360999
 20
173.7999725342
 30
0.0
 11
103.5807595892
 21
173.7999725342
 31
0.0
  0
LINE
  5
F5
330
2
100
AcDbEntity
  8
0
 62
     3
100
AcDbLine
 10
106.0191140813999
 20
173.7999725342
 30
0.0
 11
106.5084939641999
 21
173.7999725342
 31
0.0
  0
LINE
  5
F6
330
2
100
AcDbEntity
  8
0
 62
     3
100
AcDbLine
 10
106.1084695501999
 20
175.1999969481999
 30
0.0
 11
106.9083963079998
 21
175.1999969481999
 31
0.0
  0
LINE
  5
F7
330
2
100
AcDbEntity
  8
0
 62
     3
100
AcDbLine
 10
107.1084695501999
 20
175.4999999999999
 30
0.0
 11
107.1084695501999
 21
177.1723632812
 31
0.0
  0
LINE
  5
F8
330
2
100
AcDbEntity
  8
0
 62
     3
100
AcDbLine
 10
107.5371804876999
 20
176.5
 30
0.0
 11
107.1084695501999
 21
176.5
 31
0.0
  0
LINE
  5
F9
330
2
100
AcDbEntity
  8
0
 62
     3
100
AcDbLine
 10
110.7197929242999
 20
172.5998893631999
 30
0.0
 11
111.0084210618999
 21
173.7999202258
 31
0.0
  0
LINE
  5
FA
330
2
100
AcDbEntity
  8
0
 62
     3
100
AcDbLine
 10
110.7198587102999
 20
177.4999847412
 30
0.0
 11
110.7198587102999
 21
172.5999755859
 31
0.0
  0
LINE
  5
FB
330
2
100
AcDbEntity
  8
0
 62
     3
100
AcDbLine
 10
111.0084243842999
 20
163.2001503064
 30
0.0
 11
110.7198390654998
 21
164.4000031403999
 31
0.0
  0
LINE
  5
FC
330
2
100
AcDbEntity
  8
0
 62
     3
100
AcDbLine
 10
108.4083963079998
 20
175.4999999999999
 30
0.0
 11
108.4083963079998
 21
177.1723632812
 31
0.0
  0
LINE
  5
FD
330
2
100
AcDbEntity
  8
0
 62
     3
100
AcDbLine
 10
107.9084878606999
 20
176.799987793
 30
0.0
 11
107.9084878606999
 21
176.2149963379
 31
0.0
  0
LINE
  5
FE
330
2
100
AcDbEntity
  8
0
 62
     3
100
AcDbLine
 10
108.4084878606999
 20
176.799987793
 30
0.0
 11
107.9084878606999
 21
176.799987793
 31
0.0
  0
LINE
  5
FF
330
2
100
AcDbEntity
  8
0
 62
     3
100
AcDbLine
 10
108.4084878606999
 20
176.2149963379
 30
0.0
 11
107.9084878606999
 21
176.2149963379
 31
0.0
  0
LINE
  5
100
330
2
100
AcDbEntity
  8
0
 62
     3
100
AcDbLine
 10
108.4084878606999
 20
176.799987793
 30
0.0
 11
108.4084878606999
 21
175.5398864745999
 31
0.0
  0
LINE
  5
101
330
2
100
AcDbEntity
  8
0
 62
     3
100
AcDbLine
 10
111.0084939642
 20
173.7999572754
 30
0.0
 11
111.0084939642
 21
177.9999694824
 31
0.0
  0
LINE
  5
102
330
2
100
AcDbEntity
  8
0
 62
     3
100
AcDbLine
 10
111.0083939630999
 20
177.9999069557
 30
0.0
 11
110.7196977084999
 21
177.4998702897
 31
0.0
  0
LINE
  5
103
330
2
100
AcDbEntity
  8
0
 62
     3
100
AcDbLine
 10
127.9085183782999
 20
177.9999694824
 30
0.0
 11
130.4085031194999
 21
177.9999694824
 31
0.0
  0
LINE
  5
104
330
2
100
AcDbEntity
  8
0
 62
     3
100
AcDbLine
 10
127.9085183782999
 20
177.4999847412
 30
0.0
 11
130.6083627385999
 21
177.4999847412
 31
0.0
  0
LINE
  5
105
330
2
100
AcDbEntity
  8
0
 62
     3
100
AcDbLine
 10
127.9085183782999
 20
173.7999572754
 30
0.0
 11
130.4085031194999
 21
173.7999572754
 31
0.0
  0
LINE
  5
106
330
2
100
AcDbEntity
  8
0
 62
     3
100
AcDbLine
 10
130.4084878606998
 20
163.200012207
 30
0.0
 11
127.9085183782999
 21
163.200012207
 31
0.0
  0
LINE
  5
107
330
2
100
AcDbEntity
  8
0
 62
     3
100
AcDbLine
 10
130.6083627385999
 20
159.4999999999999
 30
0.0
 11
127.9085183782999
 21
159.4999999999999
 31
0.0
  0
LINE
  5
108
330
2
100
AcDbEntity
  8
0
 62
     3
100
AcDbLine
 10
130.4085031194999
 20
159.0
 30
0.0
 11
127.9085183782999
 21
159.0
 31
0.0
  0
ARC
  5
109
330
2
100
AcDbEntity
  8
0
 62
     3
100
AcDbCircle
 10
129.9084878606999
 20
159.125
 30
0.0
 40
5.0
100
AcDbArc
 50
141.3178160408999
 51
218.6821666563
  0
LINE
  5
10A
330
2
100
AcDbEntity
  8
0
 62
     3
100
AcDbLine
 10
124.9085031194999
 20
177.8749694824
 30
0.0
 11
124.9085031194999
 21
159.125
 31
0.0
  0
LINE
  5
10B
330
2
100
AcDbEntity
  8
0
 62
     3
100
AcDbLine
 10
127.9085031194999
 20
180.9999694824
 30
0.0
 11
127.9085031194999
 21
156.0
 31
0.0
  0
LINE
  5
10C
330
2
100
AcDbEntity
  8
0
 62
     3
100
AcDbLine
 10
127.9085183782999
 20
156.0
 30
0.0
 11
126.0053964299999
 21
156.0
 31
0.0
  0
ARC
  5
10D
330
2
100
AcDbEntity
  8
0
 62
     3
100
AcDbCircle
 10
140.2084146184999
 20
168.4499969482
 30
0.0
 40
15.5
100
AcDbArc
 50
156.0178584555997
 51
170.7858202713999
  0
LINE
  5
10E
330
2
100
AcDbEntity
  8
0
 62
     3
100
AcDbLine
 10
126.0053659124999
 20
162.2503662109
 30
0.0
 11
127.9084726018999
 21
162.2503662109
 31
0.0
  0
ARC
  5
10F
330
2
100
AcDbEntity
  8
0
 62
     3
100
AcDbCircle
 10
140.2084146184999
 20
168.4499969482
 30
0.0
 40
15.5
100
AcDbArc
 50
189.2141797286
 51
203.5781768361
  0
LINE
  5
110
330
2
100
AcDbEntity
  8
0
 62
     3
100
AcDbLine
 10
127.9085183782999
 20
180.9999694824
 30
0.0
 11
126.0053964299999
 21
180.9999694824
 31
0.0
  0
LINE
  5
111
330
2
100
AcDbEntity
  8
0
 62
     3
100
AcDbLine
 10
127.9085183782999
 20
174.7499694824
 30
0.0
 11
126.0053964299999
 21
174.7499694824
 31
0.0
  0
ARC
  5
112
330
2
100
AcDbEntity
  8
0
 62
     3
100
AcDbCircle
 10
129.9085031194999
 20
177.8749847412
 30
0.0
 40
5.0
100
AcDbArc
 50
141.3178160408999
 51
218.6821666563
  0
LINE
  5
113
330
2
100
AcDbEntity
  8
0
 62
     3
100
AcDbLine
 10
138.4083657903999
 20
177.5107727051
 30
0.0
 11
138.4083657903999
 21
159.4883422850999
 31
0.0
  0
LINE
  5
114
330
2
100
AcDbEntity
  8
0
 62
     3
100
AcDbLine
 10
130.4084726018999
 20
159.0
 30
0.0
 11
130.4084726018999
 21
163.200012207
 31
0.0
  0
LINE
  5
115
330
2
100
AcDbEntity
  8
0
 62
     3
100
AcDbLine
 10
130.6083627385999
 20
179.4999999999999
 30
0.0
 11
130.6083627385999
 21
157.5
 31
0.0
  0
LINE
  5
116
330
2
100
AcDbEntity
  8
0
 62
     3
100
AcDbLine
 10
131.4083657903999
 20
180.0499420166
 30
0.0
 11
131.4083657903999
 21
156.9499664305999
 31
0.0
  0
LINE
  5
117
330
2
100
AcDbEntity
  8
0
 62
     3
100
AcDbLine
 10
132.9084115667999
 20
179.771987915
 30
0.0
 11
132.9084115667999
 21
157.0571136474
 31
0.0
  0
LINE
  5
118
330
2
100
AcDbEntity
  8
0
 62
     3
100
AcDbLine
 10
132.9700467044999
 20
156.6796507724999
 30
0.0
 11
138.2384350168997
 21
159.2180464077
 31
0.0
  0
LINE
  5
119
330
2
100
AcDbEntity
  8
0
 62
     3
100
AcDbLine
 10
131.7083688422
 20
156.6499633789
 30
0.0
 11
132.8399301215
 21
156.6499633789
 31
0.0
  0
LINE
  5
11A
330
2
100
AcDbEntity
  8
0
 62
     3
100
AcDbLine
 10
130.6083648176999
 20
159.3465189446999
 30
0.0
 11
130.4083068580997
 21
159.0000083354
 31
0.0
  0
ARC
  5
11B
330
2
100
AcDbEntity
  8
0
 62
     3
100
AcDbCircle
 10
131.7083688422
 20
156.9499664305999
 30
0.0
 40
0.2999999522999999
100
AcDbArc
 50
179.9999640277999
 51
269.9999460416999
  0
LINE
  5
11C
330
2
100
AcDbEntity
  8
0
 62
     3
100
AcDbLine
 10
130.6083627385999
 20
157.5
 30
0.0
 11
131.4083657903999
 21
157.5
 31
0.0
  0
ARC
  5
11D
330
2
100
AcDbEntity
  8
0
 62
     3
100
AcDbCircle
 10
132.8399301215
 20
156.9499664305999
 30
0.0
 40
0.2999999522999999
100
AcDbArc
 50
269.9996354955
 51
295.725242476
  0
ARC
  5
11E
330
2
100
AcDbEntity
  8
0
 62
     3
100
AcDbCircle
 10
138.1081948919999
 20
159.4883575439
 30
0.0
 40
0.2999999522999999
100
AcDbArc
 50
295.7039869272998
 51
359.9986526317999
  0
LINE
  5
11F
330
2
100
AcDbEntity
  8
0
 62
     3
100
AcDbLine
 10
138.2384239590997
 20
177.7810977024
 30
0.0
 11
132.9685647824
 21
180.320202024
 31
0.0
  0
LINE
  5
120
330
2
100
AcDbEntity
  8
0
 62
     3
100
AcDbLine
 10
130.4073814175999
 20
173.7995875373999
 30
0.0
 11
130.6083681340997
 21
172.9642970604
 31
0.0
  0
LINE
  5
121
330
2
100
AcDbEntity
  8
0
 62
     3
100
AcDbLine
 10
130.6083697502999
 20
164.0308622174999
 30
0.0
 11
130.4084467955999
 21
163.1999926798
 31
0.0
  0
LINE
  5
122
330
2
100
AcDbEntity
  8
0
 62
     3
100
AcDbLine
 10
130.4084878606998
 20
173.7999572754
 30
0.0
 11
130.4084878606998
 21
177.9999694824
 31
0.0
  0
LINE
  5
123
330
2
100
AcDbEntity
  8
0
 62
     3
100
AcDbLine
 10
130.4084413290999
 20
177.9998741992999
 30
0.0
 11
130.608369589
 21
177.6535882364
 31
0.0
  0
LINE
  5
124
330
2
100
AcDbEntity
  8
0
 62
     3
100
AcDbLine
 10
132.8383584661999
 20
180.3499450682999
 30
0.0
 11
131.7083688422
 21
180.3499450682999
 31
0.0
  0
ARC
  5
125
330
2
100
AcDbEntity
  8
0
 62
     3
100
AcDbCircle
 10
131.7083688422
 20
180.0499420166
 30
0.0
 40
0.2999999522999999
100
AcDbArc
 50
89.99998201389999
 51
179.9999640277999
  0
LINE
  5
126
330
2
100
AcDbEntity
  8
0
 62
     3
100
AcDbLine
 10
130.6083627385999
 20
179.4999999999999
 30
0.0
 11
131.4083657903999
 21
179.4999999999999
 31
0.0
  0
ARC
  5
127
330
2
100
AcDbEntity
  8
0
 62
     3
100
AcDbCircle
 10
132.8383584661999
 20
180.0499420166
 30
0.0
 40
0.2999999522999999
100
AcDbArc
 50
64.2755225052
 51
90.00112948569999
  0
ARC
  5
128
330
2
100
AcDbEntity
  8
0
 62
     3
100
AcDbCircle
 10
138.1081948919999
 20
177.5107879638999
 30
0.0
 40
0.2999999522999999
100
AcDbArc
 50
359.9998174061
 51
64.295412016
  0
LINE
  5
129
330
2
100
AcDbEntity
  8
0
 62
     3
100
AcDbLine
 10
127.9060311956998
 20
228.1840057372998
 30
0.0
 11
142.7420602483999
 21
228.1840057372998
 31
0.0
  0
LINE
  5
12A
330
2
100
AcDbEntity
  8
0
 62
     3
100
AcDbLine
 10
127.9060311956998
 20
229.1840057373
 30
0.0
 11
142.7420602483999
 21
229.1840057373
 31
0.0
  0
LINE
  5
12B
330
2
100
AcDbEntity
  8
0
 62
     3
100
AcDbLine
 10
130.0070443792999
 20
223.6840209961
 30
0.0
 11
130.9403787298997
 21
223.6840209961
 31
0.0
  0
LINE
  5
12C
330
2
100
AcDbEntity
  8
0
 62
     3
100
AcDbLine
 10
128.6737466498
 20
217.6840362548999
 30
0.0
 11
130.9403787298997
 21
217.6840362548999
 31
0.0
  0
LINE
  5
12D
330
2
100
AcDbEntity
  8
0
 62
     3
100
AcDbLine
 10
127.9060311956998
 20
213.1840057372999
 30
0.0
 11
142.7420602483999
 21
213.1840057372999
 31
0.0
  0
LINE
  5
12E
330
2
100
AcDbEntity
  8
0
 62
     3
100
AcDbLine
 10
127.9060311956998
 20
212.1840057372998
 30
0.0
 11
142.7420602483999
 21
212.1840057372998
 31
0.0
  0
LINE
  5
12F
330
2
100
AcDbEntity
  8
0
 62
     3
100
AcDbLine
 10
120.5070596381
 20
225.1840209961
 30
0.0
 11
123.0070596380999
 21
225.1840209961
 31
0.0
  0
LINE
  5
130
330
2
100
AcDbEntity
  8
0
 62
     3
100
AcDbLine
 10
120.5070596381
 20
216.1840209960999
 30
0.0
 11
123.0070596380999
 21
216.1840209960999
 31
0.0
  0
LINE
  5
131
330
2
100
AcDbEntity
  8
0
  6
PHANTOM
 62
     3
100
AcDbLine
 10
120.5070596381
 20
229.0840301513999
 30
0.0
 11
120.5070596381
 21
210.6840209961
 31
0.0
  0
LINE
  5
132
330
2
100
AcDbEntity
  8
0
  6
PHANTOM
 62
     3
100
AcDbLine
 10
120.5070409634999
 20
210.6839919438999
 30
0.0
 11
117.5070454463998
 21
208.8839950506998
 31
0.0
  0
LINE
  5
133
330
2
100
AcDbEntity
  8
0
  6
PHANTOM
 62
     3
100
AcDbLine
 10
117.5070596380999
 20
208.8840332030999
 30
0.0
 11
116.0070596380998
 21
208.8840332030999
 31
0.0
  0
LINE
  5
134
330
2
100
AcDbEntity
  8
0
 62
     3
100
AcDbLine
 10
129.8737130803999
 20
220.5506896971999
 30
0.0
 11
129.8737130803999
 21
218.5507049559999
 31
0.0
  0
LINE
  5
135
330
2
100
AcDbEntity
  8
0
 62
     3
100
AcDbLine
 10
127.8737283391997
 20
221.4173736572
 30
0.0
 11
127.8737283391997
 21
217.8173828125
 31
0.0
  0
LINE
  5
136
330
2
100
AcDbEntity
  8
0
 62
     3
100
AcDbLine
 10
128.2737374944999
 20
221.0173645019
 30
0.0
 11
128.2737374944999
 21
218.0840454101
 31
0.0
  0
LINE
  5
137
330
2
100
AcDbEntity
  8
0
 62
     3
100
AcDbLine
 10
129.4737344427
 20
220.5506896971999
 30
0.0
 11
129.4737344427
 21
218.5507049559999
 31
0.0
  0
LINE
  5
138
330
2
100
AcDbEntity
  8
0
 62
     3
100
AcDbLine
 10
126.5404153508999
 20
221.4173736572
 30
0.0
 11
126.5404153508999
 21
217.8173828125
 31
0.0
  0
LINE
  5
139
330
2
100
AcDbEntity
  8
0
 62
     3
100
AcDbLine
 10
123.0070596380999
 20
217.1840057373
 30
0.0
 11
123.0070596380999
 21
224.1840057373
 31
0.0
  0
ARC
  5
13A
330
2
100
AcDbEntity
  8
0
 62
     3
100
AcDbCircle
 10
123.0070596380999
 20
212.6840362548999
 30
0.0
 40
3.5
100
AcDbArc
 50
11.5370262063
 51
89.99998201389999
  0
ARC
  5
13B
330
2
100
AcDbEntity
  8
0
 62
     3
100
AcDbCircle
 10
123.0070596380999
 20
212.6840362548999
 30
0.0
 40
4.5
100
AcDbArc
 50
11.5370262063
 51
89.99998201389999
  0
ARC
  5
13C
330
2
100
AcDbEntity
  8
0
 62
     3
100
AcDbCircle
 10
127.9060311956998
 20
213.6840362549
 30
0.0
 40
1.5
100
AcDbArc
 50
191.5369904615
 51
269.9999633446
  0
ARC
  5
13D
330
2
100
AcDbEntity
  8
0
 62
     3
100
AcDbCircle
 10
127.9060311956998
 20
213.6840362549
 30
0.0
 40
0.5
100
AcDbArc
 50
191.5369904615
 51
269.9999633446
  0
ARC
  5
13E
330
2
100
AcDbEntity
  8
0
 62
     3
100
AcDbCircle
 10
127.7404275579999
 20
217.8174591063998
 30
0.0
 40
0.1333329678
100
AcDbArc
 50
270.0001272691
 51
0.0
  0
ARC
  5
13F
330
2
100
AcDbEntity
  8
0
 62
     3
100
AcDbCircle
 10
126.6737771673999
 20
217.8174591063998
 30
0.0
 40
0.1333329678
100
AcDbArc
 50
180.0001452552
 51
270.0001272691
  0
LINE
  5
140
330
2
100
AcDbEntity
  8
0
 62
     3
100
AcDbLine
 10
126.6737466498
 20
217.6840362548999
 30
0.0
 11
127.7403817815999
 21
217.6840362548999
 31
0.0
  0
ARC
  5
141
330
2
100
AcDbEntity
  8
0
 62
     3
100
AcDbCircle
 10
128.6737924260999
 20
218.0841217041
 30
0.0
 40
0.3999996781
100
AcDbArc
 50
180.0001452552
 51
270.0001272691
  0
ARC
  5
142
330
2
100
AcDbEntity
  8
0
 62
     3
100
AcDbCircle
 10
129.6737771673997
 20
218.5507965088
 30
0.0
 40
0.1999995708
100
AcDbArc
 50
180.0001452552
 51
0.0
  0
ARC
  5
143
330
2
100
AcDbEntity
  8
0
 62
     3
100
AcDbCircle
 10
127.9060311956998
 20
227.6840209961
 30
0.0
 40
1.5
100
AcDbArc
 50
90.00003665540001
 51
168.4630095385
  0
ARC
  5
144
330
2
100
AcDbEntity
  8
0
 62
     3
100
AcDbCircle
 10
123.0070596380999
 20
228.6840209960999
 30
0.0
 40
4.5
100
AcDbArc
 50
270.0000179861
 51
348.4629942841999
  0
ARC
  5
145
330
2
100
AcDbEntity
  8
0
 62
     3
100
AcDbCircle
 10
123.0070596380999
 20
228.6840209960999
 30
0.0
 40
3.5
100
AcDbArc
 50
270.0000179861
 51
348.4629942841999
  0
ARC
  5
146
330
2
100
AcDbEntity
  8
0
 62
     3
100
AcDbCircle
 10
127.7404275579999
 20
223.5507507323999
 30
0.0
 40
0.1333329678
100
AcDbArc
 50
0.0
 51
89.99981808940002
  0
LINE
  5
147
330
2
100
AcDbEntity
  8
0
 62
     3
100
AcDbLine
 10
127.8737283391997
 20
223.5506744384998
 30
0.0
 11
127.8737283391997
 21
222.3173522948999
 31
0.0
  0
ARC
  5
148
330
2
100
AcDbEntity
  8
0
 62
     3
100
AcDbCircle
 10
126.6737771673999
 20
223.5507507323999
 30
0.0
 40
0.1333329678
100
AcDbArc
 50
89.99987273089997
 51
179.9998001033
  0
LINE
  5
149
330
2
100
AcDbEntity
  8
0
 62
     3
100
AcDbLine
 10
126.5404153508999
 20
223.5506744384998
 30
0.0
 11
126.5404153508999
 21
222.3173522948999
 31
0.0
  0
LINE
  5
14A
330
2
100
AcDbEntity
  8
0
 62
     3
100
AcDbLine
 10
126.5404153508999
 20
222.3173522948999
 30
0.0
 11
127.8737283391997
 21
222.3173522948999
 31
0.0
  0
LINE
  5
14B
330
2
100
AcDbEntity
  8
0
 62
     3
100
AcDbLine
 10
126.6737466498
 20
223.6840209961
 30
0.0
 11
127.7403817815999
 21
223.6840209961
 31
0.0
  0
LINE
  5
14C
330
2
100
AcDbEntity
  8
0
 62
     3
100
AcDbLine
 10
126.5404153508999
 20
221.4173736572
 30
0.0
 11
127.8737283391997
 21
221.4173736572
 31
0.0
  0
ARC
  5
14D
330
2
100
AcDbEntity
  8
0
 62
     3
100
AcDbCircle
 10
130.0071054143999
 20
223.5507507323999
 30
0.0
 40
0.1333329678
100
AcDbArc
 50
89.99987273089997
 51
179.9998001033
  0
LINE
  5
14E
330
2
100
AcDbEntity
  8
0
 62
     3
100
AcDbLine
 10
129.8737130803999
 20
223.5506744384998
 30
0.0
 11
129.8737130803999
 21
221.4173736572
 31
0.0
  0
ARC
  5
14F
330
2
100
AcDbEntity
  8
0
 62
     3
100
AcDbCircle
 10
128.6737924260999
 20
221.0174255370999
 30
0.0
 40
0.3999996781
100
AcDbArc
 50
89.99987273089997
 51
179.9998001033
  0
ARC
  5
150
330
2
100
AcDbEntity
  8
0
 62
     3
100
AcDbCircle
 10
129.6737771673997
 20
220.5507659912
 30
0.0
 40
0.1999995708
100
AcDbArc
 50
0.0
 51
179.9998001033
  0
LINE
  5
151
330
2
100
AcDbEntity
  8
0
 62
     3
100
AcDbLine
 10
128.6737466498
 20
221.4173736572
 30
0.0
 11
129.8737130803999
 21
221.4173736572
 31
0.0
  0
ARC
  5
152
330
2
100
AcDbEntity
  8
0
 62
     3
100
AcDbCircle
 10
127.9060311956998
 20
227.6840209961
 30
0.0
 40
0.5
100
AcDbArc
 50
90.00003665540001
 51
168.4630095385
  0
ARC
  5
153
330
2
100
AcDbEntity
  8
0
 62
     3
100
AcDbCircle
 10
137.0737558049997
 20
221.0174255370999
 30
0.0
 40
0.3999996781
100
AcDbArc
 50
0.0
 51
89.99981808940002
  0
LINE
  5
154
330
2
100
AcDbEntity
  8
0
 62
     3
100
AcDbLine
 10
136.2737069768999
 20
219.350692749
 30
0.0
 11
137.4737039251999
 21
219.350692749
 31
0.0
  0
LINE
  5
155
330
2
100
AcDbEntity
  8
0
 62
     3
100
AcDbLine
 10
136.2737069768999
 20
219.7507019042999
 30
0.0
 11
137.4737039251999
 21
219.7507019042999
 31
0.0
  0
ARC
  5
156
330
2
100
AcDbEntity
  8
0
 62
     3
100
AcDbCircle
 10
137.0737558049997
 20
218.0841217041
 30
0.0
 40
0.3999996781
100
AcDbArc
 50
270.0001272691
 51
0.0
  0
LINE
  5
157
330
2
100
AcDbEntity
  8
0
 62
     3
100
AcDbLine
 10
136.2737069768999
 20
219.350692749
 30
0.0
 11
136.2737069768999
 21
218.5507049559999
 31
0.0
  0
LINE
  5
158
330
2
100
AcDbEntity
  8
0
 62
     3
100
AcDbLine
 10
135.8736978216997
 20
220.5506896971999
 30
0.0
 11
135.8736978216997
 21
218.5507049559999
 31
0.0
  0
LINE
  5
159
330
2
100
AcDbEntity
  8
0
 62
     3
100
AcDbLine
 10
132.6736703557999
 20
219.5506896971999
 30
0.0
 11
132.6736703557999
 21
218.5507049559999
 31
0.0
  0
LINE
  5
15A
330
2
100
AcDbEntity
  8
0
 62
     3
100
AcDbLine
 10
133.0737100286997
 20
219.1506958007999
 30
0.0
 11
133.0737100286997
 21
218.5507049559999
 31
0.0
  0
LINE
  5
15B
330
2
100
AcDbEntity
  8
0
 62
     3
100
AcDbLine
 10
134.2736917180999
 20
219.1506958007999
 30
0.0
 11
134.2736917180999
 21
218.0840454101
 31
0.0
  0
LINE
  5
15C
330
2
100
AcDbEntity
  8
0
 62
     3
100
AcDbLine
 10
134.6736856146
 20
221.0173645019
 30
0.0
 11
134.6736856146
 21
218.0840454101
 31
0.0
  0
LINE
  5
15D
330
2
100
AcDbEntity
  8
0
 62
     3
100
AcDbLine
 10
131.4737039251999
 20
221.0173645019
 30
0.0
 11
131.4737039251999
 21
218.0840454101
 31
0.0
  0
LINE
  5
15E
330
2
100
AcDbEntity
  8
0
 62
     3
100
AcDbLine
 10
131.0737100286999
 20
223.5506744384998
 30
0.0
 11
131.0737100286999
 21
217.8173828125
 31
0.0
  0
LINE
  5
15F
330
2
100
AcDbEntity
  8
0
 62
     3
100
AcDbLine
 10
131.8736978216997
 20
217.6840362548999
 30
0.0
 11
133.8736978216997
 21
217.6840362548999
 31
0.0
  0
ARC
  5
160
330
2
100
AcDbEntity
  8
0
 62
     3
100
AcDbCircle
 10
131.8737435979999
 20
218.0841217041
 30
0.0
 40
0.3999996781
100
AcDbArc
 50
180.0001452552
 51
270.0001272691
  0
ARC
  5
161
330
2
100
AcDbEntity
  8
0
 62
     3
100
AcDbCircle
 10
130.9404245061999
 20
217.8174591063998
 30
0.0
 40
0.1333329678
100
AcDbArc
 50
270.0001272691
 51
0.0
  0
ARC
  5
162
330
2
100
AcDbEntity
  8
0
 62
     3
100
AcDbCircle
 10
132.8737588567999
 20
218.5507965088
 30
0.0
 40
0.1999995708
100
AcDbArc
 50
180.0001452552
 51
0.0
  0
LINE
  5
163
330
2
100
AcDbEntity
  8
0
 62
     3
100
AcDbLine
 10
135.0737100286999
 20
217.6840362548999
 30
0.0
 11
137.0736947698999
 21
217.6840362548999
 31
0.0
  0
ARC
  5
164
330
2
100
AcDbEntity
  8
0
 62
     3
100
AcDbCircle
 10
133.8737588567999
 20
218.0841217041
 30
0.0
 40
0.3999996781
100
AcDbArc
 50
270.0001272691
 51
0.0
  0
ARC
  5
165
330
2
100
AcDbEntity
  8
0
 62
     3
100
AcDbCircle
 10
135.0737710638
 20
218.0841217041
 30
0.0
 40
0.3999996781
100
AcDbArc
 50
180.0001452552
 51
270.0001272691
  0
ARC
  5
166
330
2
100
AcDbEntity
  8
0
 62
     3
100
AcDbCircle
 10
136.0737710638
 20
218.5507965088
 30
0.0
 40
0.1999995708
100
AcDbArc
 50
180.0001452552
 51
0.0
  0
LINE
  5
167
330
2
100
AcDbEntity
  8
0
 62
     3
100
AcDbLine
 10
133.0737100286997
 20
219.1506958007999
 30
0.0
 11
134.2736917180999
 21
219.1506958007999
 31
0.0
  0
LINE
  5
168
330
2
100
AcDbEntity
  8
0
 62
     3
100
AcDbLine
 10
132.6736703557999
 20
219.5506896971999
 30
0.0
 11
134.2736917180999
 21
219.5506896971999
 31
0.0
  0
LINE
  5
169
330
2
100
AcDbEntity
  8
0
 62
     3
100
AcDbLine
 10
131.8736978216997
 20
221.4173736572
 30
0.0
 11
133.8736978216997
 21
221.4173736572
 31
0.0
  0
ARC
  5
16A
330
2
100
AcDbEntity
  8
0
 62
     3
100
AcDbCircle
 10
131.8737435979999
 20
221.0174255370999
 30
0.0
 40
0.3999996781
100
AcDbArc
 50
89.99987273089997
 51
179.9998001033
  0
ARC
  5
16B
330
2
100
AcDbEntity
  8
0
 62
     3
100
AcDbCircle
 10
130.9404245061999
 20
223.5507507323999
 30
0.0
 40
0.1333329678
100
AcDbArc
 50
0.0
 51
89.99981808940002
  0
ARC
  5
16C
330
2
100
AcDbEntity
  8
0
 62
     3
100
AcDbCircle
 10
132.8737588567999
 20
220.5507659912
 30
0.0
 40
0.1999995708
100
AcDbArc
 50
0.0
 51
179.9998001033
  0
LINE
  5
16D
330
2
100
AcDbEntity
  8
0
 62
     3
100
AcDbLine
 10
132.6736703557999
 20
219.9507141113
 30
0.0
 11
133.0737100286997
 21
219.9507141113
 31
0.0
  0
LINE
  5
16E
330
2
100
AcDbEntity
  8
0
 62
     3
100
AcDbLine
 10
133.0737100286997
 20
220.5506896971999
 30
0.0
 11
133.0737100286997
 21
219.9507141113
 31
0.0
  0
LINE
  5
16F
330
2
100
AcDbEntity
  8
0
 62
     3
100
AcDbLine
 10
132.6736703557999
 20
220.5506896971999
 30
0.0
 11
132.6736703557999
 21
219.9507141113
 31
0.0
  0
LINE
  5
170
330
2
100
AcDbEntity
  8
0
 62
     3
100
AcDbLine
 10
135.0737100286999
 20
221.4173736572
 30
0.0
 11
137.0736947698999
 21
221.4173736572
 31
0.0
  0
ARC
  5
171
330
2
100
AcDbEntity
  8
0
 62
     3
100
AcDbCircle
 10
133.8737588567999
 20
221.0174255370999
 30
0.0
 40
0.3999996781
100
AcDbArc
 50
0.0
 51
89.99981808940002
  0
LINE
  5
172
330
2
100
AcDbEntity
  8
0
 62
     3
100
AcDbLine
 10
134.2736917180999
 20
221.0173645019
 30
0.0
 11
134.2736917180999
 21
219.5506896971999
 31
0.0
  0
ARC
  5
173
330
2
100
AcDbEntity
  8
0
 62
     3
100
AcDbCircle
 10
135.0737710638
 20
221.0174255370999
 30
0.0
 40
0.3999996781
100
AcDbArc
 50
89.99987273089997
 51
179.9998001033
  0
LINE
  5
174
330
2
100
AcDbEntity
  8
0
 62
     3
100
AcDbLine
 10
136.2737069768999
 20
220.5506896971999
 30
0.0
 11
136.2737069768999
 21
219.7507019042999
 31
0.0
  0
ARC
  5
175
330
2
100
AcDbEntity
  8
0
 62
     3
100
AcDbCircle
 10
136.0737710638
 20
220.5507659912
 30
0.0
 40
0.1999995708
100
AcDbArc
 50
0.0
 51
179.9998001033
  0
ARC
  5
176
330
2
100
AcDbEntity
  8
0
 62
     3
100
AcDbCircle
 10
142.6070352239999
 20
219.1840362548999
 30
0.0
 40
0.5
100
AcDbArc
 50
270.0000179861
 51
0.0
  0
ARC
  5
177
330
2
100
AcDbEntity
  8
0
 62
     3
100
AcDbCircle
 10
140.1070504827997
 20
219.1840362548999
 30
0.0
 40
0.5
100
AcDbArc
 50
180.0000359722
 51
270.0000179861
  0
LINE
  5
178
330
2
100
AcDbEntity
  8
0
 62
     3
100
AcDbLine
 10
137.4737039251999
 20
219.350692749
 30
0.0
 11
137.4737039251999
 21
218.0840454101
 31
0.0
  0
ARC
  5
179
330
2
100
AcDbEntity
  8
0
 62
     3
100
AcDbCircle
 10
115.5070596380999
 20
220.6840362548998
 30
0.0
 40
29.0
100
AcDbArc
 50
346.5767863185
 51
13.42330588899997
  0
LINE
  5
17A
330
2
100
AcDbEntity
  8
0
 62
     3
100
AcDbLine
 10
142.6070504828
 20
218.6840209961
 30
0.0
 11
140.1070504827997
 21
218.6840209961
 31
0.0
  0
ARC
  5
17B
330
2
100
AcDbEntity
  8
0
 62
     3
100
AcDbCircle
 10
142.742090766
 20
214.1840362548999
 30
0.0
 40
1.0
100
AcDbArc
 50
270.0000179861
 51
346.5766053185
  0
ARC
  5
17C
330
2
100
AcDbEntity
  8
0
 62
     3
100
AcDbCircle
 10
141.3570504827999
 20
223.9340362548999
 30
0.0
 40
1.75
100
AcDbArc
 50
0.0
 51
179.9999093863
  0
LINE
  5
17D
330
2
100
AcDbEntity
  8
0
 62
     3
100
AcDbLine
 10
137.4737039251999
 20
221.0173645019
 30
0.0
 11
137.4737039251999
 21
219.7507019042999
 31
0.0
  0
LINE
  5
17E
330
2
100
AcDbEntity
  8
0
 62
     3
100
AcDbLine
 10
139.6070504827999
 20
219.1840209961
 30
0.0
 11
139.6070504827999
 21
223.9340209961
 31
0.0
  0
LINE
  5
17F
330
2
100
AcDbEntity
  8
0
 62
     3
100
AcDbLine
 10
143.1070504827999
 20
223.9340209961
 30
0.0
 11
143.1070504827999
 21
219.1840209961
 31
0.0
  0
ARC
  5
180
330
2
100
AcDbEntity
  8
0
 62
     3
100
AcDbCircle
 10
142.7421365423998
 20
227.1840209961
 30
0.0
 40
1.0
100
AcDbArc
 50
13.4234151721
 51
90.000309863
  0
TEXT
  5
181
330
2
100
AcDbEntity
  8
0
 62
     5
100
AcDbText
 10
145.0
 20
10.0
 30
0.0
 40
5.0
  1
ＭＡ４－Ｌ０００８０Ｅ
 41
0.848817699915704
 72
     5
 11
199.0413935612998
 21
10.0
 31
0.0
100
AcDbText
  0
CIRCLE
  5
182
330
2
100
AcDbEntity
  8
0
 62
     3
100
AcDbCircle
 10
172.9083657903998
 20
168.5
 30
0.0
 40
6.0
  0
LINE
  5
183
330
2
100
AcDbEntity
  8
0
 62
     3
100
AcDbLine
 10
168.2061049680999
 20
171.5051629781
 30
0.0
 11
174.7822000785998
 21
164.9290678677
 31
0.0
  0
LINE
  5
184
330
2
100
AcDbEntity
  8
0
 62
     3
100
AcDbLine
 10
169.9031676876999
 20
173.2022256976
 30
0.0
 11
176.4792627980999
 21
166.6261305871999
 31
0.0
  0
LINE
  5
185
330
2
100
AcDbEntity
  8
0
  6
CENTER
 62
     3
100
AcDbLine
 10
167.6188705777
 20
173.7894277192999
 30
0.0
 11
176.6264652159
 21
164.7818330810999
 31
0.0
  0
CIRCLE
  5
186
330
2
100
AcDbEntity
  8
0
 62
     3
100
AcDbCircle
 10
172.9083657903998
 20
168.5
 30
0.0
 40
11.84999942779999
  0
CIRCLE
  5
187
330
2
100
AcDbEntity
  8
0
 62
     3
100
AcDbCircle
 10
172.9083657903998
 20
168.5
 30
0.0
 40
9.199999809299999
  0
LINE
  5
188
330
2
100
AcDbEntity
  8
0
  6
CENTER
 62
     3
100
AcDbLine
 10
158.0535531682999
 20
168.5
 30
0.0
 11
187.6921182317999
 21
168.5
 31
0.0
  0
LINE
  5
189
330
2
100
AcDbEntity
  8
0
 62
     3
100
AcDbLine
 10
162.0083580939999
 20
162.2499559736
 30
0.0
 11
163.3690937240999
 21
161.4697176985999
 31
0.0
  0
LINE
  5
18A
330
2
100
AcDbEntity
  8
0
  6
CENTER
 62
     3
100
AcDbLine
 10
172.9083657903998
 20
184.270614624
 30
0.0
 11
172.9083657903998
 21
152.394454956
 31
0.0
  0
LINE
  5
18B
330
2
100
AcDbEntity
  8
0
 62
     3
100
AcDbLine
 10
171.6596307294999
 20
156.7159696901
 30
0.0
 11
172.9083406620999
 21
155.9999663296999
 31
0.0
  0
LINE
  5
18C
330
2
100
AcDbEntity
  8
0
 62
     3
100
AcDbLine
 10
172.9083473318999
 20
155.9999636500999
 30
0.0
 11
174.1570572644998
 21
156.7159670105
 31
0.0
  0
LINE
  5
18D
330
2
100
AcDbEntity
  8
0
 62
     3
100
AcDbLine
 10
162.0083566350999
 20
163.8510894775
 30
0.0
 11
162.0083566350999
 21
162.25
 31
0.0
  0
LINE
  5
18E
330
2
100
AcDbEntity
  8
0
 62
     3
100
AcDbLine
 10
163.3690036205998
 20
175.5301495975999
 30
0.0
 11
162.0083474130999
 21
174.7499568631
 31
0.0
  0
LINE
  5
18F
330
2
100
AcDbEntity
  8
0
 62
     3
100
AcDbLine
 10
162.0083566350999
 20
174.75
 30
0.0
 11
162.0083566350999
 21
173.1488952637
 31
0.0
  0
LINE
  5
190
330
2
100
AcDbEntity
  8
0
 62
     3
100
AcDbLine
 10
168.2061049680999
 20
171.5051629781
 30
0.0
 11
169.9031676876999
 21
173.2022256976
 31
0.0
  0
LINE
  5
191
330
2
100
AcDbEntity
  8
0
 62
     3
100
AcDbLine
 10
172.9083432183999
 20
180.9999540971
 30
0.0
 11
171.6597656569
 21
180.2840266375999
 31
0.0
  0
LINE
  5
192
330
2
100
AcDbEntity
  8
0
 62
     3
100
AcDbLine
 10
174.1569223370999
 20
180.2840293172
 30
0.0
 11
172.9083447756999
 21
180.9999567766999
 31
0.0
  0
LINE
  5
193
330
2
100
AcDbEntity
  8
0
 62
     3
100
AcDbLine
 10
182.4476604555
 20
161.4697529694
 30
0.0
 11
183.8083431371998
 21
162.2499608841
 31
0.0
  0
LINE
  5
194
330
2
100
AcDbEntity
  8
0
 62
     3
100
AcDbLine
 10
174.7822000785998
 20
164.9290678677
 30
0.0
 11
176.4792627980999
 21
166.6261305871999
 31
0.0
  0
LINE
  5
195
330
2
100
AcDbEntity
  8
0
 62
     3
100
AcDbLine
 10
183.8083596868997
 20
162.25
 30
0.0
 11
183.8083596868997
 21
163.8510589598999
 31
0.0
  0
LINE
  5
196
330
2
100
AcDbEntity
  8
0
 62
     3
100
AcDbLine
 10
183.8083273438
 20
174.7499671327999
 30
0.0
 11
182.4477373218999
 21
175.5301219168
 31
0.0
  0
LINE
  5
197
330
2
100
AcDbEntity
  8
0
 62
     3
100
AcDbLine
 10
183.8083596868997
 20
173.1489257812
 30
0.0
 11
183.8083596868997
 21
174.75
 31
0.0
  0
LINE
  5
19B
330
2
100
AcDbEntity
  8
0
100
AcDbLine
 10
210.0
 20
297.0
 30
0.0
 11
0.0
 21
297.0
 31
0.0
  0
LINE
  5
1A8
330
2
100
AcDbEntity
  8
0
  6
PHANTOM
 62
     3
100
AcDbLine
 10
117.5070596380999
 20
230.8840332031
 30
0.0
 11
116.0070596380998
 21
230.8840332031
 31
0.0
  0
TEXT
  5
1C7
330
2
100
AcDbEntity
  8
0
 62
     7
100
AcDbText
 10
108.0
 20
100.0000029552499
 30
0.0
 40
2.999994089499998
  1
KN2C-21*
 11
108.0
 21
101.4999999999999
 31
0.0
100
AcDbText
 73
     2
  0
TEXT
  5
1C8
330
2
100
AcDbEntity
  8
0
 62
     7
100
AcDbText
 10
108.0
 20
105.0000029552499
 30
0.0
 40
2.999994089499998
  1
KN2C-20*
 11
108.0
 21
106.4999999999999
 31
0.0
100
AcDbText
 73
     2
  0
TEXT
  5
1C9
330
2
100
AcDbEntity
  8
0
 62
     7
100
AcDbText
 10
108.0
 20
110.0000029552499
 30
0.0
 40
2.999994089499998
  1
KN2C-11*
 11
108.0
 21
111.4999999999999
 31
0.0
100
AcDbText
 73
     2
  0
TEXT
  5
1CA
330
2
100
AcDbEntity
  8
0
 62
     7
100
AcDbText
 10
108.0
 20
115.00000295525
 30
0.0
 40
2.999994089499998
  1
KN2C-10*
 11
108.0
 21
116.5
 31
0.0
100
AcDbText
 73
     2
  0
TEXT
  5
1CB
330
2
100
AcDbEntity
  8
0
 62
     7
100
AcDbText
 10
146.0
 20
110.0000029552499
 30
0.0
 40
2.999994089499998
  1
KN3C-21*
 11
146.0
 21
111.4999999999999
 31
0.0
100
AcDbText
 73
     2
  0
TEXT
  5
1CC
330
2
100
AcDbEntity
  8
0
 62
     7
100
AcDbText
 10
146.0
 20
115.0000029552499
 30
0.0
 40
2.999994089499998
  1
KN3C-20*
 11
146.0
 21
116.4999999999999
 31
0.0
100
AcDbText
 73
     2
  0
ENDSEC
  0
SECTION
  2
OBJECTS
  0
DICTIONARY
  5
7
330
0
100
AcDbDictionary
281
     1
  3
ACAD_COLOR
350
1D7
  3
ACAD_GROUP
350
1F
  3
ACAD_LAYOUT
350
B
  3
ACAD_MATERIAL
350
1D6
  3
ACAD_MLINESTYLE
350
20
  3
ACAD_PLOTSETTINGS
350
21
  3
ACAD_PLOTSTYLENAME
350
6
  3
ACAD_TABLESTYLE
350
1D8
  3
ACDBHEADERROUNDTRIPXREC
350
1E9
  3
AcDbVariableDictionary
350
1CF
  0
DICTIONARY
  5
1D7
102
{ACAD_REACTORS
330
7
102
}
330
7
100
AcDbDictionary
281
     1
  0
DICTIONARY
  5
1F
102
{ACAD_REACTORS
330
7
102
}
330
7
100
AcDbDictionary
281
     1
  0
DICTIONARY
  5
B
102
{ACAD_REACTORS
330
7
102
}
330
7
100
AcDbDictionary
281
     1
  3
Model
350
A
  3
ﾚｲｱｳﾄ1
350
F
  0
DICTIONARY
  5
1D6
102
{ACAD_REACTORS
330
7
102
}
330
7
100
AcDbDictionary
281
     1
  0
DICTIONARY
  5
20
102
{ACAD_REACTORS
330
7
102
}
330
7
100
AcDbDictionary
281
     1
  3
Standard
350
22
  0
DICTIONARY
  5
21
102
{ACAD_REACTORS
330
7
102
}
330
7
100
AcDbDictionary
281
     1
  0
ACDBDICTIONARYWDFLT
  5
6
102
{ACAD_REACTORS
330
7
102
}
330
7
100
AcDbDictionary
281
     1
  3
Normal
350
5
100
AcDbDictionaryWithDefault
340
5
  0
DICTIONARY
  5
1D8
102
{ACAD_REACTORS
330
7
102
}
330
7
100
AcDbDictionary
281
     1
  3
Standard
350
1D9
  0
DICTIONARY
  5
1E9
102
{ACAD_REACTORS
330
7
102
}
330
7
100
AcDbDictionary
281
     1
  0
DICTIONARY
  5
1CF
102
{ACAD_REACTORS
330
7
102
}
330
7
100
AcDbDictionary
281
     1
  3
CTABLESTYLE
350
1DB
  3
DIMASSOC
350
1D0
  3
PROJECTNAME
350
1DC
  0
LAYOUT
  5
A
102
{ACAD_XDICTIONARY
360
1EA
102
}
102
{ACAD_REACTORS
330
B
102
}
330
B
100
AcDbPlotSettings
  1

  2
C:\Program Files\AutoCAD 2000i\plotters\DWF Classic.pc3
  4

  6

 40
0.0
 41
0.0
 42
0.0
 43
0.0
 44
0.0
 45
0.0
 46
0.0
 47
0.0
 48
0.0
 49
0.0
140
0.0
141
0.0
142
1.0
143
1.0
 70
  1712
 72
     0
 73
     0
 74
     0
  7

 75
     0
147
1.0
148
0.0
149
0.0
100
AcDbLayout
  1
Model
 70
     1
 71
     0
 10
0.0
 20
0.0
 11
12.0
 21
9.0
 12
0.0
 22
0.0
 32
0.0
 14
0.0
 24
0.0
 34
0.0
 15
0.0
 25
0.0
 35
0.0
146
0.0
 13
0.0
 23
0.0
 33
0.0
 16
1.0
 26
0.0
 36
0.0
 17
0.0
 27
1.0
 37
0.0
 76
     0
330
2
  0
LAYOUT
  5
F
102
{ACAD_XDICTIONARY
360
1EC
102
}
102
{ACAD_REACTORS
330
B
102
}
330
B
100
AcDbPlotSettings
  1

  2
C:\Program Files\AutoCAD 2000i\plotters\DWF Classic.pc3
  4

  6

 40
0.0
 41
0.0
 42
0.0
 43
0.0
 44
0.0
 45
0.0
 46
0.0
 47
0.0
 48
0.0
 49
0.0
140
0.0
141
0.0
142
1.0
143
1.0
 70
   688
 72
     0
 73
     0
 74
     5
  7

 75
    16
147
1.0
148
0.0
149
0.0
100
AcDbLayout
  1
ﾚｲｱｳﾄ1
 70
     1
 71
     1
 10
0.0
 20
0.0
 11
12.0
 21
9.0
 12
0.0
 22
0.0
 32
0.0
 14
1.000000000000000E+20
 24
1.000000000000000E+20
 34
1.000000000000000E+20
 15
-1.000000000000000E+20
 25
-1.000000000000000E+20
 35
-1.000000000000000E+20
146
0.0
 13
0.0
 23
0.0
 33
0.0
 16
1.0
 26
0.0
 36
0.0
 17
0.0
 27
1.0
 37
0.0
 76
     0
330
C
  0
MLINESTYLE
  5
22
102
{ACAD_REACTORS
330
20
102
}
330
20
100
AcDbMlineStyle
  2
STANDARD
 70
     0
  3

 62
   256
 51
90.0
 52
90.0
 71
     2
 49
0.5
 62
   256
  6
BYLAYER
 49
-0.5
 62
   256
  6
BYLAYER
  0
ACDBPLACEHOLDER
  5
5
102
{ACAD_REACTORS
330
6
102
}
330
6
  0
TABLESTYLE
  5
1D9
102
{ACAD_REACTORS
330
1D8
102
}
330
1D8
100
AcDbTableStyle
  3
Standard
 70
     0
 71
     0
 40
0.06
 41
0.06
280
     0
281
     0
  7
STANDARD
140
0.18
170
     2
 62
     0
 63
     7
283
     0
274
    -2
284
     1
 64
     0
275
    -2
285
     1
 65
     0
276
    -2
286
     1
 66
     0
277
    -2
287
     1
 67
     0
278
    -2
288
     1
 68
     0
279
    -2
289
     1
 69
     0
  7
STANDARD
140
0.25
170
     5
 62
     0
 63
     7
283
     0
274
    -2
284
     1
 64
     0
275
    -2
285
     1
 65
     0
276
    -2
286
     1
 66
     0
277
    -2
287
     1
 67
     0
278
    -2
288
     1
 68
     0
279
    -2
289
     1
 69
     0
  7
STANDARD
140
0.18
170
     5
 62
     0
 63
     7
283
     0
274
    -2
284
     1
 64
     0
275
    -2
285
     1
 65
     0
276
    -2
286
     1
 66
     0
277
    -2
287
     1
 67
     0
278
    -2
288
     1
 68
     0
279
    -2
289
     1
 69
     0
  0
DICTIONARYVAR
  5
1DB
102
{ACAD_REACTORS
330
1CF
102
}
330
1CF
100
DictionaryVariables
280
     0
  1
STANDARD
  0
DICTIONARYVAR
  5
1D0
102
{ACAD_REACTORS
330
1CF
102
}
330
1CF
100
DictionaryVariables
280
     0
  1
1
  0
DICTIONARYVAR
  5
1DC
102
{ACAD_REACTORS
330
1CF
102
}
330
1CF
100
DictionaryVariables
280
     0
  1

  0
DICTIONARY
  5
1EA
330
A
100
AcDbDictionary
280
     1
281
     1
  3
ACAD_XREC_ROUNDTRIP
360
1EB
  0
DICTIONARY
  5
1EC
330
F
100
AcDbDictionary
280
     1
281
     1
  3
ACAD_XREC_ROUNDTRIP
360
1ED
  0
XRECORD
  5
1EB
102
{ACAD_REACTORS
330
1EA
102
}
330
1EA
100
AcDbXrecord
280
     1
102
SHADEPLOT
 70
     0
102
SHADEPLOTRESLEVEL
 70
     2
102
SHADEPLOTCUSTOMDPI
 70
   300
  0
XRECORD
  5
1ED
102
{ACAD_REACTORS
330
1EC
102
}
330
1EC
100
AcDbXrecord
280
     1
102
SHADEPLOT
 70
     0
102
SHADEPLOTRESLEVEL
 70
     2
102
SHADEPLOTCUSTOMDPI
 70
   300
  0
ENDSEC
  0
EOF
