  0
SECTION
  2
HEADER
  9
$ACADVER
  1
AC1015
  9
$ACADMAINTVER
 70
    20
  9
$DWGCODEPAGE
  3
ANSI_932
  9
$INSBASE
 10
0.0
 20
0.0
 30
0.0
  9
$EXTMIN
 10
0.0
 20
0.0
 30
0.0
  9
$EXTMAX
 10
210.0
 20
297.0
 30
0.0
  9
$LIMMIN
 10
-175.2845733643
 20
-3.174999999999998
  9
$LIMMAX
 10
3.174999999999998
 20
291.2585876465
  9
$ORTHOMODE
 70
     0
  9
$REGENMODE
 70
     1
  9
$FILLMODE
 70
     1
  9
$QTEXTMODE
 70
     0
  9
$MIRRTEXT
 70
     0
  9
$LTSCALE
 40
1.0
  9
$ATTMODE
 70
     1
  9
$TEXTSIZE
 40
2.999994039499997
  9
$TRACEWID
 40
0.05
  9
$TEXTSTYLE
  7
STANDARD
  9
$CLAYER
  8
0
  9
$CELTYPE
  6
ByLayer
  9
$CECOLOR
 62
   256
  9
$CELTSCALE
 40
1.0
  9
$DISPSILH
 70
     0
  9
$DIMSCALE
 40
1.0
  9
$DIMASZ
 40
1.9727878465
  9
$DIMEXO
 40
2.539999961899999
  9
$DIMDLI
 40
0.38
  9
$DIMRND
 40
0.0
  9
$DIMDLE
 40
0.0
  9
$DIMEXE
 40
3.809999942799997
  9
$DIMTP
 40
0.0
  9
$DIMTM
 40
0.0
  9
$DIMTXT
 40
2.999994039499997
  9
$DIMCEN
 40
0.09
  9
$DIMTSZ
 40
0.0
  9
$DIMTOL
 70
     0
  9
$DIMLIM
 70
     0
  9
$DIMTIH
 70
     0
  9
$DIMTOH
 70
     1
  9
$DIMSE1
 70
     0
  9
$DIMSE2
 70
     0
  9
$DIMTAD
 70
     0
  9
$DIMZIN
 70
     0
  9
$DIMBLK
  1

  9
$DIMASO
 70
     1
  9
$DIMSHO
 70
     0
  9
$DIMPOST
  1

  9
$DIMAPOST
  1

  9
$DIMALT
 70
     0
  9
$DIMALTD
 70
     2
  9
$DIMALTF
 40
25.4
  9
$DIMLFAC
 40
1.0
  9
$DIMTOFL
 70
     0
  9
$DIMTVP
 40
0.0
  9
$DIMTIX
 70
     0
  9
$DIMSOXD
 70
     0
  9
$DIMSAH
 70
     0
  9
$DIMBLK1
  1

  9
$DIMBLK2
  1

  9
$DIMSTYLE
  2
Standard
  9
$DIMCLRD
 70
     0
  9
$DIMCLRE
 70
     0
  9
$DIMCLRT
 70
     0
  9
$DIMTFAC
 40
1.0
  9
$DIMGAP
 40
0.09
  9
$DIMJUST
 70
     0
  9
$DIMSD1
 70
     0
  9
$DIMSD2
 70
     0
  9
$DIMTOLJ
 70
     1
  9
$DIMTZIN
 70
     0
  9
$DIMALTZ
 70
     0
  9
$DIMALTTZ
 70
     0
  9
$DIMUPT
 70
     0
  9
$DIMDEC
 70
     4
  9
$DIMTDEC
 70
     4
  9
$DIMALTU
 70
     2
  9
$DIMALTTD
 70
     2
  9
$DIMTXSTY
  7
STANDARD
  9
$DIMAUNIT
 70
     0
  9
$DIMADEC
 70
     0
  9
$DIMALTRND
 40
0.0
  9
$DIMAZIN
 70
     0
  9
$DIMDSEP
 70
    46
  9
$DIMATFIT
 70
     3
  9
$DIMFRAC
 70
     0
  9
$DIMLDRBLK
  1

  9
$DIMLUNIT
 70
     2
  9
$DIMLWD
 70
    -2
  9
$DIMLWE
 70
    -2
  9
$DIMTMOVE
 70
     0
  9
$LUNITS
 70
     2
  9
$LUPREC
 70
     3
  9
$SKETCHINC
 40
0.1
  9
$FILLETRAD
 40
0.0625
  9
$AUNITS
 70
     0
  9
$AUPREC
 70
     0
  9
$MENU
  1
ACAD
  9
$ELEVATION
 40
0.0
  9
$PELEVATION
 40
0.0
  9
$THICKNESS
 40
0.0
  9
$LIMCHECK
 70
     0
  9
$CHAMFERA
 40
0.0
  9
$CHAMFERB
 40
0.0
  9
$CHAMFERC
 40
0.0
  9
$CHAMFERD
 40
0.0
  9
$SKPOLY
 70
     0
  9
$TDCREATE
 40
2453068.409270833
  9
$TDUCREATE
 40
2453068.034270833
  9
$TDUPDATE
 40
2453396.580188241
  9
$TDUUPDATE
 40
2453396.205188241
  9
$TDINDWG
 40
0.0028328704
  9
$TDUSRTIMER
 40
0.0028323495
  9
$USRTIMER
 70
     1
  9
$ANGBASE
 50
0.0
  9
$ANGDIR
 70
     0
  9
$PDMODE
 70
     0
  9
$PDSIZE
 40
0.0
  9
$PLINEWID
 40
0.0
  9
$SPLFRAME
 70
     0
  9
$SPLINETYPE
 70
     6
  9
$SPLINESEGS
 70
     8
  9
$HANDSEED
  5
1F1
  9
$SURFTAB1
 70
     6
  9
$SURFTAB2
 70
     6
  9
$SURFTYPE
 70
     6
  9
$SURFU
 70
     6
  9
$SURFV
 70
     6
  9
$UCSBASE
  2

  9
$UCSNAME
  2

  9
$UCSORG
 10
0.0
 20
0.0
 30
0.0
  9
$UCSXDIR
 10
1.0
 20
0.0
 30
0.0
  9
$UCSYDIR
 10
0.0
 20
1.0
 30
0.0
  9
$UCSORTHOREF
  2

  9
$UCSORTHOVIEW
 70
     0
  9
$UCSORGTOP
 10
0.0
 20
0.0
 30
0.0
  9
$UCSORGBOTTOM
 10
0.0
 20
0.0
 30
0.0
  9
$UCSORGLEFT
 10
0.0
 20
0.0
 30
0.0
  9
$UCSORGRIGHT
 10
0.0
 20
0.0
 30
0.0
  9
$UCSORGFRONT
 10
0.0
 20
0.0
 30
0.0
  9
$UCSORGBACK
 10
0.0
 20
0.0
 30
0.0
  9
$PUCSBASE
  2

  9
$PUCSNAME
  2

  9
$PUCSORG
 10
0.0
 20
0.0
 30
0.0
  9
$PUCSXDIR
 10
1.0
 20
0.0
 30
0.0
  9
$PUCSYDIR
 10
0.0
 20
1.0
 30
0.0
  9
$PUCSORTHOREF
  2

  9
$PUCSORTHOVIEW
 70
     0
  9
$PUCSORGTOP
 10
0.0
 20
0.0
 30
0.0
  9
$PUCSORGBOTTOM
 10
0.0
 20
0.0
 30
0.0
  9
$PUCSORGLEFT
 10
0.0
 20
0.0
 30
0.0
  9
$PUCSORGRIGHT
 10
0.0
 20
0.0
 30
0.0
  9
$PUCSORGFRONT
 10
0.0
 20
0.0
 30
0.0
  9
$PUCSORGBACK
 10
0.0
 20
0.0
 30
0.0
  9
$USERI1
 70
     9
  9
$USERI2
 70
     0
  9
$USERI3
 70
     0
  9
$USERI4
 70
     0
  9
$USERI5
 70
     0
  9
$USERR1
 40
0.0
  9
$USERR2
 40
0.0
  9
$USERR3
 40
0.0
  9
$USERR4
 40
0.0
  9
$USERR5
 40
0.0
  9
$WORLDVIEW
 70
     1
  9
$SHADEDGE
 70
     3
  9
$SHADEDIF
 70
    70
  9
$TILEMODE
 70
     1
  9
$MAXACTVP
 70
    64
  9
$PINSBASE
 10
0.0
 20
0.0
 30
0.0
  9
$PLIMCHECK
 70
     0
  9
$PEXTMIN
 10
1.000000000000000E+20
 20
1.000000000000000E+20
 30
1.000000000000000E+20
  9
$PEXTMAX
 10
-1.000000000000000E+20
 20
-1.000000000000000E+20
 30
-1.000000000000000E+20
  9
$PLIMMIN
 10
0.0
 20
0.0
  9
$PLIMMAX
 10
12.0
 20
9.0
  9
$UNITMODE
 70
     0
  9
$VISRETAIN
 70
     1
  9
$PLINEGEN
 70
     0
  9
$PSLTSCALE
 70
     1
  9
$TREEDEPTH
 70
  3020
  9
$CMLSTYLE
  2
Standard
  9
$CMLJUST
 70
     0
  9
$CMLSCALE
 40
1.0
  9
$PROXYGRAPHICS
 70
     1
  9
$MEASUREMENT
 70
     0
  9
$CELWEIGHT
370
    -1
  9
$ENDCAPS
280
     0
  9
$JOINSTYLE
280
     0
  9
$LWDISPLAY
290
     0
  9
$INSUNITS
 70
     0
  9
$HYPERLINKBASE
  1

  9
$STYLESHEET
  1

  9
$XEDIT
290
     1
  9
$CEPSNTYPE
380
     0
  9
$PSTYLEMODE
290
     1
  9
$FINGERPRINTGUID
  2
{B708CE31-AC44-4C62-9A16-0C773ACFC2F3}
  9
$VERSIONGUID
  2
{93B91D18-BC0F-4A7B-9B46-3E6AF502850F}
  9
$EXTNAMES
290
     1
  9
$PSVPSCALE
 40
0.0
  9
$OLESTARTUP
290
     0
  0
ENDSEC
  0
SECTION
  2
CLASSES
  0
CLASS
  1
ACDBDICTIONARYWDFLT
  2
AcDbDictionaryWithDefault
  3
ObjectDBX Classes
 90
        0
280
     0
281
     0
  0
CLASS
  1
ACDBPLACEHOLDER
  2
AcDbPlaceHolder
  3
ObjectDBX Classes
 90
        0
280
     0
281
     0
  0
CLASS
  1
LAYOUT
  2
AcDbLayout
  3
ObjectDBX Classes
 90
        0
280
     0
281
     0
  0
CLASS
  1
DICTIONARYVAR
  2
AcDbDictionaryVar
  3
ObjectDBX Classes
 90
        0
280
     0
281
     0
  0
CLASS
  1
TABLESTYLE
  2
AcDbTableStyle
  3
ObjectDBX Classes
 90
     2047
280
     0
281
     0
  0
ENDSEC
  0
SECTION
  2
TABLES
  0
TABLE
  2
VPORT
  5
19
330
0
100
AcDbSymbolTable
 70
     2
  0
VPORT
  5
1EB
330
19
100
AcDbSymbolTableRecord
100
AcDbViewportTableRecord
  2
*Active
 70
     0
 10
0.0
 20
0.0
 11
1.0
 21
1.0
 12
104.9941719325908
 22
237.0338626832327
 13
0.0
 23
0.0
 14
1.0
 24
1.0
 15
0.0
 25
0.0
 16
0.0
 26
0.0
 36
1.0
 17
0.0
 27
0.0
 37
0.0
 40
478.489262629418
 41
1.25
 42
50.0
 43
0.0
 44
0.0
 50
0.0
 51
0.0
 71
     0
 72
   100
 73
     1
 74
     1
 75
     0
 76
     0
 77
     0
 78
     0
281
     0
 65
     1
110
0.0
120
0.0
130
0.0
111
1.0
121
0.0
131
0.0
112
0.0
122
1.0
132
0.0
 79
     0
146
0.0
  0
ENDTAB
  0
TABLE
  2
LTYPE
  5
14
330
0
100
AcDbSymbolTable
 70
     3
  0
LTYPE
  5
15
330
14
100
AcDbSymbolTableRecord
100
AcDbLinetypeTableRecord
  2
ByBlock
 70
     0
  3

 72
    65
 73
     0
 40
0.0
  0
LTYPE
  5
16
330
14
100
AcDbSymbolTableRecord
100
AcDbLinetypeTableRecord
  2
ByLayer
 70
     0
  3

 72
    65
 73
     0
 40
0.0
  0
LTYPE
  5
8
330
14
100
AcDbSymbolTableRecord
100
AcDbLinetypeTableRecord
  2
Continuous
 70
     0
  3
Solid line
 72
    65
 73
     0
 40
0.0
  0
LTYPE
  5
2A
330
14
100
AcDbSymbolTableRecord
100
AcDbLinetypeTableRecord
  2
CENTER
 70
     0
  3
Center
 72
    65
 73
     4
 40
9.100006759199999
 49
6.5000119209
 74
     0
 49
-0.7999984026000001
 74
     0
 49
0.9999980329999999
 74
     0
 49
-0.7999984026000001
 74
     0
  0
LTYPE
  5
136
330
14
100
AcDbSymbolTableRecord
100
AcDbLinetypeTableRecord
  2
PHANTOM
 70
     0
  3
Phantom
 72
    65
 73
     6
 40
9.499981462999999
 49
4.799990654
 74
     0
 49
-0.8999982475999999
 74
     0
 49
0.9999980329999999
 74
     0
 49
-0.8999982475999999
 74
     0
 49
0.9999980329999999
 74
     0
 49
-0.8999982475999999
 74
     0
  0
ENDTAB
  0
TABLE
  2
LAYER
  5
10
330
0
100
AcDbSymbolTable
 70
     1
  0
LAYER
  5
4
330
10
100
AcDbSymbolTableRecord
100
AcDbLayerTableRecord
  2
0
 70
     0
 62
     7
  6
Continuous
370
    -3
390
5
  0
ENDTAB
  0
TABLE
  2
STYLE
  5
11
330
0
100
AcDbSymbolTable
 70
     1
  0
STYLE
  5
12
330
11
100
AcDbSymbolTableRecord
100
AcDbTextStyleTableRecord
  2
STANDARD
 70
     0
 40
0.0
 41
1.0
 50
0.0
 71
     0
 42
2.999994039499997
  3
romans.shx
  4
bigfont.shx
  0
ENDTAB
  0
TABLE
  2
VIEW
  5
17
330
0
100
AcDbSymbolTable
 70
     0
  0
ENDTAB
  0
TABLE
  2
UCS
  5
18
330
0
100
AcDbSymbolTable
 70
     0
  0
ENDTAB
  0
TABLE
  2
APPID
  5
1B
330
0
100
AcDbSymbolTable
 70
     1
  0
APPID
  5
1C
330
1B
100
AcDbSymbolTableRecord
100
AcDbRegAppTableRecord
  2
ACAD
 70
     0
  0
ENDTAB
  0
TABLE
  2
DIMSTYLE
  5
1D
330
0
100
AcDbSymbolTable
 70
     1
100
AcDbDimStyleTable
 71
     0
  0
DIMSTYLE
105
23
330
1D
100
AcDbSymbolTableRecord
100
AcDbDimStyleTableRecord
  2
Standard
 70
     0
340
12
  0
ENDTAB
  0
TABLE
  2
BLOCK_RECORD
  5
1
330
0
100
AcDbSymbolTable
 70
     0
  0
BLOCK_RECORD
  5
2
330
1
100
AcDbSymbolTableRecord
100
AcDbBlockTableRecord
  2
*Model_Space
340
A
  0
BLOCK_RECORD
  5
C
330
1
100
AcDbSymbolTableRecord
100
AcDbBlockTableRecord
  2
*Paper_Space
340
F
  0
ENDTAB
  0
ENDSEC
  0
SECTION
  2
BLOCKS
  0
BLOCK
  5
3
330
2
100
AcDbEntity
  8
0
100
AcDbBlockBegin
  2
*Model_Space
 70
     2
 10
0.0
 20
0.0
 30
0.0
  3
*Model_Space
  1

  0
ENDBLK
  5
9
330
2
100
AcDbEntity
  8
0
100
AcDbBlockEnd
  0
BLOCK
  5
D
330
C
100
AcDbEntity
 67
     1
  8
0
100
AcDbBlockBegin
  2
*Paper_Space
 70
     0
 10
0.0
 20
0.0
 30
0.0
  3
*Paper_Space
  1

  0
ENDBLK
  5
E
330
C
100
AcDbEntity
 67
     1
  8
0
100
AcDbBlockEnd
  0
ENDSEC
  0
SECTION
  2
ENTITIES
  0
LINE
  5
24
330
2
100
AcDbEntity
  8
0
100
AcDbLine
 10
210.0
 20
0.0
 30
0.0
 11
210.0
 21
297.0
 31
0.0
  0
LINE
  5
25
330
2
100
AcDbEntity
  8
0
100
AcDbLine
 10
0.0
 20
297.0
 30
0.0
 11
0.0
 21
0.0
 31
0.0
  0
ARC
  5
26
330
2
100
AcDbEntity
  8
0
 62
     3
100
AcDbCircle
 10
137.2439523382997
 20
217.0783691405998
 30
0.0
 40
0.5
100
AcDbArc
 50
180.0000359722
 51
270.0000179861
  0
ARC
  5
27
330
2
100
AcDbEntity
  8
0
 62
     3
100
AcDbCircle
 10
138.4939523382997
 20
221.8283691406
 30
0.0
 40
1.75
100
AcDbArc
 50
0.0
 51
179.9999093863
  0
LINE
  5
28
330
2
100
AcDbEntity
  8
0
100
AcDbLine
 10
0.0
 20
0.0
 30
0.0
 11
210.0
 21
0.0
 31
0.0
  0
LINE
  5
29
330
2
100
AcDbEntity
  8
0
  6
CENTER
 62
     3
100
AcDbLine
 10
111.3448739691
 20
218.5783691405999
 30
0.0
 11
144.6980539007998
 21
218.5783691405999
 31
0.0
  0
LINE
  5
2B
330
2
100
AcDbEntity
  8
0
 62
     3
100
AcDbLine
 10
125.0429330510999
 20
211.078338623
 30
0.0
 11
139.8789621039
 21
211.078338623
 31
0.0
  0
LINE
  5
2C
330
2
100
AcDbEntity
  8
0
 62
     3
100
AcDbLine
 10
125.0429330510999
 20
226.078338623
 30
0.0
 11
139.8789621039
 21
226.078338623
 31
0.0
  0
LINE
  5
2D
330
2
100
AcDbEntity
  8
0
 62
     3
100
AcDbLine
 10
125.0429330510999
 20
227.078338623
 30
0.0
 11
139.8789621039
 21
227.078338623
 31
0.0
  0
LINE
  5
2E
330
2
100
AcDbEntity
  8
0
 62
     3
100
AcDbLine
 10
125.0429330510999
 20
210.078338623
 30
0.0
 11
139.8789621039
 21
210.078338623
 31
0.0
  0
LINE
  5
2F
330
2
100
AcDbEntity
  8
0
 62
     3
100
AcDbLine
 10
53.19907660499999
 20
175.7321405253
 30
0.0
 11
53.4412385942
 21
176.7023763499
 31
0.0
  0
LINE
  5
30
330
2
100
AcDbEntity
  8
0
 62
     3
100
AcDbLine
 10
53.4412385942
 20
176.7023763499
 30
0.0
 11
52.95612068189999
 21
176.8234573445
 31
0.0
  0
LINE
  5
31
330
2
100
AcDbEntity
  8
0
 62
     3
100
AcDbLine
 10
54.41187138569997
 20
175.4294380388
 30
0.0
 11
53.19907660499999
 21
175.7321405253
 31
0.0
  0
LINE
  5
32
330
2
100
AcDbEntity
  8
0
 62
     3
100
AcDbLine
 10
54.04823143499999
 20
175.0048606238
 30
0.0
 11
53.07799561039999
 21
175.2470226129999
 31
0.0
  0
LINE
  5
33
330
2
100
AcDbEntity
  8
0
 62
     3
100
AcDbLine
 10
50.10842377379997
 20
172.6499656677
 30
0.0
 11
55.70839935969999
 21
172.6499656677
 31
0.0
  0
LINE
  5
34
330
2
100
AcDbEntity
  8
0
 62
     3
100
AcDbLine
 10
50.10842377379997
 20
172.8499656676999
 30
0.0
 11
55.70839935969999
 21
172.8499656676999
 31
0.0
  0
LINE
  5
35
330
2
100
AcDbEntity
  8
0
 62
     3
100
AcDbLine
 10
50.10842377379997
 20
173.5799674988
 30
0.0
 11
55.70839935969999
 21
173.5799674988
 31
0.0
  0
ARC
  5
36
330
2
100
AcDbEntity
  8
0
 62
     3
100
AcDbCircle
 10
52.90844208429996
 20
175.6000213622999
 30
0.0
 40
2.0
100
AcDbArc
 50
342.5415276324
 51
197.4575450557999
  0
LINE
  5
37
330
2
100
AcDbEntity
  8
0
 62
     3
100
AcDbLine
 10
54.04824394429996
 20
161.9951374947999
 30
0.0
 11
53.07800811969997
 21
161.7529755056
 31
0.0
  0
LINE
  5
38
330
2
100
AcDbEntity
  8
0
 62
     3
100
AcDbLine
 10
53.19908911429997
 20
161.2678575932999
 30
0.0
 11
53.44125110349995
 21
160.2976217687999
 31
0.0
  0
LINE
  5
39
330
2
100
AcDbEntity
  8
0
 62
     3
100
AcDbLine
 10
53.44125110349995
 20
160.2976217687999
 30
0.0
 11
52.9561331912
 21
160.1765407740999
 31
0.0
  0
LINE
  5
3A
330
2
100
AcDbEntity
  8
0
 62
     3
100
AcDbLine
 10
54.41188389499998
 20
161.5705600799
 30
0.0
 11
53.19908911429997
 21
161.2678575932999
 31
0.0
  0
LINE
  5
3B
330
2
100
AcDbEntity
  8
0
 62
     3
100
AcDbLine
 10
50.10842377379997
 20
163.4200401306
 30
0.0
 11
55.70839935969999
 21
163.4200401306
 31
0.0
  0
LINE
  5
3C
330
2
100
AcDbEntity
  8
0
 62
     3
100
AcDbLine
 10
50.10842377379997
 20
164.1500419617
 30
0.0
 11
55.70839935969999
 21
164.1500419617
 31
0.0
  0
LINE
  5
3D
330
2
100
AcDbEntity
  8
0
 62
     3
100
AcDbLine
 10
50.10842377379997
 20
164.3500419617
 30
0.0
 11
55.70839935969999
 21
164.3500419617
 31
0.0
  0
ARC
  5
3E
330
2
100
AcDbEntity
  8
0
 62
     3
100
AcDbCircle
 10
52.90847260189996
 20
161.400024414
 30
0.0
 40
2.0
100
AcDbArc
 50
162.5430933395
 51
17.45761836660006
  0
LINE
  5
3F
330
2
100
AcDbEntity
  8
0
 62
     3
100
AcDbLine
 10
46.90841156679996
 20
166.1500419617
 30
0.0
 11
58.90841156679996
 21
166.1500419617
 31
0.0
  0
LINE
  5
40
330
2
100
AcDbEntity
  8
0
 62
     3
100
AcDbLine
 10
46.90841156679996
 20
166.6500175475999
 30
0.0
 11
58.90841156679996
 21
166.6500175475999
 31
0.0
  0
LINE
  5
41
330
2
100
AcDbEntity
  8
0
 62
     3
100
AcDbLine
 10
46.90841156679996
 20
170.3499900818
 30
0.0
 11
58.90841156679996
 21
170.3499900818
 31
0.0
  0
LINE
  5
42
330
2
100
AcDbEntity
  8
0
 62
     3
100
AcDbLine
 10
46.90841156679996
 20
170.8499656677
 30
0.0
 11
58.90841156679996
 21
170.8499656677
 31
0.0
  0
LINE
  5
43
330
2
100
AcDbEntity
  8
0
 62
     3
100
AcDbLine
 10
46.90839630799999
 20
162.0000038146999
 30
0.0
 11
58.90839630799999
 21
162.0000038146999
 31
0.0
  0
LINE
  5
44
330
2
100
AcDbEntity
  8
0
 62
     3
100
AcDbLine
 10
58.90839630799999
 20
174.9999961852999
 30
0.0
 11
46.90839630799999
 21
174.9999961852999
 31
0.0
  0
LINE
  5
45
330
2
100
AcDbEntity
  8
0
 62
     3
100
AcDbLine
 10
63.80839741239999
 20
162.249972614
 30
0.0
 11
52.90840359709997
 21
155.9999738448
 31
0.0
  0
ARC
  5
46
330
2
100
AcDbEntity
  8
0
 62
     3
100
AcDbCircle
 10
52.90847260189996
 20
168.5000152588
 30
0.0
 40
9.5
100
AcDbArc
 50
33.7388190657
 51
146.261179113
  0
ARC
  5
47
330
2
100
AcDbEntity
  8
0
 62
     3
100
AcDbCircle
 10
52.90847260189996
 20
168.5000152588
 30
0.0
 40
9.5
100
AcDbArc
 50
213.738820887
 51
326.2611809342998
  0
LINE
  5
48
330
2
100
AcDbEntity
  8
0
 62
     3
100
AcDbLine
 10
52.90835519969999
 20
180.9999870597
 30
0.0
 11
63.80834001459999
 21
174.7500011603
 31
0.0
  0
LINE
  5
49
330
2
100
AcDbEntity
  8
0
  6
CENTER
 62
     3
100
AcDbLine
 10
65.23925534239999
 20
168.5
 30
0.0
 11
41.1008636073
 21
168.5
 31
0.0
  0
LINE
  5
4A
330
2
100
AcDbEntity
  8
0
 62
     3
100
AcDbLine
 10
52.50101527299997
 20
161.9999966769
 30
0.0
 11
52.59289020739998
 21
161.631894511
 31
0.0
  0
LINE
  5
4B
330
2
100
AcDbEntity
  8
0
  6
CENTER
 62
     3
100
AcDbLine
 10
49.90841919619999
 20
176.680001831
 30
0.0
 11
49.90841919619999
 21
160.3200134277
 31
0.0
  0
LINE
  5
4C
330
2
100
AcDbEntity
  8
0
 62
     3
100
AcDbLine
 10
52.90835033119997
 20
156.0000106492999
 30
0.0
 11
42.00836551629999
 21
162.2499965486999
 31
0.0
  0
ARC
  5
4D
330
2
100
AcDbEntity
  8
0
 62
     3
100
AcDbCircle
 10
52.90847260189996
 20
168.5000152588
 30
0.0
 40
8.899993896499998
100
AcDbArc
 50
207.4217701689
 51
263.7132386664
  0
LINE
  5
4E
330
2
100
AcDbEntity
  8
0
  6
CENTER
 62
     3
100
AcDbLine
 10
52.90841156679996
 20
182.4999308269
 30
0.0
 11
52.90841156679996
 21
154.4999784146
 31
0.0
  0
ARC
  5
4F
330
2
100
AcDbEntity
  8
0
 62
     3
100
AcDbCircle
 10
52.90841156679996
 20
168.5
 30
0.0
 40
11.0
100
AcDbArc
 50
230.5050228463999
 51
249.8370809901998
  0
LINE
  5
50
330
2
100
AcDbEntity
  8
0
 62
     3
100
AcDbLine
 10
52.71397120199998
 20
161.1467765987
 30
0.0
 11
51.50117642129997
 21
160.8440741122
 31
0.0
  0
LINE
  5
51
330
2
100
AcDbEntity
  8
0
 62
     3
100
AcDbLine
 10
52.59289020739998
 20
161.631894511
 30
0.0
 11
51.38009542669998
 21
161.3291920245
 31
0.0
  0
ARC
  5
52
330
2
100
AcDbEntity
  8
0
 62
     3
100
AcDbCircle
 10
51.00153595639998
 20
160.1140899658
 30
0.0
 40
0.2999999522999999
100
AcDbArc
 50
257.1890966127999
 51
33.99312066889997
  0
LINE
  5
53
330
2
100
AcDbEntity
  8
0
 62
     3
100
AcDbLine
 10
51.38009542669998
 20
161.3291920245
 30
0.0
 11
51.50117642129997
 21
160.8440741122
 31
0.0
  0
LINE
  5
54
330
2
100
AcDbEntity
  8
0
 62
     3
100
AcDbLine
 10
52.71397120199998
 20
161.1467765987
 30
0.0
 11
52.9561331912
 21
160.1765407740999
 31
0.0
  0
LINE
  5
55
330
2
100
AcDbEntity
  8
0
 62
     3
100
AcDbLine
 10
45.68558882539996
 20
173.6999999999999
 30
0.0
 11
46.90841156679996
 21
173.6999999999999
 31
0.0
  0
LINE
  5
56
330
2
100
AcDbEntity
  8
0
 62
     3
100
AcDbLine
 10
45.17219277019996
 20
172.8999999999999
 30
0.0
 11
46.90841156679996
 21
172.8999999999999
 31
0.0
  0
LINE
  5
57
330
2
100
AcDbEntity
  8
0
 62
     3
100
AcDbLine
 10
45.00842529969997
 20
170.6
 30
0.0
 11
46.90841156679996
 21
170.6
 31
0.0
  0
LINE
  5
58
330
2
100
AcDbEntity
  8
0
 62
     3
100
AcDbLine
 10
45.00842529969997
 20
169.8
 30
0.0
 11
46.90841156679996
 21
169.8
 31
0.0
  0
ARC
  5
59
330
2
100
AcDbEntity
  8
0
 62
     3
100
AcDbCircle
 10
52.90847260189996
 20
168.5000152588
 30
0.0
 40
8.899993896499998
100
AcDbArc
 50
96.28670669200005
 51
152.5781205481
  0
LINE
  5
5A
330
2
100
AcDbEntity
  8
0
 62
     3
100
AcDbLine
 10
42.00841878309995
 20
174.7499326492
 30
0.0
 11
52.90841259849996
 21
180.9999314184
 31
0.0
  0
ARC
  5
5B
330
2
100
AcDbEntity
  8
0
 62
     3
100
AcDbCircle
 10
52.90841156679996
 20
168.5
 30
0.0
 40
11.0
100
AcDbArc
 50
110.1629190097999
 51
129.4963978329997
  0
LINE
  5
5C
330
2
100
AcDbEntity
  8
0
 62
     3
100
AcDbLine
 10
42.00841767029999
 20
162.25
 30
0.0
 11
42.00841767029999
 21
174.7499923706
 31
0.0
  0
ARC
  5
5D
330
2
100
AcDbEntity
  8
0
 62
     3
100
AcDbCircle
 10
52.90841156679996
 20
168.5
 30
0.0
 40
9.5
100
AcDbArc
 50
146.2611244714999
 51
213.7388582256
  0
LINE
  5
5E
330
2
100
AcDbEntity
  8
0
 62
     3
100
AcDbLine
 10
45.00842529969997
 20
163.2236480713
 30
0.0
 11
45.00842529969997
 21
173.7763595581
 31
0.0
  0
ARC
  5
5F
330
2
100
AcDbEntity
  8
0
 62
     3
100
AcDbCircle
 10
52.90841156679996
 20
168.5
 30
0.0
 40
11.0
100
AcDbArc
 50
172.2678073968
 51
187.7321206588999
  0
ARC
  5
60
330
2
100
AcDbEntity
  8
0
 62
     3
100
AcDbCircle
 10
52.90841156679996
 20
168.5
 30
0.0
 40
9.0
100
AcDbArc
 50
151.3752422729
 51
208.6246857827
  0
LINE
  5
61
330
2
100
AcDbEntity
  8
0
 62
     3
100
AcDbLine
 10
49.70841461849996
 20
174.6800056457
 30
0.0
 11
49.70841461849996
 21
172.4800056456999
 31
0.0
  0
LINE
  5
62
330
2
100
AcDbEntity
  8
0
 62
     3
100
AcDbLine
 10
50.10842377379997
 20
172.4800056456999
 30
0.0
 11
50.10842377379997
 21
174.6800056457
 31
0.0
  0
LINE
  5
63
330
2
100
AcDbEntity
  8
0
 62
     3
100
AcDbLine
 10
52.90841156679996
 20
162.0000038146999
 30
0.0
 11
52.90841156679996
 21
174.9999961852999
 31
0.0
  0
LINE
  5
64
330
2
100
AcDbEntity
  8
0
 62
     3
100
AcDbLine
 10
52.90841156679996
 20
162.1
 30
0.0
 11
52.90841156679996
 21
174.9
 31
0.0
  0
LINE
  5
65
330
2
100
AcDbEntity
  8
0
 62
     3
100
AcDbLine
 10
46.90841156679996
 20
174.9999961852999
 30
0.0
 11
46.90841156679996
 21
162.0000038146999
 31
0.0
  0
LINE
  5
66
330
2
100
AcDbEntity
  8
0
 62
     3
100
AcDbLine
 10
46.90841156679996
 20
162.1
 30
0.0
 11
46.90841156679996
 21
174.9
 31
0.0
  0
LINE
  5
67
330
2
100
AcDbEntity
  8
0
 62
     3
100
AcDbLine
 10
49.70841461849996
 20
172.4800056456999
 30
0.0
 11
50.10842377379997
 21
172.4800056456999
 31
0.0
  0
LINE
  5
68
330
2
100
AcDbEntity
  8
0
 62
     3
100
AcDbLine
 10
49.70841461849996
 20
169.6000190734999
 30
0.0
 11
50.10842377379997
 21
169.6000190734999
 31
0.0
  0
LINE
  5
69
330
2
100
AcDbEntity
  8
0
 62
     3
100
AcDbLine
 10
49.70841461849996
 20
167.4000190735
 30
0.0
 11
50.10842377379997
 21
167.4000190735
 31
0.0
  0
LINE
  5
6A
330
2
100
AcDbEntity
  8
0
 62
     3
100
AcDbLine
 10
49.70841461849996
 20
164.5200172423999
 30
0.0
 11
50.10842377379997
 21
164.5200172423999
 31
0.0
  0
LINE
  5
6B
330
2
100
AcDbEntity
  8
0
 62
     3
100
AcDbLine
 10
49.70841461849996
 20
162.3200172424
 30
0.0
 11
50.10842377379997
 21
162.3200172424
 31
0.0
  0
LINE
  5
6C
330
2
100
AcDbEntity
  8
0
 62
     3
100
AcDbLine
 10
49.70841461849996
 20
164.3500419617
 30
0.0
 11
46.90841156679996
 21
164.3500419617
 31
0.0
  0
LINE
  5
6D
330
2
100
AcDbEntity
  8
0
 62
     3
100
AcDbLine
 10
49.70841461849996
 20
164.1500419617
 30
0.0
 11
46.90841156679996
 21
164.1500419617
 31
0.0
  0
LINE
  5
6E
330
2
100
AcDbEntity
  8
0
 62
     3
100
AcDbLine
 10
49.70841461849996
 20
163.4200401306
 30
0.0
 11
46.90841156679996
 21
163.4200401306
 31
0.0
  0
LINE
  5
6F
330
2
100
AcDbEntity
  8
0
 62
     3
100
AcDbLine
 10
49.70841461849996
 20
162.3200172424
 30
0.0
 11
49.70841461849996
 21
164.5200172423999
 31
0.0
  0
LINE
  5
70
330
2
100
AcDbEntity
  8
0
 62
     3
100
AcDbLine
 10
49.70841461849996
 20
172.8499656676999
 30
0.0
 11
46.90841156679996
 21
172.8499656676999
 31
0.0
  0
LINE
  5
71
330
2
100
AcDbEntity
  8
0
 62
     3
100
AcDbLine
 10
49.70841461849996
 20
172.6499656677
 30
0.0
 11
46.90841156679996
 21
172.6499656677
 31
0.0
  0
LINE
  5
72
330
2
100
AcDbEntity
  8
0
 62
     3
100
AcDbLine
 10
49.70841461849996
 20
169.6000190734999
 30
0.0
 11
49.70841461849996
 21
167.4000190735
 31
0.0
  0
LINE
  5
73
330
2
100
AcDbEntity
  8
0
 62
     3
100
AcDbLine
 10
50.10842377379997
 20
164.5200172423999
 30
0.0
 11
50.10842377379997
 21
162.3200172424
 31
0.0
  0
LINE
  5
74
330
2
100
AcDbEntity
  8
0
 62
     3
100
AcDbLine
 10
53.01635539769995
 20
161.9999906534999
 30
0.0
 11
53.07800811969997
 21
161.7529755056
 31
0.0
  0
LINE
  5
75
330
2
100
AcDbEntity
  8
0
 62
     3
100
AcDbLine
 10
50.10842377379997
 20
167.4000190735
 30
0.0
 11
50.10842377379997
 21
169.6000190734999
 31
0.0
  0
LINE
  5
76
330
2
100
AcDbEntity
  8
0
 62
     3
100
AcDbLine
 10
49.70841461849996
 20
174.6800056457
 30
0.0
 11
50.10842377379997
 21
174.6800056457
 31
0.0
  0
LINE
  5
77
330
2
100
AcDbEntity
  8
0
 62
     3
100
AcDbLine
 10
49.70841461849996
 20
173.5799674988
 30
0.0
 11
46.90841156679996
 21
173.5799674988
 31
0.0
  0
LINE
  5
78
330
2
100
AcDbEntity
  8
0
 62
     3
100
AcDbLine
 10
52.59287769809997
 20
175.3681036076998
 30
0.0
 11
51.38008291739999
 21
175.6708060942
 31
0.0
  0
LINE
  5
79
330
2
100
AcDbEntity
  8
0
 62
     3
100
AcDbLine
 10
52.71395869269998
 20
175.8532215198999
 30
0.0
 11
51.50116391199998
 21
176.1559240065
 31
0.0
  0
ARC
  5
7A
330
2
100
AcDbEntity
  8
0
 62
     3
100
AcDbCircle
 10
51.00150543879998
 20
176.885925293
 30
0.0
 40
0.2999999522999999
100
AcDbArc
 50
326.0069510481
 51
102.8109580287999
  0
LINE
  5
7B
330
2
100
AcDbEntity
  8
0
 62
     3
100
AcDbLine
 10
51.38008291739999
 20
175.6708060942
 30
0.0
 11
51.50116391199998
 21
176.1559240065
 31
0.0
  0
LINE
  5
7C
330
2
100
AcDbEntity
  8
0
 62
     3
100
AcDbLine
 10
52.50100276369997
 20
175.0000014418
 30
0.0
 11
52.59287769809997
 21
175.3681036076998
 31
0.0
  0
LINE
  5
7D
330
2
100
AcDbEntity
  8
0
 62
     3
100
AcDbLine
 10
52.71395869269998
 20
175.8532215198999
 30
0.0
 11
52.95612068189999
 21
176.8234573445
 31
0.0
  0
LINE
  5
7E
330
2
100
AcDbEntity
  8
0
 62
     3
100
AcDbLine
 10
53.01634288839998
 20
175.0000074651
 30
0.0
 11
53.07799561039999
 21
175.2470226129999
 31
0.0
  0
LINE
  5
7F
330
2
100
AcDbEntity
  8
0
  6
CENTER
 62
     3
100
AcDbLine
 10
55.90840393739998
 20
176.680001831
 30
0.0
 11
55.90840393739998
 21
160.3200134277
 31
0.0
  0
LINE
  5
80
330
2
100
AcDbEntity
  8
0
 62
     3
100
AcDbLine
 10
54.30470201419999
 20
161.9999903998
 30
0.0
 11
54.41188389499998
 21
161.5705600799
 31
0.0
  0
ARC
  5
81
330
2
100
AcDbEntity
  8
0
 62
     3
100
AcDbCircle
 10
52.90847260189996
 20
168.5000152588
 30
0.0
 40
8.899993896499998
100
AcDbArc
 50
276.2866880226998
 51
332.5781223692998
  0
ARC
  5
82
330
2
100
AcDbEntity
  8
0
 62
     3
100
AcDbCircle
 10
52.90841156679996
 20
168.5
 30
0.0
 40
11.0
100
AcDbArc
 50
290.1630096234999
 51
309.4964338050999
  0
ARC
  5
83
330
2
100
AcDbEntity
  8
0
 62
     3
100
AcDbCircle
 10
54.81540924739999
 20
160.1141052245999
 30
0.0
 40
0.2999999522999999
100
AcDbArc
 50
146.0068775098999
 51
282.8109220566
  0
LINE
  5
84
330
2
100
AcDbEntity
  8
0
 62
     3
100
AcDbLine
 10
60.8083978339
 20
169.8
 30
0.0
 11
58.90841156679996
 21
169.8
 31
0.0
  0
LINE
  5
85
330
2
100
AcDbEntity
  8
0
 62
     3
100
AcDbLine
 10
60.8083978339
 20
170.6
 30
0.0
 11
58.90841156679996
 21
170.6
 31
0.0
  0
LINE
  5
86
330
2
100
AcDbEntity
  8
0
 62
     3
100
AcDbLine
 10
60.6446303633
 20
172.8999999999999
 30
0.0
 11
58.90841156679996
 21
172.8999999999999
 31
0.0
  0
ARC
  5
87
330
2
100
AcDbEntity
  8
0
 62
     3
100
AcDbCircle
 10
52.90847260189996
 20
168.5000152588
 30
0.0
 40
8.899993896499998
100
AcDbArc
 50
27.4218229892
 51
83.71325733579999
  0
LINE
  5
88
330
2
100
AcDbEntity
  8
0
 62
     3
100
AcDbLine
 10
56.10840851499998
 20
174.6800056457
 30
0.0
 11
56.10840851499998
 21
172.4800056456999
 31
0.0
  0
LINE
  5
89
330
2
100
AcDbEntity
  8
0
 62
     3
100
AcDbLine
 10
58.90841156679996
 20
162.0000038146999
 30
0.0
 11
58.90841156679996
 21
174.9999961852999
 31
0.0
  0
LINE
  5
8A
330
2
100
AcDbEntity
  8
0
 62
     3
100
AcDbLine
 10
55.70839935969999
 20
172.4800056456999
 30
0.0
 11
55.70839935969999
 21
174.6800056457
 31
0.0
  0
LINE
  5
8B
330
2
100
AcDbEntity
  8
0
 62
     3
100
AcDbLine
 10
56.10840851499998
 20
172.6499656677
 30
0.0
 11
58.90841156679996
 21
172.6499656677
 31
0.0
  0
LINE
  5
8C
330
2
100
AcDbEntity
  8
0
 62
     3
100
AcDbLine
 10
56.10840851499998
 20
172.8499656676999
 30
0.0
 11
58.90841156679996
 21
172.8499656676999
 31
0.0
  0
LINE
  5
8D
330
2
100
AcDbEntity
  8
0
 62
     3
100
AcDbLine
 10
56.10840851499998
 20
163.4200401306
 30
0.0
 11
58.90841156679996
 21
163.4200401306
 31
0.0
  0
LINE
  5
8E
330
2
100
AcDbEntity
  8
0
 62
     3
100
AcDbLine
 10
56.10840851499998
 20
164.1500419617
 30
0.0
 11
58.90841156679996
 21
164.1500419617
 31
0.0
  0
LINE
  5
8F
330
2
100
AcDbEntity
  8
0
 62
     3
100
AcDbLine
 10
56.10840851499998
 20
164.3500419617
 30
0.0
 11
58.90841156679996
 21
164.3500419617
 31
0.0
  0
LINE
  5
90
330
2
100
AcDbEntity
  8
0
 62
     3
100
AcDbLine
 10
56.10840851499998
 20
162.3200172424
 30
0.0
 11
56.10840851499998
 21
164.5200172423999
 31
0.0
  0
LINE
  5
91
330
2
100
AcDbEntity
  8
0
 62
     3
100
AcDbLine
 10
55.70839935969999
 20
164.5200172423999
 30
0.0
 11
55.70839935969999
 21
162.3200172424
 31
0.0
  0
LINE
  5
92
330
2
100
AcDbEntity
  8
0
 62
     3
100
AcDbLine
 10
56.10840851499998
 20
162.3200172424
 30
0.0
 11
55.70839935969999
 21
162.3200172424
 31
0.0
  0
LINE
  5
93
330
2
100
AcDbEntity
  8
0
 62
     3
100
AcDbLine
 10
56.10840851499998
 20
164.5200172423999
 30
0.0
 11
55.70839935969999
 21
164.5200172423999
 31
0.0
  0
LINE
  5
94
330
2
100
AcDbEntity
  8
0
 62
     3
100
AcDbLine
 10
56.10840851499998
 20
169.6000190734999
 30
0.0
 11
56.10840851499998
 21
167.4000190735
 31
0.0
  0
LINE
  5
95
330
2
100
AcDbEntity
  8
0
 62
     3
100
AcDbLine
 10
55.70839935969999
 20
167.4000190735
 30
0.0
 11
55.70839935969999
 21
169.6000190734999
 31
0.0
  0
LINE
  5
96
330
2
100
AcDbEntity
  8
0
 62
     3
100
AcDbLine
 10
56.10840851499998
 20
167.4000190735
 30
0.0
 11
55.70839935969999
 21
167.4000190735
 31
0.0
  0
LINE
  5
97
330
2
100
AcDbEntity
  8
0
 62
     3
100
AcDbLine
 10
56.10840851499998
 20
169.6000190734999
 30
0.0
 11
55.70839935969999
 21
169.6000190734999
 31
0.0
  0
LINE
  5
98
330
2
100
AcDbEntity
  8
0
 62
     3
100
AcDbLine
 10
56.10840851499998
 20
172.4800056456999
 30
0.0
 11
55.70839935969999
 21
172.4800056456999
 31
0.0
  0
LINE
  5
99
330
2
100
AcDbEntity
  8
0
 62
     3
100
AcDbLine
 10
56.10840851499998
 20
173.5799674988
 30
0.0
 11
58.90841156679996
 21
173.5799674988
 31
0.0
  0
ARC
  5
9A
330
2
100
AcDbEntity
  8
0
 62
     3
100
AcDbCircle
 10
52.90841156679996
 20
168.5
 30
0.0
 40
11.0
100
AcDbArc
 50
50.50356619489999
 51
69.8369903765
  0
ARC
  5
9B
330
2
100
AcDbEntity
  8
0
 62
     3
100
AcDbCircle
 10
54.81537872989999
 20
176.8859405516999
 30
0.0
 40
0.2999999522999999
100
AcDbArc
 50
77.18895135760002
 51
213.9930505458
  0
LINE
  5
9C
330
2
100
AcDbEntity
  8
0
 62
     3
100
AcDbLine
 10
54.30468950489999
 20
175.0000077189
 30
0.0
 11
54.41187138569997
 21
175.4294380388
 31
0.0
  0
LINE
  5
9D
330
2
100
AcDbEntity
  8
0
 62
     3
100
AcDbLine
 10
56.10840851499998
 20
174.6800056457
 30
0.0
 11
55.70839935969999
 21
174.6800056457
 31
0.0
  0
LINE
  5
9E
330
2
100
AcDbEntity
  8
0
 62
     3
100
AcDbLine
 10
60.13123430809995
 20
173.6999999999999
 30
0.0
 11
58.90841156679996
 21
173.6999999999999
 31
0.0
  0
LINE
  5
9F
330
2
100
AcDbEntity
  8
0
 62
     3
100
AcDbLine
 10
63.80842835139997
 20
174.7499923706
 30
0.0
 11
63.80842835139997
 21
162.25
 31
0.0
  0
ARC
  5
A0
330
2
100
AcDbEntity
  8
0
 62
     3
100
AcDbCircle
 10
52.90841156679996
 20
168.5
 30
0.0
 40
9.5
100
AcDbArc
 50
326.2611297077997
 51
33.73887029220007
  0
LINE
  5
A1
330
2
100
AcDbEntity
  8
0
 62
     3
100
AcDbLine
 10
60.80842835139996
 20
163.2236480713
 30
0.0
 11
60.80842835139996
 21
173.7763595581
 31
0.0
  0
ARC
  5
A2
330
2
100
AcDbEntity
  8
0
 62
     3
100
AcDbCircle
 10
52.90841156679996
 20
168.5
 30
0.0
 40
11.0
100
AcDbArc
 50
352.2678433689999
 51
7.732156630999984
  0
ARC
  5
A3
330
2
100
AcDbEntity
  8
0
 62
     3
100
AcDbCircle
 10
52.90841156679996
 20
168.5
 30
0.0
 40
9.0
100
AcDbArc
 50
331.3752679997997
 51
28.62473200019996
  0
LINE
  5
A4
330
2
100
AcDbEntity
  8
0
  6
CENTER
 62
     3
100
AcDbLine
 10
108.8773751897999
 20
217.7783508300998
 30
0.0
 11
120.0742593450997
 21
217.7783508300998
 31
0.0
  0
LINE
  5
A5
330
2
100
AcDbEntity
  8
0
 62
     3
100
AcDbLine
 10
119.9083963079998
 20
173.3249816893999
 30
0.0
 11
106.6584420842999
 21
173.3249816893999
 31
0.0
  0
LINE
  5
A6
330
2
100
AcDbEntity
  8
0
 62
     3
100
AcDbLine
 10
119.9083657903999
 20
178.0
 30
0.0
 11
106.9083657903999
 21
178.0
 31
0.0
  0
LINE
  5
A7
330
2
100
AcDbEntity
  8
0
 62
     3
100
AcDbLine
 10
119.9083657903999
 20
177.5
 30
0.0
 11
106.4083657903999
 21
177.5
 31
0.0
  0
LINE
  5
A8
330
2
100
AcDbEntity
  8
0
 62
     3
100
AcDbLine
 10
106.6583967996999
 20
163.6750010862999
 30
0.0
 11
119.9083662820999
 21
163.6749766686
 31
0.0
  0
LINE
  5
A9
330
2
100
AcDbEntity
  8
0
 62
     3
100
AcDbLine
 10
106.4083657903999
 20
159.4999999999999
 30
0.0
 11
119.9083657903999
 21
159.4999999999999
 31
0.0
  0
LINE
  5
AA
330
2
100
AcDbEntity
  8
0
 62
     3
100
AcDbLine
 10
106.9083657903999
 20
159.0
 30
0.0
 11
119.9083657903999
 21
159.0
 31
0.0
  0
LINE
  5
AB
330
2
100
AcDbEntity
  8
0
  6
CENTER
 62
     3
100
AcDbLine
 10
97.73578676989998
 20
168.5
 30
0.0
 11
125.3345590276999
 21
168.5
 31
0.0
  0
LINE
  5
AC
330
2
100
AcDbEntity
  8
0
  6
CENTER
 62
     3
100
AcDbLine
 10
87.9783578558
 20
168.5
 30
0.0
 11
135.6299081487999
 21
168.5
 31
0.0
  0
LINE
  5
AD
330
2
100
AcDbEntity
  8
0
  6
CENTER
 62
     3
100
AcDbLine
 10
94.55470520689996
 20
171.75
 30
0.0
 11
97.28556305599994
 21
171.75
 31
0.0
  0
CIRCLE
  5
AE
330
2
100
AcDbEntity
  8
0
 62
     3
100
AcDbCircle
 10
95.90837494570001
 20
171.75
 30
0.0
 40
1.0
  0
LINE
  5
AF
330
2
100
AcDbEntity
  8
0
 62
     3
100
AcDbLine
 10
95.38151594029995
 20
172.5999526977
 30
0.0
 11
94.00837494569998
 21
172.5999526977
 31
0.0
  0
LINE
  5
B0
330
2
100
AcDbEntity
  8
0
  6
CENTER
 62
     3
100
AcDbLine
 10
89.90847412779997
 20
173.5799865721999
 30
0.0
 11
96.3083749457
 21
173.5799865721999
 31
0.0
  0
LINE
  5
B1
330
2
100
AcDbEntity
  8
0
  6
CENTER
 62
     3
100
AcDbLine
 10
89.90847412779997
 20
163.4199981689
 30
0.0
 11
96.3083749457
 21
163.4199981689
 31
0.0
  0
LINE
  5
B2
330
2
100
AcDbEntity
  8
0
 62
     3
100
AcDbLine
 10
105.9083657903999
 20
164.3999938965
 30
0.0
 11
94.8083749457
 21
164.3999938965
 31
0.0
  0
LINE
  5
B3
330
2
100
AcDbEntity
  8
0
 62
     3
100
AcDbLine
 10
94.8083749457
 20
159.8999938965
 30
0.0
 11
102.3083749456998
 21
159.8999938965
 31
0.0
  0
LINE
  5
B4
330
2
100
AcDbEntity
  8
0
 62
     3
100
AcDbLine
 10
102.3083749456998
 20
177.0999908447
 30
0.0
 11
94.8083749457
 21
177.0999908447
 31
0.0
  0
LINE
  5
B5
330
2
100
AcDbEntity
  8
0
 62
     3
100
AcDbLine
 10
94.8083749457
 20
169.8
 30
0.0
 11
94.8083749457
 21
159.8999938965
 31
0.0
  0
ARC
  5
B6
330
2
100
AcDbEntity
  8
0
 62
     3
100
AcDbCircle
 10
92.80837494569999
 20
173.5799865721999
 30
0.0
 40
0.6
100
AcDbArc
 50
270.0
 51
90.0
  0
ARC
  5
B7
330
2
100
AcDbEntity
  8
0
 62
     3
100
AcDbCircle
 10
92.0083749457
 20
173.5799865721999
 30
0.0
 40
0.6
100
AcDbArc
 50
90.0
 51
270.0
  0
LINE
  5
B8
330
2
100
AcDbEntity
  8
0
 62
     3
100
AcDbLine
 10
90.90837494570001
 20
172.7799865722
 30
0.0
 11
90.90837494570001
 21
174.3799865721999
 31
0.0
  0
ARC
  5
B9
330
2
100
AcDbEntity
  8
0
 62
     3
100
AcDbCircle
 10
93.90837494569998
 20
172.6399865722
 30
0.0
 40
0.5
100
AcDbArc
 50
90.0
 51
180.0
  0
LINE
  5
BA
330
2
100
AcDbEntity
  8
0
 62
     3
100
AcDbLine
 10
94.8083749457
 20
173.6999999999999
 30
0.0
 11
94.00837494569998
 21
172.8999999999999
 31
0.0
  0
ARC
  5
BB
330
2
100
AcDbEntity
  8
0
 62
     3
100
AcDbCircle
 10
92.0083749457
 20
168.5
 30
0.0
 40
0.6
100
AcDbArc
 50
90.0
 51
270.0
  0
LINE
  5
BC
330
2
100
AcDbEntity
  8
0
 62
     3
100
AcDbLine
 10
91.2083749457
 20
169.6
 30
0.0
 11
93.40837494570001
 21
169.6
 31
0.0
  0
LINE
  5
BD
330
2
100
AcDbEntity
  8
0
 62
     3
100
AcDbLine
 10
91.2083749457
 20
167.4
 30
0.0
 11
93.40837494570001
 21
167.4
 31
0.0
  0
LINE
  5
BE
330
2
100
AcDbEntity
  8
0
 62
     3
100
AcDbLine
 10
91.2083749457
 20
172.4799865722
 30
0.0
 11
93.40837494570001
 21
172.4799865722
 31
0.0
  0
ARC
  5
BF
330
2
100
AcDbEntity
  8
0
 62
     3
100
AcDbCircle
 10
92.0083749457
 20
163.4199981689
 30
0.0
 40
0.6
100
AcDbArc
 50
90.0
 51
270.0
  0
LINE
  5
C0
330
2
100
AcDbEntity
  8
0
 62
     3
100
AcDbLine
 10
91.2083749457
 20
164.5199981689
 30
0.0
 11
93.40837494570001
 21
164.5199981689
 31
0.0
  0
LINE
  5
C1
330
2
100
AcDbEntity
  8
0
 62
     3
100
AcDbLine
 10
91.2083749457
 20
162.3199981689
 30
0.0
 11
93.40837494570001
 21
162.3199981689
 31
0.0
  0
LINE
  5
C2
330
2
100
AcDbEntity
  8
0
 62
     3
100
AcDbLine
 10
90.90837494570001
 20
162.6199981689
 30
0.0
 11
90.90837494570001
 21
164.2199981689
 31
0.0
  0
LINE
  5
C3
330
2
100
AcDbEntity
  8
0
 62
     3
100
AcDbLine
 10
91.2083749457
 20
164.5199981689
 30
0.0
 11
90.90837494570001
 21
164.2199981689
 31
0.0
  0
LINE
  5
C4
330
2
100
AcDbEntity
  8
0
 62
     3
100
AcDbLine
 10
91.2083749457
 20
162.3199981689
 30
0.0
 11
90.90837494570001
 21
162.6199981689
 31
0.0
  0
LINE
  5
C5
330
2
100
AcDbEntity
  8
0
 62
     3
100
AcDbLine
 10
90.90837494570001
 20
167.6999999999999
 30
0.0
 11
90.90837494570001
 21
169.3
 31
0.0
  0
LINE
  5
C6
330
2
100
AcDbEntity
  8
0
 62
     3
100
AcDbLine
 10
91.2083749457
 20
169.6
 30
0.0
 11
90.90837494570001
 21
169.3
 31
0.0
  0
LINE
  5
C7
330
2
100
AcDbEntity
  8
0
 62
     3
100
AcDbLine
 10
91.2083749457
 20
167.4
 30
0.0
 11
90.90837494570001
 21
167.6999999999999
 31
0.0
  0
LINE
  5
C8
330
2
100
AcDbEntity
  8
0
 62
     3
100
AcDbLine
 10
91.2083749457
 20
172.4799865722
 30
0.0
 11
90.90837494570001
 21
172.7799865722
 31
0.0
  0
ARC
  5
C9
330
2
100
AcDbEntity
  8
0
 62
     3
100
AcDbCircle
 10
93.60837494569999
 20
162.4199981689
 30
0.0
 40
0.2
100
AcDbArc
 50
90.0
 51
180.0
  0
ARC
  5
CA
330
2
100
AcDbEntity
  8
0
 62
     3
100
AcDbCircle
 10
93.90837494569998
 20
164.3600134277
 30
0.0
 40
0.5
100
AcDbArc
 50
180.0
 51
270.0
  0
ARC
  5
CB
330
2
100
AcDbEntity
  8
0
 62
     3
100
AcDbCircle
 10
92.80837494569999
 20
163.4199981689
 30
0.0
 40
0.6
100
AcDbArc
 50
270.0
 51
90.0
  0
LINE
  5
CC
330
2
100
AcDbEntity
  8
0
 62
     3
100
AcDbLine
 10
93.40837494570001
 20
162.3199981689
 30
0.0
 11
93.40837494570001
 21
162.4199981689
 31
0.0
  0
LINE
  5
CD
330
2
100
AcDbEntity
  8
0
 62
     3
100
AcDbLine
 10
93.40837494570001
 20
164.3600134277
 30
0.0
 11
93.40837494570001
 21
164.5199981689
 31
0.0
  0
LINE
  5
CE
330
2
100
AcDbEntity
  8
0
 62
     3
100
AcDbLine
 10
92.80837494569999
 20
164.0199981688999
 30
0.0
 11
92.0083749457
 21
164.0199981688999
 31
0.0
  0
LINE
  5
CF
330
2
100
AcDbEntity
  8
0
 62
     3
100
AcDbLine
 10
92.80837494569999
 20
162.8199981688999
 30
0.0
 11
92.0083749457
 21
162.8199981688999
 31
0.0
  0
LINE
  5
D0
330
2
100
AcDbEntity
  8
0
 62
     3
100
AcDbLine
 10
94.40837494570001
 20
164.35
 30
0.0
 11
94.40837494570001
 21
166.15
 31
0.0
  0
LINE
  5
D1
330
2
100
AcDbEntity
  8
0
 62
     3
100
AcDbLine
 10
94.60837494569998
 20
164.15
 30
0.0
 11
94.40837494570001
 21
164.35
 31
0.0
  0
LINE
  5
D2
330
2
100
AcDbEntity
  8
0
 62
     3
100
AcDbLine
 10
94.8083749457
 20
166.55
 30
0.0
 11
94.40837494570001
 21
166.15
 31
0.0
  0
LINE
  5
D3
330
2
100
AcDbEntity
  8
0
 62
     3
100
AcDbLine
 10
94.60837494569998
 20
163.42
 30
0.0
 11
94.60837494569998
 21
164.15
 31
0.0
  0
LINE
  5
D4
330
2
100
AcDbEntity
  8
0
 62
     3
100
AcDbLine
 10
94.60837494569998
 20
163.42
 30
0.0
 11
94.8083749457
 21
163.42
 31
0.0
  0
LINE
  5
D5
330
2
100
AcDbEntity
  8
0
 62
     3
100
AcDbLine
 10
93.60837494569999
 20
162.6199981689
 30
0.0
 11
94.8083749457
 21
162.6199981689
 31
0.0
  0
LINE
  5
D6
330
2
100
AcDbEntity
  8
0
 62
     3
100
AcDbLine
 10
93.90837494569998
 20
163.8600134277
 30
0.0
 11
94.60837494569998
 21
163.8600134277
 31
0.0
  0
ARC
  5
D7
330
2
100
AcDbEntity
  8
0
 62
     3
100
AcDbCircle
 10
93.60837494569999
 20
169.5
 30
0.0
 40
0.2
100
AcDbArc
 50
180.0
 51
270.0
  0
ARC
  5
D8
330
2
100
AcDbEntity
  8
0
 62
     3
100
AcDbCircle
 10
93.60837494569999
 20
167.5
 30
0.0
 40
0.2
100
AcDbArc
 50
90.0
 51
180.0
  0
LINE
  5
D9
330
2
100
AcDbEntity
  8
0
 62
     3
100
AcDbLine
 10
92.80837494569999
 20
172.9799865722
 30
0.0
 11
92.0083749457
 21
172.9799865722
 31
0.0
  0
ARC
  5
DA
330
2
100
AcDbEntity
  8
0
 62
     3
100
AcDbCircle
 10
92.80837494569999
 20
168.5
 30
0.0
 40
0.6
100
AcDbArc
 50
270.0
 51
90.0
  0
LINE
  5
DB
330
2
100
AcDbEntity
  8
0
 62
     3
100
AcDbLine
 10
93.40837494570001
 20
167.4
 30
0.0
 11
93.40837494570001
 21
167.5
 31
0.0
  0
LINE
  5
DC
330
2
100
AcDbEntity
  8
0
 62
     3
100
AcDbLine
 10
93.40837494570001
 20
169.5
 30
0.0
 11
93.40837494570001
 21
169.6
 31
0.0
  0
LINE
  5
DD
330
2
100
AcDbEntity
  8
0
 62
     3
100
AcDbLine
 10
93.40837494570001
 20
172.4799865722
 30
0.0
 11
93.40837494570001
 21
172.6399865722
 31
0.0
  0
LINE
  5
DE
330
2
100
AcDbEntity
  8
0
 62
     3
100
AcDbLine
 10
92.80837494569999
 20
169.1
 30
0.0
 11
92.0083749457
 21
169.1
 31
0.0
  0
LINE
  5
DF
330
2
100
AcDbEntity
  8
0
 62
     3
100
AcDbLine
 10
92.80837494569999
 20
167.8999999999999
 30
0.0
 11
92.0083749457
 21
167.8999999999999
 31
0.0
  0
LINE
  5
E0
330
2
100
AcDbEntity
  8
0
 62
     3
100
AcDbLine
 10
94.00837494569998
 20
172.8999999999999
 30
0.0
 11
94.00837494569998
 21
170.6
 31
0.0
  0
LINE
  5
E1
330
2
100
AcDbEntity
  8
0
 62
     3
100
AcDbLine
 10
94.8083749457
 20
169.8
 30
0.0
 11
94.00837494569998
 21
170.6
 31
0.0
  0
LINE
  5
E2
330
2
100
AcDbEntity
  8
0
 62
     3
100
AcDbLine
 10
93.60837494569999
 20
169.3
 30
0.0
 11
94.8083749457
 21
169.3
 31
0.0
  0
LINE
  5
E3
330
2
100
AcDbEntity
  8
0
 62
     3
100
AcDbLine
 10
93.60837494569999
 20
167.6999999999999
 30
0.0
 11
94.8083749457
 21
167.6999999999999
 31
0.0
  0
LINE
  5
E4
330
2
100
AcDbEntity
  8
0
 62
     3
100
AcDbLine
 10
93.90837494569998
 20
173.1399865721999
 30
0.0
 11
94.24836151790001
 21
173.1399865721999
 31
0.0
  0
LINE
  5
E5
330
2
100
AcDbEntity
  8
0
 62
     3
100
AcDbLine
 10
91.2083749457
 20
174.6799865722
 30
0.0
 11
93.40837494570001
 21
174.6799865722
 31
0.0
  0
LINE
  5
E6
330
2
100
AcDbEntity
  8
0
 62
     3
100
AcDbLine
 10
91.2083749457
 20
174.6799865722
 30
0.0
 11
90.90837494570001
 21
174.3799865721999
 31
0.0
  0
ARC
  5
E7
330
2
100
AcDbEntity
  8
0
 62
     3
100
AcDbCircle
 10
93.60837494569999
 20
174.5799865721999
 30
0.0
 40
0.2
100
AcDbArc
 50
180.0
 51
270.0
  0
LINE
  5
E8
330
2
100
AcDbEntity
  8
0
 62
     3
100
AcDbLine
 10
93.40837494570001
 20
174.5799865721999
 30
0.0
 11
93.40837494570001
 21
174.6799865722
 31
0.0
  0
LINE
  5
E9
330
2
100
AcDbEntity
  8
0
 62
     3
100
AcDbLine
 10
92.80837494569999
 20
174.1799865722
 30
0.0
 11
92.0083749457
 21
174.1799865722
 31
0.0
  0
LINE
  5
EA
330
2
100
AcDbEntity
  8
0
 62
     3
100
AcDbLine
 10
94.8083749457
 20
177.0999908447
 30
0.0
 11
94.8083749457
 21
173.6999999999999
 31
0.0
  0
LINE
  5
EB
330
2
100
AcDbEntity
  8
0
 62
     3
100
AcDbLine
 10
93.60837494569999
 20
174.3799865721999
 30
0.0
 11
94.8083749457
 21
174.3799865721999
 31
0.0
  0
LINE
  5
EC
330
2
100
AcDbEntity
  8
0
 62
     3
100
AcDbLine
 10
106.6583657903999
 20
159.2500305176
 30
0.0
 11
106.6583657903999
 21
163.6750335693
 31
0.0
  0
LINE
  5
ED
330
2
100
AcDbEntity
  8
0
 62
     3
100
AcDbLine
 10
106.4083657903999
 20
159.5999908447
 30
0.0
 11
106.4083657903999
 21
164.0999908447
 31
0.0
  0
LINE
  5
EE
330
2
100
AcDbEntity
  8
0
 62
     3
100
AcDbLine
 10
105.9083657903999
 20
159.5999908447
 30
0.0
 11
105.9083657903999
 21
177.3999938965
 31
0.0
  0
LINE
  5
EF
330
2
100
AcDbEntity
  8
0
 62
     3
100
AcDbLine
 10
101.8083749456998
 20
159.5999908447
 30
0.0
 11
105.9083657903999
 21
159.5999908447
 31
0.0
  0
LINE
  5
F0
330
2
100
AcDbEntity
  8
0
 62
     3
100
AcDbLine
 10
101.8083749456998
 20
159.8999938965
 30
0.0
 11
101.8083749456998
 21
159.5999908447
 31
0.0
  0
LINE
  5
F1
330
2
100
AcDbEntity
  8
0
 62
     3
100
AcDbLine
 10
102.3083749456998
 20
159.8999938965
 30
0.0
 11
102.3083749456998
 21
159.5999908447
 31
0.0
  0
LINE
  5
F2
330
2
100
AcDbEntity
  8
0
 62
     3
100
AcDbLine
 10
106.4083815117
 20
159.4999999027
 30
0.0
 11
106.9083820002999
 21
158.9999992876
 31
0.0
  0
LINE
  5
F3
330
2
100
AcDbEntity
  8
0
 62
     3
100
AcDbLine
 10
106.4083657903999
 20
159.4999999999999
 30
0.0
 11
106.4083657903999
 21
159.5999908447
 31
0.0
  0
LINE
  5
F4
330
2
100
AcDbEntity
  8
0
 62
     3
100
AcDbLine
 10
106.4083657903999
 20
159.5999908447
 30
0.0
 11
105.9083657903999
 21
159.5999908447
 31
0.0
  0
LINE
  5
F5
330
2
100
AcDbEntity
  8
0
 62
     3
100
AcDbLine
 10
105.9083657903999
 20
177.3999938965
 30
0.0
 11
101.8083749456998
 21
177.3999938965
 31
0.0
  0
LINE
  5
F6
330
2
100
AcDbEntity
  8
0
 62
     3
100
AcDbLine
 10
105.9083657903999
 20
172.5999908447
 30
0.0
 11
96.43517240569998
 21
172.5999908447
 31
0.0
  0
LINE
  5
F7
330
2
100
AcDbEntity
  8
0
  6
CENTER
 62
     3
100
AcDbLine
 10
95.90837341979996
 20
173.1940231323
 30
0.0
 11
95.90837341979996
 21
170.4922561645
 31
0.0
  0
LINE
  5
F8
330
2
100
AcDbEntity
  8
0
 62
     3
100
AcDbLine
 10
101.8083749456998
 20
177.0999908447
 30
0.0
 11
101.8083749456998
 21
177.3999938965
 31
0.0
  0
LINE
  5
F9
330
2
100
AcDbEntity
  8
0
 62
     3
100
AcDbLine
 10
106.4083657903999
 20
172.8999938965
 30
0.0
 11
106.4083657903999
 21
177.3999938965
 31
0.0
  0
LINE
  5
FA
330
2
100
AcDbEntity
  8
0
 62
     3
100
AcDbLine
 10
106.4083698134999
 20
172.8999538912
 30
0.0
 11
106.6583674357999
 21
173.3249500019
 31
0.0
  0
LINE
  5
FB
330
2
100
AcDbEntity
  8
0
 62
     3
100
AcDbLine
 10
105.4084119607999
 20
170.6499507652999
 30
0.0
 11
105.7084156383
 21
176.1799660721999
 31
0.0
  0
LINE
  5
FC
330
2
100
AcDbEntity
  8
0
 62
     3
100
AcDbLine
 10
105.4084117281
 20
176.1799526364
 30
0.0
 11
105.4083964692999
 21
167.4999447017999
 31
0.0
  0
LINE
  5
FD
330
2
100
AcDbEntity
  8
0
 62
     3
100
AcDbLine
 10
102.9084158734999
 20
176.1799698731
 30
0.0
 11
103.4083998486999
 21
170.6499750355999
 31
0.0
  0
LINE
  5
FE
330
2
100
AcDbEntity
  8
0
 62
     3
100
AcDbLine
 10
103.4084117281
 20
176.1799408933999
 30
0.0
 11
103.4083964692999
 21
167.4999482177
 31
0.0
  0
LINE
  5
FF
330
2
100
AcDbEntity
  8
0
 62
     3
100
AcDbLine
 10
102.3084187859997
 20
176.1799669555999
 30
0.0
 11
102.3084035271998
 21
166.4999590211
 31
0.0
  0
LINE
  5
100
330
2
100
AcDbEntity
  8
0
 62
     3
100
AcDbLine
 10
105.9083657903999
 20
166.5
 30
0.0
 11
102.3083749456998
 21
166.5
 31
0.0
  0
LINE
  5
101
330
2
100
AcDbEntity
  8
0
 62
     3
100
AcDbLine
 10
105.4083657903999
 20
167.5
 30
0.0
 11
103.4083657903999
 21
167.5
 31
0.0
  0
LINE
  5
102
330
2
100
AcDbEntity
  8
0
 62
     3
100
AcDbLine
 10
106.6583550183999
 20
163.6750181703999
 30
0.0
 11
106.4083729573999
 21
164.0999880356
 31
0.0
  0
LINE
  5
103
330
2
100
AcDbEntity
  8
0
 62
     3
100
AcDbLine
 10
105.9083657903999
 20
164.0999908447
 30
0.0
 11
106.4083657903999
 21
164.0999908447
 31
0.0
  0
LINE
  5
104
330
2
100
AcDbEntity
  8
0
 62
     3
100
AcDbLine
 10
106.4083657903999
 20
172.8999938965
 30
0.0
 11
105.9083657903999
 21
172.8999938965
 31
0.0
  0
LINE
  5
105
330
2
100
AcDbEntity
  8
0
 62
     3
100
AcDbLine
 10
105.9083657903999
 20
176.1799926758
 30
0.0
 11
105.4083810491997
 21
176.1799926758
 31
0.0
  0
LINE
  5
106
330
2
100
AcDbEntity
  8
0
 62
     3
100
AcDbLine
 10
102.3083749456998
 20
177.3999938965
 30
0.0
 11
102.3083749456998
 21
177.0999908447
 31
0.0
  0
LINE
  5
107
330
2
100
AcDbEntity
  8
0
 62
     3
100
AcDbLine
 10
103.4083810491999
 20
176.1799926758
 30
0.0
 11
102.3083902044999
 21
176.1799926758
 31
0.0
  0
LINE
  5
108
330
2
100
AcDbEntity
  8
0
 62
     3
100
AcDbLine
 10
106.6583657903999
 20
173.3249816893999
 30
0.0
 11
106.6583657903999
 21
177.7499847412
 31
0.0
  0
LINE
  5
109
330
2
100
AcDbEntity
  8
0
 62
     3
100
AcDbLine
 10
106.9083655208999
 20
177.9999582185
 30
0.0
 11
106.4083649057999
 21
177.4999577298
 31
0.0
  0
LINE
  5
10A
330
2
100
AcDbEntity
  8
0
 62
     3
100
AcDbLine
 10
106.4083657903999
 20
177.3999938965
 30
0.0
 11
106.4083657903999
 21
177.5
 31
0.0
  0
LINE
  5
10B
330
2
100
AcDbEntity
  8
0
 62
     3
100
AcDbLine
 10
105.9083657903999
 20
177.3999938965
 30
0.0
 11
106.4083657903999
 21
177.3999938965
 31
0.0
  0
LINE
  5
10C
330
2
100
AcDbEntity
  8
0
 62
     3
100
AcDbLine
 10
122.9083657903999
 20
159.0
 30
0.0
 11
127.1083627385999
 21
159.0
 31
0.0
  0
LINE
  5
10D
330
2
100
AcDbEntity
  8
0
 62
     3
100
AcDbLine
 10
122.9083657903999
 20
159.4999999999999
 30
0.0
 11
127.6083627385999
 21
159.4999999999999
 31
0.0
  0
LINE
  5
10E
330
2
100
AcDbEntity
  8
0
 62
     3
100
AcDbLine
 10
122.9083662821
 20
163.67497114
 30
0.0
 11
127.3583632302999
 21
163.6749629394
 31
0.0
  0
LINE
  5
10F
330
2
100
AcDbEntity
  8
0
 62
     3
100
AcDbLine
 10
127.3583932561999
 20
173.3249816893999
 30
0.0
 11
122.9083963079999
 21
173.3249816893999
 31
0.0
  0
LINE
  5
110
330
2
100
AcDbEntity
  8
0
 62
     3
100
AcDbLine
 10
127.6083627385999
 20
177.5
 30
0.0
 11
122.9083657903999
 21
177.5
 31
0.0
  0
LINE
  5
111
330
2
100
AcDbEntity
  8
0
 62
     3
100
AcDbLine
 10
127.1083627385999
 20
178.0
 30
0.0
 11
122.9083657903999
 21
178.0
 31
0.0
  0
ARC
  5
112
330
2
100
AcDbEntity
  8
0
 62
     3
100
AcDbCircle
 10
124.9083657903999
 20
159.125
 30
0.0
 40
5.0
100
AcDbArc
 50
141.3178160408999
 51
218.6821666563
  0
LINE
  5
113
330
2
100
AcDbEntity
  8
0
 62
     3
100
AcDbLine
 10
119.9083657903999
 20
177.8749847412
 30
0.0
 11
119.9083657903999
 21
159.125
 31
0.0
  0
LINE
  5
114
330
2
100
AcDbEntity
  8
0
 62
     3
100
AcDbLine
 10
122.9083657903999
 20
180.9999847412
 30
0.0
 11
122.9083657903999
 21
156.0
 31
0.0
  0
LINE
  5
115
330
2
100
AcDbEntity
  8
0
 62
     3
100
AcDbLine
 10
122.9083657903999
 20
156.0
 30
0.0
 11
121.0052438421999
 21
156.0
 31
0.0
  0
ARC
  5
116
330
2
100
AcDbEntity
  8
0
 62
     3
100
AcDbCircle
 10
135.2083688421997
 20
168.4499969482
 30
0.0
 40
15.5
100
AcDbArc
 50
156.0178584555997
 51
170.7858202713999
  0
LINE
  5
117
330
2
100
AcDbEntity
  8
0
 62
     3
100
AcDbLine
 10
121.0052552455999
 20
162.2499659508999
 30
0.0
 11
122.9083771938998
 21
162.2499628396
 31
0.0
  0
ARC
  5
118
330
2
100
AcDbEntity
  8
0
 62
     3
100
AcDbCircle
 10
135.2083688421997
 20
168.4499969482
 30
0.0
 40
15.5
100
AcDbArc
 50
189.2141797286
 51
203.5781768361
  0
ARC
  5
119
330
2
100
AcDbEntity
  8
0
 62
     3
100
AcDbCircle
 10
124.9083657903999
 20
177.8749847412
 30
0.0
 40
5.0
100
AcDbArc
 50
141.3178160408999
 51
218.6821666563
  0
LINE
  5
11A
330
2
100
AcDbEntity
  8
0
 62
     3
100
AcDbLine
 10
122.9083657903999
 20
174.7499847412
 30
0.0
 11
121.0052438421999
 21
174.7499847412
 31
0.0
  0
LINE
  5
11B
330
2
100
AcDbEntity
  8
0
 62
     3
100
AcDbLine
 10
122.9083657903999
 20
180.9999847412
 30
0.0
 11
121.0052438421999
 21
180.9999847412
 31
0.0
  0
LINE
  5
11C
330
2
100
AcDbEntity
  8
0
 62
     3
100
AcDbLine
 10
132.9083657903999
 20
177.6999969482
 30
0.0
 11
132.9083657903999
 21
159.2999877929999
 31
0.0
  0
LINE
  5
11D
330
2
100
AcDbEntity
  8
0
 62
     3
100
AcDbLine
 10
127.3583627385999
 20
159.25
 30
0.0
 11
127.3583627385999
 21
163.6749877929999
 31
0.0
  0
LINE
  5
11E
330
2
100
AcDbEntity
  8
0
 62
     3
100
AcDbLine
 10
127.6083627385999
 20
159.5999908447
 30
0.0
 11
127.6083627385999
 21
164.0999908447
 31
0.0
  0
LINE
  5
11F
330
2
100
AcDbEntity
  8
0
 62
     3
100
AcDbLine
 10
128.4083657903999
 20
157.5
 30
0.0
 11
128.4083657903999
 21
179.4999999999999
 31
0.0
  0
LINE
  5
120
330
2
100
AcDbEntity
  8
0
 62
     3
100
AcDbLine
 10
129.9083657903999
 20
157.5
 30
0.0
 11
129.9083657903999
 21
179.4999999999999
 31
0.0
  0
LINE
  5
121
330
2
100
AcDbEntity
  8
0
 62
     3
100
AcDbLine
 10
132.9083458586
 20
159.2999588314
 30
0.0
 11
129.9083503414999
 21
157.4999619382
 31
0.0
  0
LINE
  5
122
330
2
100
AcDbEntity
  8
0
 62
     3
100
AcDbLine
 10
127.6083627385999
 20
159.5999908447
 30
0.0
 11
128.4083657903999
 21
159.5999908447
 31
0.0
  0
LINE
  5
123
330
2
100
AcDbEntity
  8
0
 62
     3
100
AcDbLine
 10
127.6083627385999
 20
159.4999999999999
 30
0.0
 11
127.6083627385999
 21
159.5999908447
 31
0.0
  0
LINE
  5
124
330
2
100
AcDbEntity
  8
0
 62
     3
100
AcDbLine
 10
127.1083703085999
 20
158.9999670620999
 30
0.0
 11
127.6083709236999
 21
159.4999675508
 31
0.0
  0
LINE
  5
125
330
2
100
AcDbEntity
  8
0
 62
     3
100
AcDbLine
 10
129.9083657903999
 20
157.5
 30
0.0
 11
128.4083657903999
 21
157.5
 31
0.0
  0
LINE
  5
126
330
2
100
AcDbEntity
  8
0
 62
     3
100
AcDbLine
 10
129.908393419
 20
179.4999545443999
 30
0.0
 11
132.9083885189999
 21
177.6999568171
 31
0.0
  0
LINE
  5
127
330
2
100
AcDbEntity
  8
0
 62
     3
100
AcDbLine
 10
127.6083530389998
 20
172.8999693179
 30
0.0
 11
127.3583555048999
 21
173.3249654873
 31
0.0
  0
LINE
  5
128
330
2
100
AcDbEntity
  8
0
 62
     3
100
AcDbLine
 10
127.6083627385999
 20
172.8999938965
 30
0.0
 11
127.6083627385999
 21
177.3999938965
 31
0.0
  0
LINE
  5
129
330
2
100
AcDbEntity
  8
0
 62
     3
100
AcDbLine
 10
127.6083627385999
 20
164.0999908447
 30
0.0
 11
128.4083657903999
 21
164.0999908447
 31
0.0
  0
LINE
  5
12A
330
2
100
AcDbEntity
  8
0
 62
     3
100
AcDbLine
 10
127.3583764325999
 20
163.6749565828
 30
0.0
 11
127.6083740548999
 21
164.0999526935
 31
0.0
  0
LINE
  5
12B
330
2
100
AcDbEntity
  8
0
 62
     3
100
AcDbLine
 10
128.4083657903999
 20
172.8999938965
 30
0.0
 11
127.6083627385999
 21
172.8999938965
 31
0.0
  0
LINE
  5
12C
330
2
100
AcDbEntity
  8
0
 62
     3
100
AcDbLine
 10
128.4083657903999
 20
177.3999938965
 30
0.0
 11
127.6083627385999
 21
177.3999938965
 31
0.0
  0
LINE
  5
12D
330
2
100
AcDbEntity
  8
0
 62
     3
100
AcDbLine
 10
127.3583627385999
 20
173.3249969481999
 30
0.0
 11
127.3583627385999
 21
177.7499847412
 31
0.0
  0
LINE
  5
12E
330
2
100
AcDbEntity
  8
0
 62
     3
100
AcDbLine
 10
127.6083627385999
 20
177.3999938965
 30
0.0
 11
127.6083627385999
 21
177.5
 31
0.0
  0
LINE
  5
12F
330
2
100
AcDbEntity
  8
0
 62
     3
100
AcDbLine
 10
127.6083617355999
 20
177.4999759541
 30
0.0
 11
127.1083612469999
 21
177.9999765691999
 31
0.0
  0
LINE
  5
130
330
2
100
AcDbEntity
  8
0
 62
     3
100
AcDbLine
 10
129.9083657903999
 20
179.4999999999999
 30
0.0
 11
128.4083657903999
 21
179.4999999999999
 31
0.0
  0
ARC
  5
131
330
2
100
AcDbEntity
  8
0
 62
     3
100
AcDbCircle
 10
120.1439614934999
 20
210.5783691405998
 30
0.0
 40
4.5
100
AcDbArc
 50
11.5370262063
 51
89.99998201389999
  0
ARC
  5
132
330
2
100
AcDbEntity
  8
0
 62
     3
100
AcDbCircle
 10
120.1439614934999
 20
210.5783691405998
 30
0.0
 40
3.5
100
AcDbArc
 50
11.5370262063
 51
89.99998201389999
  0
ARC
  5
133
330
2
100
AcDbEntity
  8
0
 62
     3
100
AcDbCircle
 10
120.1439614934999
 20
226.5783538817998
 30
0.0
 40
4.5
100
AcDbArc
 50
270.0000179861
 51
348.4629942841999
  0
ARC
  5
134
330
2
100
AcDbEntity
  8
0
 62
     3
100
AcDbCircle
 10
120.1439614934999
 20
226.5783538817998
 30
0.0
 40
3.5
100
AcDbArc
 50
270.0000179861
 51
348.4629942841999
  0
LINE
  5
135
330
2
100
AcDbEntity
  8
0
  6
PHANTOM
 62
     3
100
AcDbLine
 10
117.6439483022999
 20
208.5783190213999
 30
0.0
 11
114.6439527851999
 21
206.7783221281998
 31
0.0
  0
LINE
  5
137
330
2
100
AcDbEntity
  8
0
  6
PHANTOM
 62
     3
100
AcDbLine
 10
113.1439614934999
 20
206.7783660888999
 30
0.0
 11
113.1439614934999
 21
228.7783660888999
 31
0.0
  0
LINE
  5
138
330
2
100
AcDbEntity
  8
0
  6
PHANTOM
 62
     3
100
AcDbLine
 10
114.6439614934999
 20
206.7783660888999
 30
0.0
 11
114.6439614934999
 21
228.7783660888999
 31
0.0
  0
LINE
  5
139
330
2
100
AcDbEntity
  8
0
  6
PHANTOM
 62
     3
100
AcDbLine
 10
114.6439614934999
 20
206.7783660888999
 30
0.0
 11
113.1439614934999
 21
206.7783660888999
 31
0.0
  0
LINE
  5
13A
330
2
100
AcDbEntity
  8
0
  6
PHANTOM
 62
     3
100
AcDbLine
 10
114.6439959560999
 20
228.7783192949
 30
0.0
 11
117.6439910560999
 21
226.9783215676
 31
0.0
  0
LINE
  5
13B
330
2
100
AcDbEntity
  8
0
  6
PHANTOM
 62
     3
100
AcDbLine
 10
114.6439614934999
 20
228.7783660888999
 30
0.0
 11
113.1439614934999
 21
228.7783660888999
 31
0.0
  0
LINE
  5
13C
330
2
100
AcDbEntity
  8
0
 62
     3
100
AcDbLine
 10
120.1439614934999
 20
215.078338623
 30
0.0
 11
120.1439614934999
 21
222.078338623
 31
0.0
  0
LINE
  5
13D
330
2
100
AcDbEntity
  8
0
  6
PHANTOM
 62
     3
100
AcDbLine
 10
117.6439614934997
 20
226.9783630371
 30
0.0
 11
117.6439614934997
 21
208.5783538818
 31
0.0
  0
LINE
  5
13E
330
2
100
AcDbEntity
  8
0
 62
     3
100
AcDbLine
 10
117.6439614934997
 20
214.0783538817998
 30
0.0
 11
120.1439614934999
 21
214.0783538817998
 31
0.0
  0
LINE
  5
13F
330
2
100
AcDbEntity
  8
0
 62
     3
100
AcDbLine
 10
117.6439614934997
 20
223.0783538817998
 30
0.0
 11
120.1439614934999
 21
223.0783538817998
 31
0.0
  0
LINE
  5
140
330
2
100
AcDbEntity
  8
0
 62
     3
100
AcDbLine
 10
129.0106149358997
 20
219.311706543
 30
0.0
 11
131.0106149358997
 21
219.311706543
 31
0.0
  0
ARC
  5
141
330
2
100
AcDbEntity
  8
0
 62
     3
100
AcDbCircle
 10
130.0106759711
 20
218.4450988769
 30
0.0
 40
0.1999995708
100
AcDbArc
 50
0.0
 51
179.9998001033
  0
ARC
  5
142
330
2
100
AcDbEntity
  8
0
 62
     3
100
AcDbCircle
 10
130.0106759711
 20
216.4451293945
 30
0.0
 40
0.1999995708
100
AcDbArc
 50
180.0001452552
 51
0.0
  0
LINE
  5
143
330
2
100
AcDbEntity
  8
0
 62
     3
100
AcDbLine
 10
129.8105874700999
 20
217.8450469971
 30
0.0
 11
130.2106271428999
 21
217.8450469971
 31
0.0
  0
LINE
  5
144
330
2
100
AcDbEntity
  8
0
 62
     3
100
AcDbLine
 10
129.8105874700999
 20
217.445022583
 30
0.0
 11
131.4106088323997
 21
217.445022583
 31
0.0
  0
LINE
  5
145
330
2
100
AcDbEntity
  8
0
 62
     3
100
AcDbLine
 10
129.0106149358997
 20
215.5783691406
 30
0.0
 11
131.0106149358997
 21
215.5783691406
 31
0.0
  0
LINE
  5
146
330
2
100
AcDbEntity
  8
0
 62
     3
100
AcDbLine
 10
128.2106271428999
 20
221.4450073241999
 30
0.0
 11
128.2106271428999
 21
215.7117156982
 31
0.0
  0
ARC
  5
147
330
2
100
AcDbEntity
  8
0
 62
     3
100
AcDbCircle
 10
129.0106607123
 20
218.9117584228
 30
0.0
 40
0.3999996781
100
AcDbArc
 50
89.99987273089997
 51
179.9998001033
  0
LINE
  5
148
330
2
100
AcDbEntity
  8
0
 62
     3
100
AcDbLine
 10
125.0106301946999
 20
219.311706543
 30
0.0
 11
125.0106301946999
 21
215.7117156982
 31
0.0
  0
LINE
  5
149
330
2
100
AcDbEntity
  8
0
 62
     3
100
AcDbLine
 10
123.6773172063999
 20
219.311706543
 30
0.0
 11
123.6773172063999
 21
215.7117156982
 31
0.0
  0
ARC
  5
14A
330
2
100
AcDbEntity
  8
0
 62
     3
100
AcDbCircle
 10
125.8106942815997
 20
218.9117584228
 30
0.0
 40
0.3999996781
100
AcDbArc
 50
89.99987273089997
 51
179.9998001033
  0
LINE
  5
14B
330
2
100
AcDbEntity
  8
0
 62
     3
100
AcDbLine
 10
125.8106485051999
 20
215.5783691406
 30
0.0
 11
128.0772958440999
 21
215.5783691406
 31
0.0
  0
ARC
  5
14C
330
2
100
AcDbEntity
  8
0
 62
     3
100
AcDbCircle
 10
125.0429483098999
 20
211.5783691405999
 30
0.0
 40
0.5
100
AcDbArc
 50
191.5369904615
 51
269.9999633446
  0
ARC
  5
14D
330
2
100
AcDbEntity
  8
0
 62
     3
100
AcDbCircle
 10
125.0429483098999
 20
211.5783691405999
 30
0.0
 40
1.5
100
AcDbArc
 50
191.5369904615
 51
269.9999633446
  0
LINE
  5
14E
330
2
100
AcDbEntity
  8
0
 62
     3
100
AcDbLine
 10
123.8106485051999
 20
215.5783691406
 30
0.0
 11
124.8772836370999
 21
215.5783691406
 31
0.0
  0
ARC
  5
14F
330
2
100
AcDbEntity
  8
0
 62
     3
100
AcDbCircle
 10
123.8106790227999
 20
215.7117919921999
 30
0.0
 40
0.1333329678
100
AcDbArc
 50
180.0001452552
 51
270.0001272691
  0
ARC
  5
150
330
2
100
AcDbEntity
  8
0
 62
     3
100
AcDbCircle
 10
124.8773294133999
 20
215.7117919921999
 30
0.0
 40
0.1333329678
100
AcDbArc
 50
270.0001272691
 51
0.0
  0
LINE
  5
151
330
2
100
AcDbEntity
  8
0
 62
     3
100
AcDbLine
 10
125.41063935
 20
218.9116973877
 30
0.0
 11
125.41063935
 21
215.9783782959
 31
0.0
  0
ARC
  5
152
330
2
100
AcDbEntity
  8
0
 62
     3
100
AcDbCircle
 10
125.8106942815997
 20
215.9784545897998
 30
0.0
 40
0.3999996781
100
AcDbArc
 50
180.0001452552
 51
270.0001272691
  0
ARC
  5
153
330
2
100
AcDbEntity
  8
0
 62
     3
100
AcDbCircle
 10
128.0773416204999
 20
215.7117919921999
 30
0.0
 40
0.1333329678
100
AcDbArc
 50
270.0001272691
 51
0.0
  0
LINE
  5
154
330
2
100
AcDbEntity
  8
0
 62
     3
100
AcDbLine
 10
127.0106301946998
 20
218.445022583
 30
0.0
 11
127.0106301946998
 21
216.4450378418
 31
0.0
  0
ARC
  5
155
330
2
100
AcDbEntity
  8
0
 62
     3
100
AcDbCircle
 10
126.8106942815999
 20
216.4451293945
 30
0.0
 40
0.1999995708
100
AcDbArc
 50
180.0001452552
 51
0.0
  0
ARC
  5
156
330
2
100
AcDbEntity
  8
0
 62
     3
100
AcDbCircle
 10
126.8106942815999
 20
218.4450988769
 30
0.0
 40
0.1999995708
100
AcDbArc
 50
0.0
 51
179.9998001033
  0
LINE
  5
157
330
2
100
AcDbEntity
  8
0
 62
     3
100
AcDbLine
 10
126.6106362981999
 20
218.445022583
 30
0.0
 11
126.6106362981999
 21
216.4450378418
 31
0.0
  0
LINE
  5
158
330
2
100
AcDbEntity
  8
0
 62
     3
100
AcDbLine
 10
129.8105874700999
 20
217.445022583
 30
0.0
 11
129.8105874700999
 21
216.4450378418
 31
0.0
  0
LINE
  5
159
330
2
100
AcDbEntity
  8
0
 62
     3
100
AcDbLine
 10
129.8105874700999
 20
218.445022583
 30
0.0
 11
129.8105874700999
 21
217.8450469971
 31
0.0
  0
LINE
  5
15A
330
2
100
AcDbEntity
  8
0
 62
     3
100
AcDbLine
 10
128.6106210393999
 20
218.9116973877
 30
0.0
 11
128.6106210393999
 21
215.9783782959
 31
0.0
  0
ARC
  5
15B
330
2
100
AcDbEntity
  8
0
 62
     3
100
AcDbCircle
 10
129.0106607123
 20
215.9784545897998
 30
0.0
 40
0.3999996781
100
AcDbArc
 50
180.0001452552
 51
270.0001272691
  0
LINE
  5
15C
330
2
100
AcDbEntity
  8
0
 62
     3
100
AcDbLine
 10
125.8106485051999
 20
219.311706543
 30
0.0
 11
127.0106301946998
 21
219.311706543
 31
0.0
  0
LINE
  5
15D
330
2
100
AcDbEntity
  8
0
 62
     3
100
AcDbLine
 10
123.8106485051999
 20
221.5783538818
 30
0.0
 11
124.8772836370999
 21
221.5783538818
 31
0.0
  0
LINE
  5
15E
330
2
100
AcDbEntity
  8
0
 62
     3
100
AcDbLine
 10
123.6773172063999
 20
220.2116851805998
 30
0.0
 11
125.0106301946999
 21
220.2116851805998
 31
0.0
  0
LINE
  5
15F
330
2
100
AcDbEntity
  8
0
 62
     3
100
AcDbLine
 10
123.6773172063999
 20
219.311706543
 30
0.0
 11
125.0106301946999
 21
219.311706543
 31
0.0
  0
LINE
  5
160
330
2
100
AcDbEntity
  8
0
 62
     3
100
AcDbLine
 10
123.6773172063999
 20
221.4450073241999
 30
0.0
 11
123.6773172063999
 21
220.2116851805998
 31
0.0
  0
ARC
  5
161
330
2
100
AcDbEntity
  8
0
 62
     3
100
AcDbCircle
 10
123.8106790227999
 20
221.4450836180998
 30
0.0
 40
0.1333329678
100
AcDbArc
 50
89.99987273089997
 51
179.9998001033
  0
ARC
  5
162
330
2
100
AcDbEntity
  8
0
 62
     3
100
AcDbCircle
 10
124.8773294133999
 20
221.4450836180998
 30
0.0
 40
0.1333329678
100
AcDbArc
 50
0.0
 51
89.99981808940002
  0
LINE
  5
163
330
2
100
AcDbEntity
  8
0
 62
     3
100
AcDbLine
 10
125.0106301946999
 20
221.4450073241999
 30
0.0
 11
125.0106301946999
 21
220.2116851805998
 31
0.0
  0
ARC
  5
164
330
2
100
AcDbEntity
  8
0
 62
     3
100
AcDbCircle
 10
125.0429483098999
 20
225.5783538817999
 30
0.0
 40
0.5
100
AcDbArc
 50
90.00003665540001
 51
168.4630095385
  0
ARC
  5
165
330
2
100
AcDbEntity
  8
0
 62
     3
100
AcDbCircle
 10
125.0429483098999
 20
225.5783538817999
 30
0.0
 40
1.5
100
AcDbArc
 50
90.00003665540001
 51
168.4630095385
  0
ARC
  5
166
330
2
100
AcDbEntity
  8
0
 62
     3
100
AcDbCircle
 10
128.0773416204999
 20
221.4450836180998
 30
0.0
 40
0.1333329678
100
AcDbArc
 50
0.0
 51
89.99981808940002
  0
ARC
  5
167
330
2
100
AcDbEntity
  8
0
 62
     3
100
AcDbCircle
 10
127.1440225286999
 20
221.4450836180998
 30
0.0
 40
0.1333329678
100
AcDbArc
 50
89.99987273089997
 51
179.9998001033
  0
LINE
  5
168
330
2
100
AcDbEntity
  8
0
 62
     3
100
AcDbLine
 10
127.0106301946998
 20
221.4450073241999
 30
0.0
 11
127.0106301946998
 21
219.311706543
 31
0.0
  0
LINE
  5
169
330
2
100
AcDbEntity
  8
0
 62
     3
100
AcDbLine
 10
127.1439614934999
 20
221.5783538818
 30
0.0
 11
128.0772958440999
 21
221.5783538818
 31
0.0
  0
LINE
  5
16A
330
2
100
AcDbEntity
  8
0
 62
     3
100
AcDbLine
 10
136.7439523382999
 20
217.0783538817999
 30
0.0
 11
136.7439523382999
 21
221.8283538817999
 31
0.0
  0
ARC
  5
16B
330
2
100
AcDbEntity
  8
0
 62
     3
100
AcDbCircle
 10
134.2106576604997
 20
218.9117584228
 30
0.0
 40
0.3999996781
100
AcDbArc
 50
0.0
 51
89.99981808940002
  0
ARC
  5
16C
330
2
100
AcDbEntity
  8
0
 62
     3
100
AcDbCircle
 10
132.2106881780999
 20
218.9117584228
 30
0.0
 40
0.3999996781
100
AcDbArc
 50
89.99987273089997
 51
179.9998001033
  0
ARC
  5
16D
330
2
100
AcDbEntity
  8
0
 62
     3
100
AcDbCircle
 10
131.0106759711
 20
218.9117584228
 30
0.0
 40
0.3999996781
100
AcDbArc
 50
0.0
 51
89.99981808940002
  0
LINE
  5
16E
330
2
100
AcDbEntity
  8
0
 62
     3
100
AcDbLine
 10
133.4106240911999
 20
217.6450347899999
 30
0.0
 11
134.6106057806
 21
217.6450347899999
 31
0.0
  0
LINE
  5
16F
330
2
100
AcDbEntity
  8
0
 62
     3
100
AcDbLine
 10
133.4106240911999
 20
217.2450256346999
 30
0.0
 11
134.6106057806
 21
217.2450256346999
 31
0.0
  0
LINE
  5
170
330
2
100
AcDbEntity
  8
0
 62
     3
100
AcDbLine
 10
132.2106271428999
 20
215.5783691406
 30
0.0
 11
134.2105966254
 21
215.5783691406
 31
0.0
  0
ARC
  5
171
330
2
100
AcDbEntity
  8
0
 62
     3
100
AcDbCircle
 10
132.2106881780999
 20
215.9784545897998
 30
0.0
 40
0.3999996781
100
AcDbArc
 50
180.0001452552
 51
270.0001272691
  0
LINE
  5
172
330
2
100
AcDbEntity
  8
0
 62
     3
100
AcDbLine
 10
131.4106088323997
 20
217.0450286864999
 30
0.0
 11
131.4106088323997
 21
215.9783782959
 31
0.0
  0
ARC
  5
173
330
2
100
AcDbEntity
  8
0
 62
     3
100
AcDbCircle
 10
131.0106759711
 20
215.9784545897998
 30
0.0
 40
0.3999996781
100
AcDbArc
 50
270.0001272691
 51
0.0
  0
LINE
  5
174
330
2
100
AcDbEntity
  8
0
 62
     3
100
AcDbLine
 10
130.2106271428999
 20
217.0450286864999
 30
0.0
 11
130.2106271428999
 21
216.4450378418
 31
0.0
  0
LINE
  5
175
330
2
100
AcDbEntity
  8
0
 62
     3
100
AcDbLine
 10
130.2106271428999
 20
218.445022583
 30
0.0
 11
130.2106271428999
 21
217.8450469971
 31
0.0
  0
LINE
  5
176
330
2
100
AcDbEntity
  8
0
 62
     3
100
AcDbLine
 10
130.2106271428999
 20
217.0450286864999
 30
0.0
 11
131.4106088323997
 21
217.0450286864999
 31
0.0
  0
LINE
  5
177
330
2
100
AcDbEntity
  8
0
 62
     3
100
AcDbLine
 10
131.4106088323997
 20
218.9116973877
 30
0.0
 11
131.4106088323997
 21
217.445022583
 31
0.0
  0
ARC
  5
178
330
2
100
AcDbEntity
  8
0
 62
     3
100
AcDbCircle
 10
133.2106881780999
 20
216.4451293945
 30
0.0
 40
0.1999995708
100
AcDbArc
 50
180.0001452552
 51
0.0
  0
ARC
  5
179
330
2
100
AcDbEntity
  8
0
 62
     3
100
AcDbCircle
 10
133.2106881780999
 20
218.4450988769
 30
0.0
 40
0.1999995708
100
AcDbArc
 50
0.0
 51
179.9998001033
  0
LINE
  5
17A
330
2
100
AcDbEntity
  8
0
 62
     3
100
AcDbLine
 10
133.4106240911999
 20
217.2450256346999
 30
0.0
 11
133.4106240911999
 21
216.4450378418
 31
0.0
  0
LINE
  5
17B
330
2
100
AcDbEntity
  8
0
 62
     3
100
AcDbLine
 10
133.4106240911999
 20
218.445022583
 30
0.0
 11
133.4106240911999
 21
217.6450347899999
 31
0.0
  0
LINE
  5
17C
330
2
100
AcDbEntity
  8
0
 62
     3
100
AcDbLine
 10
133.0106149358997
 20
218.445022583
 30
0.0
 11
133.0106149358997
 21
216.4450378418
 31
0.0
  0
LINE
  5
17D
330
2
100
AcDbEntity
  8
0
 62
     3
100
AcDbLine
 10
131.8106027288999
 20
218.9116973877
 30
0.0
 11
131.8106027288999
 21
215.9783782959
 31
0.0
  0
LINE
  5
17E
330
2
100
AcDbEntity
  8
0
 62
     3
100
AcDbLine
 10
134.6106057806
 20
217.2450256346999
 30
0.0
 11
134.6106057806
 21
215.9783782959
 31
0.0
  0
ARC
  5
17F
330
2
100
AcDbEntity
  8
0
 62
     3
100
AcDbCircle
 10
134.2106576604997
 20
215.9784545897998
 30
0.0
 40
0.3999996781
100
AcDbArc
 50
270.0001272691
 51
0.0
  0
LINE
  5
180
330
2
100
AcDbEntity
  8
0
 62
     3
100
AcDbLine
 10
134.6106057806
 20
218.9116973877
 30
0.0
 11
134.6106057806
 21
217.6450347899999
 31
0.0
  0
LINE
  5
181
330
2
100
AcDbEntity
  8
0
 62
     3
100
AcDbLine
 10
132.2106271428999
 20
219.311706543
 30
0.0
 11
134.2105966254
 21
219.311706543
 31
0.0
  0
TEXT
  5
182
330
2
100
AcDbEntity
  8
0
 62
     5
100
AcDbText
 10
145.0
 20
10.0
 30
0.0
 40
5.0
  1
ＭＡ４-Ｌ０００１５Ｄ
 41
0.8418911459846412
 72
     5
 11
199.0413935612998
 21
10.0
 31
0.0
100
AcDbText
  0
LINE
  5
183
330
2
100
AcDbEntity
  8
0
 62
     3
100
AcDbLine
 10
167.9083438185999
 20
180.9999528416
 30
0.0
 11
164.1165592139
 21
178.825764547
 31
0.0
  0
LINE
  5
184
330
2
100
AcDbEntity
  8
0
 62
     3
100
AcDbLine
 10
164.6334871177999
 20
172.0576548789999
 30
0.0
 11
166.0123431596
 21
170.6787988371999
 31
0.0
  0
CIRCLE
  5
185
330
2
100
AcDbEntity
  8
0
 62
     3
100
AcDbCircle
 10
167.9083657903999
 20
168.5
 30
0.0
 40
9.199999809299999
  0
LINE
  5
186
330
2
100
AcDbEntity
  8
0
  6
CENTER
 62
     3
100
AcDbLine
 10
162.6188758856
 20
173.7894277192999
 30
0.0
 11
171.6264705237999
 21
164.7818330810999
 31
0.0
  0
LINE
  5
187
330
2
100
AcDbEntity
  8
0
 62
     3
100
AcDbLine
 10
164.1165715494
 20
158.1741473409
 30
0.0
 11
167.9083429168999
 21
155.9999666364
 31
0.0
  0
LINE
  5
188
330
2
100
AcDbEntity
  8
0
 62
     3
100
AcDbLine
 10
164.4920679219
 20
173.3304492212
 30
0.0
 11
171.1388456561999
 21
166.6836714869
 31
0.0
  0
LINE
  5
189
330
2
100
AcDbEntity
  8
0
 62
     3
100
AcDbLine
 10
163.0778543836999
 20
171.9162356831
 30
0.0
 11
169.7246321180998
 21
165.2694579487
 31
0.0
  0
ARC
  5
18A
330
2
100
AcDbEntity
  8
0
 62
     3
100
AcDbCircle
 10
167.9083657903999
 20
168.5
 30
0.0
 40
11.0
100
AcDbArc
 50
0.0
 51
358.5287053083998
  0
LINE
  5
18B
330
2
100
AcDbEntity
  8
0
  6
CENTER
 62
     3
100
AcDbLine
 10
153.9083657903999
 20
168.5
 30
0.0
 11
181.9083657903999
 21
168.5
 31
0.0
  0
LINE
  5
18C
330
2
100
AcDbEntity
  8
0
 62
     3
100
AcDbLine
 10
157.0083603487999
 20
162.2499562803
 30
0.0
 11
160.9121574138999
 21
160.0115406611
 31
0.0
  0
LINE
  5
18D
330
2
100
AcDbEntity
  8
0
 62
     3
100
AcDbLine
 10
160.9121583155999
 20
176.9883788169
 30
0.0
 11
157.0083479615998
 21
174.749955578
 31
0.0
  0
LINE
  5
18E
330
2
100
AcDbEntity
  8
0
 62
     3
100
AcDbLine
 10
157.0083566350999
 20
174.75
 30
0.0
 11
157.0083566350999
 21
169.9798583984
 31
0.0
  0
LINE
  5
18F
330
2
100
AcDbEntity
  8
0
 62
     3
100
AcDbLine
 10
157.0083566350999
 20
167.0201263428
 30
0.0
 11
157.0083566350999
 21
162.25
 31
0.0
  0
LINE
  5
190
330
2
100
AcDbEntity
  8
0
 62
     3
100
AcDbLine
 10
164.4920679219
 20
173.3304492212
 30
0.0
 11
163.0778543836999
 21
171.9162356831
 31
0.0
  0
LINE
  5
191
330
2
100
AcDbEntity
  8
0
 62
     3
100
AcDbLine
 10
163.7849611527999
 20
171.209128914
 30
0.0
 11
164.6334871177999
 21
172.0576548789999
 31
0.0
  0
LINE
  5
192
330
2
100
AcDbEntity
  8
0
 62
     3
100
AcDbLine
 10
140.2439523382997
 20
221.8283538817999
 30
0.0
 11
140.2439523382997
 21
217.0783538817999
 31
0.0
  0
ARC
  5
193
330
2
100
AcDbEntity
  8
0
 62
     3
100
AcDbCircle
 10
112.6439614934999
 20
218.5783691405999
 30
0.0
 40
29.0
100
AcDbArc
 50
346.5767863185
 51
13.42330588899997
  0
ARC
  5
194
330
2
100
AcDbEntity
  8
0
 62
     3
100
AcDbCircle
 10
112.6439614934999
 20
218.5783691405999
 30
0.0
 40
30.0
100
AcDbArc
 50
346.5767863185
 51
13.42330588899997
  0
ARC
  5
195
330
2
100
AcDbEntity
  8
0
 62
     3
100
AcDbCircle
 10
139.8789926215
 20
212.0783691405999
 30
0.0
 40
1.0
100
AcDbArc
 50
270.0000179861
 51
346.5766053185
  0
ARC
  5
196
330
2
100
AcDbEntity
  8
0
 62
     3
100
AcDbCircle
 10
139.8789926215
 20
212.0783691405999
 30
0.0
 40
2.0
100
AcDbArc
 50
270.0000179861
 51
346.5766053185
  0
LINE
  5
197
330
2
100
AcDbEntity
  8
0
 62
     3
100
AcDbLine
 10
139.7439523382999
 20
216.5783538818
 30
0.0
 11
137.2439523382997
 21
216.5783538818
 31
0.0
  0
ARC
  5
198
330
2
100
AcDbEntity
  8
0
 62
     3
100
AcDbCircle
 10
139.7439370794999
 20
217.0783691405998
 30
0.0
 40
0.5
100
AcDbArc
 50
270.0000179861
 51
0.0
  0
ARC
  5
199
330
2
100
AcDbEntity
  8
0
 62
     3
100
AcDbCircle
 10
139.8790383977999
 20
225.0783538817998
 30
0.0
 40
1.0
100
AcDbArc
 50
13.4234151721
 51
90.000309863
  0
ARC
  5
19A
330
2
100
AcDbEntity
  8
0
 62
     3
100
AcDbCircle
 10
139.8790383977999
 20
225.0783538817998
 30
0.0
 40
2.0
100
AcDbArc
 50
13.4234151721
 51
90.000309863
  0
LINE
  5
19B
330
2
100
AcDbEntity
  8
0
 62
     3
100
AcDbLine
 10
174.9045334350999
 20
160.0115364194
 30
0.0
 11
178.8083437373998
 21
162.2499596286999
 31
0.0
  0
LINE
  5
19C
330
2
100
AcDbEntity
  8
0
  6
CENTER
 62
     3
100
AcDbLine
 10
167.9083657903999
 20
183.9999654402
 30
0.0
 11
167.9083657903999
 21
152.9999726345
 31
0.0
  0
LINE
  5
19D
330
2
100
AcDbEntity
  8
0
 62
     3
100
AcDbLine
 10
167.9083478803998
 20
155.999962365
 30
0.0
 11
171.7001325367999
 21
158.1741506892
 31
0.0
  0
LINE
  5
19E
330
2
100
AcDbEntity
  8
0
 62
     3
100
AcDbLine
 10
168.2043676699999
 20
167.921075964
 30
0.0
 11
169.5832129221998
 21
166.5422307118
 31
0.0
  0
LINE
  5
19F
330
2
100
AcDbEntity
  8
0
 62
     3
100
AcDbLine
 10
167.6386908863999
 20
167.3553991804
 30
0.0
 11
168.2043676699999
 21
167.921075964
 31
0.0
  0
LINE
  5
1A0
330
2
100
AcDbEntity
  8
0
 62
     3
100
AcDbLine
 10
166.0123431596
 20
170.6787988371999
 30
0.0
 11
166.5780307326999
 21
171.2444864104
 31
0.0
  0
LINE
  5
1A1
330
2
100
AcDbEntity
  8
0
 62
     3
100
AcDbLine
 10
169.7246321180998
 20
165.2694579487
 30
0.0
 11
171.1388456561999
 21
166.6836714869
 31
0.0
  0
LINE
  5
1A2
330
2
100
AcDbEntity
  8
0
 62
     3
100
AcDbLine
 10
169.5832129221998
 20
166.5422307118
 30
0.0
 11
170.4317496766998
 21
167.3907674664
 31
0.0
  0
LINE
  5
1A3
330
2
100
AcDbEntity
  8
0
 62
     3
100
AcDbLine
 10
171.7001316350998
 20
178.8257687888
 30
0.0
 11
167.9083470304999
 21
180.9999570833999
 31
0.0
  0
LINE
  5
1A4
330
2
100
AcDbEntity
  8
0
 62
     3
100
AcDbLine
 10
178.8083596868997
 20
169.9798583984
 30
0.0
 11
178.8083596868997
 21
174.75
 31
0.0
  0
LINE
  5
1A5
330
2
100
AcDbEntity
  8
0
 62
     3
100
AcDbLine
 10
178.8083596868997
 20
162.25
 30
0.0
 11
178.8083596868997
 21
167.0201263428
 31
0.0
  0
LINE
  5
1A6
330
2
100
AcDbEntity
  8
0
 62
     3
100
AcDbLine
 10
178.8083295985998
 20
174.7499674393999
 30
0.0
 11
174.9045457705999
 21
176.9883754685
 31
0.0
  0
LINE
  5
1AA
330
2
100
AcDbEntity
  8
0
100
AcDbLine
 10
210.0
 20
297.0
 30
0.0
 11
0.0
 21
297.0
 31
0.0
  0
TEXT
  5
1D5
330
2
100
AcDbEntity
  8
0
 62
     7
100
AcDbText
 10
108.0
 20
100.0000029552499
 30
0.0
 40
2.999994089499998
  1
KH2C-21*
 11
108.0
 21
101.4999999999999
 31
0.0
100
AcDbText
 73
     2
  0
TEXT
  5
1D6
330
2
100
AcDbEntity
  8
0
 62
     7
100
AcDbText
 10
108.0
 20
105.0000029552499
 30
0.0
 40
2.999994089499998
  1
KH2C-20*
 11
108.0
 21
106.4999999999999
 31
0.0
100
AcDbText
 73
     2
  0
TEXT
  5
1D7
330
2
100
AcDbEntity
  8
0
 62
     7
100
AcDbText
 10
108.0
 20
110.0000029552499
 30
0.0
 40
2.999994089499998
  1
KH2C-11*
 11
108.0
 21
111.4999999999999
 31
0.0
100
AcDbText
 73
     2
  0
TEXT
  5
1D8
330
2
100
AcDbEntity
  8
0
 62
     7
100
AcDbText
 10
146.0
 20
110.0000029552499
 30
0.0
 40
2.999994089499998
  1
KH3C-21*
 11
146.0
 21
111.4999999999999
 31
0.0
100
AcDbText
 73
     2
  0
TEXT
  5
1D9
330
2
100
AcDbEntity
  8
0
 62
     7
100
AcDbText
 10
146.0
 20
115.0000029552499
 30
0.0
 40
2.999994089499998
  1
KH3C-20*
 11
146.0
 21
116.4999999999999
 31
0.0
100
AcDbText
 73
     2
  0
TEXT
  5
1DB
330
2
100
AcDbEntity
  8
0
 62
     7
100
AcDbText
 10
108.0
 20
115.00000295525
 30
0.0
 40
2.999994089499998
  1
KH2C-10*
 11
108.0
 21
116.5
 31
0.0
100
AcDbText
 73
     2
  0
ENDSEC
  0
SECTION
  2
OBJECTS
  0
DICTIONARY
  5
7
330
0
100
AcDbDictionary
281
     1
  3
ACAD_COLOR
350
1E5
  3
ACAD_GROUP
350
1F
  3
ACAD_LAYOUT
350
B
  3
ACAD_MATERIAL
350
1E4
  3
ACAD_MLINESTYLE
350
20
  3
ACAD_PLOTSETTINGS
350
21
  3
ACAD_PLOTSTYLENAME
350
6
  3
ACAD_TABLESTYLE
350
1E6
  3
ACDBHEADERROUNDTRIPXREC
350
1EC
  3
AcDbVariableDictionary
350
1DD
  0
DICTIONARY
  5
1E5
102
{ACAD_REACTORS
330
7
102
}
330
7
100
AcDbDictionary
281
     1
  0
DICTIONARY
  5
1F
102
{ACAD_REACTORS
330
7
102
}
330
7
100
AcDbDictionary
281
     1
  0
DICTIONARY
  5
B
102
{ACAD_REACTORS
330
7
102
}
330
7
100
AcDbDictionary
281
     1
  3
Model
350
A
  3
ﾚｲｱｳﾄ1
350
F
  0
DICTIONARY
  5
1E4
102
{ACAD_REACTORS
330
7
102
}
330
7
100
AcDbDictionary
281
     1
  0
DICTIONARY
  5
20
102
{ACAD_REACTORS
330
7
102
}
330
7
100
AcDbDictionary
281
     1
  3
Standard
350
22
  0
DICTIONARY
  5
21
102
{ACAD_REACTORS
330
7
102
}
330
7
100
AcDbDictionary
281
     1
  0
ACDBDICTIONARYWDFLT
  5
6
102
{ACAD_REACTORS
330
7
102
}
330
7
100
AcDbDictionary
281
     1
  3
Normal
350
5
100
AcDbDictionaryWithDefault
340
5
  0
DICTIONARY
  5
1E6
102
{ACAD_REACTORS
330
7
102
}
330
7
100
AcDbDictionary
281
     1
  3
Standard
350
1E7
  0
DICTIONARY
  5
1EC
102
{ACAD_REACTORS
330
7
102
}
330
7
100
AcDbDictionary
281
     1
  0
DICTIONARY
  5
1DD
102
{ACAD_REACTORS
330
7
102
}
330
7
100
AcDbDictionary
281
     1
  3
CTABLESTYLE
350
1E9
  3
DIMASSOC
350
1DE
  3
PROJECTNAME
350
1EA
  0
LAYOUT
  5
A
102
{ACAD_XDICTIONARY
360
1ED
102
}
102
{ACAD_REACTORS
330
B
102
}
330
B
100
AcDbPlotSettings
  1

  2
C:\Program Files\AutoCAD 2000i\plotters\DWF Classic.pc3
  4

  6

 40
0.0
 41
0.0
 42
0.0
 43
0.0
 44
0.0
 45
0.0
 46
0.0
 47
0.0
 48
0.0
 49
0.0
140
0.0
141
0.0
142
1.0
143
1.0
 70
  1712
 72
     0
 73
     0
 74
     0
  7

 75
     0
147
1.0
148
0.0
149
0.0
100
AcDbLayout
  1
Model
 70
     1
 71
     0
 10
0.0
 20
0.0
 11
12.0
 21
9.0
 12
0.0
 22
0.0
 32
0.0
 14
0.0
 24
0.0
 34
0.0
 15
0.0
 25
0.0
 35
0.0
146
0.0
 13
0.0
 23
0.0
 33
0.0
 16
1.0
 26
0.0
 36
0.0
 17
0.0
 27
1.0
 37
0.0
 76
     0
330
2
  0
LAYOUT
  5
F
102
{ACAD_XDICTIONARY
360
1EF
102
}
102
{ACAD_REACTORS
330
B
102
}
330
B
100
AcDbPlotSettings
  1

  2
C:\Program Files\AutoCAD 2000i\plotters\DWF Classic.pc3
  4

  6

 40
0.0
 41
0.0
 42
0.0
 43
0.0
 44
0.0
 45
0.0
 46
0.0
 47
0.0
 48
0.0
 49
0.0
140
0.0
141
0.0
142
1.0
143
1.0
 70
   688
 72
     0
 73
     0
 74
     5
  7

 75
    16
147
1.0
148
0.0
149
0.0
100
AcDbLayout
  1
ﾚｲｱｳﾄ1
 70
     1
 71
     1
 10
0.0
 20
0.0
 11
12.0
 21
9.0
 12
0.0
 22
0.0
 32
0.0
 14
1.000000000000000E+20
 24
1.000000000000000E+20
 34
1.000000000000000E+20
 15
-1.000000000000000E+20
 25
-1.000000000000000E+20
 35
-1.000000000000000E+20
146
0.0
 13
0.0
 23
0.0
 33
0.0
 16
1.0
 26
0.0
 36
0.0
 17
0.0
 27
1.0
 37
0.0
 76
     0
330
C
  0
MLINESTYLE
  5
22
102
{ACAD_REACTORS
330
20
102
}
330
20
100
AcDbMlineStyle
  2
STANDARD
 70
     0
  3

 62
   256
 51
90.0
 52
90.0
 71
     2
 49
0.5
 62
   256
  6
BYLAYER
 49
-0.5
 62
   256
  6
BYLAYER
  0
ACDBPLACEHOLDER
  5
5
102
{ACAD_REACTORS
330
6
102
}
330
6
  0
TABLESTYLE
  5
1E7
102
{ACAD_REACTORS
330
1E6
102
}
330
1E6
100
AcDbTableStyle
  3
Standard
 70
     0
 71
     0
 40
0.06
 41
0.06
280
     0
281
     0
  7
STANDARD
140
0.18
170
     2
 62
     0
 63
     7
283
     0
274
    -2
284
     1
 64
     0
275
    -2
285
     1
 65
     0
276
    -2
286
     1
 66
     0
277
    -2
287
     1
 67
     0
278
    -2
288
     1
 68
     0
279
    -2
289
     1
 69
     0
  7
STANDARD
140
0.25
170
     5
 62
     0
 63
     7
283
     0
274
    -2
284
     1
 64
     0
275
    -2
285
     1
 65
     0
276
    -2
286
     1
 66
     0
277
    -2
287
     1
 67
     0
278
    -2
288
     1
 68
     0
279
    -2
289
     1
 69
     0
  7
STANDARD
140
0.18
170
     5
 62
     0
 63
     7
283
     0
274
    -2
284
     1
 64
     0
275
    -2
285
     1
 65
     0
276
    -2
286
     1
 66
     0
277
    -2
287
     1
 67
     0
278
    -2
288
     1
 68
     0
279
    -2
289
     1
 69
     0
  0
DICTIONARYVAR
  5
1E9
102
{ACAD_REACTORS
330
1DD
102
}
330
1DD
100
DictionaryVariables
280
     0
  1
STANDARD
  0
DICTIONARYVAR
  5
1DE
102
{ACAD_REACTORS
330
1DD
102
}
330
1DD
100
DictionaryVariables
280
     0
  1
1
  0
DICTIONARYVAR
  5
1EA
102
{ACAD_REACTORS
330
1DD
102
}
330
1DD
100
DictionaryVariables
280
     0
  1

  0
DICTIONARY
  5
1ED
330
A
100
AcDbDictionary
280
     1
281
     1
  3
ACAD_XREC_ROUNDTRIP
360
1EE
  0
DICTIONARY
  5
1EF
330
F
100
AcDbDictionary
280
     1
281
     1
  3
ACAD_XREC_ROUNDTRIP
360
1F0
  0
XRECORD
  5
1EE
102
{ACAD_REACTORS
330
1ED
102
}
330
1ED
100
AcDbXrecord
280
     1
102
SHADEPLOT
 70
     0
102
SHADEPLOTRESLEVEL
 70
     2
102
SHADEPLOTCUSTOMDPI
 70
   300
  0
XRECORD
  5
1F0
102
{ACAD_REACTORS
330
1EF
102
}
330
1EF
100
AcDbXrecord
280
     1
102
SHADEPLOT
 70
     0
102
SHADEPLOTRESLEVEL
 70
     2
102
SHADEPLOTCUSTOMDPI
 70
   300
  0
ENDSEC
  0
EOF
