  0
SECTION
  2
HEADER
  9
$ACADVER
  1
AC1015
  9
$ACADMAINTVER
 70
     6
  9
$DWGCODEPAGE
  3
ANSI_932
  9
$INSBASE
 10
0.0
 20
0.0
 30
0.0
  9
$EXTMIN
 10
-347.458984221989
 20
0.0
 30
0.0
  9
$EXTMAX
 10
0.0
 20
297.0
 30
0.0
  9
$LIMMIN
 10
0.0
 20
0.0
  9
$LIMMAX
 10
-210.0
 20
297.0
  9
$ORTHOMODE
 70
     0
  9
$REGENMODE
 70
     1
  9
$FILLMODE
 70
     1
  9
$QTEXTMODE
 70
     0
  9
$MIRRTEXT
 70
     1
  9
$LTSCALE
 40
1.0
  9
$ATTMODE
 70
     1
  9
$TEXTSIZE
 40
2.5
  9
$TRACEWID
 40
1.0
  9
$TEXTSTYLE
  7
IDEC_TEXT
  9
$CLAYER
  8
中線
  9
$CELTYPE
  6
ByLayer
  9
$CECOLOR
 62
   256
  9
$CELTSCALE
 40
1.0
  9
$DISPSILH
 70
     0
  9
$DIMSCALE
 40
1.0
  9
$DIMASZ
 40
2.0
  9
$DIMEXO
 40
0.625
  9
$DIMDLI
 40
5.0
  9
$DIMRND
 40
0.0
  9
$DIMDLE
 40
0.0
  9
$DIMEXE
 40
1.25
  9
$DIMTP
 40
0.0
  9
$DIMTM
 40
0.0
  9
$DIMTXT
 40
2.5
  9
$DIMCEN
 40
0.0
  9
$DIMTSZ
 40
0.0
  9
$DIMTOL
 70
     0
  9
$DIMLIM
 70
     0
  9
$DIMTIH
 70
     0
  9
$DIMTOH
 70
     0
  9
$DIMSE1
 70
     0
  9
$DIMSE2
 70
     0
  9
$DIMTAD
 70
     1
  9
$DIMZIN
 70
     0
  9
$DIMBLK
  1
OPEN30
  9
$DIMASO
 70
     1
  9
$DIMSHO
 70
     1
  9
$DIMPOST
  1

  9
$DIMAPOST
  1

  9
$DIMALT
 70
     0
  9
$DIMALTD
 70
     1
  9
$DIMALTF
 40
0.03937007874
  9
$DIMLFAC
 40
1.0
  9
$DIMTOFL
 70
     1
  9
$DIMTVP
 40
0.0
  9
$DIMTIX
 70
     0
  9
$DIMSOXD
 70
     0
  9
$DIMSAH
 70
     0
  9
$DIMBLK1
  1
OPEN30
  9
$DIMBLK2
  1
OPEN30
  9
$DIMSTYLE
  2
IDEC_DIM
  9
$DIMCLRD
 70
   256
  9
$DIMCLRE
 70
   256
  9
$DIMCLRT
 70
   256
  9
$DIMTFAC
 40
0.5
  9
$DIMGAP
 40
0.5
  9
$DIMJUST
 70
     0
  9
$DIMSD1
 70
     0
  9
$DIMSD2
 70
     0
  9
$DIMTOLJ
 70
     2
  9
$DIMTZIN
 70
     8
  9
$DIMALTZ
 70
     0
  9
$DIMALTTZ
 70
     0
  9
$DIMUPT
 70
     0
  9
$DIMDEC
 70
     1
  9
$DIMTDEC
 70
     1
  9
$DIMALTU
 70
     2
  9
$DIMALTTD
 70
     3
  9
$DIMTXSTY
  7
IDEC_TEXT
  9
$DIMAUNIT
 70
     1
  9
$DIMADEC
 70
     1
  9
$DIMALTRND
 40
0.0
  9
$DIMAZIN
 70
     2
  9
$DIMDSEP
 70
    46
  9
$DIMATFIT
 70
     3
  9
$DIMFRAC
 70
     0
  9
$DIMLDRBLK
  1
OPEN30
  9
$DIMLUNIT
 70
     2
  9
$DIMLWD
 70
    13
  9
$DIMLWE
 70
    13
  9
$DIMTMOVE
 70
     0
  9
$LUNITS
 70
     2
  9
$LUPREC
 70
     4
  9
$SKETCHINC
 40
1.0
  9
$FILLETRAD
 40
10.0
  9
$AUNITS
 70
     1
  9
$AUPREC
 70
     0
  9
$MENU
  1
.
  9
$ELEVATION
 40
0.0
  9
$PELEVATION
 40
0.0
  9
$THICKNESS
 40
0.0
  9
$LIMCHECK
 70
     0
  9
$CHAMFERA
 40
5.0
  9
$CHAMFERB
 40
5.0
  9
$CHAMFERC
 40
20.0
  9
$CHAMFERD
 40
0.0
  9
$SKPOLY
 70
     0
  9
$TDCREATE
 40
2455692.565455463
  9
$TDUCREATE
 40
2455692.190455463
  9
$TDUPDATE
 40
2457731.6417225
  9
$TDUUPDATE
 40
2457731.2667225
  9
$TDINDWG
 40
3.337534537
  9
$TDUSRTIMER
 40
3.337534537
  9
$USRTIMER
 70
     1
  9
$ANGBASE
 50
0.0
  9
$ANGDIR
 70
     0
  9
$PDMODE
 70
     0
  9
$PDSIZE
 40
0.0
  9
$PLINEWID
 40
0.0
  9
$SPLFRAME
 70
     0
  9
$SPLINETYPE
 70
     6
  9
$SPLINESEGS
 70
     8
  9
$HANDSEED
  5
217A
  9
$SURFTAB1
 70
     6
  9
$SURFTAB2
 70
     6
  9
$SURFTYPE
 70
     6
  9
$SURFU
 70
     6
  9
$SURFV
 70
     6
  9
$UCSBASE
  2

  9
$UCSNAME
  2

  9
$UCSORG
 10
0.0
 20
0.0
 30
0.0
  9
$UCSXDIR
 10
1.0
 20
0.0
 30
0.0
  9
$UCSYDIR
 10
0.0
 20
1.0
 30
0.0
  9
$UCSORTHOREF
  2

  9
$UCSORTHOVIEW
 70
     0
  9
$UCSORGTOP
 10
0.0
 20
0.0
 30
0.0
  9
$UCSORGBOTTOM
 10
0.0
 20
0.0
 30
0.0
  9
$UCSORGLEFT
 10
0.0
 20
0.0
 30
0.0
  9
$UCSORGRIGHT
 10
0.0
 20
0.0
 30
0.0
  9
$UCSORGFRONT
 10
0.0
 20
0.0
 30
0.0
  9
$UCSORGBACK
 10
0.0
 20
0.0
 30
0.0
  9
$PUCSBASE
  2

  9
$PUCSNAME
  2

  9
$PUCSORG
 10
0.0
 20
0.0
 30
0.0
  9
$PUCSXDIR
 10
1.0
 20
0.0
 30
0.0
  9
$PUCSYDIR
 10
0.0
 20
1.0
 30
0.0
  9
$PUCSORTHOREF
  2

  9
$PUCSORTHOVIEW
 70
     0
  9
$PUCSORGTOP
 10
0.0
 20
0.0
 30
0.0
  9
$PUCSORGBOTTOM
 10
0.0
 20
0.0
 30
0.0
  9
$PUCSORGLEFT
 10
0.0
 20
0.0
 30
0.0
  9
$PUCSORGRIGHT
 10
0.0
 20
0.0
 30
0.0
  9
$PUCSORGFRONT
 10
0.0
 20
0.0
 30
0.0
  9
$PUCSORGBACK
 10
0.0
 20
0.0
 30
0.0
  9
$USERI1
 70
     0
  9
$USERI2
 70
     0
  9
$USERI3
 70
     0
  9
$USERI4
 70
     0
  9
$USERI5
 70
     0
  9
$USERR1
 40
0.0
  9
$USERR2
 40
0.0
  9
$USERR3
 40
0.0
  9
$USERR4
 40
0.0
  9
$USERR5
 40
0.0
  9
$WORLDVIEW
 70
     1
  9
$SHADEDGE
 70
     3
  9
$SHADEDIF
 70
    70
  9
$TILEMODE
 70
     1
  9
$MAXACTVP
 70
    64
  9
$PINSBASE
 10
0.0
 20
0.0
 30
0.0
  9
$PLIMCHECK
 70
     0
  9
$PEXTMIN
 10
9.7
 20
13.5
 30
0.0
  9
$PEXTMAX
 10
247.3
 20
181.5
 30
0.0
  9
$PLIMMIN
 10
-20.0
 20
-7.5
  9
$PLIMMAX
 10
277.0
 20
202.5
  9
$UNITMODE
 70
     0
  9
$VISRETAIN
 70
     1
  9
$PLINEGEN
 70
     0
  9
$PSLTSCALE
 70
     1
  9
$TREEDEPTH
 70
  3020
  9
$CMLSTYLE
  2
Standard
  9
$CMLJUST
 70
     0
  9
$CMLSCALE
 40
20.0
  9
$PROXYGRAPHICS
 70
     1
  9
$MEASUREMENT
 70
     1
  9
$CELWEIGHT
370
    -1
  9
$ENDCAPS
280
     0
  9
$JOINSTYLE
280
     0
  9
$LWDISPLAY
290
     0
  9
$INSUNITS
 70
     4
  9
$HYPERLINKBASE
  1

  9
$STYLESHEET
  1

  9
$XEDIT
290
     1
  9
$CEPSNTYPE
380
     0
  9
$PSTYLEMODE
290
     1
  9
$FINGERPRINTGUID
  2
{C2BA42B3-0400-405A-BB68-4DC0BEC5C1B9}
  9
$VERSIONGUID
  2
{FAEB1C32-E019-11D5-929B-00C0DF256EC4}
  9
$EXTNAMES
290
     1
  9
$PSVPSCALE
 40
0.0
  9
$OLESTARTUP
290
     0
  0
ENDSEC
  0
SECTION
  2
CLASSES
  0
CLASS
  1
ACDBDICTIONARYWDFLT
  2
AcDbDictionaryWithDefault
  3
ObjectDBX Classes
 90
        0
280
     0
281
     0
  0
CLASS
  1
VISUALSTYLE
  2
AcDbVisualStyle
  3
ObjectDBX Classes
 90
     4095
280
     0
281
     0
  0
CLASS
  1
MATERIAL
  2
AcDbMaterial
  3
ObjectDBX Classes
 90
     1153
280
     0
281
     0
  0
CLASS
  1
SCALE
  2
AcDbScale
  3
ObjectDBX Classes
 90
     1153
280
     0
281
     0
  0
CLASS
  1
DICTIONARYVAR
  2
AcDbDictionaryVar
  3
ObjectDBX Classes
 90
        0
280
     0
281
     0
  0
CLASS
  1
DIMASSOC
  2
AcDbDimAssoc
  3
"AcDbDimAssoc|Product Desc:     AcDim ARX App For Dimension|Company:          Autodesk, Inc.|WEB Address:      www.autodesk.com"
 90
        0
280
     0
281
     0
  0
CLASS
  1
TABLESTYLE
  2
AcDbTableStyle
  3
ObjectDBX Classes
 90
     4095
280
     0
281
     0
  0
CLASS
  1
SORTENTSTABLE
  2
AcDbSortentsTable
  3
ObjectDBX Classes
 90
        0
280
     0
281
     0
  0
CLASS
  1
SUN
  2
AcDbSun
  3
SCENEOE
 90
     1153
280
     0
281
     0
  0
CLASS
  1
MLEADERSTYLE
  2
AcDbMLeaderStyle
  3
ACDB_MLEADERSTYLE_CLASS
 90
     4095
280
     0
281
     0
  0
CLASS
  1
ACDBPLACEHOLDER
  2
AcDbPlaceHolder
  3
ObjectDBX Classes
 90
        0
280
     0
281
     0
  0
CLASS
  1
LAYOUT
  2
AcDbLayout
  3
ObjectDBX Classes
 90
        0
280
     0
281
     0
  0
ENDSEC
  0
SECTION
  2
TABLES
  0
TABLE
  2
VPORT
  5
8
102
{ACAD_XDICTIONARY
360
2139
102
}
330
0
100
AcDbSymbolTable
 70
     1
  0
VPORT
  5
29
330
8
100
AcDbSymbolTableRecord
100
AcDbViewportTableRecord
  2
*Active
 70
     0
 10
0.0
 20
0.0
 11
1.0
 21
1.0
 12
-173.729492110994
 22
148.5
 13
0.0
 23
0.0
 14
5.0
 24
5.0
 15
5.0
 25
5.0
 16
0.0
 26
0.0
 36
1.000000000000003
 17
0.0
 27
0.0
 37
-0.244761739403
 40
302.94
 41
1.413145539906
 42
50.0
 43
0.0
 44
0.0
 50
0.0
 51
0.0
 71
    16
 72
   100
 73
     1
 74
     3
 75
     0
 76
     0
 77
     0
 78
     0
281
     0
 65
     1
110
0.0
120
0.0
130
0.0
111
1.0
121
0.0
131
0.0
112
0.0
122
1.0
132
0.0
 79
     0
146
0.0
1001
ACAD_NAV_VCDISPLAY
1070
     0
  0
ENDTAB
  0
TABLE
  2
LTYPE
  5
5
330
0
100
AcDbSymbolTable
 70
     4
  0
LTYPE
  5
14
330
5
100
AcDbSymbolTableRecord
100
AcDbLinetypeTableRecord
  2
ByBlock
 70
     0
  3

 72
    65
 73
     0
 40
0.0
  0
LTYPE
  5
15
330
5
100
AcDbSymbolTableRecord
100
AcDbLinetypeTableRecord
  2
ByLayer
 70
     0
  3

 72
    65
 73
     0
 40
0.0
  0
LTYPE
  5
16
330
5
100
AcDbSymbolTableRecord
100
AcDbLinetypeTableRecord
  2
Continuous
 70
     0
  3
Solid line
 72
    65
 73
     0
 40
0.0
  0
LTYPE
  5
70
330
5
100
AcDbSymbolTableRecord
100
AcDbLinetypeTableRecord
  2
CENTERX2
 70
     0
  3
________  __  ________  __  ________  __  ______
 72
    65
 73
     4
 40
4.0
 49
2.5
 74
     0
 49
-0.5
 74
     0
 49
0.5
 74
     0
 49
-0.5
 74
     0
  0
LTYPE
  5
75
330
5
100
AcDbSymbolTableRecord
100
AcDbLinetypeTableRecord
  2
PHANTOMX2
 70
     0
  3
____________    ____    ____    ____________    
 72
    65
 73
     6
 40
5.0
 49
2.5
 74
     0
 49
-0.5
 74
     0
 49
0.5
 74
     0
 49
-0.5
 74
     0
 49
0.5
 74
     0
 49
-0.5
 74
     0
  0
LTYPE
  5
78
330
5
100
AcDbSymbolTableRecord
100
AcDbLinetypeTableRecord
  2
DASHEDX2
 70
     0
  3
____  ____  ____  ____  ____  ____  ____  ____  
 72
    65
 73
     2
 40
1.5
 49
1.0
 74
     0
 49
-0.5
 74
     0
  0
ENDTAB
  0
TABLE
  2
LAYER
  5
2
330
0
100
AcDbSymbolTable
 70
    15
  0
LAYER
  5
10
330
2
100
AcDbSymbolTableRecord
100
AcDbLayerTableRecord
  2
0
 70
     0
 62
     7
  6
Continuous
370
    -3
390
F
  0
LAYER
  5
6D
330
2
100
AcDbSymbolTableRecord
100
AcDbLayerTableRecord
  2
DEFPOINTS
 70
     0
 62
   250
  6
Continuous
290
     0
370
     0
390
F
  0
LAYER
  5
6E
330
2
100
AcDbSymbolTableRecord
100
AcDbLayerTableRecord
  2
CENTER
 70
     0
 62
     7
  6
CENTERX2
370
    13
390
F
  0
LAYER
  5
73
330
2
100
AcDbSymbolTableRecord
100
AcDbLayerTableRecord
  2
PHANTOM
 70
     0
 62
     4
  6
PHANTOMX2
370
    13
390
F
  0
LAYER
  5
79
330
2
100
AcDbSymbolTableRecord
100
AcDbLayerTableRecord
  2
太線
 70
     0
 62
     5
  6
Continuous
370
    40
390
F
  0
LAYER
  5
7B
330
2
100
AcDbSymbolTableRecord
100
AcDbLayerTableRecord
  2
細線
 70
     0
 62
     7
  6
Continuous
370
    13
390
F
  0
LAYER
  5
7D
330
2
100
AcDbSymbolTableRecord
100
AcDbLayerTableRecord
  2
中線
 70
     0
 62
     3
  6
Continuous
370
    25
390
F
  0
LAYER
  5
7F
330
2
100
AcDbSymbolTableRecord
100
AcDbLayerTableRecord
  2
IDEC_DIM
 70
     0
 62
     2
  6
Continuous
370
    13
390
F
  0
LAYER
  5
81
330
2
100
AcDbSymbolTableRecord
100
AcDbLayerTableRecord
  2
HIDDEN
 70
     0
 62
     6
  6
DASHEDX2
370
    13
390
F
  0
LAYER
  5
AD
330
2
100
AcDbSymbolTableRecord
100
AcDbLayerTableRecord
  2
CMNT
 70
     0
 62
     7
  6
Continuous
370
    13
390
F
  0
LAYER
  5
337
330
2
100
AcDbSymbolTableRecord
100
AcDbLayerTableRecord
  2
IDEC_DRAWINGFRAME
 70
     4
 62
     3
  6
Continuous
370
    13
390
F
  0
LAYER
  5
AFE
330
2
100
AcDbSymbolTableRecord
100
AcDbLayerTableRecord
  2
DIF_SCALE_TEXT
 70
     0
 62
   250
  6
Continuous
290
     0
370
     0
390
F
  0
LAYER
  5
B00
330
2
100
AcDbSymbolTableRecord
100
AcDbLayerTableRecord
  2
DIF_SCALE_AREA
 70
     0
 62
   250
  6
Continuous
290
     0
370
     0
390
F
  0
LAYER
  5
19BB
330
2
100
AcDbSymbolTableRecord
100
AcDbLayerTableRecord
  2
GRID
 70
     4
 62
    -9
  6
DASHEDX2
370
     5
390
F
  0
LAYER
  5
1CE9
330
2
100
AcDbSymbolTableRecord
100
AcDbLayerTableRecord
  2
OTHER_SCALE_DIM
 70
     0
 62
     6
  6
Continuous
370
    13
390
F
  0
ENDTAB
  0
TABLE
  2
STYLE
  5
3
330
0
100
AcDbSymbolTable
 70
     2
  0
STYLE
  5
11
330
3
100
AcDbSymbolTableRecord
100
AcDbTextStyleTableRecord
  2
Standard
 70
     0
 40
0.0
 41
1.0
 50
0.0
 71
     0
 42
2.5
  3
simplex.shx
  4
extfont2.shx
  0
STYLE
  5
124
330
3
100
AcDbSymbolTableRecord
100
AcDbTextStyleTableRecord
  2
IDEC_TEXT
 70
     0
 40
0.0
 41
1.0
 50
0.0
 71
     0
 42
2.5
  3
simplex.shx
  4
extfont2.shx
  0
ENDTAB
  0
TABLE
  2
VIEW
  5
6
330
0
100
AcDbSymbolTable
 70
     0
  0
ENDTAB
  0
TABLE
  2
UCS
  5
7
330
0
100
AcDbSymbolTable
 70
     0
  0
ENDTAB
  0
TABLE
  2
APPID
  5
9
330
0
100
AcDbSymbolTable
 70
     7
  0
APPID
  5
12
330
9
100
AcDbSymbolTableRecord
100
AcDbRegAppTableRecord
  2
ACAD
 70
     0
  0
APPID
  5
C3
330
9
100
AcDbSymbolTableRecord
100
AcDbRegAppTableRecord
  2
BJM_BLN_TBL
 70
     0
  0
APPID
  5
AEF
330
9
100
AcDbSymbolTableRecord
100
AcDbRegAppTableRecord
  2
DENKISCL
 70
     0
  0
APPID
  5
AF0
330
9
100
AcDbSymbolTableRecord
100
AcDbRegAppTableRecord
  2
DENKISCLORG
 70
     0
  0
APPID
  5
1CE0
330
9
100
AcDbSymbolTableRecord
100
AcDbRegAppTableRecord
  2
ACAD_NAV_VCDISPLAY
 70
     0
  0
APPID
  5
1FC3
330
9
100
AcDbSymbolTableRecord
100
AcDbRegAppTableRecord
  2
ACAD_DSTYLE_DIMTEXT_FILL
 70
     0
  0
APPID
  5
2001
330
9
100
AcDbSymbolTableRecord
100
AcDbRegAppTableRecord
  2
ACAD_MLEADERVER
 70
     0
  0
ENDTAB
  0
TABLE
  2
DIMSTYLE
  5
A
330
0
100
AcDbSymbolTable
 70
     1
100
AcDbDimStyleTable
  0
DIMSTYLE
105
61
330
A
100
AcDbSymbolTableRecord
100
AcDbDimStyleTableRecord
  2
IDEC_DIM
 70
     0
 41
2.0
 42
0.625
 43
5.0
 44
1.25
 73
     0
 74
     0
 77
     1
 79
     2
140
2.5
141
2.5
143
0.03937007874
146
0.5
147
0.5
171
     1
172
     1
176
   256
177
   256
271
     1
178
   256
179
     1
271
     1
272
     1
274
     3
275
     1
283
     2
284
     8
340
124
341
63
342
63
371
    13
372
    13
  0
ENDTAB
  0
TABLE
  2
BLOCK_RECORD
  5
1
330
0
100
AcDbSymbolTable
 70
    13
  0
BLOCK_RECORD
  5
1F
102
{ACAD_XDICTIONARY
360
56C
102
}
330
1
100
AcDbSymbolTableRecord
100
AcDbBlockTableRecord
  2
*Model_Space
340
22
  0
BLOCK_RECORD
  5
1B
330
1
100
AcDbSymbolTableRecord
100
AcDbBlockTableRecord
  2
*Paper_Space
340
1E
  0
BLOCK_RECORD
  5
63
330
1
100
AcDbSymbolTableRecord
100
AcDbBlockTableRecord
  2
_OPEN30
340
0
102
{BLKREFS
331
1D2E
331
1D2F
331
1D3B
331
1D3C
331
1D48
331
1D49
331
1D55
331
1D56
331
1E0B
331
1E0C
331
1E3A
331
1E3B
331
1FAD
331
1FAE
331
2127
331
2128
102
}
  0
BLOCK_RECORD
  5
19B3
102
{ACAD_XDICTIONARY
360
19B4
102
}
330
1
100
AcDbSymbolTableRecord
100
AcDbBlockTableRecord
  2
_IDEC_OPEN30
340
0
1001
ACAD
1000
DesignCenter Data
1002
{
1070
     1
1070
     4
1002
}
  0
BLOCK_RECORD
  5
1C91
102
{ACAD_XDICTIONARY
360
1C92
102
}
330
1
100
AcDbSymbolTableRecord
100
AcDbBlockTableRecord
  2
_IDEC_OPEN30R
340
0
1001
ACAD
1000
DesignCenter Data
1002
{
1070
     1
1070
     4
1002
}
  0
BLOCK_RECORD
  5
1D29
330
1
100
AcDbSymbolTableRecord
100
AcDbBlockTableRecord
  2
*D3
340
0
  0
BLOCK_RECORD
  5
1D36
330
1
100
AcDbSymbolTableRecord
100
AcDbBlockTableRecord
  2
*D4
340
0
  0
BLOCK_RECORD
  5
1D43
330
1
100
AcDbSymbolTableRecord
100
AcDbBlockTableRecord
  2
*D5
340
0
  0
BLOCK_RECORD
  5
1D50
330
1
100
AcDbSymbolTableRecord
100
AcDbBlockTableRecord
  2
*D6
340
0
  0
BLOCK_RECORD
  5
1E06
330
1
100
AcDbSymbolTableRecord
100
AcDbBlockTableRecord
  2
*D7
340
0
  0
BLOCK_RECORD
  5
1E35
330
1
100
AcDbSymbolTableRecord
100
AcDbBlockTableRecord
  2
*D8
340
0
  0
BLOCK_RECORD
  5
1FA7
330
1
100
AcDbSymbolTableRecord
100
AcDbBlockTableRecord
  2
*D9
340
0
  0
BLOCK_RECORD
  5
20A2
330
1
100
AcDbSymbolTableRecord
100
AcDbBlockTableRecord
  2
*D11
340
0
  0
BLOCK_RECORD
  5
211F
330
1
100
AcDbSymbolTableRecord
100
AcDbBlockTableRecord
  2
*D12
340
0
  0
ENDTAB
  0
ENDSEC
  0
SECTION
  2
BLOCKS
  0
BLOCK
  5
20
330
1F
100
AcDbEntity
  8
0
100
AcDbBlockBegin
  2
*Model_Space
 70
     0
 10
0.0
 20
0.0
 30
0.0
  3
*Model_Space
  1

  0
ENDBLK
  5
21
330
1F
100
AcDbEntity
  8
0
100
AcDbBlockEnd
  0
BLOCK
  5
1C
330
1B
100
AcDbEntity
 67
     1
  8
0
100
AcDbBlockBegin
  2
*Paper_Space
 70
     0
 10
0.0
 20
0.0
 30
0.0
  3
*Paper_Space
  1

  0
ENDBLK
  5
1D
330
1B
100
AcDbEntity
 67
     1
  8
0
100
AcDbBlockEnd
  0
BLOCK
  5
64
330
63
100
AcDbEntity
  8
0
100
AcDbBlockBegin
  2
_OPEN30
 70
     0
 10
0.0
 20
0.0
 30
0.0
  3
_OPEN30
  1

  0
LINE
  5
66
330
63
100
AcDbEntity
  8
0
  6
ByBlock
 62
     0
370
    -2
100
AcDbLine
 10
-1.0
 20
0.267949
 30
0.0
 11
0.0
 21
0.0
 31
0.0
  0
LINE
  5
67
330
63
100
AcDbEntity
  8
0
  6
ByBlock
 62
     0
370
    -2
100
AcDbLine
 10
0.0
 20
0.0
 30
0.0
 11
-1.0
 21
-0.267949
 31
0.0
  0
LINE
  5
68
330
63
100
AcDbEntity
  8
0
  6
ByBlock
 62
     0
370
    -2
100
AcDbLine
 10
0.0
 20
0.0
 30
0.0
 11
-1.0
 21
0.0
 31
0.0
  0
ENDBLK
  5
65
330
63
100
AcDbEntity
  8
0
100
AcDbBlockEnd
  0
BLOCK
  5
19B6
330
19B3
100
AcDbEntity
  8
0
100
AcDbBlockBegin
  2
_IDEC_OPEN30
 70
     0
 10
0.0
 20
0.0
 30
0.0
  3
_IDEC_OPEN30
  1

  0
LINE
  5
19B7
330
19B3
100
AcDbEntity
  8
0
  6
ByBlock
 62
     0
370
    -2
100
AcDbLine
 10
-1.0
 20
0.267949
 30
0.0
 11
0.0
 21
0.0
 31
0.0
  0
LINE
  5
19B8
330
19B3
100
AcDbEntity
  8
0
  6
ByBlock
 62
     0
370
    -2
100
AcDbLine
 10
0.0
 20
0.0
 30
0.0
 11
-1.0
 21
-0.267949
 31
0.0
  0
LINE
  5
19B9
330
19B3
100
AcDbEntity
  8
0
  6
ByBlock
 62
     0
370
    -2
100
AcDbLine
 10
0.0
 20
0.0
 30
0.0
 11
-2.0
 21
0.0
 31
0.0
  0
ENDBLK
  5
19BA
330
19B3
100
AcDbEntity
  8
0
100
AcDbBlockEnd
  0
BLOCK
  5
1CA5
330
1C91
100
AcDbEntity
  8
0
100
AcDbBlockBegin
  2
_IDEC_OPEN30R
 70
     0
 10
0.0
 20
0.0
 30
0.0
  3
_IDEC_OPEN30R
  1

  0
LINE
  5
1C95
330
1C91
100
AcDbEntity
  8
0
  6
ByBlock
 62
     0
370
    -2
100
AcDbLine
 10
1.0
 20
0.267949
 30
0.0
 11
0.0
 21
0.0
 31
0.0
  0
LINE
  5
1C96
330
1C91
100
AcDbEntity
  8
0
  6
ByBlock
 62
     0
370
    -2
100
AcDbLine
 10
0.0
 20
0.0
 30
0.0
 11
1.0
 21
-0.267949
 31
0.0
  0
LINE
  5
1C97
330
1C91
100
AcDbEntity
  8
0
  6
ByBlock
 62
     0
370
    -2
100
AcDbLine
 10
-1.0
 20
0.0
 30
0.0
 11
2.0
 21
0.0
 31
0.0
  0
ENDBLK
  5
1CA6
330
1C91
100
AcDbEntity
  8
0
100
AcDbBlockEnd
  0
BLOCK
  5
1E7A
330
1D29
100
AcDbEntity
  8
0
100
AcDbBlockBegin
  2
*D3
 70
     1
 10
0.0
 20
0.0
 30
0.0
  3
*D3
  1

  0
LINE
  5
1D2B
330
1D29
100
AcDbEntity
  8
OTHER_SCALE_DIM
370
    13
100
AcDbLine
 10
-89.031106332698
 20
113.375
 30
0.0
 11
-89.031106332698
 21
94.2999878004
 31
0.0
  0
LINE
  5
1D2C
330
1D29
100
AcDbEntity
  8
OTHER_SCALE_DIM
370
    13
100
AcDbLine
 10
-127.031106332698
 20
110.875
 30
0.0
 11
-127.031106332698
 21
94.2999878004
 31
0.0
  0
LINE
  5
1D2D
330
1D29
100
AcDbEntity
  8
OTHER_SCALE_DIM
370
    13
100
AcDbLine
 10
-91.031106332698
 20
95.5499878004
 30
0.0
 11
-125.031106332698
 21
95.5499878004
 31
0.0
  0
INSERT
  5
1D2E
330
1D29
100
AcDbEntity
  8
OTHER_SCALE_DIM
370
    13
100
AcDbBlockReference
  2
_OPEN30
 10
-89.031106332698
 20
95.5499878004
 30
0.0
 41
2.0
 42
2.0
 43
2.0
  0
INSERT
  5
1D2F
330
1D29
100
AcDbEntity
  8
OTHER_SCALE_DIM
370
    13
100
AcDbBlockReference
  2
_OPEN30
 10
-127.031106332698
 20
95.5499878004
 30
0.0
 41
2.0
 42
2.0
 43
2.0
 50
180.0
  0
MTEXT
  5
1D30
330
1D29
100
AcDbEntity
  8
OTHER_SCALE_DIM
100
AcDbMText
 10
-108.031106332698
 20
97.2999878004
 30
0.0
 40
2.5
 41
0.0
 71
     5
 72
     1
  1
\A2;76
  7
IDEC_TEXT
 73
     1
 44
1.0
  0
POINT
  5
1D31
330
1D29
100
AcDbEntity
  8
DEFPOINTS
 62
     0
100
AcDbPoint
 10
-89.031106332698
 20
114.0
 30
0.0
  0
POINT
  5
1D32
330
1D29
100
AcDbEntity
  8
DEFPOINTS
 62
     0
100
AcDbPoint
 10
-127.031106332698
 20
111.5
 30
0.0
  0
POINT
  5
1D33
330
1D29
100
AcDbEntity
  8
DEFPOINTS
 62
     0
100
AcDbPoint
 10
-127.031106332698
 20
95.5499878004
 30
0.0
  0
ENDBLK
  5
1E7B
330
1D29
100
AcDbEntity
  8
0
100
AcDbBlockEnd
  0
BLOCK
  5
1E7C
330
1D36
100
AcDbEntity
  8
0
100
AcDbBlockBegin
  2
*D4
 70
     1
 10
0.0
 20
0.0
 30
0.0
  3
*D4
  1

  0
LINE
  5
1D38
330
1D36
100
AcDbEntity
  8
OTHER_SCALE_DIM
370
    13
100
AcDbLine
 10
-89.031106332698
 20
113.375
 30
0.0
 11
-89.031106332698
 21
99.2999878004
 31
0.0
  0
LINE
  5
1D39
330
1D36
100
AcDbEntity
  8
OTHER_SCALE_DIM
370
    13
100
AcDbLine
 10
-107.531106332698
 20
105.875
 30
0.0
 11
-107.531106332698
 21
99.2999878004
 31
0.0
  0
LINE
  5
1D3A
330
1D36
100
AcDbEntity
  8
OTHER_SCALE_DIM
370
    13
100
AcDbLine
 10
-91.031106332698
 20
100.5499878004
 30
0.0
 11
-105.531106332698
 21
100.5499878004
 31
0.0
  0
INSERT
  5
1D3B
330
1D36
100
AcDbEntity
  8
OTHER_SCALE_DIM
370
    13
100
AcDbBlockReference
  2
_OPEN30
 10
-89.031106332698
 20
100.5499878004
 30
0.0
 41
2.0
 42
2.0
 43
2.0
  0
INSERT
  5
1D3C
330
1D36
100
AcDbEntity
  8
OTHER_SCALE_DIM
370
    13
100
AcDbBlockReference
  2
_OPEN30
 10
-107.531106332698
 20
100.5499878004
 30
0.0
 41
2.0
 42
2.0
 43
2.0
 50
180.0
  0
MTEXT
  5
1D3D
330
1D36
100
AcDbEntity
  8
OTHER_SCALE_DIM
100
AcDbMText
 10
-98.281106332698
 20
102.2999878004
 30
0.0
 40
2.5
 41
0.0
 71
     5
 72
     1
  1
\A2;37
  7
IDEC_TEXT
 73
     1
 44
1.0
  0
POINT
  5
1D3E
330
1D36
100
AcDbEntity
  8
DEFPOINTS
 62
     0
100
AcDbPoint
 10
-89.031106332698
 20
114.0
 30
0.0
  0
POINT
  5
1D3F
330
1D36
100
AcDbEntity
  8
DEFPOINTS
 62
     0
100
AcDbPoint
 10
-107.531106332698
 20
106.5
 30
0.0
  0
POINT
  5
1D40
330
1D36
100
AcDbEntity
  8
DEFPOINTS
 62
     0
100
AcDbPoint
 10
-107.531106332698
 20
100.5499878004
 30
0.0
  0
ENDBLK
  5
1E7D
330
1D36
100
AcDbEntity
  8
0
100
AcDbBlockEnd
  0
BLOCK
  5
1E7E
330
1D43
100
AcDbEntity
  8
0
100
AcDbBlockBegin
  2
*D5
 70
     1
 10
0.0
 20
0.0
 30
0.0
  3
*D5
  1

  0
LINE
  5
1D45
330
1D43
100
AcDbEntity
  8
OTHER_SCALE_DIM
370
    13
100
AcDbLine
 10
-181.059096440654
 20
110.875
 30
0.0
 11
-181.059096440654
 21
99.2999878004
 31
0.0
  0
LINE
  5
1D46
330
1D43
100
AcDbEntity
  8
OTHER_SCALE_DIM
370
    13
100
AcDbLine
 10
-141.059096440654
 20
110.875
 30
0.0
 11
-141.059096440654
 21
99.2999878004
 31
0.0
  0
LINE
  5
1D47
330
1D43
100
AcDbEntity
  8
OTHER_SCALE_DIM
370
    13
100
AcDbLine
 10
-179.059096440654
 20
100.5499878004
 30
0.0
 11
-143.059096440654
 21
100.5499878004
 31
0.0
  0
INSERT
  5
1D48
330
1D43
100
AcDbEntity
  8
OTHER_SCALE_DIM
370
    13
100
AcDbBlockReference
  2
_OPEN30
 10
-181.059096440654
 20
100.5499878004
 30
0.0
 41
2.0
 42
2.0
 43
2.0
 50
180.0
  0
INSERT
  5
1D49
330
1D43
100
AcDbEntity
  8
OTHER_SCALE_DIM
370
    13
100
AcDbBlockReference
  2
_OPEN30
 10
-141.059096440654
 20
100.5499878004
 30
0.0
 41
2.0
 42
2.0
 43
2.0
  0
MTEXT
  5
1D4A
330
1D43
100
AcDbEntity
  8
OTHER_SCALE_DIM
100
AcDbMText
 10
-161.059096440654
 20
102.2999878004
 30
0.0
 40
2.5
 41
0.0
 71
     5
 72
     1
  1
\A2;80
  7
IDEC_TEXT
 73
     1
 44
1.0
  0
POINT
  5
1D4B
330
1D43
100
AcDbEntity
  8
DEFPOINTS
 62
     0
100
AcDbPoint
 10
-181.059096440654
 20
111.5
 30
0.0
  0
POINT
  5
1D4C
330
1D43
100
AcDbEntity
  8
DEFPOINTS
 62
     0
100
AcDbPoint
 10
-141.059096440654
 20
111.5
 30
0.0
  0
POINT
  5
1D4D
330
1D43
100
AcDbEntity
  8
DEFPOINTS
 62
     0
100
AcDbPoint
 10
-141.059096440654
 20
100.5499878004
 30
0.0
  0
ENDBLK
  5
1E7F
330
1D43
100
AcDbEntity
  8
0
100
AcDbBlockEnd
  0
BLOCK
  5
1E80
330
1D50
100
AcDbEntity
  8
0
100
AcDbBlockBegin
  2
*D6
 70
     1
 10
0.0
 20
0.0
 30
0.0
  3
*D6
  1

  0
LINE
  5
1D52
330
1D50
100
AcDbEntity
  8
OTHER_SCALE_DIM
370
    13
100
AcDbLine
 10
-179.184096440654
 20
109.0
 30
0.0
 11
-188.309096440654
 21
109.0
 31
0.0
  0
LINE
  5
1D53
330
1D50
100
AcDbEntity
  8
OTHER_SCALE_DIM
370
    13
100
AcDbLine
 10
-179.184096440654
 20
159.0
 30
0.0
 11
-188.309096440654
 21
159.0
 31
0.0
  0
LINE
  5
1D54
330
1D50
100
AcDbEntity
  8
OTHER_SCALE_DIM
370
    13
100
AcDbLine
 10
-187.059096440654
 20
111.0
 30
0.0
 11
-187.059096440654
 21
157.0
 31
0.0
  0
INSERT
  5
1D55
330
1D50
100
AcDbEntity
  8
OTHER_SCALE_DIM
370
    13
100
AcDbBlockReference
  2
_OPEN30
 10
-187.059096440654
 20
109.0
 30
0.0
 41
2.0
 42
2.0
 43
2.0
 50
270.0
  0
INSERT
  5
1D56
330
1D50
100
AcDbEntity
  8
OTHER_SCALE_DIM
370
    13
100
AcDbBlockReference
  2
_OPEN30
 10
-187.059096440654
 20
159.0
 30
0.0
 41
2.0
 42
2.0
 43
2.0
 50
90.0
  0
MTEXT
  5
1D57
330
1D50
100
AcDbEntity
  8
OTHER_SCALE_DIM
100
AcDbMText
 10
-188.809096440654
 20
134.0
 30
0.0
 40
2.5
 41
0.0
 71
     5
 72
     1
  1
\A2;100
  7
IDEC_TEXT
 11
0.0
 21
1.0
 31
0.0
 73
     1
 44
1.0
  0
POINT
  5
1D58
330
1D50
100
AcDbEntity
  8
DEFPOINTS
 62
     0
100
AcDbPoint
 10
-178.559096440654
 20
109.0
 30
0.0
  0
POINT
  5
1D59
330
1D50
100
AcDbEntity
  8
DEFPOINTS
 62
     0
100
AcDbPoint
 10
-178.559096440654
 20
159.0
 30
0.0
  0
POINT
  5
1D5A
330
1D50
100
AcDbEntity
  8
DEFPOINTS
 62
     0
100
AcDbPoint
 10
-187.059096440654
 20
159.0
 30
0.0
  0
ENDBLK
  5
1E81
330
1D50
100
AcDbEntity
  8
0
100
AcDbBlockEnd
  0
BLOCK
  5
1E82
330
1E06
100
AcDbEntity
  8
0
100
AcDbBlockBegin
  2
*D7
 70
     1
 10
0.0
 20
0.0
 30
0.0
  3
*D7
  1

  0
LINE
  5
1E08
330
1E06
100
AcDbEntity
  8
OTHER_SCALE_DIM
370
    13
100
AcDbLine
 10
-55.095673090488
 20
121.5
 30
0.0
 11
-66.049321045188
 21
121.5
 31
0.0
  0
LINE
  5
1E09
330
1E06
100
AcDbEntity
  8
OTHER_SCALE_DIM
370
    13
100
AcDbLine
 10
-55.095673090488
 20
146.5
 30
0.0
 11
-66.049321045188
 21
146.5
 31
0.0
  0
LINE
  5
1E0A
330
1E06
100
AcDbEntity
  8
OTHER_SCALE_DIM
370
    13
100
AcDbLine
 10
-64.799321045188
 20
123.5
 30
0.0
 11
-64.799321045188
 21
144.5
 31
0.0
  0
INSERT
  5
1E0B
330
1E06
100
AcDbEntity
  8
OTHER_SCALE_DIM
370
    13
100
AcDbBlockReference
  2
_OPEN30
 10
-64.799321045188
 20
121.5
 30
0.0
 41
2.0
 42
2.0
 43
2.0
 50
270.0
  0
INSERT
  5
1E0C
330
1E06
100
AcDbEntity
  8
OTHER_SCALE_DIM
370
    13
100
AcDbBlockReference
  2
_OPEN30
 10
-64.799321045188
 20
146.5
 30
0.0
 41
2.0
 42
2.0
 43
2.0
 50
90.0
  0
MTEXT
  5
1E0D
330
1E06
100
AcDbEntity
  8
OTHER_SCALE_DIM
100
AcDbMText
 10
-66.549321045188
 20
134.070186568341
 30
0.0
 40
2.5
 41
0.0
 71
     5
 72
     1
  1
\A2;50
  7
IDEC_TEXT
 11
0.0
 21
1.0
 31
0.0
 73
     1
 44
1.0
  0
POINT
  5
1E0E
330
1E06
100
AcDbEntity
  8
DEFPOINTS
 62
     0
100
AcDbPoint
 10
-54.470673090488
 20
121.5
 30
0.0
  0
POINT
  5
1E0F
330
1E06
100
AcDbEntity
  8
DEFPOINTS
 62
     0
100
AcDbPoint
 10
-54.470673090488
 20
146.5
 30
0.0
  0
POINT
  5
1E10
330
1E06
100
AcDbEntity
  8
DEFPOINTS
 62
     0
100
AcDbPoint
 10
-64.799321045188
 20
146.5
 30
0.0
  0
ENDBLK
  5
1E83
330
1E06
100
AcDbEntity
  8
0
100
AcDbBlockEnd
  0
BLOCK
  5
1E84
330
1E35
100
AcDbEntity
  8
0
100
AcDbBlockBegin
  2
*D8
 70
     1
 10
0.0
 20
0.0
 30
0.0
  3
*D8
  1

  0
LINE
  5
1E37
330
1E35
100
AcDbEntity
  8
OTHER_SCALE_DIM
370
    13
100
AcDbLine
 10
-22.520673090488
 20
149.925
 30
0.0
 11
-22.520673090488
 21
170.25
 31
0.0
  0
LINE
  5
1E38
330
1E35
100
AcDbEntity
  8
OTHER_SCALE_DIM
370
    13
100
AcDbLine
 10
-52.520673090488
 20
149.925
 30
0.0
 11
-52.520673090488
 21
170.25
 31
0.0
  0
LINE
  5
1E39
330
1E35
100
AcDbEntity
  8
OTHER_SCALE_DIM
370
    13
100
AcDbLine
 10
-24.520673090488
 20
169.0
 30
0.0
 11
-50.520673090488
 21
169.0
 31
0.0
  0
INSERT
  5
1E3A
330
1E35
100
AcDbEntity
  8
OTHER_SCALE_DIM
370
    13
100
AcDbBlockReference
  2
_OPEN30
 10
-22.520673090488
 20
169.0
 30
0.0
 41
2.0
 42
2.0
 43
2.0
  0
INSERT
  5
1E3B
330
1E35
100
AcDbEntity
  8
OTHER_SCALE_DIM
370
    13
100
AcDbBlockReference
  2
_OPEN30
 10
-52.520673090488
 20
169.0
 30
0.0
 41
2.0
 42
2.0
 43
2.0
 50
180.0
  0
MTEXT
  5
1E3C
330
1E35
100
AcDbEntity
  8
OTHER_SCALE_DIM
100
AcDbMText
 10
-37.520673090488
 20
170.75
 30
0.0
 40
2.5
 41
0.0
 71
     5
 72
     1
  1
\A2;60
  7
IDEC_TEXT
 73
     1
 44
1.0
  0
POINT
  5
1E3D
330
1E35
100
AcDbEntity
  8
DEFPOINTS
 62
     0
100
AcDbPoint
 10
-22.520673090488
 20
149.3
 30
0.0
  0
POINT
  5
1E3E
330
1E35
100
AcDbEntity
  8
DEFPOINTS
 62
     0
100
AcDbPoint
 10
-52.520673090488
 20
149.3
 30
0.0
  0
POINT
  5
1E3F
330
1E35
100
AcDbEntity
  8
DEFPOINTS
 62
     0
100
AcDbPoint
 10
-52.520673090488
 20
169.0
 30
0.0
  0
ENDBLK
  5
1E85
330
1E35
100
AcDbEntity
  8
0
100
AcDbBlockEnd
  0
BLOCK
  5
1FA8
330
1FA7
100
AcDbEntity
  8
0
100
AcDbBlockBegin
  2
*D9
 70
     1
 10
0.0
 20
0.0
 30
0.0
  3
*D9
  1

  0
LINE
  5
1FAA
330
1FA7
100
AcDbEntity
  8
中線
370
    13
100
AcDbLine
 10
-304.490287288179
 20
208.267766408574
 30
0.0
 11
-361.503181855093
 21
208.267766408574
 31
0.0
  0
LINE
  5
1FAB
330
1FA7
100
AcDbEntity
  8
中線
370
    13
100
AcDbLine
 10
-304.490287288179
 20
108.267766408574
 30
0.0
 11
-361.503181855093
 21
108.267766408574
 31
0.0
  0
LINE
  5
1FAC
330
1FA7
100
AcDbEntity
  8
中線
370
    13
100
AcDbLine
 10
-360.253181855093
 20
206.267766408574
 30
0.0
 11
-360.253181855093
 21
110.267766408574
 31
0.0
  0
INSERT
  5
1FAD
330
1FA7
100
AcDbEntity
  8
中線
370
    13
100
AcDbBlockReference
  2
_OPEN30
 10
-360.253181855093
 20
208.267766408574
 30
0.0
 41
2.0
 42
2.0
 43
2.0
 50
90.0
  0
INSERT
  5
1FAE
330
1FA7
100
AcDbEntity
  8
中線
370
    13
100
AcDbBlockReference
  2
_OPEN30
 10
-360.253181855093
 20
108.267766408574
 30
0.0
 41
2.0
 42
2.0
 43
2.0
 50
270.0
  0
MTEXT
  5
1FAF
330
1FA7
100
AcDbEntity
  8
中線
100
AcDbMText
 10
-362.003181855093
 20
158.267766408574
 30
0.0
 40
2.5
 41
0.0
 71
     5
 72
     1
  1
\A2;100.0
  7
IDEC_TEXT
 11
0.0
 21
1.0
 31
0.0
 73
     1
 44
1.0
  0
POINT
  5
1FB0
330
1FA7
100
AcDbEntity
  8
DEFPOINTS
 62
     0
100
AcDbPoint
 10
-303.865287288179
 20
208.267766408574
 30
0.0
  0
POINT
  5
1FB1
330
1FA7
100
AcDbEntity
  8
DEFPOINTS
 62
     0
100
AcDbPoint
 10
-303.865287288179
 20
108.267766408574
 30
0.0
  0
POINT
  5
1FB2
330
1FA7
100
AcDbEntity
  8
DEFPOINTS
 62
     0
100
AcDbPoint
 10
-360.253181855093
 20
108.267766408574
 30
0.0
  0
ENDBLK
  5
1FA9
330
1FA7
100
AcDbEntity
  8
0
100
AcDbBlockEnd
  0
BLOCK
  5
20B2
330
20A2
100
AcDbEntity
  8
0
100
AcDbBlockBegin
  2
*D11
 70
     1
 10
0.0
 20
0.0
 30
0.0
  3
*D11
  1

  0
LINE
  5
20A4
330
20A2
100
AcDbEntity
  8
OTHER_SCALE_DIM
370
    13
100
AcDbLine
 10
39.65659000566
 20
29.7537231445
 30
0.0
 11
48.29445316486
 21
29.7537231445
 31
0.0
  0
LINE
  5
20A5
330
20A2
100
AcDbEntity
  8
OTHER_SCALE_DIM
370
    13
100
AcDbLine
 10
24.91943790606
 20
31.2537231445
 30
0.0
 11
48.29445316486
 21
31.2537231445
 31
0.0
  0
LINE
  5
20A6
330
20A2
100
AcDbEntity
  8
OTHER_SCALE_DIM
370
    13
100
AcDbLine
 10
47.04445316486
 20
33.2537231445
 30
0.0
 11
47.04445316486
 21
37.920389811167
 31
0.0
  0
LINE
  5
20A7
330
20A2
100
AcDbEntity
  8
OTHER_SCALE_DIM
370
    13
100
AcDbLine
 10
47.04445316486
 20
29.7537231445
 30
0.0
 11
47.04445316486
 21
31.2537231445
 31
0.0
  0
LINE
  5
20A8
330
20A2
100
AcDbEntity
  8
OTHER_SCALE_DIM
370
    13
100
AcDbLine
 10
47.04445316486
 20
27.7537231445
 30
0.0
 11
47.04445316486
 21
25.7537231445
 31
0.0
  0
INSERT
  5
20A9
330
20A2
100
AcDbEntity
  8
OTHER_SCALE_DIM
370
    13
100
AcDbBlockReference
  2
_OPEN30
 10
47.04445316486
 20
29.7537231445
 30
0.0
 41
2.0
 42
2.0
 43
2.0
 50
90.0
  0
INSERT
  5
20AA
330
20A2
100
AcDbEntity
  8
OTHER_SCALE_DIM
370
    13
100
AcDbBlockReference
  2
_OPEN30
 10
47.04445316486
 20
31.2537231445
 30
0.0
 41
2.0
 42
2.0
 43
2.0
 50
270.0
  0
MTEXT
  5
20AB
330
20A2
100
AcDbEntity
  8
OTHER_SCALE_DIM
100
AcDbMText
 10
45.29445316486
 20
36.587056477833
 30
0.0
 40
2.5
 41
0.0
 71
     5
 72
     1
  1
\A2;3
  7
IDEC_TEXT
 11
0.0
 21
1.0
 31
0.0
 73
     1
 44
1.0
  0
POINT
  5
20AC
330
20A2
100
AcDbEntity
  8
DEFPOINTS
 62
     0
100
AcDbPoint
 10
39.03159000566
 20
29.7537231445
 30
0.0
  0
POINT
  5
20AD
330
20A2
100
AcDbEntity
  8
DEFPOINTS
 62
     0
100
AcDbPoint
 10
24.29443790606
 20
31.2537231445
 30
0.0
  0
POINT
  5
20AE
330
20A2
100
AcDbEntity
  8
DEFPOINTS
 62
     0
100
AcDbPoint
 10
47.04445316486
 20
31.2537231445
 30
0.0
  0
ENDBLK
  5
20B3
330
20A2
100
AcDbEntity
  8
0
100
AcDbBlockEnd
  0
BLOCK
  5
2120
330
211F
100
AcDbEntity
  8
0
100
AcDbBlockBegin
  2
*D12
 70
     1
 10
0.0
 20
0.0
 30
0.0
  3
*D12
  1

  0
LINE
  5
2122
330
211F
100
AcDbEntity
  8
OTHER_SCALE_DIM
370
    13
100
AcDbLine
 10
-474.128181318137
 20
184.980363059437
 30
0.0
 11
-457.477454999737
 21
184.980363059437
 31
0.0
  0
LINE
  5
2123
330
211F
100
AcDbEntity
  8
OTHER_SCALE_DIM
370
    13
100
AcDbLine
 10
-503.602485517338
 20
187.980363059437
 30
0.0
 11
-457.477454999737
 21
187.980363059437
 31
0.0
  0
LINE
  5
2124
330
211F
100
AcDbEntity
  8
OTHER_SCALE_DIM
370
    13
100
AcDbLine
 10
-458.727454999737
 20
184.980363059437
 30
0.0
 11
-458.727454999737
 21
187.980363059437
 31
0.0
  0
LINE
  5
2125
330
211F
100
AcDbEntity
  8
OTHER_SCALE_DIM
370
    13
100
AcDbLine
 10
-458.727454999737
 20
182.980363059437
 30
0.0
 11
-458.727454999737
 21
180.980363059437
 31
0.0
  0
LINE
  5
2126
330
211F
100
AcDbEntity
  8
OTHER_SCALE_DIM
370
    13
100
AcDbLine
 10
-458.727454999737
 20
189.980363059437
 30
0.0
 11
-458.727454999737
 21
191.980363059437
 31
0.0
  0
INSERT
  5
2127
330
211F
100
AcDbEntity
  8
OTHER_SCALE_DIM
370
    13
100
AcDbBlockReference
  2
_OPEN30
 10
-458.727454999737
 20
184.980363059437
 30
0.0
 41
2.0
 42
2.0
 43
2.0
 50
90.0
  0
INSERT
  5
2128
330
211F
100
AcDbEntity
  8
OTHER_SCALE_DIM
370
    13
100
AcDbBlockReference
  2
_OPEN30
 10
-458.727454999737
 20
187.980363059437
 30
0.0
 41
2.0
 42
2.0
 43
2.0
 50
270.0
  0
MTEXT
  5
2129
330
211F
100
AcDbEntity
  8
OTHER_SCALE_DIM
100
AcDbMText
 10
-460.477454999737
 20
186.480363059437
 30
0.0
 40
2.5
 41
0.0
 71
     5
 72
     1
  1
\A2;6
  7
IDEC_TEXT
 11
0.0
 21
1.0
 31
0.0
 73
     1
 44
1.0
  0
POINT
  5
212A
330
211F
100
AcDbEntity
  8
DEFPOINTS
 62
     0
100
AcDbPoint
 10
-474.753181318137
 20
184.980363059437
 30
0.0
  0
POINT
  5
212B
330
211F
100
AcDbEntity
  8
DEFPOINTS
 62
     0
100
AcDbPoint
 10
-504.227485517338
 20
187.980363059437
 30
0.0
  0
POINT
  5
212C
330
211F
100
AcDbEntity
  8
DEFPOINTS
 62
     0
100
AcDbPoint
 10
-458.727454999737
 20
187.980363059437
 30
0.0
  0
ENDBLK
  5
2121
330
211F
100
AcDbEntity
  8
0
100
AcDbBlockEnd
  0
ENDSEC
  0
SECTION
  2
ENTITIES
  0
TEXT
  5
19AF
330
1F
100
AcDbEntity
  8
CMNT
100
AcDbText
 10
-7.397472362376
 20
5.75
 30
0.0
 40
2.5
  1
*
 72
     2
 11
-6.2069961719
 21
5.75
 31
0.0
100
AcDbText
  0
LINE
  5
19BC
330
1F
100
AcDbEntity
  8
GRID
  6
Continuous
 62
   250
100
AcDbLine
 10
-210.0
 20
10.0
 30
0.0
 11
0.0
 21
10.0
 31
0.0
  0
LINE
  5
19BD
330
1F
100
AcDbEntity
  8
GRID
  6
Continuous
100
AcDbLine
 10
-210.0
 20
9.0
 30
0.0
 11
0.0
 21
9.0
 31
0.0
  0
LINE
  5
19BE
330
1F
100
AcDbEntity
  8
GRID
  6
Continuous
100
AcDbLine
 10
-210.0
 20
8.0
 30
0.0
 11
0.0
 21
8.0
 31
0.0
  0
LINE
  5
19BF
330
1F
100
AcDbEntity
  8
GRID
  6
Continuous
100
AcDbLine
 10
-210.0
 20
7.0
 30
0.0
 11
0.0
 21
7.0
 31
0.0
  0
LINE
  5
19C0
330
1F
100
AcDbEntity
  8
GRID
  6
Continuous
100
AcDbLine
 10
-210.0
 20
6.0
 30
0.0
 11
0.0
 21
6.0
 31
0.0
  0
LINE
  5
19C1
330
1F
100
AcDbEntity
  8
GRID
  6
Continuous
100
AcDbLine
 10
-210.0
 20
5.0
 30
0.0
 11
0.0
 21
5.0
 31
0.0
  0
LINE
  5
19C2
330
1F
100
AcDbEntity
  8
GRID
  6
Continuous
100
AcDbLine
 10
-210.0
 20
4.0
 30
0.0
 11
0.0
 21
4.0
 31
0.0
  0
LINE
  5
19C3
330
1F
100
AcDbEntity
  8
GRID
  6
Continuous
100
AcDbLine
 10
-210.0
 20
3.0
 30
0.0
 11
0.0
 21
3.0
 31
0.0
  0
LINE
  5
19C4
330
1F
100
AcDbEntity
  8
GRID
  6
Continuous
100
AcDbLine
 10
-210.0
 20
2.0
 30
0.0
 11
0.0
 21
2.0
 31
0.0
  0
LINE
  5
19C5
330
1F
100
AcDbEntity
  8
GRID
  6
Continuous
100
AcDbLine
 10
-210.0
 20
1.0
 30
0.0
 11
0.0
 21
1.0
 31
0.0
  0
LINE
  5
19C6
330
1F
100
AcDbEntity
  8
GRID
  6
Continuous
 62
   250
100
AcDbLine
 10
-210.0
 20
20.0
 30
0.0
 11
0.0
 21
20.0
 31
0.0
  0
LINE
  5
19C7
330
1F
100
AcDbEntity
  8
GRID
  6
Continuous
100
AcDbLine
 10
-210.0
 20
19.0
 30
0.0
 11
0.0
 21
19.0
 31
0.0
  0
LINE
  5
19C8
330
1F
100
AcDbEntity
  8
GRID
  6
Continuous
100
AcDbLine
 10
-210.0
 20
18.0
 30
0.0
 11
0.0
 21
18.0
 31
0.0
  0
LINE
  5
19C9
330
1F
100
AcDbEntity
  8
GRID
  6
Continuous
100
AcDbLine
 10
-210.0
 20
17.0
 30
0.0
 11
0.0
 21
17.0
 31
0.0
  0
LINE
  5
19CA
330
1F
100
AcDbEntity
  8
GRID
  6
Continuous
100
AcDbLine
 10
-210.0
 20
16.0
 30
0.0
 11
0.0
 21
16.0
 31
0.0
  0
LINE
  5
19CB
330
1F
100
AcDbEntity
  8
GRID
  6
Continuous
100
AcDbLine
 10
-210.0
 20
15.0
 30
0.0
 11
0.0
 21
15.0
 31
0.0
  0
LINE
  5
19CC
330
1F
100
AcDbEntity
  8
GRID
  6
Continuous
100
AcDbLine
 10
-210.0
 20
14.0
 30
0.0
 11
0.0
 21
14.0
 31
0.0
  0
LINE
  5
19CD
330
1F
100
AcDbEntity
  8
GRID
  6
Continuous
100
AcDbLine
 10
-210.0
 20
13.0
 30
0.0
 11
0.0
 21
13.0
 31
0.0
  0
LINE
  5
19CE
330
1F
100
AcDbEntity
  8
GRID
  6
Continuous
100
AcDbLine
 10
-210.0
 20
12.0
 30
0.0
 11
0.0
 21
12.0
 31
0.0
  0
LINE
  5
19CF
330
1F
100
AcDbEntity
  8
GRID
  6
Continuous
100
AcDbLine
 10
-210.0
 20
11.0
 30
0.0
 11
0.0
 21
11.0
 31
0.0
  0
LINE
  5
19D0
330
1F
100
AcDbEntity
  8
GRID
  6
Continuous
 62
   250
100
AcDbLine
 10
-210.0
 20
30.0
 30
0.0
 11
0.0
 21
30.0
 31
0.0
  0
LINE
  5
19D1
330
1F
100
AcDbEntity
  8
GRID
  6
Continuous
100
AcDbLine
 10
-210.0
 20
29.0
 30
0.0
 11
0.0
 21
29.0
 31
0.0
  0
LINE
  5
19D2
330
1F
100
AcDbEntity
  8
GRID
  6
Continuous
100
AcDbLine
 10
-210.0
 20
28.0
 30
0.0
 11
0.0
 21
28.0
 31
0.0
  0
LINE
  5
19D3
330
1F
100
AcDbEntity
  8
GRID
  6
Continuous
100
AcDbLine
 10
-210.0
 20
27.0
 30
0.0
 11
0.0
 21
27.0
 31
0.0
  0
LINE
  5
19D4
330
1F
100
AcDbEntity
  8
GRID
  6
Continuous
100
AcDbLine
 10
-210.0
 20
26.0
 30
0.0
 11
0.0
 21
26.0
 31
0.0
  0
LINE
  5
19D5
330
1F
100
AcDbEntity
  8
GRID
  6
Continuous
100
AcDbLine
 10
-210.0
 20
25.0
 30
0.0
 11
0.0
 21
25.0
 31
0.0
  0
LINE
  5
19D6
330
1F
100
AcDbEntity
  8
GRID
  6
Continuous
100
AcDbLine
 10
-210.0
 20
24.0
 30
0.0
 11
0.0
 21
24.0
 31
0.0
  0
LINE
  5
19D7
330
1F
100
AcDbEntity
  8
GRID
  6
Continuous
100
AcDbLine
 10
-210.0
 20
23.0
 30
0.0
 11
0.0
 21
23.0
 31
0.0
  0
LINE
  5
19D8
330
1F
100
AcDbEntity
  8
GRID
  6
Continuous
100
AcDbLine
 10
-210.0
 20
22.0
 30
0.0
 11
0.0
 21
22.0
 31
0.0
  0
LINE
  5
19D9
330
1F
100
AcDbEntity
  8
GRID
  6
Continuous
100
AcDbLine
 10
-210.0
 20
21.0
 30
0.0
 11
0.0
 21
21.0
 31
0.0
  0
LINE
  5
19DA
330
1F
100
AcDbEntity
  8
GRID
  6
Continuous
 62
   250
100
AcDbLine
 10
-210.0
 20
40.0
 30
0.0
 11
0.0
 21
40.0
 31
0.0
  0
LINE
  5
19DB
330
1F
100
AcDbEntity
  8
GRID
  6
Continuous
100
AcDbLine
 10
-210.0
 20
39.0
 30
0.0
 11
0.0
 21
39.0
 31
0.0
  0
LINE
  5
19DC
330
1F
100
AcDbEntity
  8
GRID
  6
Continuous
100
AcDbLine
 10
-210.0
 20
38.0
 30
0.0
 11
0.0
 21
38.0
 31
0.0
  0
LINE
  5
19DD
330
1F
100
AcDbEntity
  8
GRID
  6
Continuous
100
AcDbLine
 10
-210.0
 20
37.0
 30
0.0
 11
0.0
 21
37.0
 31
0.0
  0
LINE
  5
19DE
330
1F
100
AcDbEntity
  8
GRID
  6
Continuous
100
AcDbLine
 10
-210.0
 20
36.0
 30
0.0
 11
0.0
 21
36.0
 31
0.0
  0
LINE
  5
19DF
330
1F
100
AcDbEntity
  8
GRID
  6
Continuous
100
AcDbLine
 10
-210.0
 20
35.0
 30
0.0
 11
0.0
 21
35.0
 31
0.0
  0
LINE
  5
19E0
330
1F
100
AcDbEntity
  8
GRID
  6
Continuous
100
AcDbLine
 10
-210.0
 20
34.0
 30
0.0
 11
0.0
 21
34.0
 31
0.0
  0
LINE
  5
19E1
330
1F
100
AcDbEntity
  8
GRID
  6
Continuous
100
AcDbLine
 10
-210.0
 20
33.0
 30
0.0
 11
0.0
 21
33.0
 31
0.0
  0
LINE
  5
19E2
330
1F
100
AcDbEntity
  8
GRID
  6
Continuous
100
AcDbLine
 10
-210.0
 20
32.0
 30
0.0
 11
0.0
 21
32.0
 31
0.0
  0
LINE
  5
19E3
330
1F
100
AcDbEntity
  8
GRID
  6
Continuous
100
AcDbLine
 10
-210.0
 20
31.0
 30
0.0
 11
0.0
 21
31.0
 31
0.0
  0
LINE
  5
19E4
330
1F
100
AcDbEntity
  8
GRID
  6
Continuous
 62
   250
100
AcDbLine
 10
-210.0
 20
50.0
 30
0.0
 11
0.0
 21
50.0
 31
0.0
  0
LINE
  5
19E5
330
1F
100
AcDbEntity
  8
GRID
  6
Continuous
100
AcDbLine
 10
-210.0
 20
49.0
 30
0.0
 11
0.0
 21
49.0
 31
0.0
  0
LINE
  5
19E6
330
1F
100
AcDbEntity
  8
GRID
  6
Continuous
100
AcDbLine
 10
-210.0
 20
48.0
 30
0.0
 11
0.0
 21
48.0
 31
0.0
  0
LINE
  5
19E7
330
1F
100
AcDbEntity
  8
GRID
  6
Continuous
100
AcDbLine
 10
-210.0
 20
47.0
 30
0.0
 11
0.0
 21
47.0
 31
0.0
  0
LINE
  5
19E8
330
1F
100
AcDbEntity
  8
GRID
  6
Continuous
100
AcDbLine
 10
-210.0
 20
46.0
 30
0.0
 11
0.0
 21
46.0
 31
0.0
  0
LINE
  5
19E9
330
1F
100
AcDbEntity
  8
GRID
  6
Continuous
100
AcDbLine
 10
-210.0
 20
45.0
 30
0.0
 11
0.0
 21
45.0
 31
0.0
  0
LINE
  5
19EA
330
1F
100
AcDbEntity
  8
GRID
  6
Continuous
100
AcDbLine
 10
-210.0
 20
44.0
 30
0.0
 11
0.0
 21
44.0
 31
0.0
  0
LINE
  5
19EB
330
1F
100
AcDbEntity
  8
GRID
  6
Continuous
100
AcDbLine
 10
-210.0
 20
43.0
 30
0.0
 11
0.0
 21
43.0
 31
0.0
  0
LINE
  5
19EC
330
1F
100
AcDbEntity
  8
GRID
  6
Continuous
100
AcDbLine
 10
-210.0
 20
42.0
 30
0.0
 11
0.0
 21
42.0
 31
0.0
  0
LINE
  5
19ED
330
1F
100
AcDbEntity
  8
GRID
  6
Continuous
100
AcDbLine
 10
-210.0
 20
41.0
 30
0.0
 11
0.0
 21
41.0
 31
0.0
  0
LINE
  5
19EE
330
1F
100
AcDbEntity
  8
GRID
  6
Continuous
 62
   250
100
AcDbLine
 10
-210.0
 20
60.0
 30
0.0
 11
0.0
 21
60.0
 31
0.0
  0
LINE
  5
19EF
330
1F
100
AcDbEntity
  8
GRID
  6
Continuous
100
AcDbLine
 10
-210.0
 20
59.0
 30
0.0
 11
0.0
 21
59.0
 31
0.0
  0
LINE
  5
19F0
330
1F
100
AcDbEntity
  8
GRID
  6
Continuous
100
AcDbLine
 10
-210.0
 20
58.0
 30
0.0
 11
0.0
 21
58.0
 31
0.0
  0
LINE
  5
19F1
330
1F
100
AcDbEntity
  8
GRID
  6
Continuous
100
AcDbLine
 10
-210.0
 20
57.0
 30
0.0
 11
0.0
 21
57.0
 31
0.0
  0
LINE
  5
19F2
330
1F
100
AcDbEntity
  8
GRID
  6
Continuous
100
AcDbLine
 10
-210.0
 20
56.0
 30
0.0
 11
0.0
 21
56.0
 31
0.0
  0
LINE
  5
19F3
330
1F
100
AcDbEntity
  8
GRID
  6
Continuous
100
AcDbLine
 10
-210.0
 20
55.0
 30
0.0
 11
0.0
 21
55.0
 31
0.0
  0
LINE
  5
19F4
330
1F
100
AcDbEntity
  8
GRID
  6
Continuous
100
AcDbLine
 10
-210.0
 20
54.0
 30
0.0
 11
0.0
 21
54.0
 31
0.0
  0
LINE
  5
19F5
330
1F
100
AcDbEntity
  8
GRID
  6
Continuous
100
AcDbLine
 10
-210.0
 20
53.0
 30
0.0
 11
0.0
 21
53.0
 31
0.0
  0
LINE
  5
19F6
330
1F
100
AcDbEntity
  8
GRID
  6
Continuous
100
AcDbLine
 10
-210.0
 20
52.0
 30
0.0
 11
0.0
 21
52.0
 31
0.0
  0
LINE
  5
19F7
330
1F
100
AcDbEntity
  8
GRID
  6
Continuous
100
AcDbLine
 10
-210.0
 20
51.0
 30
0.0
 11
0.0
 21
51.0
 31
0.0
  0
LINE
  5
19F8
330
1F
100
AcDbEntity
  8
GRID
  6
Continuous
 62
   250
100
AcDbLine
 10
-210.0
 20
70.0
 30
0.0
 11
0.0
 21
70.0
 31
0.0
  0
LINE
  5
19F9
330
1F
100
AcDbEntity
  8
GRID
  6
Continuous
100
AcDbLine
 10
-210.0
 20
69.0
 30
0.0
 11
0.0
 21
69.0
 31
0.0
  0
LINE
  5
19FA
330
1F
100
AcDbEntity
  8
GRID
  6
Continuous
100
AcDbLine
 10
-210.0
 20
68.0
 30
0.0
 11
0.0
 21
68.0
 31
0.0
  0
LINE
  5
19FB
330
1F
100
AcDbEntity
  8
GRID
  6
Continuous
100
AcDbLine
 10
-210.0
 20
67.0
 30
0.0
 11
0.0
 21
67.0
 31
0.0
  0
LINE
  5
19FC
330
1F
100
AcDbEntity
  8
GRID
  6
Continuous
100
AcDbLine
 10
-210.0
 20
66.0
 30
0.0
 11
0.0
 21
66.0
 31
0.0
  0
LINE
  5
19FD
330
1F
100
AcDbEntity
  8
GRID
  6
Continuous
100
AcDbLine
 10
-210.0
 20
65.0
 30
0.0
 11
0.0
 21
65.0
 31
0.0
  0
LINE
  5
19FE
330
1F
100
AcDbEntity
  8
GRID
  6
Continuous
100
AcDbLine
 10
-210.0
 20
64.0
 30
0.0
 11
0.0
 21
64.0
 31
0.0
  0
LINE
  5
19FF
330
1F
100
AcDbEntity
  8
GRID
  6
Continuous
100
AcDbLine
 10
-210.0
 20
63.0
 30
0.0
 11
0.0
 21
63.0
 31
0.0
  0
LINE
  5
1A00
330
1F
100
AcDbEntity
  8
GRID
  6
Continuous
100
AcDbLine
 10
-210.0
 20
62.0
 30
0.0
 11
0.0
 21
62.0
 31
0.0
  0
LINE
  5
1A01
330
1F
100
AcDbEntity
  8
GRID
  6
Continuous
100
AcDbLine
 10
-210.0
 20
61.0
 30
0.0
 11
0.0
 21
61.0
 31
0.0
  0
LINE
  5
1A02
330
1F
100
AcDbEntity
  8
GRID
  6
Continuous
 62
   250
100
AcDbLine
 10
-210.0
 20
80.0
 30
0.0
 11
0.0
 21
80.0
 31
0.0
  0
LINE
  5
1A03
330
1F
100
AcDbEntity
  8
GRID
  6
Continuous
100
AcDbLine
 10
-210.0
 20
79.0
 30
0.0
 11
0.0
 21
79.0
 31
0.0
  0
LINE
  5
1A04
330
1F
100
AcDbEntity
  8
GRID
  6
Continuous
100
AcDbLine
 10
-210.0
 20
78.0
 30
0.0
 11
0.0
 21
78.0
 31
0.0
  0
LINE
  5
1A05
330
1F
100
AcDbEntity
  8
GRID
  6
Continuous
100
AcDbLine
 10
-210.0
 20
77.0
 30
0.0
 11
0.0
 21
77.0
 31
0.0
  0
LINE
  5
1A06
330
1F
100
AcDbEntity
  8
GRID
  6
Continuous
100
AcDbLine
 10
-210.0
 20
76.0
 30
0.0
 11
0.0
 21
76.0
 31
0.0
  0
LINE
  5
1A07
330
1F
100
AcDbEntity
  8
GRID
  6
Continuous
100
AcDbLine
 10
-210.0
 20
75.0
 30
0.0
 11
0.0
 21
75.0
 31
0.0
  0
LINE
  5
1A08
330
1F
100
AcDbEntity
  8
GRID
  6
Continuous
100
AcDbLine
 10
-210.0
 20
74.0
 30
0.0
 11
0.0
 21
74.0
 31
0.0
  0
LINE
  5
1A09
330
1F
100
AcDbEntity
  8
GRID
  6
Continuous
100
AcDbLine
 10
-210.0
 20
73.0
 30
0.0
 11
0.0
 21
73.0
 31
0.0
  0
LINE
  5
1A0A
330
1F
100
AcDbEntity
  8
GRID
  6
Continuous
100
AcDbLine
 10
-210.0
 20
72.0
 30
0.0
 11
0.0
 21
72.0
 31
0.0
  0
LINE
  5
1A0B
330
1F
100
AcDbEntity
  8
GRID
  6
Continuous
100
AcDbLine
 10
-210.0
 20
71.0
 30
0.0
 11
0.0
 21
71.0
 31
0.0
  0
LINE
  5
1A0C
330
1F
100
AcDbEntity
  8
GRID
  6
Continuous
 62
   250
100
AcDbLine
 10
-210.0
 20
90.0
 30
0.0
 11
0.0
 21
90.0
 31
0.0
  0
LINE
  5
1A0D
330
1F
100
AcDbEntity
  8
GRID
  6
Continuous
100
AcDbLine
 10
-210.0
 20
89.0
 30
0.0
 11
0.0
 21
89.0
 31
0.0
  0
LINE
  5
1A0E
330
1F
100
AcDbEntity
  8
GRID
  6
Continuous
100
AcDbLine
 10
-210.0
 20
88.0
 30
0.0
 11
0.0
 21
88.0
 31
0.0
  0
LINE
  5
1A0F
330
1F
100
AcDbEntity
  8
GRID
  6
Continuous
100
AcDbLine
 10
-210.0
 20
87.0
 30
0.0
 11
0.0
 21
87.0
 31
0.0
  0
LINE
  5
1A10
330
1F
100
AcDbEntity
  8
GRID
  6
Continuous
100
AcDbLine
 10
-210.0
 20
86.0
 30
0.0
 11
0.0
 21
86.0
 31
0.0
  0
LINE
  5
1A11
330
1F
100
AcDbEntity
  8
GRID
  6
Continuous
100
AcDbLine
 10
-210.0
 20
85.0
 30
0.0
 11
0.0
 21
85.0
 31
0.0
  0
LINE
  5
1A12
330
1F
100
AcDbEntity
  8
GRID
  6
Continuous
100
AcDbLine
 10
-210.0
 20
84.0
 30
0.0
 11
0.0
 21
84.0
 31
0.0
  0
LINE
  5
1A13
330
1F
100
AcDbEntity
  8
GRID
  6
Continuous
100
AcDbLine
 10
-210.0
 20
83.0
 30
0.0
 11
0.0
 21
83.0
 31
0.0
  0
LINE
  5
1A14
330
1F
100
AcDbEntity
  8
GRID
  6
Continuous
100
AcDbLine
 10
-210.0
 20
82.0
 30
0.0
 11
0.0
 21
82.0
 31
0.0
  0
LINE
  5
1A15
330
1F
100
AcDbEntity
  8
GRID
  6
Continuous
100
AcDbLine
 10
-210.0
 20
81.0
 30
0.0
 11
0.0
 21
81.0
 31
0.0
  0
LINE
  5
1A16
330
1F
100
AcDbEntity
  8
GRID
  6
Continuous
 62
   250
100
AcDbLine
 10
-210.0
 20
100.0
 30
0.0
 11
0.0
 21
100.0
 31
0.0
  0
LINE
  5
1A17
330
1F
100
AcDbEntity
  8
GRID
  6
Continuous
100
AcDbLine
 10
-210.0
 20
99.0
 30
0.0
 11
0.0
 21
99.0
 31
0.0
  0
LINE
  5
1A18
330
1F
100
AcDbEntity
  8
GRID
  6
Continuous
100
AcDbLine
 10
-210.0
 20
98.0
 30
0.0
 11
0.0
 21
98.0
 31
0.0
  0
LINE
  5
1A19
330
1F
100
AcDbEntity
  8
GRID
  6
Continuous
100
AcDbLine
 10
-210.0
 20
97.0
 30
0.0
 11
0.0
 21
97.0
 31
0.0
  0
LINE
  5
1A1A
330
1F
100
AcDbEntity
  8
GRID
  6
Continuous
100
AcDbLine
 10
-210.0
 20
96.0
 30
0.0
 11
0.0
 21
96.0
 31
0.0
  0
LINE
  5
1A1B
330
1F
100
AcDbEntity
  8
GRID
  6
Continuous
100
AcDbLine
 10
-210.0
 20
95.0
 30
0.0
 11
0.0
 21
95.0
 31
0.0
  0
LINE
  5
1A1C
330
1F
100
AcDbEntity
  8
GRID
  6
Continuous
100
AcDbLine
 10
-210.0
 20
94.0
 30
0.0
 11
0.0
 21
94.0
 31
0.0
  0
LINE
  5
1A1D
330
1F
100
AcDbEntity
  8
GRID
  6
Continuous
100
AcDbLine
 10
-210.0
 20
93.0
 30
0.0
 11
0.0
 21
93.0
 31
0.0
  0
LINE
  5
1A1E
330
1F
100
AcDbEntity
  8
GRID
  6
Continuous
100
AcDbLine
 10
-210.0
 20
92.0
 30
0.0
 11
0.0
 21
92.0
 31
0.0
  0
LINE
  5
1A1F
330
1F
100
AcDbEntity
  8
GRID
  6
Continuous
100
AcDbLine
 10
-210.0
 20
91.0
 30
0.0
 11
0.0
 21
91.0
 31
0.0
  0
LINE
  5
1A20
330
1F
100
AcDbEntity
  8
GRID
  6
Continuous
 62
   250
100
AcDbLine
 10
-210.0
 20
110.0
 30
0.0
 11
0.0
 21
110.0
 31
0.0
  0
LINE
  5
1A21
330
1F
100
AcDbEntity
  8
GRID
  6
Continuous
100
AcDbLine
 10
-210.0
 20
109.0
 30
0.0
 11
0.0
 21
109.0
 31
0.0
  0
LINE
  5
1A22
330
1F
100
AcDbEntity
  8
GRID
  6
Continuous
100
AcDbLine
 10
-210.0
 20
108.0
 30
0.0
 11
0.0
 21
108.0
 31
0.0
  0
LINE
  5
1A23
330
1F
100
AcDbEntity
  8
GRID
  6
Continuous
100
AcDbLine
 10
-210.0
 20
107.0
 30
0.0
 11
0.0
 21
107.0
 31
0.0
  0
LINE
  5
1A24
330
1F
100
AcDbEntity
  8
GRID
  6
Continuous
100
AcDbLine
 10
-210.0
 20
106.0
 30
0.0
 11
0.0
 21
106.0
 31
0.0
  0
LINE
  5
1A25
330
1F
100
AcDbEntity
  8
GRID
  6
Continuous
100
AcDbLine
 10
-210.0
 20
105.0
 30
0.0
 11
0.0
 21
105.0
 31
0.0
  0
LINE
  5
1A26
330
1F
100
AcDbEntity
  8
GRID
  6
Continuous
100
AcDbLine
 10
-210.0
 20
104.0
 30
0.0
 11
0.0
 21
104.0
 31
0.0
  0
LINE
  5
1A27
330
1F
100
AcDbEntity
  8
GRID
  6
Continuous
100
AcDbLine
 10
-210.0
 20
103.0
 30
0.0
 11
0.0
 21
103.0
 31
0.0
  0
LINE
  5
1A28
330
1F
100
AcDbEntity
  8
GRID
  6
Continuous
100
AcDbLine
 10
-210.0
 20
102.0
 30
0.0
 11
0.0
 21
102.0
 31
0.0
  0
LINE
  5
1A29
330
1F
100
AcDbEntity
  8
GRID
  6
Continuous
100
AcDbLine
 10
-210.0
 20
101.0
 30
0.0
 11
0.0
 21
101.0
 31
0.0
  0
LINE
  5
1A2A
330
1F
100
AcDbEntity
  8
GRID
  6
Continuous
 62
   250
100
AcDbLine
 10
-210.0
 20
120.0
 30
0.0
 11
0.0
 21
120.0
 31
0.0
  0
LINE
  5
1A2B
330
1F
100
AcDbEntity
  8
GRID
  6
Continuous
100
AcDbLine
 10
-210.0
 20
119.0
 30
0.0
 11
0.0
 21
119.0
 31
0.0
  0
LINE
  5
1A2C
330
1F
100
AcDbEntity
  8
GRID
  6
Continuous
100
AcDbLine
 10
-210.0
 20
118.0
 30
0.0
 11
0.0
 21
118.0
 31
0.0
  0
LINE
  5
1A2D
330
1F
100
AcDbEntity
  8
GRID
  6
Continuous
100
AcDbLine
 10
-210.0
 20
117.0
 30
0.0
 11
0.0
 21
117.0
 31
0.0
  0
LINE
  5
1A2E
330
1F
100
AcDbEntity
  8
GRID
  6
Continuous
100
AcDbLine
 10
-210.0
 20
116.0
 30
0.0
 11
0.0
 21
116.0
 31
0.0
  0
LINE
  5
1A2F
330
1F
100
AcDbEntity
  8
GRID
  6
Continuous
100
AcDbLine
 10
-210.0
 20
115.0
 30
0.0
 11
0.0
 21
115.0
 31
0.0
  0
LINE
  5
1A30
330
1F
100
AcDbEntity
  8
GRID
  6
Continuous
100
AcDbLine
 10
-210.0
 20
114.0
 30
0.0
 11
0.0
 21
114.0
 31
0.0
  0
LINE
  5
1A31
330
1F
100
AcDbEntity
  8
GRID
  6
Continuous
100
AcDbLine
 10
-210.0
 20
113.0
 30
0.0
 11
0.0
 21
113.0
 31
0.0
  0
LINE
  5
1A32
330
1F
100
AcDbEntity
  8
GRID
  6
Continuous
100
AcDbLine
 10
-210.0
 20
112.0
 30
0.0
 11
0.0
 21
112.0
 31
0.0
  0
LINE
  5
1A33
330
1F
100
AcDbEntity
  8
GRID
  6
Continuous
100
AcDbLine
 10
-210.0
 20
111.0
 30
0.0
 11
0.0
 21
111.0
 31
0.0
  0
LINE
  5
1A34
330
1F
100
AcDbEntity
  8
GRID
  6
Continuous
 62
   250
100
AcDbLine
 10
-210.0
 20
130.0
 30
0.0
 11
0.0
 21
130.0
 31
0.0
  0
LINE
  5
1A35
330
1F
100
AcDbEntity
  8
GRID
  6
Continuous
100
AcDbLine
 10
-210.0
 20
129.0
 30
0.0
 11
0.0
 21
129.0
 31
0.0
  0
LINE
  5
1A36
330
1F
100
AcDbEntity
  8
GRID
  6
Continuous
100
AcDbLine
 10
-210.0
 20
128.0
 30
0.0
 11
0.0
 21
128.0
 31
0.0
  0
LINE
  5
1A37
330
1F
100
AcDbEntity
  8
GRID
  6
Continuous
100
AcDbLine
 10
-210.0
 20
127.0
 30
0.0
 11
0.0
 21
127.0
 31
0.0
  0
LINE
  5
1A38
330
1F
100
AcDbEntity
  8
GRID
  6
Continuous
100
AcDbLine
 10
-210.0
 20
126.0
 30
0.0
 11
0.0
 21
126.0
 31
0.0
  0
LINE
  5
1A39
330
1F
100
AcDbEntity
  8
GRID
  6
Continuous
100
AcDbLine
 10
-210.0
 20
125.0
 30
0.0
 11
0.0
 21
125.0
 31
0.0
  0
LINE
  5
1A3A
330
1F
100
AcDbEntity
  8
GRID
  6
Continuous
100
AcDbLine
 10
-210.0
 20
124.0
 30
0.0
 11
0.0
 21
124.0
 31
0.0
  0
LINE
  5
1A3B
330
1F
100
AcDbEntity
  8
GRID
  6
Continuous
100
AcDbLine
 10
-210.0
 20
123.0
 30
0.0
 11
0.0
 21
123.0
 31
0.0
  0
LINE
  5
1A3C
330
1F
100
AcDbEntity
  8
GRID
  6
Continuous
100
AcDbLine
 10
-210.0
 20
122.0
 30
0.0
 11
0.0
 21
122.0
 31
0.0
  0
LINE
  5
1A3D
330
1F
100
AcDbEntity
  8
GRID
  6
Continuous
100
AcDbLine
 10
-210.0
 20
121.0
 30
0.0
 11
0.0
 21
121.0
 31
0.0
  0
LINE
  5
1A3E
330
1F
100
AcDbEntity
  8
GRID
  6
Continuous
 62
   250
100
AcDbLine
 10
-210.0
 20
140.0
 30
0.0
 11
0.0
 21
140.0
 31
0.0
  0
LINE
  5
1A3F
330
1F
100
AcDbEntity
  8
GRID
  6
Continuous
100
AcDbLine
 10
-210.0
 20
139.0
 30
0.0
 11
0.0
 21
139.0
 31
0.0
  0
LINE
  5
1A40
330
1F
100
AcDbEntity
  8
GRID
  6
Continuous
100
AcDbLine
 10
-210.0
 20
138.0
 30
0.0
 11
0.0
 21
138.0
 31
0.0
  0
LINE
  5
1A41
330
1F
100
AcDbEntity
  8
GRID
  6
Continuous
100
AcDbLine
 10
-210.0
 20
137.0
 30
0.0
 11
0.0
 21
137.0
 31
0.0
  0
LINE
  5
1A42
330
1F
100
AcDbEntity
  8
GRID
  6
Continuous
100
AcDbLine
 10
-210.0
 20
136.0
 30
0.0
 11
0.0
 21
136.0
 31
0.0
  0
LINE
  5
1A43
330
1F
100
AcDbEntity
  8
GRID
  6
Continuous
100
AcDbLine
 10
-210.0
 20
135.0
 30
0.0
 11
0.0
 21
135.0
 31
0.0
  0
LINE
  5
1A44
330
1F
100
AcDbEntity
  8
GRID
  6
Continuous
100
AcDbLine
 10
-210.0
 20
134.0
 30
0.0
 11
0.0
 21
134.0
 31
0.0
  0
LINE
  5
1A45
330
1F
100
AcDbEntity
  8
GRID
  6
Continuous
100
AcDbLine
 10
-210.0
 20
133.0
 30
0.0
 11
0.0
 21
133.0
 31
0.0
  0
LINE
  5
1A46
330
1F
100
AcDbEntity
  8
GRID
  6
Continuous
100
AcDbLine
 10
-210.0
 20
132.0
 30
0.0
 11
0.0
 21
132.0
 31
0.0
  0
LINE
  5
1A47
330
1F
100
AcDbEntity
  8
GRID
  6
Continuous
100
AcDbLine
 10
-210.0
 20
131.0
 30
0.0
 11
0.0
 21
131.0
 31
0.0
  0
LINE
  5
1A48
330
1F
100
AcDbEntity
  8
GRID
  6
Continuous
 62
   250
100
AcDbLine
 10
-210.0
 20
150.0
 30
0.0
 11
0.0
 21
150.0
 31
0.0
  0
LINE
  5
1A49
330
1F
100
AcDbEntity
  8
GRID
  6
Continuous
100
AcDbLine
 10
-210.0
 20
149.0
 30
0.0
 11
0.0
 21
149.0
 31
0.0
  0
LINE
  5
1A4A
330
1F
100
AcDbEntity
  8
GRID
  6
Continuous
100
AcDbLine
 10
-210.0
 20
148.0
 30
0.0
 11
0.0
 21
148.0
 31
0.0
  0
LINE
  5
1A4B
330
1F
100
AcDbEntity
  8
GRID
  6
Continuous
100
AcDbLine
 10
-210.0
 20
147.0
 30
0.0
 11
0.0
 21
147.0
 31
0.0
  0
LINE
  5
1A4C
330
1F
100
AcDbEntity
  8
GRID
  6
Continuous
100
AcDbLine
 10
-210.0
 20
146.0
 30
0.0
 11
0.0
 21
146.0
 31
0.0
  0
LINE
  5
1A4D
330
1F
100
AcDbEntity
  8
GRID
  6
Continuous
100
AcDbLine
 10
-210.0
 20
145.0
 30
0.0
 11
0.0
 21
145.0
 31
0.0
  0
LINE
  5
1A4E
330
1F
100
AcDbEntity
  8
GRID
  6
Continuous
100
AcDbLine
 10
-210.0
 20
144.0
 30
0.0
 11
0.0
 21
144.0
 31
0.0
  0
LINE
  5
1A4F
330
1F
100
AcDbEntity
  8
GRID
  6
Continuous
100
AcDbLine
 10
-210.0
 20
143.0
 30
0.0
 11
0.0
 21
143.0
 31
0.0
  0
LINE
  5
1A50
330
1F
100
AcDbEntity
  8
GRID
  6
Continuous
100
AcDbLine
 10
-210.0
 20
142.0
 30
0.0
 11
0.0
 21
142.0
 31
0.0
  0
LINE
  5
1A51
330
1F
100
AcDbEntity
  8
GRID
  6
Continuous
100
AcDbLine
 10
-210.0
 20
141.0
 30
0.0
 11
0.0
 21
141.0
 31
0.0
  0
LINE
  5
1A52
330
1F
100
AcDbEntity
  8
GRID
  6
Continuous
 62
   250
100
AcDbLine
 10
-210.0
 20
160.0
 30
0.0
 11
0.0
 21
160.0
 31
0.0
  0
LINE
  5
1A53
330
1F
100
AcDbEntity
  8
GRID
  6
Continuous
100
AcDbLine
 10
-210.0
 20
159.0
 30
0.0
 11
0.0
 21
159.0
 31
0.0
  0
LINE
  5
1A54
330
1F
100
AcDbEntity
  8
GRID
  6
Continuous
100
AcDbLine
 10
-210.0
 20
158.0
 30
0.0
 11
0.0
 21
158.0
 31
0.0
  0
LINE
  5
1A55
330
1F
100
AcDbEntity
  8
GRID
  6
Continuous
100
AcDbLine
 10
-210.0
 20
157.0
 30
0.0
 11
0.0
 21
157.0
 31
0.0
  0
LINE
  5
1A56
330
1F
100
AcDbEntity
  8
GRID
  6
Continuous
100
AcDbLine
 10
-210.0
 20
156.0
 30
0.0
 11
0.0
 21
156.0
 31
0.0
  0
LINE
  5
1A57
330
1F
100
AcDbEntity
  8
GRID
  6
Continuous
100
AcDbLine
 10
-210.0
 20
155.0
 30
0.0
 11
0.0
 21
155.0
 31
0.0
  0
LINE
  5
1A58
330
1F
100
AcDbEntity
  8
GRID
  6
Continuous
100
AcDbLine
 10
-210.0
 20
154.0
 30
0.0
 11
0.0
 21
154.0
 31
0.0
  0
LINE
  5
1A59
330
1F
100
AcDbEntity
  8
GRID
  6
Continuous
100
AcDbLine
 10
-210.0
 20
153.0
 30
0.0
 11
0.0
 21
153.0
 31
0.0
  0
LINE
  5
1A5A
330
1F
100
AcDbEntity
  8
GRID
  6
Continuous
100
AcDbLine
 10
-210.0
 20
152.0
 30
0.0
 11
0.0
 21
152.0
 31
0.0
  0
LINE
  5
1A5B
330
1F
100
AcDbEntity
  8
GRID
  6
Continuous
100
AcDbLine
 10
-210.0
 20
151.0
 30
0.0
 11
0.0
 21
151.0
 31
0.0
  0
LINE
  5
1A5C
330
1F
100
AcDbEntity
  8
GRID
  6
Continuous
 62
   250
100
AcDbLine
 10
-210.0
 20
170.0
 30
0.0
 11
0.0
 21
170.0
 31
0.0
  0
LINE
  5
1A5D
330
1F
100
AcDbEntity
  8
GRID
  6
Continuous
100
AcDbLine
 10
-210.0
 20
169.0
 30
0.0
 11
0.0
 21
169.0
 31
0.0
  0
LINE
  5
1A5E
330
1F
100
AcDbEntity
  8
GRID
  6
Continuous
100
AcDbLine
 10
-210.0
 20
168.0
 30
0.0
 11
0.0
 21
168.0
 31
0.0
  0
LINE
  5
1A5F
330
1F
100
AcDbEntity
  8
GRID
  6
Continuous
100
AcDbLine
 10
-210.0
 20
167.0
 30
0.0
 11
0.0
 21
167.0
 31
0.0
  0
LINE
  5
1A60
330
1F
100
AcDbEntity
  8
GRID
  6
Continuous
100
AcDbLine
 10
-210.0
 20
166.0
 30
0.0
 11
0.0
 21
166.0
 31
0.0
  0
LINE
  5
1A61
330
1F
100
AcDbEntity
  8
GRID
  6
Continuous
100
AcDbLine
 10
-210.0
 20
165.0
 30
0.0
 11
0.0
 21
165.0
 31
0.0
  0
LINE
  5
1A62
330
1F
100
AcDbEntity
  8
GRID
  6
Continuous
100
AcDbLine
 10
-210.0
 20
164.0
 30
0.0
 11
0.0
 21
164.0
 31
0.0
  0
LINE
  5
1A63
330
1F
100
AcDbEntity
  8
GRID
  6
Continuous
100
AcDbLine
 10
-210.0
 20
163.0
 30
0.0
 11
0.0
 21
163.0
 31
0.0
  0
LINE
  5
1A64
330
1F
100
AcDbEntity
  8
GRID
  6
Continuous
100
AcDbLine
 10
-210.0
 20
162.0
 30
0.0
 11
0.0
 21
162.0
 31
0.0
  0
LINE
  5
1A65
330
1F
100
AcDbEntity
  8
GRID
  6
Continuous
100
AcDbLine
 10
-210.0
 20
161.0
 30
0.0
 11
0.0
 21
161.0
 31
0.0
  0
LINE
  5
1A66
330
1F
100
AcDbEntity
  8
GRID
  6
Continuous
 62
   250
100
AcDbLine
 10
-210.0
 20
180.0
 30
0.0
 11
0.0
 21
180.0
 31
0.0
  0
LINE
  5
1A67
330
1F
100
AcDbEntity
  8
GRID
  6
Continuous
100
AcDbLine
 10
-210.0
 20
179.0
 30
0.0
 11
0.0
 21
179.0
 31
0.0
  0
LINE
  5
1A68
330
1F
100
AcDbEntity
  8
GRID
  6
Continuous
100
AcDbLine
 10
-210.0
 20
178.0
 30
0.0
 11
0.0
 21
178.0
 31
0.0
  0
LINE
  5
1A69
330
1F
100
AcDbEntity
  8
GRID
  6
Continuous
100
AcDbLine
 10
-210.0
 20
177.0
 30
0.0
 11
0.0
 21
177.0
 31
0.0
  0
LINE
  5
1A6A
330
1F
100
AcDbEntity
  8
GRID
  6
Continuous
100
AcDbLine
 10
-210.0
 20
176.0
 30
0.0
 11
0.0
 21
176.0
 31
0.0
  0
LINE
  5
1A6B
330
1F
100
AcDbEntity
  8
GRID
  6
Continuous
100
AcDbLine
 10
-210.0
 20
175.0
 30
0.0
 11
0.0
 21
175.0
 31
0.0
  0
LINE
  5
1A6C
330
1F
100
AcDbEntity
  8
GRID
  6
Continuous
100
AcDbLine
 10
-210.0
 20
174.0
 30
0.0
 11
0.0
 21
174.0
 31
0.0
  0
LINE
  5
1A6D
330
1F
100
AcDbEntity
  8
GRID
  6
Continuous
100
AcDbLine
 10
-210.0
 20
173.0
 30
0.0
 11
0.0
 21
173.0
 31
0.0
  0
LINE
  5
1A6E
330
1F
100
AcDbEntity
  8
GRID
  6
Continuous
100
AcDbLine
 10
-210.0
 20
172.0
 30
0.0
 11
0.0
 21
172.0
 31
0.0
  0
LINE
  5
1A6F
330
1F
100
AcDbEntity
  8
GRID
  6
Continuous
100
AcDbLine
 10
-210.0
 20
171.0
 30
0.0
 11
0.0
 21
171.0
 31
0.0
  0
LINE
  5
1A70
330
1F
100
AcDbEntity
  8
GRID
  6
Continuous
 62
   250
100
AcDbLine
 10
-210.0
 20
190.0
 30
0.0
 11
0.0
 21
190.0
 31
0.0
  0
LINE
  5
1A71
330
1F
100
AcDbEntity
  8
GRID
  6
Continuous
100
AcDbLine
 10
-210.0
 20
189.0
 30
0.0
 11
0.0
 21
189.0
 31
0.0
  0
LINE
  5
1A72
330
1F
100
AcDbEntity
  8
GRID
  6
Continuous
100
AcDbLine
 10
-210.0
 20
188.0
 30
0.0
 11
0.0
 21
188.0
 31
0.0
  0
LINE
  5
1A73
330
1F
100
AcDbEntity
  8
GRID
  6
Continuous
100
AcDbLine
 10
-210.0
 20
187.0
 30
0.0
 11
0.0
 21
187.0
 31
0.0
  0
LINE
  5
1A74
330
1F
100
AcDbEntity
  8
GRID
  6
Continuous
100
AcDbLine
 10
-210.0
 20
186.0
 30
0.0
 11
0.0
 21
186.0
 31
0.0
  0
LINE
  5
1A75
330
1F
100
AcDbEntity
  8
GRID
  6
Continuous
100
AcDbLine
 10
-210.0
 20
185.0
 30
0.0
 11
0.0
 21
185.0
 31
0.0
  0
LINE
  5
1A76
330
1F
100
AcDbEntity
  8
GRID
  6
Continuous
100
AcDbLine
 10
-210.0
 20
184.0
 30
0.0
 11
0.0
 21
184.0
 31
0.0
  0
LINE
  5
1A77
330
1F
100
AcDbEntity
  8
GRID
  6
Continuous
100
AcDbLine
 10
-210.0
 20
183.0
 30
0.0
 11
0.0
 21
183.0
 31
0.0
  0
LINE
  5
1A78
330
1F
100
AcDbEntity
  8
GRID
  6
Continuous
100
AcDbLine
 10
-210.0
 20
182.0
 30
0.0
 11
0.0
 21
182.0
 31
0.0
  0
LINE
  5
1A79
330
1F
100
AcDbEntity
  8
GRID
  6
Continuous
100
AcDbLine
 10
-210.0
 20
181.0
 30
0.0
 11
0.0
 21
181.0
 31
0.0
  0
LINE
  5
1A7A
330
1F
100
AcDbEntity
  8
GRID
  6
Continuous
 62
   250
100
AcDbLine
 10
-210.0
 20
200.0
 30
0.0
 11
0.0
 21
200.0
 31
0.0
  0
LINE
  5
1A7B
330
1F
100
AcDbEntity
  8
GRID
  6
Continuous
100
AcDbLine
 10
-210.0
 20
199.0
 30
0.0
 11
0.0
 21
199.0
 31
0.0
  0
LINE
  5
1A7C
330
1F
100
AcDbEntity
  8
GRID
  6
Continuous
100
AcDbLine
 10
-210.0
 20
198.0
 30
0.0
 11
0.0
 21
198.0
 31
0.0
  0
LINE
  5
1A7D
330
1F
100
AcDbEntity
  8
GRID
  6
Continuous
100
AcDbLine
 10
-210.0
 20
197.0
 30
0.0
 11
0.0
 21
197.0
 31
0.0
  0
LINE
  5
1A7E
330
1F
100
AcDbEntity
  8
GRID
  6
Continuous
100
AcDbLine
 10
-210.0
 20
196.0
 30
0.0
 11
0.0
 21
196.0
 31
0.0
  0
LINE
  5
1A7F
330
1F
100
AcDbEntity
  8
GRID
  6
Continuous
100
AcDbLine
 10
-210.0
 20
195.0
 30
0.0
 11
0.0
 21
195.0
 31
0.0
  0
LINE
  5
1A80
330
1F
100
AcDbEntity
  8
GRID
  6
Continuous
100
AcDbLine
 10
-210.0
 20
194.0
 30
0.0
 11
0.0
 21
194.0
 31
0.0
  0
LINE
  5
1A81
330
1F
100
AcDbEntity
  8
GRID
  6
Continuous
100
AcDbLine
 10
-210.0
 20
193.0
 30
0.0
 11
0.0
 21
193.0
 31
0.0
  0
LINE
  5
1A82
330
1F
100
AcDbEntity
  8
GRID
  6
Continuous
100
AcDbLine
 10
-210.0
 20
192.0
 30
0.0
 11
0.0
 21
192.0
 31
0.0
  0
LINE
  5
1A83
330
1F
100
AcDbEntity
  8
GRID
  6
Continuous
100
AcDbLine
 10
-210.0
 20
191.0
 30
0.0
 11
0.0
 21
191.0
 31
0.0
  0
LINE
  5
1A84
330
1F
100
AcDbEntity
  8
GRID
  6
Continuous
 62
   250
100
AcDbLine
 10
-210.0
 20
210.0
 30
0.0
 11
0.0
 21
210.0
 31
0.0
  0
LINE
  5
1A85
330
1F
100
AcDbEntity
  8
GRID
  6
Continuous
100
AcDbLine
 10
-210.0
 20
209.0
 30
0.0
 11
0.0
 21
209.0
 31
0.0
  0
LINE
  5
1A86
330
1F
100
AcDbEntity
  8
GRID
  6
Continuous
100
AcDbLine
 10
-210.0
 20
208.0
 30
0.0
 11
0.0
 21
208.0
 31
0.0
  0
LINE
  5
1A87
330
1F
100
AcDbEntity
  8
GRID
  6
Continuous
100
AcDbLine
 10
-210.0
 20
207.0
 30
0.0
 11
0.0
 21
207.0
 31
0.0
  0
LINE
  5
1A88
330
1F
100
AcDbEntity
  8
GRID
  6
Continuous
100
AcDbLine
 10
-210.0
 20
206.0
 30
0.0
 11
0.0
 21
206.0
 31
0.0
  0
LINE
  5
1A89
330
1F
100
AcDbEntity
  8
GRID
  6
Continuous
100
AcDbLine
 10
-210.0
 20
205.0
 30
0.0
 11
0.0
 21
205.0
 31
0.0
  0
LINE
  5
1A8A
330
1F
100
AcDbEntity
  8
GRID
  6
Continuous
100
AcDbLine
 10
-210.0
 20
204.0
 30
0.0
 11
0.0
 21
204.0
 31
0.0
  0
LINE
  5
1A8B
330
1F
100
AcDbEntity
  8
GRID
  6
Continuous
100
AcDbLine
 10
-210.0
 20
203.0
 30
0.0
 11
0.0
 21
203.0
 31
0.0
  0
LINE
  5
1A8C
330
1F
100
AcDbEntity
  8
GRID
  6
Continuous
100
AcDbLine
 10
-210.0
 20
202.0
 30
0.0
 11
0.0
 21
202.0
 31
0.0
  0
LINE
  5
1A8D
330
1F
100
AcDbEntity
  8
GRID
  6
Continuous
100
AcDbLine
 10
-210.0
 20
201.0
 30
0.0
 11
0.0
 21
201.0
 31
0.0
  0
LINE
  5
1A8E
330
1F
100
AcDbEntity
  8
GRID
  6
Continuous
 62
   250
100
AcDbLine
 10
-210.0
 20
220.0
 30
0.0
 11
0.0
 21
220.0
 31
0.0
  0
LINE
  5
1A8F
330
1F
100
AcDbEntity
  8
GRID
  6
Continuous
100
AcDbLine
 10
-210.0
 20
219.0
 30
0.0
 11
0.0
 21
219.0
 31
0.0
  0
LINE
  5
1A90
330
1F
100
AcDbEntity
  8
GRID
  6
Continuous
100
AcDbLine
 10
-210.0
 20
218.0
 30
0.0
 11
0.0
 21
218.0
 31
0.0
  0
LINE
  5
1A91
330
1F
100
AcDbEntity
  8
GRID
  6
Continuous
100
AcDbLine
 10
-210.0
 20
217.0
 30
0.0
 11
0.0
 21
217.0
 31
0.0
  0
LINE
  5
1A92
330
1F
100
AcDbEntity
  8
GRID
  6
Continuous
100
AcDbLine
 10
-210.0
 20
216.0
 30
0.0
 11
0.0
 21
216.0
 31
0.0
  0
LINE
  5
1A93
330
1F
100
AcDbEntity
  8
GRID
  6
Continuous
100
AcDbLine
 10
-210.0
 20
215.0
 30
0.0
 11
0.0
 21
215.0
 31
0.0
  0
LINE
  5
1A94
330
1F
100
AcDbEntity
  8
GRID
  6
Continuous
100
AcDbLine
 10
-210.0
 20
214.0
 30
0.0
 11
0.0
 21
214.0
 31
0.0
  0
LINE
  5
1A95
330
1F
100
AcDbEntity
  8
GRID
  6
Continuous
100
AcDbLine
 10
-210.0
 20
213.0
 30
0.0
 11
0.0
 21
213.0
 31
0.0
  0
LINE
  5
1A96
330
1F
100
AcDbEntity
  8
GRID
  6
Continuous
100
AcDbLine
 10
-210.0
 20
212.0
 30
0.0
 11
0.0
 21
212.0
 31
0.0
  0
LINE
  5
1A97
330
1F
100
AcDbEntity
  8
GRID
  6
Continuous
100
AcDbLine
 10
-210.0
 20
211.0
 30
0.0
 11
0.0
 21
211.0
 31
0.0
  0
LINE
  5
1A98
330
1F
100
AcDbEntity
  8
GRID
  6
Continuous
 62
   250
100
AcDbLine
 10
-210.0
 20
230.0
 30
0.0
 11
0.0
 21
230.0
 31
0.0
  0
LINE
  5
1A99
330
1F
100
AcDbEntity
  8
GRID
  6
Continuous
100
AcDbLine
 10
-210.0
 20
229.0
 30
0.0
 11
0.0
 21
229.0
 31
0.0
  0
LINE
  5
1A9A
330
1F
100
AcDbEntity
  8
GRID
  6
Continuous
100
AcDbLine
 10
-210.0
 20
228.0
 30
0.0
 11
0.0
 21
228.0
 31
0.0
  0
LINE
  5
1A9B
330
1F
100
AcDbEntity
  8
GRID
  6
Continuous
100
AcDbLine
 10
-210.0
 20
227.0
 30
0.0
 11
0.0
 21
227.0
 31
0.0
  0
LINE
  5
1A9C
330
1F
100
AcDbEntity
  8
GRID
  6
Continuous
100
AcDbLine
 10
-210.0
 20
226.0
 30
0.0
 11
0.0
 21
226.0
 31
0.0
  0
LINE
  5
1A9D
330
1F
100
AcDbEntity
  8
GRID
  6
Continuous
100
AcDbLine
 10
-210.0
 20
225.0
 30
0.0
 11
0.0
 21
225.0
 31
0.0
  0
LINE
  5
1A9E
330
1F
100
AcDbEntity
  8
GRID
  6
Continuous
100
AcDbLine
 10
-210.0
 20
224.0
 30
0.0
 11
0.0
 21
224.0
 31
0.0
  0
LINE
  5
1A9F
330
1F
100
AcDbEntity
  8
GRID
  6
Continuous
100
AcDbLine
 10
-210.0
 20
223.0
 30
0.0
 11
0.0
 21
223.0
 31
0.0
  0
LINE
  5
1AA0
330
1F
100
AcDbEntity
  8
GRID
  6
Continuous
100
AcDbLine
 10
-210.0
 20
222.0
 30
0.0
 11
0.0
 21
222.0
 31
0.0
  0
LINE
  5
1AA1
330
1F
100
AcDbEntity
  8
GRID
  6
Continuous
100
AcDbLine
 10
-210.0
 20
221.0
 30
0.0
 11
0.0
 21
221.0
 31
0.0
  0
LINE
  5
1AA2
330
1F
100
AcDbEntity
  8
GRID
  6
Continuous
 62
   250
100
AcDbLine
 10
-210.0
 20
240.0
 30
0.0
 11
0.0
 21
240.0
 31
0.0
  0
LINE
  5
1AA3
330
1F
100
AcDbEntity
  8
GRID
  6
Continuous
100
AcDbLine
 10
-210.0
 20
239.0
 30
0.0
 11
0.0
 21
239.0
 31
0.0
  0
LINE
  5
1AA4
330
1F
100
AcDbEntity
  8
GRID
  6
Continuous
100
AcDbLine
 10
-210.0
 20
238.0
 30
0.0
 11
0.0
 21
238.0
 31
0.0
  0
LINE
  5
1AA5
330
1F
100
AcDbEntity
  8
GRID
  6
Continuous
100
AcDbLine
 10
-210.0
 20
237.0
 30
0.0
 11
0.0
 21
237.0
 31
0.0
  0
LINE
  5
1AA6
330
1F
100
AcDbEntity
  8
GRID
  6
Continuous
100
AcDbLine
 10
-210.0
 20
236.0
 30
0.0
 11
0.0
 21
236.0
 31
0.0
  0
LINE
  5
1AA7
330
1F
100
AcDbEntity
  8
GRID
  6
Continuous
100
AcDbLine
 10
-210.0
 20
235.0
 30
0.0
 11
0.0
 21
235.0
 31
0.0
  0
LINE
  5
1AA8
330
1F
100
AcDbEntity
  8
GRID
  6
Continuous
100
AcDbLine
 10
-210.0
 20
234.0
 30
0.0
 11
0.0
 21
234.0
 31
0.0
  0
LINE
  5
1AA9
330
1F
100
AcDbEntity
  8
GRID
  6
Continuous
100
AcDbLine
 10
-210.0
 20
233.0
 30
0.0
 11
0.0
 21
233.0
 31
0.0
  0
LINE
  5
1AAA
330
1F
100
AcDbEntity
  8
GRID
  6
Continuous
100
AcDbLine
 10
-210.0
 20
232.0
 30
0.0
 11
0.0
 21
232.0
 31
0.0
  0
LINE
  5
1AAB
330
1F
100
AcDbEntity
  8
GRID
  6
Continuous
100
AcDbLine
 10
-210.0
 20
231.0
 30
0.0
 11
0.0
 21
231.0
 31
0.0
  0
LINE
  5
1AAC
330
1F
100
AcDbEntity
  8
GRID
  6
Continuous
 62
   250
100
AcDbLine
 10
-210.0
 20
250.0
 30
0.0
 11
0.0
 21
250.0
 31
0.0
  0
LINE
  5
1AAD
330
1F
100
AcDbEntity
  8
GRID
  6
Continuous
100
AcDbLine
 10
-210.0
 20
249.0
 30
0.0
 11
0.0
 21
249.0
 31
0.0
  0
LINE
  5
1AAE
330
1F
100
AcDbEntity
  8
GRID
  6
Continuous
100
AcDbLine
 10
-210.0
 20
248.0
 30
0.0
 11
0.0
 21
248.0
 31
0.0
  0
LINE
  5
1AAF
330
1F
100
AcDbEntity
  8
GRID
  6
Continuous
100
AcDbLine
 10
-210.0
 20
247.0
 30
0.0
 11
0.0
 21
247.0
 31
0.0
  0
LINE
  5
1AB0
330
1F
100
AcDbEntity
  8
GRID
  6
Continuous
100
AcDbLine
 10
-210.0
 20
246.0
 30
0.0
 11
0.0
 21
246.0
 31
0.0
  0
LINE
  5
1AB1
330
1F
100
AcDbEntity
  8
GRID
  6
Continuous
100
AcDbLine
 10
-210.0
 20
245.0
 30
0.0
 11
0.0
 21
245.0
 31
0.0
  0
LINE
  5
1AB2
330
1F
100
AcDbEntity
  8
GRID
  6
Continuous
100
AcDbLine
 10
-210.0
 20
244.0
 30
0.0
 11
0.0
 21
244.0
 31
0.0
  0
LINE
  5
1AB3
330
1F
100
AcDbEntity
  8
GRID
  6
Continuous
100
AcDbLine
 10
-210.0
 20
243.0
 30
0.0
 11
0.0
 21
243.0
 31
0.0
  0
LINE
  5
1AB4
330
1F
100
AcDbEntity
  8
GRID
  6
Continuous
100
AcDbLine
 10
-210.0
 20
242.0
 30
0.0
 11
0.0
 21
242.0
 31
0.0
  0
LINE
  5
1AB5
330
1F
100
AcDbEntity
  8
GRID
  6
Continuous
100
AcDbLine
 10
-210.0
 20
241.0
 30
0.0
 11
0.0
 21
241.0
 31
0.0
  0
LINE
  5
1AB6
330
1F
100
AcDbEntity
  8
GRID
  6
Continuous
 62
   250
100
AcDbLine
 10
-210.0
 20
260.0
 30
0.0
 11
0.0
 21
260.0
 31
0.0
  0
LINE
  5
1AB7
330
1F
100
AcDbEntity
  8
GRID
  6
Continuous
100
AcDbLine
 10
-210.0
 20
259.0
 30
0.0
 11
0.0
 21
259.0
 31
0.0
  0
LINE
  5
1AB8
330
1F
100
AcDbEntity
  8
GRID
  6
Continuous
100
AcDbLine
 10
-210.0
 20
258.0
 30
0.0
 11
0.0
 21
258.0
 31
0.0
  0
LINE
  5
1AB9
330
1F
100
AcDbEntity
  8
GRID
  6
Continuous
100
AcDbLine
 10
-210.0
 20
257.0
 30
0.0
 11
0.0
 21
257.0
 31
0.0
  0
LINE
  5
1ABA
330
1F
100
AcDbEntity
  8
GRID
  6
Continuous
100
AcDbLine
 10
-210.0
 20
256.0
 30
0.0
 11
0.0
 21
256.0
 31
0.0
  0
LINE
  5
1ABB
330
1F
100
AcDbEntity
  8
GRID
  6
Continuous
100
AcDbLine
 10
-210.0
 20
255.0
 30
0.0
 11
0.0
 21
255.0
 31
0.0
  0
LINE
  5
1ABC
330
1F
100
AcDbEntity
  8
GRID
  6
Continuous
100
AcDbLine
 10
-210.0
 20
254.0
 30
0.0
 11
0.0
 21
254.0
 31
0.0
  0
LINE
  5
1ABD
330
1F
100
AcDbEntity
  8
GRID
  6
Continuous
100
AcDbLine
 10
-210.0
 20
253.0
 30
0.0
 11
0.0
 21
253.0
 31
0.0
  0
LINE
  5
1ABE
330
1F
100
AcDbEntity
  8
GRID
  6
Continuous
100
AcDbLine
 10
-210.0
 20
252.0
 30
0.0
 11
0.0
 21
252.0
 31
0.0
  0
LINE
  5
1ABF
330
1F
100
AcDbEntity
  8
GRID
  6
Continuous
100
AcDbLine
 10
-210.0
 20
251.0
 30
0.0
 11
0.0
 21
251.0
 31
0.0
  0
LINE
  5
1AC0
330
1F
100
AcDbEntity
  8
GRID
  6
Continuous
 62
   250
100
AcDbLine
 10
-210.0
 20
270.0
 30
0.0
 11
0.0
 21
270.0
 31
0.0
  0
LINE
  5
1AC1
330
1F
100
AcDbEntity
  8
GRID
  6
Continuous
100
AcDbLine
 10
-210.0
 20
269.0
 30
0.0
 11
0.0
 21
269.0
 31
0.0
  0
LINE
  5
1AC2
330
1F
100
AcDbEntity
  8
GRID
  6
Continuous
100
AcDbLine
 10
-210.0
 20
268.0
 30
0.0
 11
0.0
 21
268.0
 31
0.0
  0
LINE
  5
1AC3
330
1F
100
AcDbEntity
  8
GRID
  6
Continuous
100
AcDbLine
 10
-210.0
 20
267.0
 30
0.0
 11
0.0
 21
267.0
 31
0.0
  0
LINE
  5
1AC4
330
1F
100
AcDbEntity
  8
GRID
  6
Continuous
100
AcDbLine
 10
-210.0
 20
266.0
 30
0.0
 11
0.0
 21
266.0
 31
0.0
  0
LINE
  5
1AC5
330
1F
100
AcDbEntity
  8
GRID
  6
Continuous
100
AcDbLine
 10
-210.0
 20
265.0
 30
0.0
 11
0.0
 21
265.0
 31
0.0
  0
LINE
  5
1AC6
330
1F
100
AcDbEntity
  8
GRID
  6
Continuous
100
AcDbLine
 10
-210.0
 20
264.0
 30
0.0
 11
0.0
 21
264.0
 31
0.0
  0
LINE
  5
1AC7
330
1F
100
AcDbEntity
  8
GRID
  6
Continuous
100
AcDbLine
 10
-210.0
 20
263.0
 30
0.0
 11
0.0
 21
263.0
 31
0.0
  0
LINE
  5
1AC8
330
1F
100
AcDbEntity
  8
GRID
  6
Continuous
100
AcDbLine
 10
-210.0
 20
262.0
 30
0.0
 11
0.0
 21
262.0
 31
0.0
  0
LINE
  5
1AC9
330
1F
100
AcDbEntity
  8
GRID
  6
Continuous
100
AcDbLine
 10
-210.0
 20
261.0
 30
0.0
 11
0.0
 21
261.0
 31
0.0
  0
LINE
  5
1ACA
330
1F
100
AcDbEntity
  8
GRID
  6
Continuous
 62
   250
100
AcDbLine
 10
-210.0
 20
280.0
 30
0.0
 11
0.0
 21
280.0
 31
0.0
  0
LINE
  5
1ACB
330
1F
100
AcDbEntity
  8
GRID
  6
Continuous
100
AcDbLine
 10
-210.0
 20
279.0
 30
0.0
 11
0.0
 21
279.0
 31
0.0
  0
LINE
  5
1ACC
330
1F
100
AcDbEntity
  8
GRID
  6
Continuous
100
AcDbLine
 10
-210.0
 20
278.0
 30
0.0
 11
0.0
 21
278.0
 31
0.0
  0
LINE
  5
1ACD
330
1F
100
AcDbEntity
  8
GRID
  6
Continuous
100
AcDbLine
 10
-210.0
 20
277.0
 30
0.0
 11
0.0
 21
277.0
 31
0.0
  0
LINE
  5
1ACE
330
1F
100
AcDbEntity
  8
GRID
  6
Continuous
100
AcDbLine
 10
-210.0
 20
276.0
 30
0.0
 11
0.0
 21
276.0
 31
0.0
  0
LINE
  5
1ACF
330
1F
100
AcDbEntity
  8
GRID
  6
Continuous
100
AcDbLine
 10
-210.0
 20
275.0
 30
0.0
 11
0.0
 21
275.0
 31
0.0
  0
LINE
  5
1AD0
330
1F
100
AcDbEntity
  8
GRID
  6
Continuous
100
AcDbLine
 10
-210.0
 20
274.0
 30
0.0
 11
0.0
 21
274.0
 31
0.0
  0
LINE
  5
1AD1
330
1F
100
AcDbEntity
  8
GRID
  6
Continuous
100
AcDbLine
 10
-210.0
 20
273.0
 30
0.0
 11
0.0
 21
273.0
 31
0.0
  0
LINE
  5
1AD2
330
1F
100
AcDbEntity
  8
GRID
  6
Continuous
100
AcDbLine
 10
-210.0
 20
272.0
 30
0.0
 11
0.0
 21
272.0
 31
0.0
  0
LINE
  5
1AD3
330
1F
100
AcDbEntity
  8
GRID
  6
Continuous
100
AcDbLine
 10
-210.0
 20
271.0
 30
0.0
 11
0.0
 21
271.0
 31
0.0
  0
LINE
  5
1AD4
330
1F
100
AcDbEntity
  8
GRID
  6
Continuous
 62
   250
100
AcDbLine
 10
-210.0
 20
290.0
 30
0.0
 11
0.0
 21
290.0
 31
0.0
  0
LINE
  5
1AD5
330
1F
100
AcDbEntity
  8
GRID
  6
Continuous
100
AcDbLine
 10
-210.0
 20
289.0
 30
0.0
 11
0.0
 21
289.0
 31
0.0
  0
LINE
  5
1AD6
330
1F
100
AcDbEntity
  8
GRID
  6
Continuous
100
AcDbLine
 10
-210.0
 20
288.0
 30
0.0
 11
0.0
 21
288.0
 31
0.0
  0
LINE
  5
1AD7
330
1F
100
AcDbEntity
  8
GRID
  6
Continuous
100
AcDbLine
 10
-210.0
 20
287.0
 30
0.0
 11
0.0
 21
287.0
 31
0.0
  0
LINE
  5
1AD8
330
1F
100
AcDbEntity
  8
GRID
  6
Continuous
100
AcDbLine
 10
-210.0
 20
286.0
 30
0.0
 11
0.0
 21
286.0
 31
0.0
  0
LINE
  5
1AD9
330
1F
100
AcDbEntity
  8
GRID
  6
Continuous
100
AcDbLine
 10
-210.0
 20
285.0
 30
0.0
 11
0.0
 21
285.0
 31
0.0
  0
LINE
  5
1ADA
330
1F
100
AcDbEntity
  8
GRID
  6
Continuous
100
AcDbLine
 10
-210.0
 20
284.0
 30
0.0
 11
0.0
 21
284.0
 31
0.0
  0
LINE
  5
1ADB
330
1F
100
AcDbEntity
  8
GRID
  6
Continuous
100
AcDbLine
 10
-210.0
 20
283.0
 30
0.0
 11
0.0
 21
283.0
 31
0.0
  0
LINE
  5
1ADC
330
1F
100
AcDbEntity
  8
GRID
  6
Continuous
100
AcDbLine
 10
-210.0
 20
282.0
 30
0.0
 11
0.0
 21
282.0
 31
0.0
  0
LINE
  5
1ADD
330
1F
100
AcDbEntity
  8
GRID
  6
Continuous
100
AcDbLine
 10
-210.0
 20
281.0
 30
0.0
 11
0.0
 21
281.0
 31
0.0
  0
LINE
  5
1AE2
330
1F
100
AcDbEntity
  8
GRID
  6
Continuous
100
AcDbLine
 10
-210.0
 20
296.0
 30
0.0
 11
0.0
 21
296.0
 31
0.0
  0
LINE
  5
1AE3
330
1F
100
AcDbEntity
  8
GRID
  6
Continuous
100
AcDbLine
 10
-210.0
 20
295.0
 30
0.0
 11
0.0
 21
295.0
 31
0.0
  0
LINE
  5
1AE4
330
1F
100
AcDbEntity
  8
GRID
  6
Continuous
100
AcDbLine
 10
-210.0
 20
294.0
 30
0.0
 11
0.0
 21
294.0
 31
0.0
  0
LINE
  5
1AE5
330
1F
100
AcDbEntity
  8
GRID
  6
Continuous
100
AcDbLine
 10
-210.0
 20
293.0
 30
0.0
 11
0.0
 21
293.0
 31
0.0
  0
LINE
  5
1AE6
330
1F
100
AcDbEntity
  8
GRID
  6
Continuous
100
AcDbLine
 10
-210.0
 20
292.0
 30
0.0
 11
0.0
 21
292.0
 31
0.0
  0
LINE
  5
1AE7
330
1F
100
AcDbEntity
  8
GRID
  6
Continuous
100
AcDbLine
 10
-210.0
 20
291.0
 30
0.0
 11
0.0
 21
291.0
 31
0.0
  0
LINE
  5
1AE8
330
1F
100
AcDbEntity
  8
GRID
  6
Continuous
 62
   250
100
AcDbLine
 10
-10.0
 20
0.0
 30
0.0
 11
-10.0
 21
297.0
 31
0.0
  0
LINE
  5
1AE9
330
1F
100
AcDbEntity
  8
GRID
  6
Continuous
100
AcDbLine
 10
-9.0
 20
0.0
 30
0.0
 11
-9.0
 21
297.0
 31
0.0
  0
LINE
  5
1AEA
330
1F
100
AcDbEntity
  8
GRID
  6
Continuous
100
AcDbLine
 10
-8.0
 20
0.0
 30
0.0
 11
-8.0
 21
297.0
 31
0.0
  0
LINE
  5
1AEB
330
1F
100
AcDbEntity
  8
GRID
  6
Continuous
100
AcDbLine
 10
-7.0
 20
0.0
 30
0.0
 11
-7.0
 21
297.0
 31
0.0
  0
LINE
  5
1AEC
330
1F
100
AcDbEntity
  8
GRID
  6
Continuous
100
AcDbLine
 10
-6.0
 20
0.0
 30
0.0
 11
-6.0
 21
297.0
 31
0.0
  0
LINE
  5
1AED
330
1F
100
AcDbEntity
  8
GRID
  6
Continuous
100
AcDbLine
 10
-5.0
 20
0.0
 30
0.0
 11
-5.0
 21
297.0
 31
0.0
  0
LINE
  5
1AEE
330
1F
100
AcDbEntity
  8
GRID
  6
Continuous
100
AcDbLine
 10
-4.0
 20
0.0
 30
0.0
 11
-4.0
 21
297.0
 31
0.0
  0
LINE
  5
1AEF
330
1F
100
AcDbEntity
  8
GRID
  6
Continuous
100
AcDbLine
 10
-3.0
 20
0.0
 30
0.0
 11
-3.0
 21
297.0
 31
0.0
  0
LINE
  5
1AF0
330
1F
100
AcDbEntity
  8
GRID
  6
Continuous
100
AcDbLine
 10
-2.0
 20
0.0
 30
0.0
 11
-2.0
 21
297.0
 31
0.0
  0
LINE
  5
1AF1
330
1F
100
AcDbEntity
  8
GRID
  6
Continuous
100
AcDbLine
 10
-1.0
 20
0.0
 30
0.0
 11
-1.0
 21
297.0
 31
0.0
  0
LINE
  5
1AF2
330
1F
100
AcDbEntity
  8
GRID
  6
Continuous
 62
   250
100
AcDbLine
 10
-20.0
 20
0.0
 30
0.0
 11
-20.0
 21
297.0
 31
0.0
  0
LINE
  5
1AF3
330
1F
100
AcDbEntity
  8
GRID
  6
Continuous
100
AcDbLine
 10
-19.0
 20
0.0
 30
0.0
 11
-19.0
 21
297.0
 31
0.0
  0
LINE
  5
1AF4
330
1F
100
AcDbEntity
  8
GRID
  6
Continuous
100
AcDbLine
 10
-18.0
 20
0.0
 30
0.0
 11
-18.0
 21
297.0
 31
0.0
  0
LINE
  5
1AF5
330
1F
100
AcDbEntity
  8
GRID
  6
Continuous
100
AcDbLine
 10
-17.0
 20
0.0
 30
0.0
 11
-17.0
 21
297.0
 31
0.0
  0
LINE
  5
1AF6
330
1F
100
AcDbEntity
  8
GRID
  6
Continuous
100
AcDbLine
 10
-16.0
 20
0.0
 30
0.0
 11
-16.0
 21
297.0
 31
0.0
  0
LINE
  5
1AF7
330
1F
100
AcDbEntity
  8
GRID
  6
Continuous
100
AcDbLine
 10
-15.0
 20
0.0
 30
0.0
 11
-15.0
 21
297.0
 31
0.0
  0
LINE
  5
1AF8
330
1F
100
AcDbEntity
  8
GRID
  6
Continuous
100
AcDbLine
 10
-14.0
 20
0.0
 30
0.0
 11
-14.0
 21
297.0
 31
0.0
  0
LINE
  5
1AF9
330
1F
100
AcDbEntity
  8
GRID
  6
Continuous
100
AcDbLine
 10
-13.0
 20
0.0
 30
0.0
 11
-13.0
 21
297.0
 31
0.0
  0
LINE
  5
1AFA
330
1F
100
AcDbEntity
  8
GRID
  6
Continuous
100
AcDbLine
 10
-12.0
 20
0.0
 30
0.0
 11
-12.0
 21
297.0
 31
0.0
  0
LINE
  5
1AFB
330
1F
100
AcDbEntity
  8
GRID
  6
Continuous
100
AcDbLine
 10
-11.0
 20
0.0
 30
0.0
 11
-11.0
 21
297.0
 31
0.0
  0
LINE
  5
1AFC
330
1F
100
AcDbEntity
  8
GRID
  6
Continuous
 62
   250
100
AcDbLine
 10
-30.0
 20
0.0
 30
0.0
 11
-30.0
 21
297.0
 31
0.0
  0
LINE
  5
1AFD
330
1F
100
AcDbEntity
  8
GRID
  6
Continuous
100
AcDbLine
 10
-29.0
 20
0.0
 30
0.0
 11
-29.0
 21
297.0
 31
0.0
  0
LINE
  5
1AFE
330
1F
100
AcDbEntity
  8
GRID
  6
Continuous
100
AcDbLine
 10
-28.0
 20
0.0
 30
0.0
 11
-28.0
 21
297.0
 31
0.0
  0
LINE
  5
1AFF
330
1F
100
AcDbEntity
  8
GRID
  6
Continuous
100
AcDbLine
 10
-27.0
 20
0.0
 30
0.0
 11
-27.0
 21
297.0
 31
0.0
  0
LINE
  5
1B00
330
1F
100
AcDbEntity
  8
GRID
  6
Continuous
100
AcDbLine
 10
-26.0
 20
0.0
 30
0.0
 11
-26.0
 21
297.0
 31
0.0
  0
LINE
  5
1B01
330
1F
100
AcDbEntity
  8
GRID
  6
Continuous
100
AcDbLine
 10
-25.0
 20
0.0
 30
0.0
 11
-25.0
 21
297.0
 31
0.0
  0
LINE
  5
1B02
330
1F
100
AcDbEntity
  8
GRID
  6
Continuous
100
AcDbLine
 10
-24.0
 20
0.0
 30
0.0
 11
-24.0
 21
297.0
 31
0.0
  0
LINE
  5
1B03
330
1F
100
AcDbEntity
  8
GRID
  6
Continuous
100
AcDbLine
 10
-23.0
 20
0.0
 30
0.0
 11
-23.0
 21
297.0
 31
0.0
  0
LINE
  5
1B04
330
1F
100
AcDbEntity
  8
GRID
  6
Continuous
100
AcDbLine
 10
-22.0
 20
0.0
 30
0.0
 11
-22.0
 21
297.0
 31
0.0
  0
LINE
  5
1B05
330
1F
100
AcDbEntity
  8
GRID
  6
Continuous
100
AcDbLine
 10
-21.0
 20
0.0
 30
0.0
 11
-21.0
 21
297.0
 31
0.0
  0
LINE
  5
1B06
330
1F
100
AcDbEntity
  8
GRID
  6
Continuous
 62
   250
100
AcDbLine
 10
-40.0
 20
0.0
 30
0.0
 11
-40.0
 21
297.0
 31
0.0
  0
LINE
  5
1B07
330
1F
100
AcDbEntity
  8
GRID
  6
Continuous
100
AcDbLine
 10
-39.0
 20
0.0
 30
0.0
 11
-39.0
 21
297.0
 31
0.0
  0
LINE
  5
1B08
330
1F
100
AcDbEntity
  8
GRID
  6
Continuous
100
AcDbLine
 10
-38.0
 20
0.0
 30
0.0
 11
-38.0
 21
297.0
 31
0.0
  0
LINE
  5
1B09
330
1F
100
AcDbEntity
  8
GRID
  6
Continuous
100
AcDbLine
 10
-37.0
 20
0.0
 30
0.0
 11
-37.0
 21
297.0
 31
0.0
  0
LINE
  5
1B0A
330
1F
100
AcDbEntity
  8
GRID
  6
Continuous
100
AcDbLine
 10
-36.0
 20
0.0
 30
0.0
 11
-36.0
 21
297.0
 31
0.0
  0
LINE
  5
1B0B
330
1F
100
AcDbEntity
  8
GRID
  6
Continuous
100
AcDbLine
 10
-35.0
 20
0.0
 30
0.0
 11
-35.0
 21
297.0
 31
0.0
  0
LINE
  5
1B0C
330
1F
100
AcDbEntity
  8
GRID
  6
Continuous
100
AcDbLine
 10
-34.0
 20
0.0
 30
0.0
 11
-34.0
 21
297.0
 31
0.0
  0
LINE
  5
1B0D
330
1F
100
AcDbEntity
  8
GRID
  6
Continuous
100
AcDbLine
 10
-33.0
 20
0.0
 30
0.0
 11
-33.0
 21
297.0
 31
0.0
  0
LINE
  5
1B0E
330
1F
100
AcDbEntity
  8
GRID
  6
Continuous
100
AcDbLine
 10
-32.0
 20
0.0
 30
0.0
 11
-32.0
 21
297.0
 31
0.0
  0
LINE
  5
1B0F
330
1F
100
AcDbEntity
  8
GRID
  6
Continuous
100
AcDbLine
 10
-31.0
 20
0.0
 30
0.0
 11
-31.0
 21
297.0
 31
0.0
  0
LINE
  5
1B10
330
1F
100
AcDbEntity
  8
GRID
  6
Continuous
 62
   250
100
AcDbLine
 10
-50.0
 20
0.0
 30
0.0
 11
-50.0
 21
297.0
 31
0.0
  0
LINE
  5
1B11
330
1F
100
AcDbEntity
  8
GRID
  6
Continuous
100
AcDbLine
 10
-49.0
 20
0.0
 30
0.0
 11
-49.0
 21
297.0
 31
0.0
  0
LINE
  5
1B12
330
1F
100
AcDbEntity
  8
GRID
  6
Continuous
100
AcDbLine
 10
-48.0
 20
0.0
 30
0.0
 11
-48.0
 21
297.0
 31
0.0
  0
LINE
  5
1B13
330
1F
100
AcDbEntity
  8
GRID
  6
Continuous
100
AcDbLine
 10
-47.0
 20
0.0
 30
0.0
 11
-47.0
 21
297.0
 31
0.0
  0
LINE
  5
1B14
330
1F
100
AcDbEntity
  8
GRID
  6
Continuous
100
AcDbLine
 10
-46.0
 20
0.0
 30
0.0
 11
-46.0
 21
297.0
 31
0.0
  0
LINE
  5
1B15
330
1F
100
AcDbEntity
  8
GRID
  6
Continuous
100
AcDbLine
 10
-45.0
 20
0.0
 30
0.0
 11
-45.0
 21
297.0
 31
0.0
  0
LINE
  5
1B16
330
1F
100
AcDbEntity
  8
GRID
  6
Continuous
100
AcDbLine
 10
-44.0
 20
0.0
 30
0.0
 11
-44.0
 21
297.0
 31
0.0
  0
LINE
  5
1B17
330
1F
100
AcDbEntity
  8
GRID
  6
Continuous
100
AcDbLine
 10
-43.0
 20
0.0
 30
0.0
 11
-43.0
 21
297.0
 31
0.0
  0
LINE
  5
1B18
330
1F
100
AcDbEntity
  8
GRID
  6
Continuous
100
AcDbLine
 10
-42.0
 20
0.0
 30
0.0
 11
-42.0
 21
297.0
 31
0.0
  0
LINE
  5
1B19
330
1F
100
AcDbEntity
  8
GRID
  6
Continuous
100
AcDbLine
 10
-41.0
 20
0.0
 30
0.0
 11
-41.0
 21
297.0
 31
0.0
  0
LINE
  5
1B1A
330
1F
100
AcDbEntity
  8
GRID
  6
Continuous
 62
   250
100
AcDbLine
 10
-60.0
 20
0.0
 30
0.0
 11
-60.0
 21
297.0
 31
0.0
  0
LINE
  5
1B1B
330
1F
100
AcDbEntity
  8
GRID
  6
Continuous
100
AcDbLine
 10
-59.0
 20
0.0
 30
0.0
 11
-59.0
 21
297.0
 31
0.0
  0
LINE
  5
1B1C
330
1F
100
AcDbEntity
  8
GRID
  6
Continuous
100
AcDbLine
 10
-58.0
 20
0.0
 30
0.0
 11
-58.0
 21
297.0
 31
0.0
  0
LINE
  5
1B1D
330
1F
100
AcDbEntity
  8
GRID
  6
Continuous
100
AcDbLine
 10
-57.0
 20
0.0
 30
0.0
 11
-57.0
 21
297.0
 31
0.0
  0
LINE
  5
1B1E
330
1F
100
AcDbEntity
  8
GRID
  6
Continuous
100
AcDbLine
 10
-56.0
 20
0.0
 30
0.0
 11
-56.0
 21
297.0
 31
0.0
  0
LINE
  5
1B1F
330
1F
100
AcDbEntity
  8
GRID
  6
Continuous
100
AcDbLine
 10
-55.0
 20
0.0
 30
0.0
 11
-55.0
 21
297.0
 31
0.0
  0
LINE
  5
1B20
330
1F
100
AcDbEntity
  8
GRID
  6
Continuous
100
AcDbLine
 10
-54.0
 20
0.0
 30
0.0
 11
-54.0
 21
297.0
 31
0.0
  0
LINE
  5
1B21
330
1F
100
AcDbEntity
  8
GRID
  6
Continuous
100
AcDbLine
 10
-53.0
 20
0.0
 30
0.0
 11
-53.0
 21
297.0
 31
0.0
  0
LINE
  5
1B22
330
1F
100
AcDbEntity
  8
GRID
  6
Continuous
100
AcDbLine
 10
-52.0
 20
0.0
 30
0.0
 11
-52.0
 21
297.0
 31
0.0
  0
LINE
  5
1B23
330
1F
100
AcDbEntity
  8
GRID
  6
Continuous
100
AcDbLine
 10
-51.0
 20
0.0
 30
0.0
 11
-51.0
 21
297.0
 31
0.0
  0
LINE
  5
1B24
330
1F
100
AcDbEntity
  8
GRID
  6
Continuous
 62
   250
100
AcDbLine
 10
-70.0
 20
0.0
 30
0.0
 11
-70.0
 21
297.0
 31
0.0
  0
LINE
  5
1B25
330
1F
100
AcDbEntity
  8
GRID
  6
Continuous
100
AcDbLine
 10
-69.0
 20
0.0
 30
0.0
 11
-69.0
 21
297.0
 31
0.0
  0
LINE
  5
1B26
330
1F
100
AcDbEntity
  8
GRID
  6
Continuous
100
AcDbLine
 10
-68.0
 20
0.0
 30
0.0
 11
-68.0
 21
297.0
 31
0.0
  0
LINE
  5
1B27
330
1F
100
AcDbEntity
  8
GRID
  6
Continuous
100
AcDbLine
 10
-67.0
 20
0.0
 30
0.0
 11
-67.0
 21
297.0
 31
0.0
  0
LINE
  5
1B28
330
1F
100
AcDbEntity
  8
GRID
  6
Continuous
100
AcDbLine
 10
-66.0
 20
0.0
 30
0.0
 11
-66.0
 21
297.0
 31
0.0
  0
LINE
  5
1B29
330
1F
100
AcDbEntity
  8
GRID
  6
Continuous
100
AcDbLine
 10
-65.0
 20
0.0
 30
0.0
 11
-65.0
 21
297.0
 31
0.0
  0
LINE
  5
1B2A
330
1F
100
AcDbEntity
  8
GRID
  6
Continuous
100
AcDbLine
 10
-64.0
 20
0.0
 30
0.0
 11
-64.0
 21
297.0
 31
0.0
  0
LINE
  5
1B2B
330
1F
100
AcDbEntity
  8
GRID
  6
Continuous
100
AcDbLine
 10
-63.0
 20
0.0
 30
0.0
 11
-63.0
 21
297.0
 31
0.0
  0
LINE
  5
1B2C
330
1F
100
AcDbEntity
  8
GRID
  6
Continuous
100
AcDbLine
 10
-62.0
 20
0.0
 30
0.0
 11
-62.0
 21
297.0
 31
0.0
  0
LINE
  5
1B2D
330
1F
100
AcDbEntity
  8
GRID
  6
Continuous
100
AcDbLine
 10
-61.0
 20
0.0
 30
0.0
 11
-61.0
 21
297.0
 31
0.0
  0
LINE
  5
1B2E
330
1F
100
AcDbEntity
  8
GRID
  6
Continuous
 62
   250
100
AcDbLine
 10
-80.0
 20
0.0
 30
0.0
 11
-80.0
 21
297.0
 31
0.0
  0
LINE
  5
1B2F
330
1F
100
AcDbEntity
  8
GRID
  6
Continuous
100
AcDbLine
 10
-79.0
 20
0.0
 30
0.0
 11
-79.0
 21
297.0
 31
0.0
  0
LINE
  5
1B30
330
1F
100
AcDbEntity
  8
GRID
  6
Continuous
100
AcDbLine
 10
-78.0
 20
0.0
 30
0.0
 11
-78.0
 21
297.0
 31
0.0
  0
LINE
  5
1B31
330
1F
100
AcDbEntity
  8
GRID
  6
Continuous
100
AcDbLine
 10
-77.0
 20
0.0
 30
0.0
 11
-77.0
 21
297.0
 31
0.0
  0
LINE
  5
1B32
330
1F
100
AcDbEntity
  8
GRID
  6
Continuous
100
AcDbLine
 10
-76.0
 20
0.0
 30
0.0
 11
-76.0
 21
297.0
 31
0.0
  0
LINE
  5
1B33
330
1F
100
AcDbEntity
  8
GRID
  6
Continuous
100
AcDbLine
 10
-75.0
 20
0.0
 30
0.0
 11
-75.0
 21
297.0
 31
0.0
  0
LINE
  5
1B34
330
1F
100
AcDbEntity
  8
GRID
  6
Continuous
100
AcDbLine
 10
-74.0
 20
0.0
 30
0.0
 11
-74.0
 21
297.0
 31
0.0
  0
LINE
  5
1B35
330
1F
100
AcDbEntity
  8
GRID
  6
Continuous
100
AcDbLine
 10
-73.0
 20
0.0
 30
0.0
 11
-73.0
 21
297.0
 31
0.0
  0
LINE
  5
1B36
330
1F
100
AcDbEntity
  8
GRID
  6
Continuous
100
AcDbLine
 10
-72.0
 20
0.0
 30
0.0
 11
-72.0
 21
297.0
 31
0.0
  0
LINE
  5
1B37
330
1F
100
AcDbEntity
  8
GRID
  6
Continuous
100
AcDbLine
 10
-71.0
 20
0.0
 30
0.0
 11
-71.0
 21
297.0
 31
0.0
  0
LINE
  5
1B38
330
1F
100
AcDbEntity
  8
GRID
  6
Continuous
 62
   250
100
AcDbLine
 10
-90.0
 20
0.0
 30
0.0
 11
-90.0
 21
297.0
 31
0.0
  0
LINE
  5
1B39
330
1F
100
AcDbEntity
  8
GRID
  6
Continuous
100
AcDbLine
 10
-89.0
 20
0.0
 30
0.0
 11
-89.0
 21
297.0
 31
0.0
  0
LINE
  5
1B3A
330
1F
100
AcDbEntity
  8
GRID
  6
Continuous
100
AcDbLine
 10
-88.0
 20
0.0
 30
0.0
 11
-88.0
 21
297.0
 31
0.0
  0
LINE
  5
1B3B
330
1F
100
AcDbEntity
  8
GRID
  6
Continuous
100
AcDbLine
 10
-87.0
 20
0.0
 30
0.0
 11
-87.0
 21
297.0
 31
0.0
  0
LINE
  5
1B3C
330
1F
100
AcDbEntity
  8
GRID
  6
Continuous
100
AcDbLine
 10
-86.0
 20
0.0
 30
0.0
 11
-86.0
 21
297.0
 31
0.0
  0
LINE
  5
1B3D
330
1F
100
AcDbEntity
  8
GRID
  6
Continuous
100
AcDbLine
 10
-85.0
 20
0.0
 30
0.0
 11
-85.0
 21
297.0
 31
0.0
  0
LINE
  5
1B3E
330
1F
100
AcDbEntity
  8
GRID
  6
Continuous
100
AcDbLine
 10
-84.0
 20
0.0
 30
0.0
 11
-84.0
 21
297.0
 31
0.0
  0
LINE
  5
1B3F
330
1F
100
AcDbEntity
  8
GRID
  6
Continuous
100
AcDbLine
 10
-83.0
 20
0.0
 30
0.0
 11
-83.0
 21
297.0
 31
0.0
  0
LINE
  5
1B40
330
1F
100
AcDbEntity
  8
GRID
  6
Continuous
100
AcDbLine
 10
-82.0
 20
0.0
 30
0.0
 11
-82.0
 21
297.0
 31
0.0
  0
LINE
  5
1B41
330
1F
100
AcDbEntity
  8
GRID
  6
Continuous
100
AcDbLine
 10
-81.0
 20
0.0
 30
0.0
 11
-81.0
 21
297.0
 31
0.0
  0
LINE
  5
1B42
330
1F
100
AcDbEntity
  8
GRID
  6
Continuous
 62
   250
100
AcDbLine
 10
-100.0
 20
0.0
 30
0.0
 11
-100.0
 21
297.0
 31
0.0
  0
LINE
  5
1B43
330
1F
100
AcDbEntity
  8
GRID
  6
Continuous
100
AcDbLine
 10
-99.0
 20
0.0
 30
0.0
 11
-99.0
 21
297.0
 31
0.0
  0
LINE
  5
1B44
330
1F
100
AcDbEntity
  8
GRID
  6
Continuous
100
AcDbLine
 10
-98.0
 20
0.0
 30
0.0
 11
-98.0
 21
297.0
 31
0.0
  0
LINE
  5
1B45
330
1F
100
AcDbEntity
  8
GRID
  6
Continuous
100
AcDbLine
 10
-97.0
 20
0.0
 30
0.0
 11
-97.0
 21
297.0
 31
0.0
  0
LINE
  5
1B46
330
1F
100
AcDbEntity
  8
GRID
  6
Continuous
100
AcDbLine
 10
-96.0
 20
0.0
 30
0.0
 11
-96.0
 21
297.0
 31
0.0
  0
LINE
  5
1B47
330
1F
100
AcDbEntity
  8
GRID
  6
Continuous
100
AcDbLine
 10
-95.0
 20
0.0
 30
0.0
 11
-95.0
 21
297.0
 31
0.0
  0
LINE
  5
1B48
330
1F
100
AcDbEntity
  8
GRID
  6
Continuous
100
AcDbLine
 10
-94.0
 20
0.0
 30
0.0
 11
-94.0
 21
297.0
 31
0.0
  0
LINE
  5
1B49
330
1F
100
AcDbEntity
  8
GRID
  6
Continuous
100
AcDbLine
 10
-93.0
 20
0.0
 30
0.0
 11
-93.0
 21
297.0
 31
0.0
  0
LINE
  5
1B4A
330
1F
100
AcDbEntity
  8
GRID
  6
Continuous
100
AcDbLine
 10
-92.0
 20
0.0
 30
0.0
 11
-92.0
 21
297.0
 31
0.0
  0
LINE
  5
1B4B
330
1F
100
AcDbEntity
  8
GRID
  6
Continuous
100
AcDbLine
 10
-91.0
 20
0.0
 30
0.0
 11
-91.0
 21
297.0
 31
0.0
  0
LINE
  5
1B4C
330
1F
100
AcDbEntity
  8
GRID
  6
Continuous
 62
   250
100
AcDbLine
 10
-110.0
 20
0.0
 30
0.0
 11
-110.0
 21
297.0
 31
0.0
  0
LINE
  5
1B4D
330
1F
100
AcDbEntity
  8
GRID
  6
Continuous
100
AcDbLine
 10
-109.0
 20
0.0
 30
0.0
 11
-109.0
 21
297.0
 31
0.0
  0
LINE
  5
1B4E
330
1F
100
AcDbEntity
  8
GRID
  6
Continuous
100
AcDbLine
 10
-108.0
 20
0.0
 30
0.0
 11
-108.0
 21
297.0
 31
0.0
  0
LINE
  5
1B4F
330
1F
100
AcDbEntity
  8
GRID
  6
Continuous
100
AcDbLine
 10
-107.0
 20
0.0
 30
0.0
 11
-107.0
 21
297.0
 31
0.0
  0
LINE
  5
1B50
330
1F
100
AcDbEntity
  8
GRID
  6
Continuous
100
AcDbLine
 10
-106.0
 20
0.0
 30
0.0
 11
-106.0
 21
297.0
 31
0.0
  0
LINE
  5
1B51
330
1F
100
AcDbEntity
  8
GRID
  6
Continuous
100
AcDbLine
 10
-105.0
 20
0.0
 30
0.0
 11
-105.0
 21
297.0
 31
0.0
  0
LINE
  5
1B52
330
1F
100
AcDbEntity
  8
GRID
  6
Continuous
100
AcDbLine
 10
-104.0
 20
0.0
 30
0.0
 11
-104.0
 21
297.0
 31
0.0
  0
LINE
  5
1B53
330
1F
100
AcDbEntity
  8
GRID
  6
Continuous
100
AcDbLine
 10
-103.0
 20
0.0
 30
0.0
 11
-103.0
 21
297.0
 31
0.0
  0
LINE
  5
1B54
330
1F
100
AcDbEntity
  8
GRID
  6
Continuous
100
AcDbLine
 10
-102.0
 20
0.0
 30
0.0
 11
-102.0
 21
297.0
 31
0.0
  0
LINE
  5
1B55
330
1F
100
AcDbEntity
  8
GRID
  6
Continuous
100
AcDbLine
 10
-101.0
 20
0.0
 30
0.0
 11
-101.0
 21
297.0
 31
0.0
  0
LINE
  5
1B56
330
1F
100
AcDbEntity
  8
GRID
  6
Continuous
 62
   250
100
AcDbLine
 10
-120.0
 20
0.0
 30
0.0
 11
-120.0
 21
297.0
 31
0.0
  0
LINE
  5
1B57
330
1F
100
AcDbEntity
  8
GRID
  6
Continuous
100
AcDbLine
 10
-119.0
 20
0.0
 30
0.0
 11
-119.0
 21
297.0
 31
0.0
  0
LINE
  5
1B58
330
1F
100
AcDbEntity
  8
GRID
  6
Continuous
100
AcDbLine
 10
-118.0
 20
0.0
 30
0.0
 11
-118.0
 21
297.0
 31
0.0
  0
LINE
  5
1B59
330
1F
100
AcDbEntity
  8
GRID
  6
Continuous
100
AcDbLine
 10
-117.0
 20
0.0
 30
0.0
 11
-117.0
 21
297.0
 31
0.0
  0
LINE
  5
1B5A
330
1F
100
AcDbEntity
  8
GRID
  6
Continuous
100
AcDbLine
 10
-116.0
 20
0.0
 30
0.0
 11
-116.0
 21
297.0
 31
0.0
  0
LINE
  5
1B5B
330
1F
100
AcDbEntity
  8
GRID
  6
Continuous
100
AcDbLine
 10
-115.0
 20
0.0
 30
0.0
 11
-115.0
 21
297.0
 31
0.0
  0
LINE
  5
1B5C
330
1F
100
AcDbEntity
  8
GRID
  6
Continuous
100
AcDbLine
 10
-114.0
 20
0.0
 30
0.0
 11
-114.0
 21
297.0
 31
0.0
  0
LINE
  5
1B5D
330
1F
100
AcDbEntity
  8
GRID
  6
Continuous
100
AcDbLine
 10
-113.0
 20
0.0
 30
0.0
 11
-113.0
 21
297.0
 31
0.0
  0
LINE
  5
1B5E
330
1F
100
AcDbEntity
  8
GRID
  6
Continuous
100
AcDbLine
 10
-112.0
 20
0.0
 30
0.0
 11
-112.0
 21
297.0
 31
0.0
  0
LINE
  5
1B5F
330
1F
100
AcDbEntity
  8
GRID
  6
Continuous
100
AcDbLine
 10
-111.0
 20
0.0
 30
0.0
 11
-111.0
 21
297.0
 31
0.0
  0
LINE
  5
1B60
330
1F
100
AcDbEntity
  8
GRID
  6
Continuous
 62
   250
100
AcDbLine
 10
-130.0
 20
0.0
 30
0.0
 11
-130.0
 21
297.0
 31
0.0
  0
LINE
  5
1B61
330
1F
100
AcDbEntity
  8
GRID
  6
Continuous
100
AcDbLine
 10
-129.0
 20
0.0
 30
0.0
 11
-129.0
 21
297.0
 31
0.0
  0
LINE
  5
1B62
330
1F
100
AcDbEntity
  8
GRID
  6
Continuous
100
AcDbLine
 10
-128.0
 20
0.0
 30
0.0
 11
-128.0
 21
297.0
 31
0.0
  0
LINE
  5
1B63
330
1F
100
AcDbEntity
  8
GRID
  6
Continuous
100
AcDbLine
 10
-127.0
 20
0.0
 30
0.0
 11
-127.0
 21
297.0
 31
0.0
  0
LINE
  5
1B64
330
1F
100
AcDbEntity
  8
GRID
  6
Continuous
100
AcDbLine
 10
-126.0
 20
0.0
 30
0.0
 11
-126.0
 21
297.0
 31
0.0
  0
LINE
  5
1B65
330
1F
100
AcDbEntity
  8
GRID
  6
Continuous
100
AcDbLine
 10
-125.0
 20
0.0
 30
0.0
 11
-125.0
 21
297.0
 31
0.0
  0
LINE
  5
1B66
330
1F
100
AcDbEntity
  8
GRID
  6
Continuous
100
AcDbLine
 10
-124.0
 20
0.0
 30
0.0
 11
-124.0
 21
297.0
 31
0.0
  0
LINE
  5
1B67
330
1F
100
AcDbEntity
  8
GRID
  6
Continuous
100
AcDbLine
 10
-123.0
 20
0.0
 30
0.0
 11
-123.0
 21
297.0
 31
0.0
  0
LINE
  5
1B68
330
1F
100
AcDbEntity
  8
GRID
  6
Continuous
100
AcDbLine
 10
-122.0
 20
0.0
 30
0.0
 11
-122.0
 21
297.0
 31
0.0
  0
LINE
  5
1B69
330
1F
100
AcDbEntity
  8
GRID
  6
Continuous
100
AcDbLine
 10
-121.0
 20
0.0
 30
0.0
 11
-121.0
 21
297.0
 31
0.0
  0
LINE
  5
1B6A
330
1F
100
AcDbEntity
  8
GRID
  6
Continuous
 62
   250
100
AcDbLine
 10
-140.0
 20
0.0
 30
0.0
 11
-140.0
 21
297.0
 31
0.0
  0
LINE
  5
1B6B
330
1F
100
AcDbEntity
  8
GRID
  6
Continuous
100
AcDbLine
 10
-139.0
 20
0.0
 30
0.0
 11
-139.0
 21
297.0
 31
0.0
  0
LINE
  5
1B6C
330
1F
100
AcDbEntity
  8
GRID
  6
Continuous
100
AcDbLine
 10
-138.0
 20
0.0
 30
0.0
 11
-138.0
 21
297.0
 31
0.0
  0
LINE
  5
1B6D
330
1F
100
AcDbEntity
  8
GRID
  6
Continuous
100
AcDbLine
 10
-137.0
 20
0.0
 30
0.0
 11
-137.0
 21
297.0
 31
0.0
  0
LINE
  5
1B6E
330
1F
100
AcDbEntity
  8
GRID
  6
Continuous
100
AcDbLine
 10
-136.0
 20
0.0
 30
0.0
 11
-136.0
 21
297.0
 31
0.0
  0
LINE
  5
1B6F
330
1F
100
AcDbEntity
  8
GRID
  6
Continuous
100
AcDbLine
 10
-135.0
 20
0.0
 30
0.0
 11
-135.0
 21
297.0
 31
0.0
  0
LINE
  5
1B70
330
1F
100
AcDbEntity
  8
GRID
  6
Continuous
100
AcDbLine
 10
-134.0
 20
0.0
 30
0.0
 11
-134.0
 21
297.0
 31
0.0
  0
LINE
  5
1B71
330
1F
100
AcDbEntity
  8
GRID
  6
Continuous
100
AcDbLine
 10
-133.0
 20
0.0
 30
0.0
 11
-133.0
 21
297.0
 31
0.0
  0
LINE
  5
1B72
330
1F
100
AcDbEntity
  8
GRID
  6
Continuous
100
AcDbLine
 10
-132.0
 20
0.0
 30
0.0
 11
-132.0
 21
297.0
 31
0.0
  0
LINE
  5
1B73
330
1F
100
AcDbEntity
  8
GRID
  6
Continuous
100
AcDbLine
 10
-131.0
 20
0.0
 30
0.0
 11
-131.0
 21
297.0
 31
0.0
  0
LINE
  5
1B74
330
1F
100
AcDbEntity
  8
GRID
  6
Continuous
 62
   250
100
AcDbLine
 10
-150.0
 20
0.0
 30
0.0
 11
-150.0
 21
297.0
 31
0.0
  0
LINE
  5
1B75
330
1F
100
AcDbEntity
  8
GRID
  6
Continuous
100
AcDbLine
 10
-149.0
 20
0.0
 30
0.0
 11
-149.0
 21
297.0
 31
0.0
  0
LINE
  5
1B76
330
1F
100
AcDbEntity
  8
GRID
  6
Continuous
100
AcDbLine
 10
-148.0
 20
0.0
 30
0.0
 11
-148.0
 21
297.0
 31
0.0
  0
LINE
  5
1B77
330
1F
100
AcDbEntity
  8
GRID
  6
Continuous
100
AcDbLine
 10
-147.0
 20
0.0
 30
0.0
 11
-147.0
 21
297.0
 31
0.0
  0
LINE
  5
1B78
330
1F
100
AcDbEntity
  8
GRID
  6
Continuous
100
AcDbLine
 10
-146.0
 20
0.0
 30
0.0
 11
-146.0
 21
297.0
 31
0.0
  0
LINE
  5
1B79
330
1F
100
AcDbEntity
  8
GRID
  6
Continuous
100
AcDbLine
 10
-145.0
 20
0.0
 30
0.0
 11
-145.0
 21
297.0
 31
0.0
  0
LINE
  5
1B7A
330
1F
100
AcDbEntity
  8
GRID
  6
Continuous
100
AcDbLine
 10
-144.0
 20
0.0
 30
0.0
 11
-144.0
 21
297.0
 31
0.0
  0
LINE
  5
1B7B
330
1F
100
AcDbEntity
  8
GRID
  6
Continuous
100
AcDbLine
 10
-143.0
 20
0.0
 30
0.0
 11
-143.0
 21
297.0
 31
0.0
  0
LINE
  5
1B7C
330
1F
100
AcDbEntity
  8
GRID
  6
Continuous
100
AcDbLine
 10
-142.0
 20
0.0
 30
0.0
 11
-142.0
 21
297.0
 31
0.0
  0
LINE
  5
1B7D
330
1F
100
AcDbEntity
  8
GRID
  6
Continuous
100
AcDbLine
 10
-141.0
 20
0.0
 30
0.0
 11
-141.0
 21
297.0
 31
0.0
  0
LINE
  5
1B7E
330
1F
100
AcDbEntity
  8
GRID
  6
Continuous
 62
   250
100
AcDbLine
 10
-160.0
 20
0.0
 30
0.0
 11
-160.0
 21
297.0
 31
0.0
  0
LINE
  5
1B7F
330
1F
100
AcDbEntity
  8
GRID
  6
Continuous
100
AcDbLine
 10
-159.0
 20
0.0
 30
0.0
 11
-159.0
 21
297.0
 31
0.0
  0
LINE
  5
1B80
330
1F
100
AcDbEntity
  8
GRID
  6
Continuous
100
AcDbLine
 10
-158.0
 20
0.0
 30
0.0
 11
-158.0
 21
297.0
 31
0.0
  0
LINE
  5
1B81
330
1F
100
AcDbEntity
  8
GRID
  6
Continuous
100
AcDbLine
 10
-157.0
 20
0.0
 30
0.0
 11
-157.0
 21
297.0
 31
0.0
  0
LINE
  5
1B82
330
1F
100
AcDbEntity
  8
GRID
  6
Continuous
100
AcDbLine
 10
-156.0
 20
0.0
 30
0.0
 11
-156.0
 21
297.0
 31
0.0
  0
LINE
  5
1B83
330
1F
100
AcDbEntity
  8
GRID
  6
Continuous
100
AcDbLine
 10
-155.0
 20
0.0
 30
0.0
 11
-155.0
 21
297.0
 31
0.0
  0
LINE
  5
1B84
330
1F
100
AcDbEntity
  8
GRID
  6
Continuous
100
AcDbLine
 10
-154.0
 20
0.0
 30
0.0
 11
-154.0
 21
297.0
 31
0.0
  0
LINE
  5
1B85
330
1F
100
AcDbEntity
  8
GRID
  6
Continuous
100
AcDbLine
 10
-153.0
 20
0.0
 30
0.0
 11
-153.0
 21
297.0
 31
0.0
  0
LINE
  5
1B86
330
1F
100
AcDbEntity
  8
GRID
  6
Continuous
100
AcDbLine
 10
-152.0
 20
0.0
 30
0.0
 11
-152.0
 21
297.0
 31
0.0
  0
LINE
  5
1B87
330
1F
100
AcDbEntity
  8
GRID
  6
Continuous
100
AcDbLine
 10
-151.0
 20
0.0
 30
0.0
 11
-151.0
 21
297.0
 31
0.0
  0
LINE
  5
1B88
330
1F
100
AcDbEntity
  8
GRID
  6
Continuous
 62
   250
100
AcDbLine
 10
-170.0
 20
0.0
 30
0.0
 11
-170.0
 21
297.0
 31
0.0
  0
LINE
  5
1B89
330
1F
100
AcDbEntity
  8
GRID
  6
Continuous
100
AcDbLine
 10
-169.0
 20
0.0
 30
0.0
 11
-169.0
 21
297.0
 31
0.0
  0
LINE
  5
1B8A
330
1F
100
AcDbEntity
  8
GRID
  6
Continuous
100
AcDbLine
 10
-168.0
 20
0.0
 30
0.0
 11
-168.0
 21
297.0
 31
0.0
  0
LINE
  5
1B8B
330
1F
100
AcDbEntity
  8
GRID
  6
Continuous
100
AcDbLine
 10
-167.0
 20
0.0
 30
0.0
 11
-167.0
 21
297.0
 31
0.0
  0
LINE
  5
1B8C
330
1F
100
AcDbEntity
  8
GRID
  6
Continuous
100
AcDbLine
 10
-166.0
 20
0.0
 30
0.0
 11
-166.0
 21
297.0
 31
0.0
  0
LINE
  5
1B8D
330
1F
100
AcDbEntity
  8
GRID
  6
Continuous
100
AcDbLine
 10
-165.0
 20
0.0
 30
0.0
 11
-165.0
 21
297.0
 31
0.0
  0
LINE
  5
1B8E
330
1F
100
AcDbEntity
  8
GRID
  6
Continuous
100
AcDbLine
 10
-164.0
 20
0.0
 30
0.0
 11
-164.0
 21
297.0
 31
0.0
  0
LINE
  5
1B8F
330
1F
100
AcDbEntity
  8
GRID
  6
Continuous
100
AcDbLine
 10
-163.0
 20
0.0
 30
0.0
 11
-163.0
 21
297.0
 31
0.0
  0
LINE
  5
1B90
330
1F
100
AcDbEntity
  8
GRID
  6
Continuous
100
AcDbLine
 10
-162.0
 20
0.0
 30
0.0
 11
-162.0
 21
297.0
 31
0.0
  0
LINE
  5
1B91
330
1F
100
AcDbEntity
  8
GRID
  6
Continuous
100
AcDbLine
 10
-161.0
 20
0.0
 30
0.0
 11
-161.0
 21
297.0
 31
0.0
  0
LINE
  5
1B92
330
1F
100
AcDbEntity
  8
GRID
  6
Continuous
 62
   250
100
AcDbLine
 10
-180.0
 20
0.0
 30
0.0
 11
-180.0
 21
297.0
 31
0.0
  0
LINE
  5
1B93
330
1F
100
AcDbEntity
  8
GRID
  6
Continuous
100
AcDbLine
 10
-179.0
 20
0.0
 30
0.0
 11
-179.0
 21
297.0
 31
0.0
  0
LINE
  5
1B94
330
1F
100
AcDbEntity
  8
GRID
  6
Continuous
100
AcDbLine
 10
-178.0
 20
0.0
 30
0.0
 11
-178.0
 21
297.0
 31
0.0
  0
LINE
  5
1B95
330
1F
100
AcDbEntity
  8
GRID
  6
Continuous
100
AcDbLine
 10
-177.0
 20
0.0
 30
0.0
 11
-177.0
 21
297.0
 31
0.0
  0
LINE
  5
1B96
330
1F
100
AcDbEntity
  8
GRID
  6
Continuous
100
AcDbLine
 10
-176.0
 20
0.0
 30
0.0
 11
-176.0
 21
297.0
 31
0.0
  0
LINE
  5
1B97
330
1F
100
AcDbEntity
  8
GRID
  6
Continuous
100
AcDbLine
 10
-175.0
 20
0.0
 30
0.0
 11
-175.0
 21
297.0
 31
0.0
  0
LINE
  5
1B98
330
1F
100
AcDbEntity
  8
GRID
  6
Continuous
100
AcDbLine
 10
-174.0
 20
0.0
 30
0.0
 11
-174.0
 21
297.0
 31
0.0
  0
LINE
  5
1B99
330
1F
100
AcDbEntity
  8
GRID
  6
Continuous
100
AcDbLine
 10
-173.0
 20
0.0
 30
0.0
 11
-173.0
 21
297.0
 31
0.0
  0
LINE
  5
1B9A
330
1F
100
AcDbEntity
  8
GRID
  6
Continuous
100
AcDbLine
 10
-172.0
 20
0.0
 30
0.0
 11
-172.0
 21
297.0
 31
0.0
  0
LINE
  5
1B9B
330
1F
100
AcDbEntity
  8
GRID
  6
Continuous
100
AcDbLine
 10
-171.0
 20
0.0
 30
0.0
 11
-171.0
 21
297.0
 31
0.0
  0
LINE
  5
1B9C
330
1F
100
AcDbEntity
  8
GRID
  6
Continuous
 62
   250
100
AcDbLine
 10
-190.0
 20
0.0
 30
0.0
 11
-190.0
 21
297.0
 31
0.0
  0
LINE
  5
1B9D
330
1F
100
AcDbEntity
  8
GRID
  6
Continuous
100
AcDbLine
 10
-189.0
 20
0.0
 30
0.0
 11
-189.0
 21
297.0
 31
0.0
  0
LINE
  5
1B9E
330
1F
100
AcDbEntity
  8
GRID
  6
Continuous
100
AcDbLine
 10
-188.0
 20
0.0
 30
0.0
 11
-188.0
 21
297.0
 31
0.0
  0
LINE
  5
1B9F
330
1F
100
AcDbEntity
  8
GRID
  6
Continuous
100
AcDbLine
 10
-187.0
 20
0.0
 30
0.0
 11
-187.0
 21
297.0
 31
0.0
  0
LINE
  5
1BA0
330
1F
100
AcDbEntity
  8
GRID
  6
Continuous
100
AcDbLine
 10
-186.0
 20
0.0
 30
0.0
 11
-186.0
 21
297.0
 31
0.0
  0
LINE
  5
1BA1
330
1F
100
AcDbEntity
  8
GRID
  6
Continuous
100
AcDbLine
 10
-185.0
 20
0.0
 30
0.0
 11
-185.0
 21
297.0
 31
0.0
  0
LINE
  5
1BA2
330
1F
100
AcDbEntity
  8
GRID
  6
Continuous
100
AcDbLine
 10
-184.0
 20
0.0
 30
0.0
 11
-184.0
 21
297.0
 31
0.0
  0
LINE
  5
1BA3
330
1F
100
AcDbEntity
  8
GRID
  6
Continuous
100
AcDbLine
 10
-183.0
 20
0.0
 30
0.0
 11
-183.0
 21
297.0
 31
0.0
  0
LINE
  5
1BA4
330
1F
100
AcDbEntity
  8
GRID
  6
Continuous
100
AcDbLine
 10
-182.0
 20
0.0
 30
0.0
 11
-182.0
 21
297.0
 31
0.0
  0
LINE
  5
1BA5
330
1F
100
AcDbEntity
  8
GRID
  6
Continuous
100
AcDbLine
 10
-181.0
 20
0.0
 30
0.0
 11
-181.0
 21
297.0
 31
0.0
  0
LINE
  5
1BA6
330
1F
100
AcDbEntity
  8
GRID
  6
Continuous
 62
   250
100
AcDbLine
 10
-200.0
 20
0.0
 30
0.0
 11
-200.0
 21
297.0
 31
0.0
  0
LINE
  5
1BA7
330
1F
100
AcDbEntity
  8
GRID
  6
Continuous
100
AcDbLine
 10
-199.0
 20
0.0
 30
0.0
 11
-199.0
 21
297.0
 31
0.0
  0
LINE
  5
1BA8
330
1F
100
AcDbEntity
  8
GRID
  6
Continuous
100
AcDbLine
 10
-198.0
 20
0.0
 30
0.0
 11
-198.0
 21
297.0
 31
0.0
  0
LINE
  5
1BA9
330
1F
100
AcDbEntity
  8
GRID
  6
Continuous
100
AcDbLine
 10
-197.0
 20
0.0
 30
0.0
 11
-197.0
 21
297.0
 31
0.0
  0
LINE
  5
1BAA
330
1F
100
AcDbEntity
  8
GRID
  6
Continuous
100
AcDbLine
 10
-196.0
 20
0.0
 30
0.0
 11
-196.0
 21
297.0
 31
0.0
  0
LINE
  5
1BAB
330
1F
100
AcDbEntity
  8
GRID
  6
Continuous
100
AcDbLine
 10
-195.0
 20
0.0
 30
0.0
 11
-195.0
 21
297.0
 31
0.0
  0
LINE
  5
1BAC
330
1F
100
AcDbEntity
  8
GRID
  6
Continuous
100
AcDbLine
 10
-194.0
 20
0.0
 30
0.0
 11
-194.0
 21
297.0
 31
0.0
  0
LINE
  5
1BAD
330
1F
100
AcDbEntity
  8
GRID
  6
Continuous
100
AcDbLine
 10
-193.0
 20
0.0
 30
0.0
 11
-193.0
 21
297.0
 31
0.0
  0
LINE
  5
1BAE
330
1F
100
AcDbEntity
  8
GRID
  6
Continuous
100
AcDbLine
 10
-192.0
 20
0.0
 30
0.0
 11
-192.0
 21
297.0
 31
0.0
  0
LINE
  5
1BAF
330
1F
100
AcDbEntity
  8
GRID
  6
Continuous
100
AcDbLine
 10
-191.0
 20
0.0
 30
0.0
 11
-191.0
 21
297.0
 31
0.0
  0
LINE
  5
1BB1
330
1F
100
AcDbEntity
  8
GRID
  6
Continuous
100
AcDbLine
 10
-209.0
 20
0.0
 30
0.0
 11
-209.0
 21
297.0
 31
0.0
  0
LINE
  5
1BB2
330
1F
100
AcDbEntity
  8
GRID
  6
Continuous
100
AcDbLine
 10
-208.0
 20
0.0
 30
0.0
 11
-208.0
 21
297.0
 31
0.0
  0
LINE
  5
1BB3
330
1F
100
AcDbEntity
  8
GRID
  6
Continuous
100
AcDbLine
 10
-207.0
 20
0.0
 30
0.0
 11
-207.0
 21
297.0
 31
0.0
  0
LINE
  5
1BB4
330
1F
100
AcDbEntity
  8
GRID
  6
Continuous
100
AcDbLine
 10
-206.0
 20
0.0
 30
0.0
 11
-206.0
 21
297.0
 31
0.0
  0
LINE
  5
1BB5
330
1F
100
AcDbEntity
  8
GRID
  6
Continuous
100
AcDbLine
 10
-205.0
 20
0.0
 30
0.0
 11
-205.0
 21
297.0
 31
0.0
  0
LINE
  5
1BB6
330
1F
100
AcDbEntity
  8
GRID
  6
Continuous
100
AcDbLine
 10
-204.0
 20
0.0
 30
0.0
 11
-204.0
 21
297.0
 31
0.0
  0
LINE
  5
1BB7
330
1F
100
AcDbEntity
  8
GRID
  6
Continuous
100
AcDbLine
 10
-203.0
 20
0.0
 30
0.0
 11
-203.0
 21
297.0
 31
0.0
  0
LINE
  5
1BB8
330
1F
100
AcDbEntity
  8
GRID
  6
Continuous
100
AcDbLine
 10
-202.0
 20
0.0
 30
0.0
 11
-202.0
 21
297.0
 31
0.0
  0
LINE
  5
1BB9
330
1F
100
AcDbEntity
  8
GRID
  6
Continuous
100
AcDbLine
 10
-201.0
 20
0.0
 30
0.0
 11
-201.0
 21
297.0
 31
0.0
  0
LINE
  5
1E94
330
1F
100
AcDbEntity
  8
中線
 62
    31
100
AcDbLine
 10
-339.015287288179
 20
199.767766408574
 30
0.0
 11
-339.015287288179
 21
116.767766408574
 31
0.0
  0
LINE
  5
1E95
330
1F
100
AcDbEntity
  8
中線
 62
    31
100
AcDbLine
 10
-268.715287288179
 20
199.767766408574
 30
0.0
 11
-268.715287288179
 21
116.767766408574
 31
0.0
  0
LINE
  5
1E96
330
1F
100
AcDbEntity
  8
中線
 62
    31
100
AcDbLine
 10
-341.865287288179
 20
199.767766408574
 30
0.0
 11
-341.865287288179
 21
116.767766408574
 31
0.0
  0
LINE
  5
1E97
330
1F
100
AcDbEntity
  8
中線
 62
    31
100
AcDbLine
 10
-265.865287288179
 20
116.767766408574
 30
0.0
 11
-265.865287288179
 21
199.767766408574
 31
0.0
  0
LINE
  5
1E98
330
1F
100
AcDbEntity
  8
中線
 62
    31
100
AcDbLine
 10
-341.865287288179
 20
116.767766408574
 30
0.0
 11
-265.865287288179
 21
116.767766408574
 31
0.0
  0
LINE
  5
1E99
330
1F
100
AcDbEntity
  8
中線
 62
    31
100
AcDbLine
 10
-265.865287288179
 20
199.767766408574
 30
0.0
 11
-341.865287288179
 21
199.767766408574
 31
0.0
  0
LINE
  5
1E9E
330
1F
100
AcDbEntity
  8
中線
 62
    31
100
AcDbLine
 10
-230.809307072265
 20
108.267766408574
 30
0.0
 11
-166.809307072265
 21
108.267766408574
 31
0.0
  0
LINE
  5
1E9F
330
1F
100
AcDbEntity
  8
中線
 62
    31
100
AcDbLine
 10
-161.809307072265
 20
113.267766408574
 30
0.0
 11
-161.809307072265
 21
203.267766408574
 31
0.0
  0
LINE
  5
1EA0
330
1F
100
AcDbEntity
  8
中線
 62
    31
100
AcDbLine
 10
-166.809307072265
 20
208.267766408574
 30
0.0
 11
-230.809307072265
 21
208.267766408574
 31
0.0
  0
LINE
  5
1EA1
330
1F
100
AcDbEntity
  8
中線
 62
    31
100
AcDbLine
 10
-235.809307072265
 20
203.267766408574
 30
0.0
 11
-235.809307072265
 21
116.767766408574
 31
0.0
  0
LINE
  5
1EA2
330
1F
100
AcDbEntity
  8
中線
 62
    31
100
AcDbLine
 10
-235.809307072265
 20
116.267766408574
 30
0.0
 11
-235.809307072265
 21
113.267766408574
 31
0.0
  0
LINE
  5
1EA3
330
1F
100
AcDbEntity
  8
中線
 62
    31
100
AcDbLine
 10
-235.809307072265
 20
116.267766408574
 30
0.0
 11
-185.209331486465
 21
116.267766408574
 31
0.0
  0
LINE
  5
1EA4
330
1F
100
AcDbEntity
  8
中線
 62
    31
100
AcDbLine
 10
-234.209331486465
 20
116.267766408574
 30
0.0
 11
-234.209331486465
 21
116.767766408574
 31
0.0
  0
LINE
  5
1EA5
330
1F
100
AcDbEntity
  8
中線
 62
    31
100
AcDbLine
 10
-234.209331486465
 20
199.767766408574
 30
0.0
 11
-234.209331486465
 21
200.267766408574
 31
0.0
  0
LINE
  5
1EA6
330
1F
100
AcDbEntity
  8
中線
 62
    31
100
AcDbLine
 10
-185.209331486465
 20
200.267766408574
 30
0.0
 11
-235.809307072265
 21
200.267766408574
 31
0.0
  0
LINE
  5
1EA7
330
1F
100
AcDbEntity
  8
中線
 62
    31
100
AcDbLine
 10
-179.209331486465
 20
194.267766408574
 30
0.0
 11
-179.209331486465
 21
122.267766408574
 31
0.0
  0
LINE
  5
1EA8
330
1F
100
AcDbEntity
  8
中線
 62
    31
100
AcDbLine
 10
-235.809307072265
 20
116.767766408574
 30
0.0
 11
-184.709331486465
 21
116.767766408574
 31
0.0
  0
LINE
  5
1EA9
330
1F
100
AcDbEntity
  8
中線
 62
    31
100
AcDbLine
 10
-184.709331486465
 20
199.767766408574
 30
0.0
 11
-235.809307072265
 21
199.767766408574
 31
0.0
  0
LINE
  5
1EAA
330
1F
100
AcDbEntity
  8
CENTER
100
AcDbLine
 10
-176.809307072265
 20
110.767766408574
 30
0.0
 11
-176.809307072265
 21
105.767766408574
 31
0.0
  0
LINE
  5
1EAB
330
1F
100
AcDbEntity
  8
CENTER
100
AcDbLine
 10
-196.809307072265
 20
213.267766408574
 30
0.0
 11
-196.809307072265
 21
203.267766408574
 31
0.0
  0
LINE
  5
1EAC
330
1F
100
AcDbEntity
  8
CENTER
100
AcDbLine
 10
-196.809307072265
 20
113.267766408574
 30
0.0
 11
-196.809307072265
 21
103.267766408574
 31
0.0
  0
LINE
  5
1EAD
330
1F
100
AcDbEntity
  8
中線
 62
    31
100
AcDbLine
 10
-179.209331486465
 20
125.267766408574
 30
0.0
 11
-161.809307072265
 21
125.267766408574
 31
0.0
  0
LINE
  5
1EAE
330
1F
100
AcDbEntity
  8
中線
 62
    31
100
AcDbLine
 10
-161.809307072265
 20
191.267766408574
 30
0.0
 11
-179.209331486465
 21
191.267766408574
 31
0.0
  0
LINE
  5
1EAF
330
1F
100
AcDbEntity
  8
中線
 62
    31
100
AcDbLine
 10
-338.865287288179
 20
108.267766408574
 30
0.0
 11
-268.865287288179
 21
108.267766408574
 31
0.0
  0
LINE
  5
1EB0
330
1F
100
AcDbEntity
  8
中線
 62
    31
100
AcDbLine
 10
-263.865287288179
 20
113.267766408574
 30
0.0
 11
-263.865287288179
 21
203.267766408574
 31
0.0
  0
LINE
  5
1EB1
330
1F
100
AcDbEntity
  8
中線
 62
    31
100
AcDbLine
 10
-268.865287288179
 20
208.267766408574
 30
0.0
 11
-338.865287288179
 21
208.267766408574
 31
0.0
  0
LINE
  5
1EB2
330
1F
100
AcDbEntity
  8
中線
 62
    31
100
AcDbLine
 10
-343.865287288179
 20
203.267766408574
 30
0.0
 11
-343.865287288179
 21
113.267766408574
 31
0.0
  0
LINE
  5
1EB3
330
1F
100
AcDbEntity
  8
中線
 62
    31
100
AcDbLine
 10
-263.865287288179
 20
200.267766408574
 30
0.0
 11
-343.865287288179
 21
200.267766408574
 31
0.0
  0
LINE
  5
1EB4
330
1F
100
AcDbEntity
  8
中線
 62
    31
100
AcDbLine
 10
-343.865287288179
 20
116.267766408574
 30
0.0
 11
-263.865287288179
 21
116.267766408574
 31
0.0
  0
LINE
  5
1EB5
330
1F
100
AcDbEntity
  8
中線
 62
    31
100
AcDbLine
 10
-268.865287288179
 20
114.655919484774
 30
0.0
 11
-268.865287288179
 21
109.737645558974
 31
0.0
  0
LINE
  5
1EB6
330
1F
100
AcDbEntity
  8
中線
 62
    31
100
AcDbLine
 10
-338.865287288179
 20
109.537908010174
 30
0.0
 11
-338.865287288179
 21
114.655919484774
 31
0.0
  0
LINE
  5
1EB7
330
1F
100
AcDbEntity
  8
中線
 62
    31
100
AcDbLine
 10
-268.865287288179
 20
206.797887258174
 30
0.0
 11
-268.865287288179
 21
201.879582814774
 31
0.0
  0
LINE
  5
1EB8
330
1F
100
AcDbEntity
  8
中線
 62
    31
100
AcDbLine
 10
-338.865287288179
 20
201.879582814774
 30
0.0
 11
-338.865287288179
 21
206.997594289374
 31
0.0
  0
LINE
  5
1EB9
330
1F
100
AcDbEntity
  8
CENTER
100
AcDbLine
 10
-308.865287288179
 20
120.767766408574
 30
0.0
 11
-298.865287288179
 21
120.767766408574
 31
0.0
  0
LINE
  5
1EBA
330
1F
100
AcDbEntity
  8
中線
100
AcDbLine
 10
-304.961140353979
 20
122.570142881574
 30
0.0
 11
-304.572240262579
 21
122.181242790174
 31
0.0
  0
LINE
  5
1EBB
330
1F
100
AcDbEntity
  8
中線
100
AcDbLine
 10
-305.668247122978
 20
121.863036112374
 30
0.0
 11
-305.279347031779
 21
121.474136020974
 31
0.0
  0
LINE
  5
1EBC
330
1F
100
AcDbEntity
  8
中線
100
AcDbLine
 10
-305.668247122978
 20
119.671065549974
 30
0.0
 11
-305.279347031779
 21
120.059965641374
 31
0.0
  0
LINE
  5
1EBD
330
1F
100
AcDbEntity
  8
中線
100
AcDbLine
 10
-304.961140353979
 20
118.963958780774
 30
0.0
 11
-304.572240262579
 21
119.352858872174
 31
0.0
  0
LINE
  5
1EBE
330
1F
100
AcDbEntity
  8
中線
100
AcDbLine
 10
-302.450963113779
 20
121.474136020974
 30
0.0
 11
-302.062041443179
 21
121.863057691574
 31
0.0
  0
LINE
  5
1EBF
330
1F
100
AcDbEntity
  8
中線
100
AcDbLine
 10
-303.158069882779
 20
122.181242790174
 30
0.0
 11
-302.769148212379
 21
122.570164460574
 31
0.0
  0
LINE
  5
1EC0
330
1F
100
AcDbEntity
  8
中線
100
AcDbLine
 10
-303.158026724379
 20
119.352815713774
 30
0.0
 11
-302.769126633178
 21
118.963915622574
 31
0.0
  0
LINE
  5
1EC1
330
1F
100
AcDbEntity
  8
中線
100
AcDbLine
 10
-302.450919955379
 20
120.059922482974
 30
0.0
 11
-302.062019863978
 21
119.671022391574
 31
0.0
  0
LINE
  5
1EC2
330
1F
100
AcDbEntity
  8
中線
100
AcDbLine
 10
-302.769148212379
 20
122.570121302374
 30
0.0
 11
-302.062041443179
 21
121.863014533174
 31
0.0
  0
LINE
  5
1EC3
330
1F
100
AcDbEntity
  8
中線
100
AcDbLine
 10
-305.668225543779
 20
119.671043970774
 30
0.0
 11
-304.961118774779
 21
118.963937201774
 31
0.0
  0
LINE
  5
1EC4
330
1F
100
AcDbEntity
  8
中線
100
AcDbLine
 10
-305.668268702179
 20
121.863057691574
 30
0.0
 11
-304.961161933179
 21
122.570164460574
 31
0.0
  0
LINE
  5
1EC5
330
1F
100
AcDbEntity
  8
中線
100
AcDbLine
 10
-302.769126633178
 20
118.963915622574
 30
0.0
 11
-302.062019863978
 21
119.671022391574
 31
0.0
  0
LINE
  5
1EC6
330
1F
100
AcDbEntity
  8
CENTER
100
AcDbLine
 10
-308.865287288179
 20
195.767766408574
 30
0.0
 11
-298.865287288179
 21
195.767766408574
 31
0.0
  0
LINE
  5
1EC7
330
1F
100
AcDbEntity
  8
中線
100
AcDbLine
 10
-304.961229367979
 20
197.570111907374
 30
0.0
 11
-304.572329276778
 21
197.181211815974
 31
0.0
  0
LINE
  5
1EC8
330
1F
100
AcDbEntity
  8
中線
100
AcDbLine
 10
-305.668336137179
 20
196.863005138374
 30
0.0
 11
-305.279436045778
 21
196.474105046974
 31
0.0
  0
LINE
  5
1EC9
330
1F
100
AcDbEntity
  8
中線
100
AcDbLine
 10
-305.668314557978
 20
194.671012996574
 30
0.0
 11
-305.279414466579
 21
195.059913087974
 31
0.0
  0
LINE
  5
1ECA
330
1F
100
AcDbEntity
  8
中線
100
AcDbLine
 10
-304.961207788778
 20
193.963906227574
 30
0.0
 11
-304.572307697579
 21
194.352806318974
 31
0.0
  0
LINE
  5
1ECB
330
1F
100
AcDbEntity
  8
中線
100
AcDbLine
 10
-302.450987390379
 20
196.474126626174
 30
0.0
 11
-302.062087298978
 21
196.863026717374
 31
0.0
  0
LINE
  5
1ECC
330
1F
100
AcDbEntity
  8
中線
100
AcDbLine
 10
-303.158094159379
 20
197.181233395174
 30
0.0
 11
-302.769194067979
 21
197.570133486574
 31
0.0
  0
LINE
  5
1ECD
330
1F
100
AcDbEntity
  8
中線
100
AcDbLine
 10
-303.158115738578
 20
194.352784739774
 30
0.0
 11
-302.769194067979
 21
193.963863069174
 31
0.0
  0
LINE
  5
1ECE
330
1F
100
AcDbEntity
  8
中線
100
AcDbLine
 10
-302.451008969578
 20
195.059891508774
 30
0.0
 11
-302.062087298978
 21
194.670969838374
 31
0.0
  0
LINE
  5
1ECF
330
1F
100
AcDbEntity
  8
中線
100
AcDbLine
 10
-302.769194067979
 20
197.570133486574
 30
0.0
 11
-302.062087298978
 21
196.863026717374
 31
0.0
  0
LINE
  5
1ED0
330
1F
100
AcDbEntity
  8
中線
100
AcDbLine
 10
-305.668336137179
 20
194.670991417374
 30
0.0
 11
-304.961229367979
 21
193.963884648374
 31
0.0
  0
LINE
  5
1ED1
330
1F
100
AcDbEntity
  8
中線
100
AcDbLine
 10
-305.668314557978
 20
196.863026717374
 30
0.0
 11
-304.961207788778
 21
197.570133486574
 31
0.0
  0
LINE
  5
1ED2
330
1F
100
AcDbEntity
  8
中線
100
AcDbLine
 10
-302.769194067979
 20
193.963906227574
 30
0.0
 11
-302.062087298978
 21
194.671012996574
 31
0.0
  0
LINE
  5
1ED3
330
1F
100
AcDbEntity
  8
中線
100
AcDbLine
 10
-180.309307072265
 20
210.067754201574
 30
0.0
 11
-180.309307072265
 21
211.046788625374
 31
0.0
  0
LINE
  5
1ED4
330
1F
100
AcDbEntity
  8
中線
100
AcDbLine
 10
-173.309307072265
 20
211.046758107774
 30
0.0
 11
-173.309307072265
 21
210.067754201574
 31
0.0
  0
LINE
  5
1ED5
330
1F
100
AcDbEntity
  8
CENTER
100
AcDbLine
 10
-176.809307072265
 20
215.067754201574
 30
0.0
 11
-176.809307072265
 21
205.067754201574
 31
0.0
  0
LINE
  5
1ED6
330
1F
100
AcDbEntity
  8
中線
100
AcDbLine
 10
-180.609294865265
 20
209.067754201574
 30
0.0
 11
-180.609294865265
 21
210.067754201574
 31
0.0
  0
LINE
  5
1ED7
330
1F
100
AcDbEntity
  8
中線
100
AcDbLine
 10
-180.609294865265
 20
210.067754201574
 30
0.0
 11
-173.009319279465
 21
210.067754201574
 31
0.0
  0
LINE
  5
1ED8
330
1F
100
AcDbEntity
  8
中線
100
AcDbLine
 10
-173.009319279465
 20
210.067754201574
 30
0.0
 11
-173.009319279465
 21
209.067754201574
 31
0.0
  0
LINE
  5
1ED9
330
1F
100
AcDbEntity
  8
中線
100
AcDbLine
 10
-180.809307072265
 20
208.267766408574
 30
0.0
 11
-180.809307072265
 21
209.067754201574
 31
0.0
  0
LINE
  5
1EDA
330
1F
100
AcDbEntity
  8
中線
100
AcDbLine
 10
-180.809307072265
 20
209.067754201574
 30
0.0
 11
-172.809307072265
 21
209.067754201574
 31
0.0
  0
LINE
  5
1EDB
330
1F
100
AcDbEntity
  8
中線
100
AcDbLine
 10
-172.809307072265
 20
209.067754201574
 30
0.0
 11
-172.809307072265
 21
208.267766408574
 31
0.0
  0
LINE
  5
1EDC
330
1F
100
AcDbEntity
  8
中線
100
AcDbLine
 10
-173.309825871265
 20
105.967656545374
 30
0.0
 11
-173.309825871265
 21
104.988622121374
 31
0.0
  0
LINE
  5
1EDD
330
1F
100
AcDbEntity
  8
中線
100
AcDbLine
 10
-180.309825871265
 20
104.988622121374
 30
0.0
 11
-180.309825871265
 21
105.967656545374
 31
0.0
  0
LINE
  5
1EDE
330
1F
100
AcDbEntity
  8
CENTER
100
AcDbLine
 10
-176.809825871265
 20
100.967656545374
 30
0.0
 11
-176.809825871265
 21
110.967656545374
 31
0.0
  0
LINE
  5
1EDF
330
1F
100
AcDbEntity
  8
中線
100
AcDbLine
 10
-173.009838078265
 20
106.967656545374
 30
0.0
 11
-173.009838078265
 21
105.967656545374
 31
0.0
  0
LINE
  5
1EE0
330
1F
100
AcDbEntity
  8
中線
100
AcDbLine
 10
-173.009838078265
 20
105.967656545374
 30
0.0
 11
-180.609813664065
 21
105.967656545374
 31
0.0
  0
LINE
  5
1EE1
330
1F
100
AcDbEntity
  8
中線
100
AcDbLine
 10
-180.609813664065
 20
105.967656545374
 30
0.0
 11
-180.609813664065
 21
106.967656545374
 31
0.0
  0
LINE
  5
1EE2
330
1F
100
AcDbEntity
  8
中線
100
AcDbLine
 10
-172.809825871265
 20
107.767644338174
 30
0.0
 11
-172.809825871265
 21
106.967656545374
 31
0.0
  0
LINE
  5
1EE3
330
1F
100
AcDbEntity
  8
中線
100
AcDbLine
 10
-172.809825871265
 20
106.967656545374
 30
0.0
 11
-180.809825871265
 21
106.967656545374
 31
0.0
  0
LINE
  5
1EE4
330
1F
100
AcDbEntity
  8
中線
100
AcDbLine
 10
-180.809825871265
 20
106.967656545374
 30
0.0
 11
-180.809825871265
 21
107.767644338174
 31
0.0
  0
LINE
  5
1EE5
330
1F
100
AcDbEntity
  8
中線
100
AcDbLine
 10
-181.309307072265
 20
108.267766408574
 30
0.0
 11
-181.309307072265
 21
107.767766408574
 31
0.0
  0
LINE
  5
1EE6
330
1F
100
AcDbEntity
  8
中線
100
AcDbLine
 10
-181.309307072265
 20
107.767766408574
 30
0.0
 11
-172.309307072265
 21
107.767766408574
 31
0.0
  0
LINE
  5
1EE7
330
1F
100
AcDbEntity
  8
中線
100
AcDbLine
 10
-172.309307072265
 20
107.767766408574
 30
0.0
 11
-172.309307072265
 21
108.267766408574
 31
0.0
  0
LINE
  5
1EE8
330
1F
100
AcDbEntity
  8
中線
100
AcDbLine
 10
-332.365287288179
 20
210.067754201574
 30
0.0
 11
-332.365287288179
 21
211.046788625374
 31
0.0
  0
LINE
  5
1EE9
330
1F
100
AcDbEntity
  8
中線
100
AcDbLine
 10
-325.365287288179
 20
211.046758107774
 30
0.0
 11
-325.365287288179
 21
210.067754201574
 31
0.0
  0
LINE
  5
1EEA
330
1F
100
AcDbEntity
  8
CENTER
100
AcDbLine
 10
-328.865287288179
 20
215.067754201574
 30
0.0
 11
-328.865287288179
 21
205.067754201574
 31
0.0
  0
LINE
  5
1EEB
330
1F
100
AcDbEntity
  8
中線
100
AcDbLine
 10
-332.665275081179
 20
209.067754201574
 30
0.0
 11
-332.665275081179
 21
210.067754201574
 31
0.0
  0
LINE
  5
1EEC
330
1F
100
AcDbEntity
  8
中線
100
AcDbLine
 10
-332.665275081179
 20
210.067754201574
 30
0.0
 11
-325.065268977578
 21
210.067754201574
 31
0.0
  0
LINE
  5
1EED
330
1F
100
AcDbEntity
  8
中線
100
AcDbLine
 10
-325.065268977578
 20
210.067754201574
 30
0.0
 11
-325.065268977578
 21
209.067754201574
 31
0.0
  0
LINE
  5
1EEE
330
1F
100
AcDbEntity
  8
中線
100
AcDbLine
 10
-332.865287288179
 20
208.267766408574
 30
0.0
 11
-332.865287288179
 21
209.067754201574
 31
0.0
  0
LINE
  5
1EEF
330
1F
100
AcDbEntity
  8
中線
100
AcDbLine
 10
-332.865287288179
 20
209.067754201574
 30
0.0
 11
-324.865287288179
 21
209.067754201574
 31
0.0
  0
LINE
  5
1EF0
330
1F
100
AcDbEntity
  8
中線
100
AcDbLine
 10
-324.865287288179
 20
209.067754201574
 30
0.0
 11
-324.865287288179
 21
208.267766408574
 31
0.0
  0
LINE
  5
1EF1
330
1F
100
AcDbEntity
  8
中線
100
AcDbLine
 10
-235.809398625065
 20
192.267613820774
 30
0.0
 11
-236.788433048865
 21
192.267613820774
 31
0.0
  0
LINE
  5
1EF2
330
1F
100
AcDbEntity
  8
中線
100
AcDbLine
 10
-236.788402531265
 20
199.267583303174
 30
0.0
 11
-235.809398625065
 21
199.267583303174
 31
0.0
  0
LINE
  5
1EF3
330
1F
100
AcDbEntity
  8
CENTER
100
AcDbLine
 10
-240.809398625066
 20
195.767613820774
 30
0.0
 11
-230.809429142665
 21
195.767613820774
 31
0.0
  0
LINE
  5
1EF4
330
1F
100
AcDbEntity
  8
中線
100
AcDbLine
 10
-275.065207942378
 20
106.967595510174
 30
0.0
 11
-275.065207942378
 21
105.967595510174
 31
0.0
  0
LINE
  5
1EF5
330
1F
100
AcDbEntity
  8
中線
100
AcDbLine
 10
-275.065207942378
 20
105.967595510174
 30
0.0
 11
-282.665214045979
 21
105.967595510174
 31
0.0
  0
LINE
  5
1EF6
330
1F
100
AcDbEntity
  8
中線
100
AcDbLine
 10
-282.665214045979
 20
105.967595510174
 30
0.0
 11
-282.665214045979
 21
106.967595510174
 31
0.0
  0
LINE
  5
1EF7
330
1F
100
AcDbEntity
  8
中線
100
AcDbLine
 10
-274.865195735379
 20
107.767613820774
 30
0.0
 11
-274.865195735379
 21
106.967595510174
 31
0.0
  0
LINE
  5
1EF8
330
1F
100
AcDbEntity
  8
中線
100
AcDbLine
 10
-274.865195735379
 20
106.967595510174
 30
0.0
 11
-282.865195735379
 21
106.967595510174
 31
0.0
  0
LINE
  5
1EF9
330
1F
100
AcDbEntity
  8
中線
100
AcDbLine
 10
-282.865195735379
 20
106.967595510174
 30
0.0
 11
-282.865195735379
 21
107.767613820774
 31
0.0
  0
LINE
  5
1EFA
330
1F
100
AcDbEntity
  8
中線
100
AcDbLine
 10
-283.364677202378
 20
108.267140978774
 30
0.0
 11
-283.364692461179
 21
107.767140978774
 31
0.0
  0
LINE
  5
1EFB
330
1F
100
AcDbEntity
  8
中線
100
AcDbLine
 10
-283.365287288179
 20
107.767766408574
 30
0.0
 11
-274.365287288179
 21
107.767766408574
 31
0.0
  0
LINE
  5
1EFC
330
1F
100
AcDbEntity
  8
中線
100
AcDbLine
 10
-274.364677193979
 20
108.267140978974
 30
0.0
 11
-274.364692452778
 21
107.767140978974
 31
0.0
  0
LINE
  5
1EFD
330
1F
100
AcDbEntity
  8
中線
100
AcDbLine
 10
-275.365195735379
 20
105.967595510174
 30
0.0
 11
-275.365195735379
 21
104.988561086374
 31
0.0
  0
LINE
  5
1EFE
330
1F
100
AcDbEntity
  8
中線
100
AcDbLine
 10
-282.365195735379
 20
104.988591603974
 30
0.0
 11
-282.365195735379
 21
105.967595510174
 31
0.0
  0
LINE
  5
1EFF
330
1F
100
AcDbEntity
  8
CENTER
100
AcDbLine
 10
-278.865195735379
 20
100.967595510174
 30
0.0
 11
-278.865195735379
 21
110.967595510174
 31
0.0
  0
LINE
  5
1F00
330
1F
100
AcDbEntity
  8
中線
100
AcDbLine
 10
-235.809398625065
 20
117.267644338174
 30
0.0
 11
-236.788433048865
 21
117.267644338174
 31
0.0
  0
LINE
  5
1F01
330
1F
100
AcDbEntity
  8
中線
100
AcDbLine
 10
-236.788402531265
 20
124.267644338174
 30
0.0
 11
-235.809398625065
 21
124.267644338174
 31
0.0
  0
LINE
  5
1F02
330
1F
100
AcDbEntity
  8
CENTER
100
AcDbLine
 10
-240.809398625066
 20
120.767644338174
 30
0.0
 11
-230.809490177865
 21
120.767644338174
 31
0.0
  0
LINE
  5
1F04
330
1F
100
AcDbEntity
  8
CENTER
100
AcDbLine
 10
-303.865287288179
 20
215.406450246374
 30
0.0
 11
-303.865287288179
 21
98.760320119574
 31
0.0
  0
LINE
  5
1F07
330
1F
100
AcDbEntity
  8
HIDDEN
100
AcDbLine
 10
-319.865287288179
 20
127.267766408574
 30
0.0
 11
-287.865287288179
 21
127.267766408574
 31
0.0
  0
LINE
  5
1F08
330
1F
100
AcDbEntity
  8
HIDDEN
100
AcDbLine
 10
-284.865287288179
 20
130.267766408574
 30
0.0
 11
-284.865287288179
 21
136.267766408574
 31
0.0
  0
LINE
  5
1F09
330
1F
100
AcDbEntity
  8
HIDDEN
100
AcDbLine
 10
-322.865287288179
 20
130.267766408574
 30
0.0
 11
-322.865287288179
 21
136.267766408574
 31
0.0
  0
LINE
  5
1F0A
330
1F
100
AcDbEntity
  8
HIDDEN
100
AcDbLine
 10
-287.865287288179
 20
139.267766408574
 30
0.0
 11
-319.865287288179
 21
139.267766408574
 31
0.0
  0
ARC
  5
1F0B
330
1F
100
AcDbEntity
  8
中線
 62
    31
100
AcDbCircle
 10
-185.209331486465
 20
194.267766408574
 30
0.0
 40
6.0
100
AcDbArc
 50
0.0
 51
89.9999820139
  0
ARC
  5
1F0C
330
1F
100
AcDbEntity
  8
中線
 62
    31
100
AcDbCircle
 10
-185.209331486465
 20
122.267766408574
 30
0.0
 40
6.0
100
AcDbArc
 50
270.0000179861
 51
0.0
  0
ARC
  5
1F0D
330
1F
100
AcDbEntity
  8
中線
100
AcDbCircle
 10
-164.809307072265
 20
198.267766408574
 30
0.0
 40
5.0
100
AcDbArc
 50
306.8698982202
 51
53.1301017798
  0
ARC
  5
1F0E
330
1F
100
AcDbEntity
  8
中線
100
AcDbCircle
 10
-164.809307072265
 20
118.267766408574
 30
0.0
 40
5.0
100
AcDbArc
 50
306.8698982202
 51
53.1301017798
  0
ARC
  5
1F0F
330
1F
100
AcDbEntity
  8
中線
 62
    31
100
AcDbCircle
 10
-166.809307072265
 20
203.267766408574
 30
0.0
 40
5.0
100
AcDbArc
 50
0.0
 51
89.9999820139
  0
ARC
  5
1F10
330
1F
100
AcDbEntity
  8
中線
 62
    31
100
AcDbCircle
 10
-166.809307072265
 20
113.267766408574
 30
0.0
 40
5.0
100
AcDbArc
 50
270.0000179861
 51
0.0
  0
ARC
  5
1F11
330
1F
100
AcDbEntity
  8
中線
 62
    31
100
AcDbCircle
 10
-230.809307072265
 20
203.267766408574
 30
0.0
 40
5.0
100
AcDbArc
 50
89.9999820139
 51
179.9999640278
  0
ARC
  5
1F12
330
1F
100
AcDbEntity
  8
中線
 62
    31
100
AcDbCircle
 10
-230.809307072265
 20
113.267766408574
 30
0.0
 40
5.0
100
AcDbArc
 50
179.9999640278
 51
270.0000006832
  0
ARC
  5
1F13
330
1F
100
AcDbEntity
  8
中線
 62
    31
100
AcDbCircle
 10
-184.709331486465
 20
194.267766408574
 30
0.0
 40
5.5
100
AcDbArc
 50
0.0
 51
89.9999820139
  0
ARC
  5
1F14
330
1F
100
AcDbEntity
  8
中線
 62
    31
100
AcDbCircle
 10
-184.709331486465
 20
122.267766408574
 30
0.0
 40
5.5
100
AcDbArc
 50
270.0000179861
 51
0.0
  0
ARC
  5
1F15
330
1F
100
AcDbEntity
  8
中線
 62
    31
100
AcDbCircle
 10
-268.865287288179
 20
203.267766408574
 30
0.0
 40
5.0
100
AcDbArc
 50
0.0
 51
89.9999820139
  0
ARC
  5
1F16
330
1F
100
AcDbEntity
  8
中線
 62
    31
100
AcDbCircle
 10
-338.865287288179
 20
203.267766408574
 30
0.0
 40
5.0
100
AcDbArc
 50
89.9999820139
 51
179.9999640278
  0
ARC
  5
1F17
330
1F
100
AcDbEntity
  8
中線
 62
    31
100
AcDbCircle
 10
-338.865287288179
 20
113.267766408574
 30
0.0
 40
5.0
100
AcDbArc
 50
179.9999640278
 51
270.0000006832
  0
ARC
  5
1F18
330
1F
100
AcDbEntity
  8
中線
 62
    31
100
AcDbCircle
 10
-268.865287288179
 20
113.267766408574
 30
0.0
 40
5.0
100
AcDbArc
 50
270.0000179861
 51
0.0
  0
CIRCLE
  5
1F19
330
1F
100
AcDbEntity
  8
中線
100
AcDbCircle
 10
-303.865287288179
 20
120.767766408574
 30
0.0
 40
3.5
  0
ARC
  5
1F1A
330
1F
100
AcDbEntity
  8
中線
100
AcDbCircle
 10
-303.865256770578
 20
118.646428517974
 30
0.0
 40
1.0
100
AcDbArc
 50
44.999796346602
 51
134.999727134098
  0
ARC
  5
1F1B
330
1F
100
AcDbEntity
  8
中線
100
AcDbCircle
 10
-305.986594661178
 20
120.767766408574
 30
0.0
 40
1.0
100
AcDbArc
 50
315.000142181702
 51
44.999861233401
  0
ARC
  5
1F1C
330
1F
100
AcDbEntity
  8
中線
100
AcDbCircle
 10
-303.865256770578
 20
122.889073781574
 30
0.0
 40
1.0
100
AcDbArc
 50
225.000218224399
 51
315.000248049698
  0
ARC
  5
1F1D
330
1F
100
AcDbEntity
  8
中線
100
AcDbCircle
 10
-301.743949397579
 20
120.767766408574
 30
0.0
 40
1.0
100
AcDbArc
 50
134.999672492499
 51
225.000310204601
  0
CIRCLE
  5
1F1E
330
1F
100
AcDbEntity
  8
中線
100
AcDbCircle
 10
-303.865287288179
 20
195.767766408574
 30
0.0
 40
3.5
  0
ARC
  5
1F1F
330
1F
100
AcDbEntity
  8
中線
100
AcDbCircle
 10
-303.865256770578
 20
193.646428517974
 30
0.0
 40
1.0
100
AcDbArc
 50
44.9997963466
 51
134.999727134097
  0
ARC
  5
1F20
330
1F
100
AcDbEntity
  8
中線
100
AcDbCircle
 10
-305.986594661178
 20
195.767735890974
 30
0.0
 40
1.0
100
AcDbArc
 50
315.000142181702
 51
44.999861233405
  0
ARC
  5
1F21
330
1F
100
AcDbEntity
  8
中線
100
AcDbCircle
 10
-303.865256770578
 20
197.889073781574
 30
0.0
 40
1.0
100
AcDbArc
 50
225.000218224398
 51
315.000248049698
  0
ARC
  5
1F22
330
1F
100
AcDbEntity
  8
中線
100
AcDbCircle
 10
-301.743949397579
 20
195.767735890974
 30
0.0
 40
1.0
100
AcDbArc
 50
134.999672492499
 51
225.000310204601
  0
ARC
  5
1F23
330
1F
100
AcDbEntity
  8
中線
100
AcDbCircle
 10
-176.809307072265
 20
203.667760304974
 30
0.0
 40
9.0
100
AcDbArc
 50
73.3983056512
 51
106.6014944521
  0
ARC
  5
1F24
330
1F
100
AcDbEntity
  8
中線
100
AcDbCircle
 10
-179.009319279465
 20
211.046788625374
 30
0.0
 40
1.299999237
100
AcDbArc
 50
106.601494452099
 51
180.0000186693
  0
ARC
  5
1F25
330
1F
100
AcDbEntity
  8
中線
100
AcDbCircle
 10
-174.609294865265
 20
211.046758107774
 30
0.0
 40
1.299999237
100
AcDbArc
 50
0.0
 51
73.398305651201
  0
ARC
  5
1F26
330
1F
100
AcDbEntity
  8
中線
100
AcDbCircle
 10
-176.809307072265
 20
112.367741994574
 30
0.0
 40
9.0
100
AcDbArc
 50
253.3983416234
 51
286.6015304242
  0
ARC
  5
1F27
330
1F
100
AcDbEntity
  8
中線
100
AcDbCircle
 10
-174.609325382865
 20
104.988713674174
 30
0.0
 40
1.299999237
100
AcDbArc
 50
286.601530424202
 51
0.0
  0
ARC
  5
1F28
330
1F
100
AcDbEntity
  8
中線
100
AcDbCircle
 10
-179.009319279465
 20
104.988744191774
 30
0.0
 40
1.299999237
100
AcDbArc
 50
179.9999640278
 51
253.398269679
  0
ARC
  5
1F29
330
1F
100
AcDbEntity
  8
中線
100
AcDbCircle
 10
-328.865287288179
 20
203.667760304974
 30
0.0
 40
9.0
100
AcDbArc
 50
73.3983056512
 51
106.6014944521
  0
ARC
  5
1F2A
330
1F
100
AcDbEntity
  8
中線
100
AcDbCircle
 10
-331.065268977578
 20
211.046788625374
 30
0.0
 40
1.299999237
100
AcDbArc
 50
106.601494452099
 51
180.0000186693
  0
ARC
  5
1F2B
330
1F
100
AcDbEntity
  8
中線
100
AcDbCircle
 10
-326.665275081179
 20
211.046758107774
 30
0.0
 40
1.299999237
100
AcDbArc
 50
0.0
 51
73.398305651201
  0
ARC
  5
1F2C
330
1F
100
AcDbEntity
  8
中線
100
AcDbCircle
 10
-229.409343693465
 20
195.767735890974
 30
0.0
 40
9.0
100
AcDbArc
 50
163.3982876651
 51
196.601476466
  0
ARC
  5
1F2D
330
1F
100
AcDbEntity
  8
中線
100
AcDbCircle
 10
-236.788372013665
 20
193.567784719174
 30
0.0
 40
1.299999237
100
AcDbArc
 50
196.601548410299
 51
270.000017986101
  0
ARC
  5
1F2E
330
1F
100
AcDbEntity
  8
中線
100
AcDbCircle
 10
-236.788341496265
 20
197.967778615574
 30
0.0
 40
1.299999237
100
AcDbArc
 50
89.999982013899
 51
163.3982330236
  0
ARC
  5
1F2F
330
1F
100
AcDbEntity
  8
中線
100
AcDbCircle
 10
-278.865256770578
 20
112.367741994574
 30
0.0
 40
9.0
100
AcDbArc
 50
253.3983416234
 51
286.6015304242
  0
ARC
  5
1F30
330
1F
100
AcDbEntity
  8
中線
100
AcDbCircle
 10
-276.665275081178
 20
104.988713674174
 30
0.0
 40
1.299999237
100
AcDbArc
 50
286.601530424199
 51
0.0
  0
ARC
  5
1F31
330
1F
100
AcDbEntity
  8
中線
100
AcDbCircle
 10
-281.065299495179
 20
104.988744191774
 30
0.0
 40
1.299999237
100
AcDbArc
 50
179.9999640278
 51
253.398269679004
  0
ARC
  5
1F32
330
1F
100
AcDbEntity
  8
中線
100
AcDbCircle
 10
-229.409343693465
 20
120.767735890974
 30
0.0
 40
9.0
100
AcDbArc
 50
163.3982876651
 51
196.601476466
  0
ARC
  5
1F33
330
1F
100
AcDbEntity
  8
中線
100
AcDbCircle
 10
-236.788372013665
 20
118.567784719174
 30
0.0
 40
1.299999237
100
AcDbArc
 50
196.601548410299
 51
270.000017986101
  0
ARC
  5
1F34
330
1F
100
AcDbEntity
  8
中線
100
AcDbCircle
 10
-236.788341496265
 20
122.967778615574
 30
0.0
 40
1.299999237
100
AcDbArc
 50
89.999982013899
 51
163.3982330236
  0
ARC
  5
1F35
330
1F
100
AcDbEntity
  8
HIDDEN
100
AcDbCircle
 10
-319.865287288179
 20
136.267766408574
 30
0.0
 40
3.0
100
AcDbArc
 50
89.999982013899
 51
179.9999640278
  0
ARC
  5
1F36
330
1F
100
AcDbEntity
  8
HIDDEN
100
AcDbCircle
 10
-319.865287288179
 20
130.267766408574
 30
0.0
 40
3.0
100
AcDbArc
 50
179.9999640278
 51
270.0000006832
  0
ARC
  5
1F37
330
1F
100
AcDbEntity
  8
HIDDEN
100
AcDbCircle
 10
-287.865287288179
 20
130.267766408574
 30
0.0
 40
3.0
100
AcDbArc
 50
270.000017986101
 51
0.0
  0
ARC
  5
1F38
330
1F
100
AcDbEntity
  8
HIDDEN
100
AcDbCircle
 10
-287.865287288179
 20
136.267766408574
 30
0.0
 40
3.0
100
AcDbArc
 50
0.0
 51
89.999982013899
  0
LINE
  5
1F3D
330
1F
100
AcDbEntity
  8
CENTER
100
AcDbLine
 10
-81.788440587847
 20
204.267766378574
 30
0.0
 11
-81.788440587847
 21
192.267766438574
 31
0.0
  0
LINE
  5
1F3E
330
1F
100
AcDbEntity
  8
CENTER
100
AcDbLine
 10
-87.788440557847
 20
198.267766408574
 30
0.0
 11
-75.788440618047
 21
198.267766408574
 31
0.0
  0
LINE
  5
1F3F
330
1F
100
AcDbEntity
  8
CENTER
100
AcDbLine
 10
-25.788440618047
 20
198.267766408574
 30
0.0
 11
-37.788440557847
 21
198.267766408574
 31
0.0
  0
LINE
  5
1F40
330
1F
100
AcDbEntity
  8
CENTER
100
AcDbLine
 10
-31.788440587847
 20
204.267766378574
 30
0.0
 11
-31.788440587847
 21
192.267766438574
 31
0.0
  0
LINE
  5
1F41
330
1F
100
AcDbEntity
  8
CENTER
100
AcDbLine
 10
-31.788440587847
 20
112.267766438574
 30
0.0
 11
-31.788440587847
 21
124.267766378574
 31
0.0
  0
LINE
  5
1F42
330
1F
100
AcDbEntity
  8
CENTER
100
AcDbLine
 10
-25.788440618047
 20
118.267766408574
 30
0.0
 11
-37.788440557847
 21
118.267766408574
 31
0.0
  0
LINE
  5
1F43
330
1F
100
AcDbEntity
  8
CENTER
100
AcDbLine
 10
-87.788440557847
 20
118.267766408574
 30
0.0
 11
-75.788440618047
 21
118.267766408574
 31
0.0
  0
LINE
  5
1F44
330
1F
100
AcDbEntity
  8
CENTER
100
AcDbLine
 10
-81.788440587847
 20
112.267766438574
 30
0.0
 11
-81.788440587847
 21
124.267766378574
 31
0.0
  0
LINE
  5
1F45
330
1F
100
AcDbEntity
  8
中線
100
AcDbLine
 10
-16.788440587847
 20
124.267766408574
 30
0.0
 11
-96.788440587847
 21
124.267766408574
 31
0.0
  0
LINE
  5
1F46
330
1F
100
AcDbEntity
  8
中線
100
AcDbLine
 10
-96.788440587847
 20
192.267766408574
 30
0.0
 11
-16.788440587847
 21
192.267766408574
 31
0.0
  0
LINE
  5
1F48
330
1F
100
AcDbEntity
  8
CENTER
100
AcDbLine
 10
-101.607916690447
 20
158.267766408574
 30
0.0
 11
-10.893630976247
 21
158.267766408574
 31
0.0
  0
CIRCLE
  5
1F49
330
1F
100
AcDbEntity
  8
中線
100
AcDbCircle
 10
-31.788440587847
 20
118.267766408574
 30
0.0
 40
3.99999997
  0
CIRCLE
  5
1F4A
330
1F
100
AcDbEntity
  8
中線
100
AcDbCircle
 10
-81.788440587847
 20
118.267766408574
 30
0.0
 40
3.99999997
  0
CIRCLE
  5
1F4B
330
1F
100
AcDbEntity
  8
中線
100
AcDbCircle
 10
-81.788440587847
 20
198.267766408574
 30
0.0
 40
3.99999997
  0
CIRCLE
  5
1F4C
330
1F
100
AcDbEntity
  8
中線
100
AcDbCircle
 10
-31.788440587847
 20
198.267766408574
 30
0.0
 40
3.99999997
  0
LINE
  5
1F4D
330
1F
100
AcDbEntity
  8
CENTER
100
AcDbLine
 10
-60.688440587847
 20
133.267766408574
 30
0.0
 11
-52.888440587847
 21
133.267766408574
 31
0.0
  0
LINE
  5
1F4E
330
1F
100
AcDbEntity
  8
CENTER
100
AcDbLine
 10
-60.688440587847
 20
183.267766408574
 30
0.0
 11
-52.888440587847
 21
183.267766408574
 31
0.0
  0
LINE
  5
1F4F
330
1F
100
AcDbEntity
  8
中線
100
AcDbLine
 10
-54.288440587847
 20
134.767766408574
 30
0.0
 11
-54.288440587847
 21
131.767766408574
 31
0.0
  0
LINE
  5
1F50
330
1F
100
AcDbEntity
  8
中線
100
AcDbLine
 10
-59.288440587847
 20
134.767766408574
 30
0.0
 11
-59.288440587847
 21
131.767766408574
 31
0.0
  0
ARC
  5
1F51
330
1F
100
AcDbEntity
  8
中線
100
AcDbCircle
 10
-56.788440587847
 20
134.767766408574
 30
0.0
 40
2.5
100
AcDbArc
 50
0.0
 51
180.0
  0
ARC
  5
1F52
330
1F
100
AcDbEntity
  8
中線
100
AcDbCircle
 10
-56.788440587847
 20
131.767766408574
 30
0.0
 40
2.5
100
AcDbArc
 50
180.0
 51
0.0
  0
ARC
  5
1F53
330
1F
100
AcDbEntity
  8
中線
100
AcDbCircle
 10
-86.788440587847
 20
131.767766408574
 30
0.0
 40
2.5
100
AcDbArc
 50
180.0
 51
0.0
  0
ARC
  5
1F54
330
1F
100
AcDbEntity
  8
中線
100
AcDbCircle
 10
-86.788440587847
 20
134.767766408574
 30
0.0
 40
2.5
100
AcDbArc
 50
0.0
 51
180.0
  0
LINE
  5
1F55
330
1F
100
AcDbEntity
  8
中線
100
AcDbLine
 10
-89.288440587847
 20
134.767766408574
 30
0.0
 11
-89.288440587847
 21
131.767766408574
 31
0.0
  0
LINE
  5
1F56
330
1F
100
AcDbEntity
  8
中線
100
AcDbLine
 10
-84.288440587847
 20
134.767766408574
 30
0.0
 11
-84.288440587847
 21
131.767766408574
 31
0.0
  0
LINE
  5
1F57
330
1F
100
AcDbEntity
  8
CENTER
100
AcDbLine
 10
-86.788440587847
 20
138.867766408574
 30
0.0
 11
-86.788440587847
 21
127.667766408574
 31
0.0
  0
LINE
  5
1F58
330
1F
100
AcDbEntity
  8
CENTER
100
AcDbLine
 10
-26.788440587847
 20
138.867766408574
 30
0.0
 11
-26.788440587847
 21
127.667766408574
 31
0.0
  0
LINE
  5
1F59
330
1F
100
AcDbEntity
  8
中線
100
AcDbLine
 10
-24.288440587847
 20
134.767766408574
 30
0.0
 11
-24.288440587847
 21
131.767766408574
 31
0.0
  0
LINE
  5
1F5A
330
1F
100
AcDbEntity
  8
中線
100
AcDbLine
 10
-29.288440587847
 20
134.767766408574
 30
0.0
 11
-29.288440587847
 21
131.767766408574
 31
0.0
  0
ARC
  5
1F5B
330
1F
100
AcDbEntity
  8
中線
100
AcDbCircle
 10
-26.788440587847
 20
134.767766408574
 30
0.0
 40
2.5
100
AcDbArc
 50
0.0
 51
180.0
  0
ARC
  5
1F5C
330
1F
100
AcDbEntity
  8
中線
100
AcDbCircle
 10
-26.788440587847
 20
131.767766408574
 30
0.0
 40
2.5
100
AcDbArc
 50
180.0
 51
0.0
  0
ARC
  5
1F5D
330
1F
100
AcDbEntity
  8
中線
100
AcDbCircle
 10
-26.788440587847
 20
181.767766408574
 30
0.0
 40
2.5
100
AcDbArc
 50
180.0
 51
0.0
  0
ARC
  5
1F5E
330
1F
100
AcDbEntity
  8
中線
100
AcDbCircle
 10
-26.788440587847
 20
184.767766408574
 30
0.0
 40
2.5
100
AcDbArc
 50
0.0
 51
180.0
  0
LINE
  5
1F5F
330
1F
100
AcDbEntity
  8
中線
100
AcDbLine
 10
-29.288440587847
 20
184.767766408574
 30
0.0
 11
-29.288440587847
 21
181.767766408574
 31
0.0
  0
LINE
  5
1F60
330
1F
100
AcDbEntity
  8
中線
100
AcDbLine
 10
-24.288440587847
 20
184.767766408574
 30
0.0
 11
-24.288440587847
 21
181.767766408574
 31
0.0
  0
LINE
  5
1F61
330
1F
100
AcDbEntity
  8
CENTER
100
AcDbLine
 10
-26.788440587847
 20
188.867766408574
 30
0.0
 11
-26.788440587847
 21
177.667766408574
 31
0.0
  0
LINE
  5
1F62
330
1F
100
AcDbEntity
  8
中線
100
AcDbLine
 10
-54.288440587847
 20
184.767766408574
 30
0.0
 11
-54.288440587847
 21
181.767766408574
 31
0.0
  0
LINE
  5
1F63
330
1F
100
AcDbEntity
  8
中線
100
AcDbLine
 10
-59.288440587847
 20
184.767766408574
 30
0.0
 11
-59.288440587847
 21
181.767766408574
 31
0.0
  0
ARC
  5
1F64
330
1F
100
AcDbEntity
  8
中線
100
AcDbCircle
 10
-56.788440587847
 20
184.767766408574
 30
0.0
 40
2.5
100
AcDbArc
 50
0.0
 51
180.0
  0
ARC
  5
1F65
330
1F
100
AcDbEntity
  8
中線
100
AcDbCircle
 10
-56.788440587847
 20
181.767766408574
 30
0.0
 40
2.5
100
AcDbArc
 50
180.0
 51
0.0
  0
ARC
  5
1F66
330
1F
100
AcDbEntity
  8
中線
100
AcDbCircle
 10
-86.788440587847
 20
181.767766408574
 30
0.0
 40
2.5
100
AcDbArc
 50
180.0
 51
0.0
  0
ARC
  5
1F67
330
1F
100
AcDbEntity
  8
中線
100
AcDbCircle
 10
-86.788440587847
 20
184.767766408574
 30
0.0
 40
2.5
100
AcDbArc
 50
0.0
 51
180.0
  0
LINE
  5
1F68
330
1F
100
AcDbEntity
  8
中線
100
AcDbLine
 10
-89.288440587847
 20
184.767766408574
 30
0.0
 11
-89.288440587847
 21
181.767766408574
 31
0.0
  0
LINE
  5
1F69
330
1F
100
AcDbEntity
  8
中線
100
AcDbLine
 10
-84.288440587847
 20
184.767766408574
 30
0.0
 11
-84.288440587847
 21
181.767766408574
 31
0.0
  0
ARC
  5
1F6B
330
1F
100
AcDbEntity
  8
中線
100
AcDbCircle
 10
-79.588428380847
 20
104.988744191774
 30
0.0
 40
1.299999237
100
AcDbArc
 50
286.601730321001
 51
0.0000359722
  0
ARC
  5
1F6C
330
1F
100
AcDbEntity
  8
中線
100
AcDbCircle
 10
-83.988452795047
 20
104.988713674174
 30
0.0
 40
1.299999237
100
AcDbArc
 50
180.0
 51
253.398469575801
  0
ARC
  5
1F6D
330
1F
100
AcDbEntity
  8
中線
100
AcDbCircle
 10
-81.788471105447
 20
112.367741994574
 30
0.0
 40
9.0
100
AcDbArc
 50
253.3984695758
 51
286.6016583766
  0
ARC
  5
1F6E
330
1F
100
AcDbEntity
  8
中線
100
AcDbCircle
 10
-33.988452795047
 20
211.046758107774
 30
0.0
 40
1.299999237
100
AcDbArc
 50
106.601694348799
 51
180.0
  0
ARC
  5
1F6F
330
1F
100
AcDbEntity
  8
中線
100
AcDbCircle
 10
-29.588458898447
 20
211.046788625374
 30
0.0
 40
1.299999237
100
AcDbArc
 50
359.9999813307
 51
73.398505547901
  0
ARC
  5
1F70
330
1F
100
AcDbEntity
  8
中線
100
AcDbCircle
 10
-31.788440587847
 20
203.667760304974
 30
0.0
 40
9.0
100
AcDbArc
 50
73.3985055479
 51
106.6016943488
  0
ARC
  5
1F71
330
1F
100
AcDbEntity
  8
中線
100
AcDbCircle
 10
-91.788440587847
 20
113.267766408574
 30
0.0
 40
5.0
100
AcDbArc
 50
180.0
 51
269.9999820139
  0
ARC
  5
1F72
330
1F
100
AcDbEntity
  8
中線
100
AcDbCircle
 10
-21.788440587847
 20
113.267766408574
 30
0.0
 40
5.0
100
AcDbArc
 50
269.9999993168
 51
0.0000359722
  0
ARC
  5
1F73
330
1F
100
AcDbEntity
  8
中線
100
AcDbCircle
 10
-21.788440587847
 20
203.267766408574
 30
0.0
 40
5.0
100
AcDbArc
 50
0.000035972179
 51
90.0000179861
  0
ARC
  5
1F74
330
1F
100
AcDbEntity
  8
中線
100
AcDbCircle
 10
-91.788440587847
 20
203.267766408574
 30
0.0
 40
5.0
100
AcDbArc
 50
90.0000179861
 51
180.0
  0
LINE
  5
1F75
330
1F
100
AcDbEntity
  8
CENTER
100
AcDbLine
 10
-56.788440587847
 20
216.267766408574
 30
0.0
 11
-56.788440587847
 21
100.267766408574
 31
0.0
  0
LINE
  5
1F76
330
1F
100
AcDbEntity
  8
CENTER
100
AcDbLine
 10
-22.888440587847
 20
183.267766408574
 30
0.0
 11
-30.688440587847
 21
183.267766408574
 31
0.0
  0
LINE
  5
1F77
330
1F
100
AcDbEntity
  8
CENTER
100
AcDbLine
 10
-81.788532140647
 20
100.967595510174
 30
0.0
 11
-81.788532140647
 21
110.967595510174
 31
0.0
  0
LINE
  5
1F78
330
1F
100
AcDbEntity
  8
中線
100
AcDbLine
 10
-78.288532140647
 20
104.988591603974
 30
0.0
 11
-78.288532140647
 21
105.967595510174
 31
0.0
  0
LINE
  5
1F79
330
1F
100
AcDbEntity
  8
中線
100
AcDbLine
 10
-85.288532140647
 20
105.967595510174
 30
0.0
 11
-85.288532140647
 21
104.988561086374
 31
0.0
  0
LINE
  5
1F7A
330
1F
100
AcDbEntity
  8
中線
100
AcDbLine
 10
-86.289050682047
 20
108.267140978974
 30
0.0
 11
-86.289035423247
 21
107.767140978974
 31
0.0
  0
LINE
  5
1F7B
330
1F
100
AcDbEntity
  8
中線
100
AcDbLine
 10
-77.288440587847
 20
107.767766408574
 30
0.0
 11
-86.288440587847
 21
107.767766408574
 31
0.0
  0
LINE
  5
1F7C
330
1F
100
AcDbEntity
  8
中線
100
AcDbLine
 10
-77.289050673647
 20
108.267140978774
 30
0.0
 11
-77.289035414847
 21
107.767140978774
 31
0.0
  0
LINE
  5
1F7D
330
1F
100
AcDbEntity
  8
中線
100
AcDbLine
 10
-77.788532140647
 20
106.967595510174
 30
0.0
 11
-77.788532140647
 21
107.767613820774
 31
0.0
  0
LINE
  5
1F7E
330
1F
100
AcDbEntity
  8
中線
100
AcDbLine
 10
-85.788532140647
 20
106.967595510174
 30
0.0
 11
-77.788532140647
 21
106.967595510174
 31
0.0
  0
LINE
  5
1F7F
330
1F
100
AcDbEntity
  8
中線
100
AcDbLine
 10
-85.788532140647
 20
107.767613820774
 30
0.0
 11
-85.788532140647
 21
106.967595510174
 31
0.0
  0
LINE
  5
1F80
330
1F
100
AcDbEntity
  8
中線
100
AcDbLine
 10
-77.988513830047
 20
105.967595510174
 30
0.0
 11
-77.988513830047
 21
106.967595510174
 31
0.0
  0
LINE
  5
1F81
330
1F
100
AcDbEntity
  8
中線
100
AcDbLine
 10
-85.588519933647
 20
105.967595510174
 30
0.0
 11
-77.988513830047
 21
105.967595510174
 31
0.0
  0
LINE
  5
1F82
330
1F
100
AcDbEntity
  8
中線
100
AcDbLine
 10
-85.588519933647
 20
106.967595510174
 30
0.0
 11
-85.588519933647
 21
105.967595510174
 31
0.0
  0
LINE
  5
1F83
330
1F
100
AcDbEntity
  8
中線
100
AcDbLine
 10
-35.788440587847
 20
209.067754201574
 30
0.0
 11
-35.788440587847
 21
208.267766408574
 31
0.0
  0
LINE
  5
1F84
330
1F
100
AcDbEntity
  8
中線
100
AcDbLine
 10
-27.788440587847
 20
209.067754201574
 30
0.0
 11
-35.788440587847
 21
209.067754201574
 31
0.0
  0
LINE
  5
1F85
330
1F
100
AcDbEntity
  8
中線
100
AcDbLine
 10
-27.788440587847
 20
208.267766408574
 30
0.0
 11
-27.788440587847
 21
209.067754201574
 31
0.0
  0
LINE
  5
1F86
330
1F
100
AcDbEntity
  8
中線
100
AcDbLine
 10
-35.588458898447
 20
210.067754201574
 30
0.0
 11
-35.588458898447
 21
209.067754201574
 31
0.0
  0
LINE
  5
1F87
330
1F
100
AcDbEntity
  8
中線
100
AcDbLine
 10
-27.988452795047
 20
210.067754201574
 30
0.0
 11
-35.588458898447
 21
210.067754201574
 31
0.0
  0
LINE
  5
1F88
330
1F
100
AcDbEntity
  8
中線
100
AcDbLine
 10
-27.988452795047
 20
209.067754201574
 30
0.0
 11
-27.988452795047
 21
210.067754201574
 31
0.0
  0
LINE
  5
1F89
330
1F
100
AcDbEntity
  8
CENTER
100
AcDbLine
 10
-31.788440587847
 20
215.067754201574
 30
0.0
 11
-31.788440587847
 21
205.067754201574
 31
0.0
  0
LINE
  5
1F8A
330
1F
100
AcDbEntity
  8
中線
100
AcDbLine
 10
-35.288440587847
 20
211.046758107774
 30
0.0
 11
-35.288440587847
 21
210.067754201574
 31
0.0
  0
LINE
  5
1F8B
330
1F
100
AcDbEntity
  8
中線
100
AcDbLine
 10
-28.288440587847
 20
210.067754201574
 30
0.0
 11
-28.288440587847
 21
211.046788625374
 31
0.0
  0
LINE
  5
1F8C
330
1F
100
AcDbEntity
  8
中線
100
AcDbLine
 10
-16.788440587847
 20
203.267766408574
 30
0.0
 11
-16.788440587847
 21
113.267766408574
 31
0.0
  0
LINE
  5
1F8D
330
1F
100
AcDbEntity
  8
中線
100
AcDbLine
 10
-91.788440587847
 20
208.267766408574
 30
0.0
 11
-21.788440587847
 21
208.267766408574
 31
0.0
  0
LINE
  5
1F8E
330
1F
100
AcDbEntity
  8
中線
100
AcDbLine
 10
-96.788440587847
 20
113.267766408574
 30
0.0
 11
-96.788440587847
 21
203.267766408574
 31
0.0
  0
LINE
  5
1F8F
330
1F
100
AcDbEntity
  8
中線
100
AcDbLine
 10
-21.788440587847
 20
108.267766408574
 30
0.0
 11
-91.788440587847
 21
108.267766408574
 31
0.0
  0
LINE
  5
1F90
330
1F
100
AcDbEntity
  8
CENTER
100
AcDbLine
 10
-86.788440587847
 20
188.867766408574
 30
0.0
 11
-86.788440587847
 21
177.667766408574
 31
0.0
  0
LINE
  5
1F91
330
1F
100
AcDbEntity
  8
CENTER
100
AcDbLine
 10
-90.688440587847
 20
183.267766408574
 30
0.0
 11
-82.888440587847
 21
183.267766408574
 31
0.0
  0
LINE
  5
1F92
330
1F
100
AcDbEntity
  8
CENTER
100
AcDbLine
 10
-90.688440587847
 20
133.267766408574
 30
0.0
 11
-82.888440587847
 21
133.267766408574
 31
0.0
  0
LINE
  5
1F93
330
1F
100
AcDbEntity
  8
CENTER
100
AcDbLine
 10
-22.888440587847
 20
133.267766408574
 30
0.0
 11
-30.688440587847
 21
133.267766408574
 31
0.0
  0
LINE
  5
1F94
330
1F
100
AcDbEntity
  8
中線
100
AcDbLine
 10
-70.288440587847
 20
208.767766408574
 30
0.0
 11
-43.288440587847
 21
208.767766408574
 31
0.0
  0
LINE
  5
1F95
330
1F
100
AcDbEntity
  8
中線
100
AcDbLine
 10
-43.288440587847
 20
208.267766408574
 30
0.0
 11
-43.288440587847
 21
208.767766408574
 31
0.0
  0
LINE
  5
1F96
330
1F
100
AcDbEntity
  8
中線
100
AcDbLine
 10
-70.288440587847
 20
208.267766408574
 30
0.0
 11
-70.288440587847
 21
208.767766408574
 31
0.0
  0
LINE
  5
1F97
330
1F
100
AcDbEntity
  8
中線
100
AcDbLine
 10
-66.788440587847
 20
107.767766408574
 30
0.0
 11
-46.788440587847
 21
107.767766408574
 31
0.0
  0
LINE
  5
1F98
330
1F
100
AcDbEntity
  8
中線
100
AcDbLine
 10
-46.788440587847
 20
107.767766408574
 30
0.0
 11
-46.788440587847
 21
108.267766408574
 31
0.0
  0
LINE
  5
1F99
330
1F
100
AcDbEntity
  8
中線
100
AcDbLine
 10
-66.788440587847
 20
107.767766408574
 30
0.0
 11
-66.788440587847
 21
108.267766408574
 31
0.0
  0
LINE
  5
1FA0
330
1F
100
AcDbEntity
  8
CENTER
100
AcDbLine
 10
-242.659055151306
 20
158.267766408574
 30
0.0
 11
-156.578455702716
 21
158.267766408574
 31
0.0
  0
LINE
  5
1FA1
330
1F
100
AcDbEntity
  8
CENTER
100
AcDbLine
 10
-347.458984221989
 20
158.267766408574
 30
0.0
 11
-261.378384773398
 21
158.267766408574
 31
0.0
  0
TEXT
  5
1FA2
330
1F
100
AcDbEntity
  8
CMNT
100
AcDbText
 10
-33.176197183099
 20
22.156478873239
 30
0.0
 40
3.0
  1
KGNW111Y
100
AcDbText
  0
TEXT
  5
1FA3
330
1F
100
AcDbEntity
  8
CMNT
 62
     4
100
AcDbText
 10
-33.176197183099
 20
17.656478873239
 30
0.0
 40
3.0
  1
EW-038E
100
AcDbText
  0
LINE
  5
2115
330
1F
100
AcDbEntity
  8
CENTER
100
AcDbLine
 10
-318.365256770579
 20
161.267766408574
 30
0.0
 11
-289.365317805779
 21
161.267766408574
 31
0.0
  0
LINE
  5
2116
330
1F
100
AcDbEntity
  8
中線
100
AcDbLine
 10
-305.615287288179
 20
174.167760304974
 30
0.0
 11
-302.115287288179
 21
174.167760304974
 31
0.0
  0
LINE
  5
2117
330
1F
100
AcDbEntity
  8
中線
100
AcDbLine
 10
-290.965293391779
 20
163.017766408574
 30
0.0
 11
-290.965293391779
 21
159.517766408574
 31
0.0
  0
LINE
  5
2118
330
1F
100
AcDbEntity
  8
中線
100
AcDbLine
 10
-292.904105647579
 20
163.017766408574
 30
0.0
 11
-290.965293391779
 21
163.017766408574
 31
0.0
  0
LINE
  5
2119
330
1F
100
AcDbEntity
  8
中線
100
AcDbLine
 10
-292.904105647579
 20
159.517766408574
 30
0.0
 11
-290.965293391779
 21
159.517766408574
 31
0.0
  0
LINE
  5
211A
330
1F
100
AcDbEntity
  8
中線
100
AcDbLine
 10
-302.115287288179
 20
174.167760304974
 30
0.0
 11
-302.115287288179
 21
172.228917531574
 31
0.0
  0
LINE
  5
211B
330
1F
100
AcDbEntity
  8
中線
100
AcDbLine
 10
-305.615287288179
 20
174.167760304974
 30
0.0
 11
-305.615287288179
 21
172.228917531574
 31
0.0
  0
ARC
  5
211C
330
1F
100
AcDbEntity
  8
中線
100
AcDbCircle
 10
-303.865287288179
 20
161.267766408574
 30
0.0
 40
11.0999984742
100
AcDbArc
 50
9.0709625008
 51
80.9289990225
  0
ARC
  5
211D
330
1F
100
AcDbEntity
  8
中線
100
AcDbCircle
 10
-303.865287288179
 20
161.267766408574
 30
0.0
 40
11.0999984742
100
AcDbArc
 50
99.0709103638
 51
350.9289997058
  0
VIEWPORT
  5
A5D
102
{ACAD_XDICTIONARY
360
2135
102
}
330
1B
100
AcDbEntity
 67
     1
  8
0
100
AcDbViewport
 10
128.5
 20
97.5
 30
0.0
 40
314.226
 41
222.18
 68
     1
 69
     1
 12
128.5
 22
97.5
 13
0.0
 23
0.0
 14
10.0
 24
10.0
 15
10.0
 25
10.0
 16
0.0
 26
0.0
 36
1.0
 17
0.0
 27
0.0
 37
0.0
 42
50.0
 43
0.0
 44
0.0
 45
222.18
 50
0.0
 51
0.0
 72
   100
 90
   557152
  1

281
     0
 71
     1
 74
     0
110
0.0
120
0.0
130
0.0
111
1.0
121
0.0
131
0.0
112
0.0
122
1.0
132
0.0
 79
     0
146
0.0
  0
VIEWPORT
  5
A5E
102
{ACAD_XDICTIONARY
360
2137
102
}
330
1B
100
AcDbEntity
 67
     1
  8
細線
100
AcDbViewport
 10
128.5
 20
97.5
 30
0.0
 40
237.6
 41
168.0
 68
     2
 69
     2
 12
-54.5
 22
148.496316566721
 13
0.0
 23
0.0
 14
10.0
 24
10.0
 15
10.0
 25
10.0
 16
0.0
 26
0.007043288561362715
 36
0.9999751957354952
 17
0.0
 27
0.005642804872
 37
0.801140668476
 42
50.0
 43
0.0
 44
0.0
 45
302.932485796111
 50
0.0
 51
0.0
 72
   100
 90
   557168
  1

281
     0
 71
     1
 74
     0
110
0.0
120
0.0
130
0.0
111
1.0
121
0.0
131
0.0
112
0.0
122
1.0
132
0.0
 79
     0
146
0.0
  0
ENDSEC
  0
SECTION
  2
OBJECTS
  0
DICTIONARY
  5
C
330
0
100
AcDbDictionary
281
     1
  3
ACAD_COLOR
350
1CF5
  3
ACAD_GROUP
350
D
  3
ACAD_IMAGE_DICT
350
84
  3
ACAD_LAYOUT
350
1A
  3
ACAD_MATERIAL
350
3B
  3
ACAD_MLEADERSTYLE
350
6C
  3
ACAD_MLINESTYLE
350
17
  3
ACAD_PLOTSETTINGS
350
19
  3
ACAD_PLOTSTYLENAME
350
E
  3
ACAD_SCALELIST
350
3F
  3
ACAD_TABLESTYLE
350
6B
  3
ACAD_VISUALSTYLE
350
2A
  3
ACDBHEADERROUNDTRIPXREC
350
2131
  3
AcDbVariableDictionary
350
69
  3
DWGPROPS
350
2134
  0
DICTIONARY
  5
2139
330
8
100
AcDbDictionary
280
     1
281
     1
  3
ACAD_XREC_ROUNDTRIP
360
213A
  0
DICTIONARY
  5
56C
330
1F
100
AcDbDictionary
280
     1
281
     1
  3
ACAD_SORTENTS
360
56D
  0
DICTIONARY
  5
19B4
330
19B3
100
AcDbDictionary
280
     1
281
     1
  3
ACAD_SORTENTS
360
19B5
  0
DICTIONARY
  5
1C92
330
1C91
100
AcDbDictionary
280
     1
281
     1
  3
ACAD_SORTENTS
360
1C93
  0
DICTIONARY
  5
2135
330
A5D
100
AcDbDictionary
280
     1
281
     1
  3
ACAD_XREC_ROUNDTRIP
360
2136
  0
DICTIONARY
  5
2137
330
A5E
100
AcDbDictionary
280
     1
281
     1
  3
ACAD_XREC_ROUNDTRIP
360
2138
  0
DICTIONARY
  5
1CF5
102
{ACAD_REACTORS
330
C
102
}
330
C
100
AcDbDictionary
281
     1
  0
DICTIONARY
  5
D
102
{ACAD_REACTORS
330
C
102
}
330
C
100
AcDbDictionary
281
     1
  0
DICTIONARY
  5
84
102
{ACAD_REACTORS
330
C
102
}
330
C
100
AcDbDictionary
281
     1
  0
DICTIONARY
  5
1A
102
{ACAD_REACTORS
330
C
102
}
330
C
100
AcDbDictionary
281
     1
  3
Layout1
350
1E
  3
Model
350
22
  0
DICTIONARY
  5
3B
102
{ACAD_REACTORS
330
C
102
}
330
C
100
AcDbDictionary
281
     1
  3
ByBlock
350
3D
  3
ByLayer
350
3C
  3
Global
350
3E
  0
DICTIONARY
  5
6C
102
{ACAD_REACTORS
330
C
102
}
330
C
100
AcDbDictionary
281
     1
  3
Standard
350
1CDE
  0
DICTIONARY
  5
17
102
{ACAD_REACTORS
330
C
102
}
330
C
100
AcDbDictionary
281
     1
  3
Standard
350
18
  0
DICTIONARY
  5
19
102
{ACAD_REACTORS
330
C
102
}
330
C
100
AcDbDictionary
281
     1
  0
ACDBDICTIONARYWDFLT
  5
E
102
{ACAD_REACTORS
330
C
102
}
330
C
100
AcDbDictionary
281
     1
  3
Normal
350
F
100
AcDbDictionaryWithDefault
340
F
  0
DICTIONARY
  5
3F
102
{ACAD_REACTORS
330
C
102
}
330
C
100
AcDbDictionary
281
     1
  3
A0
350
40
  3
A1
350
41
  3
A2
350
42
  3
A3
350
43
  3
A4
350
44
  3
A5
350
45
  3
A6
350
46
  3
A7
350
47
  3
A8
350
48
  3
A9
350
49
  3
B0
350
4A
  3
B1
350
4B
  3
B2
350
4C
  3
B3
350
4D
  3
B4
350
4E
  3
B5
350
4F
  3
B6
350
50
  3
B7
350
51
  3
B8
350
52
  3
B9
350
53
  3
C0
350
54
  3
C1
350
55
  3
C2
350
56
  3
C3
350
57
  3
C4
350
58
  3
C5
350
59
  3
C6
350
5A
  3
C7
350
5B
  3
C8
350
5C
  3
C9
350
5D
  3
D0
350
5E
  3
D1
350
5F
  3
D2
350
60
  0
DICTIONARY
  5
6B
102
{ACAD_REACTORS
330
C
102
}
330
C
100
AcDbDictionary
281
     1
  3
Standard
350
17B
  0
DICTIONARY
  5
2A
102
{ACAD_REACTORS
330
C
102
}
330
C
100
AcDbDictionary
281
     1
  3
2dWireframe
350
2F
  3
3D Hidden
350
31
  3
3dWireframe
350
30
  3
Basic
350
32
  3
Brighten
350
36
  3
ColorChange
350
3A
  3
Conceptual
350
34
  3
Dim
350
35
  3
EdgeColorOff
350
1C12
  3
Facepattern
350
39
  3
Flat
350
2B
  3
FlatWithEdges
350
2C
  3
Gouraud
350
2D
  3
GouraudWithEdges
350
2E
  3
Hidden
350
1C0F
  3
JitterOff
350
1C10
  3
Linepattern
350
38
  3
Modeling
350
1CDF
  3
OverhangOff
350
1C11
  3
Realistic
350
33
  3
Shaded
350
1C17
  3
Shaded with edges
350
1C16
  3
Shades of Gray
350
1C13
  3
Sketchy
350
1C14
  3
Thicken
350
37
  3
Wireframe
350
1C0E
  3
X-Ray
350
1C15
  0
DICTIONARY
  5
2131
102
{ACAD_REACTORS
330
C
102
}
330
C
100
AcDbDictionary
281
     1
  3
COLORDICT
350
2132
  3
MATERIALDICT
350
2133
  0
DICTIONARY
  5
69
102
{ACAD_REACTORS
330
C
102
}
330
C
100
AcDbDictionary
281
     1
  3
CANNOSCALE
350
213B
  3
CMLEADERSTYLE
350
1FB4
  3
CTABLESTYLE
350
1FB3
  3
DIMASSOC
350
1FB7
  3
HIDETEXT
350
1FB8
  3
MSLTSCALE
350
1FC4
  3
PSOLHEIGHT
350
212E
  3
PSOLWIDTH
350
212D
  3
XCLIPFRAME
350
1C0D
  0
XRECORD
  5
2134
102
{ACAD_REACTORS
330
C
102
}
330
C
100
AcDbXrecord
280
     1
  1
DWGPROPS COOKIE
  2

  3

  4

  6

  7

  8
3660
  9

300
=
301
=
302
=
303
=
304
=
305
=
306
=
307
=
308
=
309
=
 40
0.0
 41
2455692.190455463
 42
2457731.2667225
  1

 90
        0
  0
XRECORD
  5
213A
102
{ACAD_REACTORS
330
2139
102
}
330
2139
100
AcDbXrecord
280
     1
102
VTR_0.000_0.000_1.000_1.000_VISUALSTYLE
340
2F
102
VTR_0.000_0.000_1.000_1.000_GRIDDISPLAY
 70
     3
102
VTR_0.000_0.000_1.000_1.000_GRIDMAJOR
 70
     5
102
VTR_0.000_0.000_1.000_1.000_DEFAULTLIGHTING
280
     1
102
VTR_0.000_0.000_1.000_1.000_DEFAULTLIGHTINGTYPE
 70
     1
102
VTR_0.000_0.000_1.000_1.000_BRIGHTNESS
141
0.0
102
VTR_0.000_0.000_1.000_1.000_CONTRAST
142
0.0
  0
SORTENTSTABLE
  5
56D
102
{ACAD_REACTORS
330
56C
102
}
330
56C
100
AcDbSortentsTable
330
1F
331
0
  5
5EB
  0
SORTENTSTABLE
  5
19B5
102
{ACAD_REACTORS
330
19B4
102
}
330
19B4
100
AcDbSortentsTable
330
19B3
  0
SORTENTSTABLE
  5
1C93
102
{ACAD_REACTORS
330
1C92
102
}
330
1C92
100
AcDbSortentsTable
330
1C91
  0
XRECORD
  5
2136
102
{ACAD_REACTORS
330
2135
102
}
330
2135
100
AcDbXrecord
280
     1
102
VISUALSTYLE
340
2F
102
GRIDDISPLAY
 70
     2
102
GRIDMAJOR
 70
     5
102
DEFAULTLIGHTING
280
     1
102
DEFAULTLIGHTINGTYPE
 70
     1
102
BRIGHTNESS
141
0.0
102
CONTRAST
142
0.0
  0
XRECORD
  5
2138
102
{ACAD_REACTORS
330
2137
102
}
330
2137
100
AcDbXrecord
280
     1
102
VISUALSTYLE
340
2F
102
GRIDDISPLAY
 70
     2
102
GRIDMAJOR
 70
     5
102
DEFAULTLIGHTING
280
     1
102
DEFAULTLIGHTINGTYPE
 70
     1
102
BRIGHTNESS
141
0.0
102
CONTRAST
142
0.0
  0
LAYOUT
  5
1E
102
{ACAD_REACTORS
330
1A
102
}
330
1A
100
AcDbPlotSettings
  1

  2
none_device
  4
ISO_A4_(210.00_x_297.00_MM)
  6

 40
7.5
 41
20.0
 42
7.5
 43
20.0
 44
210.0
 45
297.0
 46
0.0
 47
0.0
 48
0.0
 49
0.0
140
0.0
141
0.0
142
1.0
143
1.0
 70
   688
 72
     1
 73
     1
 74
     5
  7
monochrome.ctb
 75
    16
147
1.0
148
0.0
149
0.0
100
AcDbLayout
  1
Layout1
 70
     1
 71
     1
 10
-20.0
 20
-7.5
 11
277.0
 21
202.5
 12
0.0
 22
0.0
 32
0.0
 14
9.7
 24
13.5
 34
0.0
 15
247.3
 25
181.5
 35
0.0
146
0.0
 13
0.0
 23
0.0
 33
0.0
 16
1.0
 26
0.0
 36
0.0
 17
0.0
 27
1.0
 37
0.0
 76
     0
330
1B
331
A5D
  0
LAYOUT
  5
22
102
{ACAD_REACTORS
330
1A
102
}
330
1A
100
AcDbPlotSettings
  1

  2
\\s-w03-ad002\FX DocuWide 2050 (本社7F)
  4
A4
  6

 40
0.0
 41
0.0
 42
0.0
 43
0.0
 44
210.0
 45
297.0
 46
0.0
 47
0.0
 48
-210.0
 49
0.0
140
0.0
141
297.0
142
1.0
143
1.0
 70
  1200
 72
     1
 73
     0
 74
     4
  7
monochrome.ctb
 75
    16
147
1.0
148
0.0
149
0.0
100
AcDbLayout
  1
Model
 70
     1
 71
     0
 10
0.0
 20
0.0
 11
-210.0
 21
297.0
 12
0.0
 22
0.0
 32
0.0
 14
-347.458984221989
 24
0.0
 34
0.0
 15
0.0
 25
297.0
 35
0.0
146
0.0
 13
0.0
 23
0.0
 33
0.0
 16
1.0
 26
0.0
 36
0.0
 17
0.0
 27
1.0
 37
0.0
 76
     0
330
1F
331
29
  0
MATERIAL
  5
3D
102
{ACAD_REACTORS
330
3B
102
}
102
{ACAD_XDICTIONARY
360
213C
102
}
330
3B
100
AcDbMaterial
  1
ByBlock
  0
MATERIAL
  5
3C
102
{ACAD_REACTORS
330
3B
102
}
102
{ACAD_XDICTIONARY
360
213E
102
}
330
3B
100
AcDbMaterial
  1
ByLayer
  0
MATERIAL
  5
3E
102
{ACAD_REACTORS
330
3B
102
}
102
{ACAD_XDICTIONARY
360
2140
102
}
330
3B
100
AcDbMaterial
  1
Global
  0
MLEADERSTYLE
  5
1CDE
102
{ACAD_REACTORS
330
6C
102
}
102
{ACAD_XDICTIONARY
360
2142
102
}
330
6C
100
AcDbMLeaderStyle
170
     2
171
     1
172
     0
 90
        2
 40
0.0
 41
0.0
173
     1
 91
-1056964608
340
14
 92
       -2
290
     1
 42
2.0
291
     1
 43
8.0
  3
Standard
341
0
 44
4.0
300

342
11
174
     1
178
     6
175
     1
176
     0
 93
-1056964608
 45
4.0
292
     0
297
     0
 46
4.0
343
0
 94
-1056964608
 47
1.0
 49
1.0
140
1.0
293
     1
141
0.0
294
     1
177
     0
142
1.0
295
     0
296
     0
143
3.75
1001
ACAD_MLEADERVER
1070
     2
  0
MLINESTYLE
  5
18
102
{ACAD_REACTORS
330
17
102
}
330
17
100
AcDbMlineStyle
  2
Standard
 70
     0
  3

 62
   256
 51
90.0
 52
90.0
 71
     2
 49
0.5
 62
   256
  6
BYLAYER
 49
-0.5
 62
   256
  6
BYLAYER
  0
ACDBPLACEHOLDER
  5
F
102
{ACAD_REACTORS
330
E
102
}
330
E
  0
SCALE
  5
40
102
{ACAD_REACTORS
330
3F
102
}
330
3F
100
AcDbScale
 70
     0
300
1:1
140
1.0
141
1.0
290
     1
  0
SCALE
  5
41
102
{ACAD_REACTORS
330
3F
102
}
330
3F
100
AcDbScale
 70
     0
300
1:2
140
1.0
141
2.0
290
     0
  0
SCALE
  5
42
102
{ACAD_REACTORS
330
3F
102
}
330
3F
100
AcDbScale
 70
     0
300
1:4
140
1.0
141
4.0
290
     0
  0
SCALE
  5
43
102
{ACAD_REACTORS
330
3F
102
}
330
3F
100
AcDbScale
 70
     0
300
1:5
140
1.0
141
5.0
290
     0
  0
SCALE
  5
44
102
{ACAD_REACTORS
330
3F
102
}
330
3F
100
AcDbScale
 70
     0
300
1:8
140
1.0
141
8.0
290
     0
  0
SCALE
  5
45
102
{ACAD_REACTORS
330
3F
102
}
330
3F
100
AcDbScale
 70
     0
300
1:10
140
1.0
141
10.0
290
     0
  0
SCALE
  5
46
102
{ACAD_REACTORS
330
3F
102
}
330
3F
100
AcDbScale
 70
     0
300
1:16
140
1.0
141
16.0
290
     0
  0
SCALE
  5
47
102
{ACAD_REACTORS
330
3F
102
}
330
3F
100
AcDbScale
 70
     0
300
1:20
140
1.0
141
20.0
290
     0
  0
SCALE
  5
48
102
{ACAD_REACTORS
330
3F
102
}
330
3F
100
AcDbScale
 70
     0
300
1:30
140
1.0
141
30.0
290
     0
  0
SCALE
  5
49
102
{ACAD_REACTORS
330
3F
102
}
330
3F
100
AcDbScale
 70
     0
300
1:40
140
1.0
141
40.0
290
     0
  0
SCALE
  5
4A
102
{ACAD_REACTORS
330
3F
102
}
330
3F
100
AcDbScale
 70
     0
300
1:50
140
1.0
141
50.0
290
     0
  0
SCALE
  5
4B
102
{ACAD_REACTORS
330
3F
102
}
330
3F
100
AcDbScale
 70
     0
300
1:100
140
1.0
141
100.0
290
     0
  0
SCALE
  5
4C
102
{ACAD_REACTORS
330
3F
102
}
330
3F
100
AcDbScale
 70
     0
300
2:1
140
2.0
141
1.0
290
     0
  0
SCALE
  5
4D
102
{ACAD_REACTORS
330
3F
102
}
330
3F
100
AcDbScale
 70
     0
300
4:1
140
4.0
141
1.0
290
     0
  0
SCALE
  5
4E
102
{ACAD_REACTORS
330
3F
102
}
330
3F
100
AcDbScale
 70
     0
300
8:1
140
8.0
141
1.0
290
     0
  0
SCALE
  5
4F
102
{ACAD_REACTORS
330
3F
102
}
330
3F
100
AcDbScale
 70
     0
300
10:1
140
10.0
141
1.0
290
     0
  0
SCALE
  5
50
102
{ACAD_REACTORS
330
3F
102
}
330
3F
100
AcDbScale
 70
     0
300
100:1
140
100.0
141
1.0
290
     0
  0
SCALE
  5
51
102
{ACAD_REACTORS
330
3F
102
}
330
3F
100
AcDbScale
 70
     0
300
1/128" = 1'-0"
140
0.0078125
141
12.0
290
     0
  0
SCALE
  5
52
102
{ACAD_REACTORS
330
3F
102
}
330
3F
100
AcDbScale
 70
     0
300
1/64" = 1'-0"
140
0.015625
141
12.0
290
     0
  0
SCALE
  5
53
102
{ACAD_REACTORS
330
3F
102
}
330
3F
100
AcDbScale
 70
     0
300
1/32" = 1'-0"
140
0.03125
141
12.0
290
     0
  0
SCALE
  5
54
102
{ACAD_REACTORS
330
3F
102
}
330
3F
100
AcDbScale
 70
     0
300
1/16" = 1'-0"
140
0.0625
141
12.0
290
     0
  0
SCALE
  5
55
102
{ACAD_REACTORS
330
3F
102
}
330
3F
100
AcDbScale
 70
     0
300
3/32" = 1'-0"
140
0.09375
141
12.0
290
     0
  0
SCALE
  5
56
102
{ACAD_REACTORS
330
3F
102
}
330
3F
100
AcDbScale
 70
     0
300
1/8" = 1'-0"
140
0.125
141
12.0
290
     0
  0
SCALE
  5
57
102
{ACAD_REACTORS
330
3F
102
}
330
3F
100
AcDbScale
 70
     0
300
3/16" = 1'-0"
140
0.1875
141
12.0
290
     0
  0
SCALE
  5
58
102
{ACAD_REACTORS
330
3F
102
}
330
3F
100
AcDbScale
 70
     0
300
1/4" = 1'-0"
140
0.25
141
12.0
290
     0
  0
SCALE
  5
59
102
{ACAD_REACTORS
330
3F
102
}
330
3F
100
AcDbScale
 70
     0
300
3/8" = 1'-0"
140
0.375
141
12.0
290
     0
  0
SCALE
  5
5A
102
{ACAD_REACTORS
330
3F
102
}
330
3F
100
AcDbScale
 70
     0
300
1/2" = 1'-0"
140
0.5
141
12.0
290
     0
  0
SCALE
  5
5B
102
{ACAD_REACTORS
330
3F
102
}
330
3F
100
AcDbScale
 70
     0
300
3/4" = 1'-0"
140
0.75
141
12.0
290
     0
  0
SCALE
  5
5C
102
{ACAD_REACTORS
330
3F
102
}
330
3F
100
AcDbScale
 70
     0
300
1" = 1'-0"
140
1.0
141
12.0
290
     0
  0
SCALE
  5
5D
102
{ACAD_REACTORS
330
3F
102
}
330
3F
100
AcDbScale
 70
     0
300
1-1/2" = 1'-0"
140
1.5
141
12.0
290
     0
  0
SCALE
  5
5E
102
{ACAD_REACTORS
330
3F
102
}
330
3F
100
AcDbScale
 70
     0
300
3" = 1'-0"
140
3.0
141
12.0
290
     0
  0
SCALE
  5
5F
102
{ACAD_REACTORS
330
3F
102
}
330
3F
100
AcDbScale
 70
     0
300
6" = 1'-0"
140
6.0
141
12.0
290
     0
  0
SCALE
  5
60
102
{ACAD_REACTORS
330
3F
102
}
330
3F
100
AcDbScale
 70
     0
300
1'-0" = 1'-0"
140
12.0
141
12.0
290
     0
  0
TABLESTYLE
  5
17B
102
{ACAD_REACTORS
330
6B
102
}
330
6B
100
AcDbTableStyle
  3

 70
     0
 71
     0
 40
0.06
 41
0.06
280
     0
281
     0
  7
Standard
140
4.5
170
     2
 62
     0
 63
   257
283
     0
274
    -2
284
     1
 64
     0
275
    -2
285
     1
 65
     0
276
    -2
286
     1
 66
     0
277
    -2
287
     1
 67
     0
278
    -2
288
     1
 68
     0
279
    -2
289
     1
 69
     0
  7
Standard
140
6.0
170
     5
 62
     0
 63
   257
283
     0
274
    -2
284
     1
 64
     0
275
    -2
285
     1
 65
     0
276
    -2
286
     1
 66
     0
277
    -2
287
     1
 67
     0
278
    -2
288
     1
 68
     0
279
    -2
289
     1
 69
     0
  7
Standard
140
4.5
170
     5
 62
     0
 63
   257
283
     0
274
    -2
284
     1
 64
     0
275
    -2
285
     1
 65
     0
276
    -2
286
     1
 66
     0
277
    -2
287
     1
 67
     0
278
    -2
288
     1
 68
     0
279
    -2
289
     1
 69
     0
  0
VISUALSTYLE
  5
2F
102
{ACAD_REACTORS
330
2A
102
}
102
{ACAD_XDICTIONARY
360
2144
102
}
330
2A
100
AcDbVisualStyle
  2
2dWireframe
 70
     4
 71
     0
 72
     2
 73
     0
 90
        0
 40
-0.6
 41
-30.0
 62
     5
 63
     7
 74
     1
 91
        4
 64
     7
 65
   257
 75
     1
175
     1
 42
1.0
 92
        0
 66
   257
 43
1.0
 76
     1
 77
     6
 78
     2
 67
     7
 79
     5
170
     0
171
     0
290
     0
174
     0
 93
        1
 44
0.0
173
     0
291
     0
 45
0.0
1001
ACAD
1000
AcDbSavedByObjectVersion
1070
     0
  0
VISUALSTYLE
  5
31
102
{ACAD_REACTORS
330
2A
102
}
102
{ACAD_XDICTIONARY
360
2146
102
}
330
2A
100
AcDbVisualStyle
  2
3D Hidden
 70
     6
 71
     1
 72
     2
 73
     2
 90
        0
 40
-0.6
 41
-30.0
 62
     5
 63
     7
 74
     2
 91
        2
 64
     7
 65
   257
 75
     2
175
     1
 42
40.0
 92
        0
 66
   257
 43
1.0
 76
     1
 77
     6
 78
     2
 67
     7
 79
     3
170
     0
171
     0
290
     0
174
     0
 93
        1
 44
0.0
173
     0
291
     0
 45
0.0
1001
ACAD
1000
AcDbSavedByObjectVersion
1070
     0
  0
VISUALSTYLE
  5
30
102
{ACAD_REACTORS
330
2A
102
}
102
{ACAD_XDICTIONARY
360
2148
102
}
330
2A
100
AcDbVisualStyle
  2
3dWireframe
 70
     5
 71
     0
 72
     2
 73
     0
 90
        0
 40
-0.6
 41
-30.0
 62
     5
 63
     7
 74
     1
 91
        4
 64
     7
 65
   257
 75
     1
175
     1
 42
1.0
 92
        0
 66
   257
 43
1.0
 76
     1
 77
     6
 78
     2
 67
     7
 79
     5
170
     0
171
     0
290
     0
174
     0
 93
        1
 44
0.0
173
     0
291
     0
 45
0.0
1001
ACAD
1000
AcDbSavedByObjectVersion
1070
     0
  0
VISUALSTYLE
  5
32
102
{ACAD_REACTORS
330
2A
102
}
102
{ACAD_XDICTIONARY
360
214A
102
}
330
2A
100
AcDbVisualStyle
  2
Basic
 70
     7
 71
     1
 72
     0
 73
     1
 90
        0
 40
-0.6
 41
-30.0
 62
     5
 63
     7
 74
     0
 91
        4
 64
     7
 65
   257
 75
     1
175
     1
 42
1.0
 92
        8
 66
     7
 43
1.0
 76
     1
 77
     6
 78
     2
 67
     7
 79
     5
170
     0
171
     0
290
     0
174
     0
 93
        1
 44
0.0
173
     0
291
     1
 45
0.0
1001
ACAD
1000
AcDbSavedByObjectVersion
1070
     0
  0
VISUALSTYLE
  5
36
102
{ACAD_REACTORS
330
2A
102
}
102
{ACAD_XDICTIONARY
360
214C
102
}
330
2A
100
AcDbVisualStyle
  2
Brighten
 70
    12
 71
     2
 72
     2
 73
     0
 90
        0
 40
-0.6
 41
-30.0
 62
     5
 63
     7
 74
     1
 91
        4
 64
     7
 65
   257
 75
     1
175
     1
 42
1.0
 92
        8
 66
     7
 43
1.0
 76
     1
 77
     6
 78
     2
 67
     7
 79
     5
170
     0
171
     0
290
     0
174
     0
 93
        1
 44
50.0
173
     0
291
     1
 45
0.0
1001
ACAD
1000
AcDbSavedByObjectVersion
1070
     0
  0
VISUALSTYLE
  5
3A
102
{ACAD_REACTORS
330
2A
102
}
102
{ACAD_XDICTIONARY
360
214E
102
}
330
2A
100
AcDbVisualStyle
  2
ColorChange
 70
    16
 71
     2
 72
     2
 73
     3
 90
        0
 40
-0.6
 41
-30.0
 62
     5
 63
     8
 74
     1
 91
        4
 64
     7
 65
   257
 75
     1
175
     1
 42
1.0
 92
        8
 66
     8
 43
1.0
 76
     1
 77
     6
 78
     2
 67
     7
 79
     5
170
     0
171
     0
290
     0
174
     0
 93
        1
 44
0.0
173
     0
291
     1
 45
0.0
1001
ACAD
1000
AcDbSavedByObjectVersion
1070
     0
  0
VISUALSTYLE
  5
34
102
{ACAD_REACTORS
330
2A
102
}
102
{ACAD_XDICTIONARY
360
2150
102
}
330
2A
100
AcDbVisualStyle
  2
Conceptual
 70
     9
 71
     3
 72
     2
 73
     0
 90
        0
 40
-0.6
 41
-30.0
 62
     5
 63
     7
 74
     2
 91
        2
 64
     7
 65
   257
 75
     1
175
     1
 42
40.0
 92
        8
 66
     7
 43
1.0
 76
     1
 77
     6
 78
     2
 67
     7
 79
     3
170
     0
171
     0
290
     0
174
     0
 93
        1
 44
0.0
173
     0
291
     0
 45
0.0
1001
ACAD
1000
AcDbSavedByObjectVersion
1070
     0
  0
VISUALSTYLE
  5
35
102
{ACAD_REACTORS
330
2A
102
}
102
{ACAD_XDICTIONARY
360
2152
102
}
330
2A
100
AcDbVisualStyle
  2
Dim
 70
    11
 71
     2
 72
     2
 73
     0
 90
        0
 40
-0.6
 41
-30.0
 62
     5
 63
     7
 74
     1
 91
        4
 64
     7
 65
   257
 75
     1
175
     1
 42
1.0
 92
        8
 66
     7
 43
1.0
 76
     1
 77
     6
 78
     2
 67
     7
 79
     5
170
     0
171
     0
290
     0
174
     0
 93
        1
 44
-50.0
173
     0
291
     1
 45
0.0
1001
ACAD
1000
AcDbSavedByObjectVersion
1070
     0
  0
VISUALSTYLE
  5
1C12
102
{ACAD_REACTORS
330
2A
102
}
102
{ACAD_XDICTIONARY
360
2154
102
}
330
2A
100
AcDbVisualStyle
  2
EdgeColorOff
 70
    22
 71
     2
 72
     2
 73
     0
 90
        0
 40
0.6
 41
30.0
 62
     5
 63
     7
 74
     1
 91
        4
 64
     7
 65
   257
 75
     1
175
     1
 42
1.0
 92
        8
 66
     7
 43
1.0
 76
     1
 77
     6
 78
     2
 67
     7
 79
     5
170
     0
171
     0
290
     0
174
     0
 93
        1
 44
0.0
173
     0
291
     1
 45
0.0
1001
ACAD
1000
AcDbSavedByObjectVersion
1070
     0
  0
VISUALSTYLE
  5
39
102
{ACAD_REACTORS
330
2A
102
}
102
{ACAD_XDICTIONARY
360
2156
102
}
330
2A
100
AcDbVisualStyle
  2
Facepattern
 70
    15
 71
     2
 72
     2
 73
     0
 90
        0
 40
-0.6
 41
-30.0
 62
     5
 63
     7
 74
     1
 91
        4
 64
     7
 65
   257
 75
     1
175
     1
 42
1.0
 92
        8
 66
     7
 43
1.0
 76
     1
 77
     6
 78
     2
 67
     7
 79
     5
170
     0
171
     0
290
     0
174
     0
 93
        1
 44
0.0
173
     0
291
     1
 45
0.0
1001
ACAD
1000
AcDbSavedByObjectVersion
1070
     0
  0
VISUALSTYLE
  5
2B
102
{ACAD_REACTORS
330
2A
102
}
102
{ACAD_XDICTIONARY
360
2158
102
}
330
2A
100
AcDbVisualStyle
  2
Flat
 70
     0
 71
     2
 72
     1
 73
     1
 90
        2
 40
-0.6
 41
30.0
 62
     5
 63
     7
 74
     0
 91
        4
 64
     7
 65
   257
 75
     1
175
     1
 42
1.0
 92
        8
 66
     7
 43
1.0
 76
     1
 77
     6
 78
     2
 67
     7
 79
     5
170
     0
171
     0
290
     0
174
     0
 93
       13
 44
0.0
173
     0
291
     1
 45
0.0
1001
ACAD
1000
AcDbSavedByObjectVersion
1070
     0
  0
VISUALSTYLE
  5
2C
102
{ACAD_REACTORS
330
2A
102
}
102
{ACAD_XDICTIONARY
360
215A
102
}
330
2A
100
AcDbVisualStyle
  2
FlatWithEdges
 70
     1
 71
     2
 72
     1
 73
     1
 90
        2
 40
-0.6
 41
30.0
 62
     5
 63
     7
 74
     1
 91
        4
 64
     7
 65
   257
 75
     1
175
     1
 42
1.0
 92
        0
 66
   257
 43
1.0
 76
     1
 77
     6
 78
     2
 67
     7
 79
     5
170
     0
171
     0
290
     0
174
     0
 93
       13
 44
0.0
173
     0
291
     1
 45
0.0
1001
ACAD
1000
AcDbSavedByObjectVersion
1070
     0
  0
VISUALSTYLE
  5
2D
102
{ACAD_REACTORS
330
2A
102
}
102
{ACAD_XDICTIONARY
360
215C
102
}
330
2A
100
AcDbVisualStyle
  2
Gouraud
 70
     2
 71
     2
 72
     2
 73
     1
 90
        2
 40
-0.6
 41
30.0
 62
     5
 63
     7
 74
     0
 91
        4
 64
     7
 65
   257
 75
     1
175
     1
 42
1.0
 92
        0
 66
     7
 43
1.0
 76
     1
 77
     6
 78
     2
 67
     7
 79
     5
170
     0
171
     0
290
     0
174
     0
 93
       13
 44
0.0
173
     0
291
     1
 45
0.0
1001
ACAD
1000
AcDbSavedByObjectVersion
1070
     0
  0
VISUALSTYLE
  5
2E
102
{ACAD_REACTORS
330
2A
102
}
102
{ACAD_XDICTIONARY
360
215E
102
}
330
2A
100
AcDbVisualStyle
  2
GouraudWithEdges
 70
     3
 71
     2
 72
     2
 73
     1
 90
        2
 40
-0.6
 41
30.0
 62
     5
 63
     7
 74
     1
 91
        4
 64
     7
 65
   257
 75
     1
175
     1
 42
1.0
 92
        0
 66
   257
 43
1.0
 76
     1
 77
     6
 78
     2
 67
     7
 79
     5
170
     0
171
     0
290
     0
174
     0
 93
       13
 44
0.0
173
     0
291
     1
 45
0.0
1001
ACAD
1000
AcDbSavedByObjectVersion
1070
     0
  0
VISUALSTYLE
  5
1C0F
102
{ACAD_REACTORS
330
2A
102
}
102
{ACAD_XDICTIONARY
360
2160
102
}
330
2A
100
AcDbVisualStyle
  2
Hidden
 70
     6
 71
     1
 72
     2
 73
     2
 90
        0
 40
0.6
 41
30.0
 62
     5
 63
     7
 74
     2
 91
        2
 64
     7
 65
   257
 75
     2
175
     1
 42
40.0
 92
        0
 66
   257
 43
1.0
 76
     1
 77
     6
 78
     2
 67
     7
 79
     3
170
     0
171
     0
290
     0
174
     0
 93
        1
 44
0.0
173
     0
291
     0
 45
0.0
1001
ACAD
1000
AcDbSavedByObjectVersion
1070
     0
  0
VISUALSTYLE
  5
1C10
102
{ACAD_REACTORS
330
2A
102
}
102
{ACAD_XDICTIONARY
360
2162
102
}
330
2A
100
AcDbVisualStyle
  2
JitterOff
 70
    20
 71
     2
 72
     2
 73
     0
 90
        0
 40
0.6
 41
30.0
 62
     5
 63
     7
 74
     1
 91
        4
 64
     7
 65
   257
 75
     1
175
     1
 42
1.0
 92
       10
 66
     7
 43
1.0
 76
     1
 77
     6
 78
     2
 67
     7
 79
     5
170
     0
171
     0
290
     0
174
     0
 93
        1
 44
0.0
173
     0
291
     1
 45
0.0
1001
ACAD
1000
AcDbSavedByObjectVersion
1070
     0
  0
VISUALSTYLE
  5
38
102
{ACAD_REACTORS
330
2A
102
}
102
{ACAD_XDICTIONARY
360
2164
102
}
330
2A
100
AcDbVisualStyle
  2
Linepattern
 70
    14
 71
     2
 72
     2
 73
     0
 90
        0
 40
-0.6
 41
-30.0
 62
     5
 63
     7
 74
     1
 91
        4
 64
     7
 65
   257
 75
     7
175
     7
 42
1.0
 92
        8
 66
     7
 43
1.0
 76
     1
 77
     6
 78
     2
 67
     7
 79
     5
170
     0
171
     0
290
     0
174
     0
 93
        1
 44
0.0
173
     0
291
     1
 45
0.0
1001
ACAD
1000
AcDbSavedByObjectVersion
1070
     0
  0
VISUALSTYLE
  5
1CDF
102
{ACAD_REACTORS
330
2A
102
}
102
{ACAD_XDICTIONARY
360
2166
102
}
330
2A
100
AcDbVisualStyle
  2
Modeling
 70
    10
 71
     2
 72
     3
 73
     0
 90
        2
 40
0.6
 41
30.0
 62
     5
 63
     7
 74
     2
 91
        0
 64
     7
 65
   257
 75
     1
175
     1
 42
180.0
 92
        8
 66
     8
 43
1.0
 76
     1
 77
     6
 78
     2
 67
     7
 79
     5
170
     0
171
     0
290
     0
174
     0
 93
       13
 44
0.0
173
     0
291
     0
 45
0.0
1001
ACAD
1000
AcDbSavedByObjectVersion
1070
     0
  0
VISUALSTYLE
  5
1C11
102
{ACAD_REACTORS
330
2A
102
}
102
{ACAD_XDICTIONARY
360
2168
102
}
330
2A
100
AcDbVisualStyle
  2
OverhangOff
 70
    21
 71
     2
 72
     2
 73
     0
 90
        0
 40
0.6
 41
30.0
 62
     5
 63
     7
 74
     1
 91
        4
 64
     7
 65
   257
 75
     1
175
     1
 42
1.0
 92
        9
 66
     7
 43
1.0
 76
     1
 77
     6
 78
     2
 67
     7
 79
     5
170
     0
171
     0
290
     0
174
     0
 93
        1
 44
0.0
173
     0
291
     1
 45
0.0
1001
ACAD
1000
AcDbSavedByObjectVersion
1070
     0
  0
VISUALSTYLE
  5
33
102
{ACAD_REACTORS
330
2A
102
}
102
{ACAD_XDICTIONARY
360
216A
102
}
330
2A
100
AcDbVisualStyle
  2
Realistic
 70
     8
 71
     2
 72
     2
 73
     0
 90
        0
 40
-0.6
 41
-30.0
 62
     5
 63
     7
 74
     1
 91
        0
 64
     7
 65
   257
 75
     1
175
     1
 42
1.0
 92
        8
 66
     8
 43
1.0
 76
     1
 77
     6
 78
     2
 67
     7
 79
     5
170
     0
171
     0
290
     0
174
     0
 93
       13
 44
0.0
173
     0
291
     0
 45
0.0
1001
ACAD
1000
AcDbSavedByObjectVersion
1070
     0
  0
VISUALSTYLE
  5
1C17
102
{ACAD_REACTORS
330
2A
102
}
102
{ACAD_XDICTIONARY
360
216C
102
}
330
2A
100
AcDbVisualStyle
  2
Shaded
 70
    27
 71
     2
 72
     2
 73
     1
 90
        2
 40
0.6
 41
30.0
 62
     5
 63
     7
 74
     0
 91
        4
 64
     7
 65
   257
 75
     1
175
     1
 42
1.0
 92
        8
 66
   257
 43
1.0
 76
     1
 77
     6
 78
     2
 67
     8
 79
     3
170
     0
171
     0
290
     0
174
     0
 93
        5
 44
0.0
173
     0
291
     0
 45
0.0
1001
ACAD
1000
AcDbSavedByObjectVersion
1070
     0
  0
VISUALSTYLE
  5
1C16
102
{ACAD_REACTORS
330
2A
102
}
102
{ACAD_XDICTIONARY
360
216E
102
}
330
2A
100
AcDbVisualStyle
  2
Shaded with edges
 70
    26
 71
     2
 72
     2
 73
     1
 90
        2
 40
0.6
 41
30.0
 62
     5
 63
     7
 74
     1
 91
       10
 64
     7
 65
   257
 75
     2
175
     1
 42
1.0
 92
        8
 66
   257
 43
1.0
 76
     1
 77
     6
 78
     2
 67
     7
 79
     3
170
     0
171
     0
290
     0
174
     0
 93
        5
 44
0.0
173
     0
291
     0
 45
0.0
1001
ACAD
1000
AcDbSavedByObjectVersion
1070
     0
  0
VISUALSTYLE
  5
1C13
102
{ACAD_REACTORS
330
2A
102
}
102
{ACAD_XDICTIONARY
360
2170
102
}
330
2A
100
AcDbVisualStyle
  2
Shades of Gray
 70
    23
 71
     2
 72
     2
 73
     3
 90
        0
 40
0.6
 41
30.0
 62
     5
 63
     7
 74
     2
 91
        2
 64
     7
 65
     7
 75
     1
175
     1
 42
40.0
 92
        8
 66
     7
 43
1.0
 76
     1
 77
     6
 78
     2
 67
     7
 79
     3
170
     0
171
     0
290
     0
174
     0
 93
        1
 44
0.0
173
     0
291
     0
 45
0.0
1001
ACAD
1000
AcDbSavedByObjectVersion
1070
     0
  0
VISUALSTYLE
  5
1C14
102
{ACAD_REACTORS
330
2A
102
}
102
{ACAD_XDICTIONARY
360
2172
102
}
330
2A
100
AcDbVisualStyle
  2
Sketchy
 70
    24
 71
     1
 72
     2
 73
     2
 90
        0
 40
0.6
 41
30.0
 62
     5
 63
     7
 74
     2
 91
        2
 64
     7
 65
     7
 75
     1
175
     1
 42
40.0
 92
       11
 66
     7
 43
1.0
 76
     1
 77
     6
 78
     2
 67
     7
 79
     6
170
     0
171
     0
290
     0
174
     0
 93
        1
 44
0.0
173
     0
291
     0
 45
0.0
1001
ACAD
1000
AcDbSavedByObjectVersion
1070
     0
  0
VISUALSTYLE
  5
37
102
{ACAD_REACTORS
330
2A
102
}
102
{ACAD_XDICTIONARY
360
2174
102
}
330
2A
100
AcDbVisualStyle
  2
Thicken
 70
    13
 71
     2
 72
     2
 73
     0
 90
        0
 40
-0.6
 41
-30.0
 62
     5
 63
     7
 74
     1
 91
        4
 64
     7
 65
   257
 75
     1
175
     1
 42
1.0
 92
       12
 66
     7
 43
1.0
 76
     1
 77
     6
 78
     2
 67
     7
 79
     5
170
     0
171
     0
290
     0
174
     0
 93
        1
 44
0.0
173
     0
291
     1
 45
0.0
1001
ACAD
1000
AcDbSavedByObjectVersion
1070
     0
  0
VISUALSTYLE
  5
1C0E
102
{ACAD_REACTORS
330
2A
102
}
102
{ACAD_XDICTIONARY
360
2176
102
}
330
2A
100
AcDbVisualStyle
  2
Wireframe
 70
     5
 71
     0
 72
     2
 73
     0
 90
        0
 40
0.6
 41
30.0
 62
     5
 63
     7
 74
     1
 91
        4
 64
     7
 65
   257
 75
     1
175
     1
 42
1.0
 92
        0
 66
   257
 43
1.0
 76
     1
 77
     6
 78
     2
 67
     7
 79
     3
170
     0
171
     0
290
     0
174
     0
 93
        1
 44
0.0
173
     0
291
     0
 45
0.0
1001
ACAD
1000
AcDbSavedByObjectVersion
1070
     0
  0
VISUALSTYLE
  5
1C15
102
{ACAD_REACTORS
330
2A
102
}
102
{ACAD_XDICTIONARY
360
2178
102
}
330
2A
100
AcDbVisualStyle
  2
X-Ray
 70
    25
 71
     2
 72
     2
 73
     1
 90
        1
 40
0.5
 41
30.0
 62
     5
 63
     7
 74
     1
 91
        0
 64
     7
 65
   257
 75
     1
175
     1
 42
1.0
 92
        8
 66
     7
 43
1.0
 76
     1
 77
     6
 78
     2
 67
     7
 79
     3
170
     0
171
     0
290
     0
174
     0
 93
       13
 44
0.0
173
     0
291
     0
 45
0.0
1001
ACAD
1000
AcDbSavedByObjectVersion
1070
     0
  0
XRECORD
  5
2132
102
{ACAD_REACTORS
330
2131
102
}
330
2131
100
AcDbXrecord
280
     1
340
1CF5
  0
XRECORD
  5
2133
102
{ACAD_REACTORS
330
2131
102
}
330
2131
100
AcDbXrecord
280
     1
340
3B
  0
DICTIONARYVAR
  5
213B
102
{ACAD_REACTORS
330
69
102
}
330
69
100
DictionaryVariables
280
     0
  1
1:1
  0
DICTIONARYVAR
  5
1FB4
102
{ACAD_REACTORS
330
69
102
}
330
69
100
DictionaryVariables
280
     0
  1
Standard
  0
DICTIONARYVAR
  5
1FB3
102
{ACAD_REACTORS
330
69
102
}
330
69
100
DictionaryVariables
280
     0
  1
Standard
  0
DICTIONARYVAR
  5
1FB7
102
{ACAD_REACTORS
330
69
102
}
330
69
100
DictionaryVariables
280
     0
  1
2
  0
DICTIONARYVAR
  5
1FB8
102
{ACAD_REACTORS
330
69
102
}
330
69
100
DictionaryVariables
280
     0
  1
1
  0
DICTIONARYVAR
  5
1FC4
102
{ACAD_REACTORS
330
69
102
}
330
69
100
DictionaryVariables
280
     0
  1
1
  0
DICTIONARYVAR
  5
212E
102
{ACAD_REACTORS
330
69
102
}
330
69
100
DictionaryVariables
280
     0
  1
80.000000
  0
DICTIONARYVAR
  5
212D
102
{ACAD_REACTORS
330
69
102
}
330
69
100
DictionaryVariables
280
     0
  1
5.000000
  0
DICTIONARYVAR
  5
1C0D
102
{ACAD_REACTORS
330
69
102
}
330
69
100
DictionaryVariables
280
     0
  1
0
  0
DICTIONARY
  5
213C
330
3D
100
AcDbDictionary
280
     1
281
     1
  3
ACAD_XREC_ROUNDTRIP
360
213D
  0
DICTIONARY
  5
213E
330
3C
100
AcDbDictionary
280
     1
281
     1
  3
ACAD_XREC_ROUNDTRIP
360
213F
  0
DICTIONARY
  5
2140
330
3E
100
AcDbDictionary
280
     1
281
     1
  3
ACAD_XREC_ROUNDTRIP
360
2141
  0
DICTIONARY
  5
2142
330
1CDE
100
AcDbDictionary
280
     1
281
     1
  3
ACAD_XREC_ROUNDTRIP
360
2143
  0
DICTIONARY
  5
2144
330
2F
100
AcDbDictionary
280
     1
281
     1
  3
ACAD_XREC_ROUNDTRIP
360
2145
  0
DICTIONARY
  5
2146
330
31
100
AcDbDictionary
280
     1
281
     1
  3
ACAD_XREC_ROUNDTRIP
360
2147
  0
DICTIONARY
  5
2148
330
30
100
AcDbDictionary
280
     1
281
     1
  3
ACAD_XREC_ROUNDTRIP
360
2149
  0
DICTIONARY
  5
214A
330
32
100
AcDbDictionary
280
     1
281
     1
  3
ACAD_XREC_ROUNDTRIP
360
214B
  0
DICTIONARY
  5
214C
330
36
100
AcDbDictionary
280
     1
281
     1
  3
ACAD_XREC_ROUNDTRIP
360
214D
  0
DICTIONARY
  5
214E
330
3A
100
AcDbDictionary
280
     1
281
     1
  3
ACAD_XREC_ROUNDTRIP
360
214F
  0
DICTIONARY
  5
2150
330
34
100
AcDbDictionary
280
     1
281
     1
  3
ACAD_XREC_ROUNDTRIP
360
2151
  0
DICTIONARY
  5
2152
330
35
100
AcDbDictionary
280
     1
281
     1
  3
ACAD_XREC_ROUNDTRIP
360
2153
  0
DICTIONARY
  5
2154
330
1C12
100
AcDbDictionary
280
     1
281
     1
  3
ACAD_XREC_ROUNDTRIP
360
2155
  0
DICTIONARY
  5
2156
330
39
100
AcDbDictionary
280
     1
281
     1
  3
ACAD_XREC_ROUNDTRIP
360
2157
  0
DICTIONARY
  5
2158
330
2B
100
AcDbDictionary
280
     1
281
     1
  3
ACAD_XREC_ROUNDTRIP
360
2159
  0
DICTIONARY
  5
215A
330
2C
100
AcDbDictionary
280
     1
281
     1
  3
ACAD_XREC_ROUNDTRIP
360
215B
  0
DICTIONARY
  5
215C
330
2D
100
AcDbDictionary
280
     1
281
     1
  3
ACAD_XREC_ROUNDTRIP
360
215D
  0
DICTIONARY
  5
215E
330
2E
100
AcDbDictionary
280
     1
281
     1
  3
ACAD_XREC_ROUNDTRIP
360
215F
  0
DICTIONARY
  5
2160
330
1C0F
100
AcDbDictionary
280
     1
281
     1
  3
ACAD_XREC_ROUNDTRIP
360
2161
  0
DICTIONARY
  5
2162
330
1C10
100
AcDbDictionary
280
     1
281
     1
  3
ACAD_XREC_ROUNDTRIP
360
2163
  0
DICTIONARY
  5
2164
330
38
100
AcDbDictionary
280
     1
281
     1
  3
ACAD_XREC_ROUNDTRIP
360
2165
  0
DICTIONARY
  5
2166
330
1CDF
100
AcDbDictionary
280
     1
281
     1
  3
ACAD_XREC_ROUNDTRIP
360
2167
  0
DICTIONARY
  5
2168
330
1C11
100
AcDbDictionary
280
     1
281
     1
  3
ACAD_XREC_ROUNDTRIP
360
2169
  0
DICTIONARY
  5
216A
330
33
100
AcDbDictionary
280
     1
281
     1
  3
ACAD_XREC_ROUNDTRIP
360
216B
  0
DICTIONARY
  5
216C
330
1C17
100
AcDbDictionary
280
     1
281
     1
  3
ACAD_XREC_ROUNDTRIP
360
216D
  0
DICTIONARY
  5
216E
330
1C16
100
AcDbDictionary
280
     1
281
     1
  3
ACAD_XREC_ROUNDTRIP
360
216F
  0
DICTIONARY
  5
2170
330
1C13
100
AcDbDictionary
280
     1
281
     1
  3
ACAD_XREC_ROUNDTRIP
360
2171
  0
DICTIONARY
  5
2172
330
1C14
100
AcDbDictionary
280
     1
281
     1
  3
ACAD_XREC_ROUNDTRIP
360
2173
  0
DICTIONARY
  5
2174
330
37
100
AcDbDictionary
280
     1
281
     1
  3
ACAD_XREC_ROUNDTRIP
360
2175
  0
DICTIONARY
  5
2176
330
1C0E
100
AcDbDictionary
280
     1
281
     1
  3
ACAD_XREC_ROUNDTRIP
360
2177
  0
DICTIONARY
  5
2178
330
1C15
100
AcDbDictionary
280
     1
281
     1
  3
ACAD_XREC_ROUNDTRIP
360
2179
  0
XRECORD
  5
213D
102
{ACAD_REACTORS
330
213C
102
}
330
213C
100
AcDbXrecord
280
     1
102
MATERIAL
148
0.0
149
0.0
149
0.0
 93
        0
 94
       63
282
     0
 72
     1
 77
     1
171
     1
175
     1
179
     1
273
     0
  0
XRECORD
  5
213F
102
{ACAD_REACTORS
330
213E
102
}
330
213E
100
AcDbXrecord
280
     1
102
MATERIAL
148
0.0
149
0.0
149
0.0
 93
        0
 94
       63
282
     0
 72
     1
 77
     1
171
     1
175
     1
179
     1
273
     0
  0
XRECORD
  5
2141
102
{ACAD_REACTORS
330
2140
102
}
330
2140
100
AcDbXrecord
280
     1
102
MATERIAL
148
0.0
149
0.0
149
0.0
 93
        0
 94
       63
282
     0
 72
     1
 77
     1
171
     1
175
     1
179
     1
273
     0
  0
XRECORD
  5
2143
102
{ACAD_REACTORS
330
2142
102
}
330
2142
100
AcDbXrecord
280
     1
102
ACAD_ROUNDTRIP_2010_MLEADER_STYLE
  0
XRECORD
  5
2145
102
{ACAD_REACTORS
330
2144
102
}
330
2144
100
AcDbXrecord
280
     1
102
RTVSPropertyOp0
 70
     1
102
RTVSPropertyOp1
 70
     1
102
RTVSPropertyOp2
 70
     1
102
RTVSPropertyOp3
 70
     1
102
RTVSPropertyOp4
 70
     1
102
RTVSPropertyOp5
 70
     1
102
RTVSPropertyOp6
 70
     1
102
RTVSPropertyOp7
 70
     1
102
RTVSPropertyOp8
 70
     1
102
RTVSPropertyOp9
 70
     1
102
RTVSPropertyOp10
 70
     1
102
RTVSPropertyOp11
 70
     1
102
RTVSPropertyOp12
 70
     1
102
RTVSPropertyOp13
 70
     1
102
RTVSPropertyOp14
 70
     1
102
RTVSPropertyOp15
 70
     1
102
RTVSPropertyOp16
 70
     1
102
RTVSPropertyOp17
 70
     1
102
RTVSPropertyOp18
 70
     1
102
RTVSPropertyOp19
 70
     1
102
RTVSPropertyOp20
 70
     1
102
RTVSPropertyOp21
 70
     1
102
RTVSPropertyOp22
 70
     1
102
RTVSPropertyOp23
 70
     1
102
RTVSPropertyOp24
 70
     1
102
RTVSPropertyOp25
 70
     1
102
RTVSPropertyOp26
 70
     1
102
RTVSPropertyOp27
 70
     1
102
RTVSPropertyOp28
 70
     1
102
RTVSPropertyOp29
 70
     1
102
RTVSPropertyOp30
 70
     1
102
RTVSPropertyOp31
 70
     1
102
RTVSPropertyOp32
 70
     1
102
RTVSPropertyOp33
 70
     1
102
RTVSPropertyOp34
 70
     1
102
RTVSPropertyOp35
 70
     1
102
RTVSPropertyOp36
 70
     1
102
RTVSPropertyOp37
 70
     1
102
RTVSPropertyOp38
 70
     1
102
RTVSPropertyOp39
 70
     1
102
RTVSPropertyOp40
 70
     1
102
RTVSPropertyOp41
 70
     1
102
RTVSPropertyOp42
 70
     1
102
RTVSPropertyOp43
 70
     1
102
RTVSPropertyOp44
 70
     1
102
RTVSPropertyOp45
 70
     1
102
RTVSPropertyOp46
 70
     1
102
RTVSPropertyOp47
 70
     1
102
RTVSPropertyOp48
 70
     1
102
RTVSPropertyOp49
 70
     1
102
RTVSPropertyOp50
 70
     1
102
RTVSPropertyOp51
 70
     0
102
RTVSPropertyOp52
 70
     0
102
RTVSPropertyOp53
 70
     1
102
RTVSPropertyOp54
 70
     1
102
RTVSPropertyOp55
 70
     1
102
RTVSPropertyOp56
 70
     1
102
RTVSPropertyOp57
 70
     1
102
RTVSPost2010Prop28
280
     1
102
RTVSPost2010PropOp28
 70
     1
102
RTVSPost2010Prop29
280
     1
102
RTVSPost2010PropOp29
 70
     1
102
RTVSPost2010Prop30
280
     0
102
RTVSPost2010PropOp30
 70
     1
102
RTVSPost2010Prop31
280
     0
102
RTVSPost2010PropOp31
 70
     1
102
RTVSPost2010Prop32
280
     0
102
RTVSPost2010PropOp32
 70
     1
102
RTVSPost2010Prop33
280
     0
102
RTVSPost2010PropOp33
 70
     1
102
RTVSPost2010Prop34
280
     0
102
RTVSPost2010PropOp34
 70
     1
102
RTVSPost2010Prop35
280
     0
102
RTVSPost2010PropOp35
 70
     1
102
RTVSPost2010Prop36
280
     0
102
RTVSPost2010PropOp36
 70
     1
102
RTVSPost2010Prop37
 90
       50
102
RTVSPost2010PropOp37
 70
     1
102
RTVSPost2010Prop38
140
0.0
102
RTVSPost2010PropOp38
 70
     1
102
RTVSPost2010Prop39
140
1.0
102
RTVSPost2010PropOp39
 70
     1
102
RTVSPost2010Prop40
 90
        0
102
RTVSPost2010PropOp40
 70
     1
102
RTVSPost2010Prop41ColorIndex
 90
       18
102
RTVSPost2010Prop41ColorRGB
 90
        0
102
RTVSPost2010PropOp41
 70
     1
102
RTVSPost2010Prop42
 90
       50
102
RTVSPost2010PropOp42
 70
     1
102
RTVSPost2010Prop43
 90
        3
102
RTVSPost2010PropOp43
 70
     1
102
RTVSPost2010Prop44ColorIndex
 90
        5
102
RTVSPost2010Prop44ColorRGB
 90
      255
102
RTVSPost2010PropOp44
 70
     1
102
RTVSPost2010Prop45
280
     0
102
RTVSPost2010PropOp45
 70
     1
102
RTVSPost2010Prop46
 90
       50
102
RTVSPost2010PropOp46
 70
     1
102
RTVSPost2010Prop47
 90
       50
102
RTVSPost2010PropOp47
 70
     1
102
RTVSPost2010Prop48
 90
       50
102
RTVSPost2010PropOp48
 70
     1
102
RTVSPost2010Prop49
280
     0
102
RTVSPost2010PropOp49
 70
     1
102
RTVSPost2010Prop50
 90
       50
102
RTVSPost2010PropOp50
 70
     1
102
RTVSPost2010Prop51ColorIndex
 90
      256
102
RTVSPost2010Prop51ColorRGB
 90
-16777216
102
RTVSPost2010PropOp51
 70
     0
102
RTVSPost2010Prop52
140
1.0
102
RTVSPost2010PropOp52
 70
     0
102
RTVSPost2010Prop53
 90
        2
102
RTVSPost2010PropOp53
 70
     1
102
RTVSPost2010Prop54
  1
strokes_ogs.tif
102
RTVSPost2010PropOp54
 70
     1
102
RTVSPost2010Prop55
280
     0
102
RTVSPost2010PropOp55
 70
     1
102
RTVSPost2010Prop56
140
1.0
102
RTVSPost2010PropOp56
 70
     1
102
RTVSPost2010Prop57
140
1.0
102
RTVSPost2010PropOp57
 70
     1
  0
XRECORD
  5
2147
102
{ACAD_REACTORS
330
2146
102
}
330
2146
100
AcDbXrecord
280
     1
102
RTVSPropertyOp0
 70
     1
102
RTVSPropertyOp1
 70
     1
102
RTVSPropertyOp2
 70
     1
102
RTVSPropertyOp3
 70
     1
102
RTVSPropertyOp4
 70
     1
102
RTVSPropertyOp5
 70
     1
102
RTVSPropertyOp6
 70
     1
102
RTVSPropertyOp7
 70
     1
102
RTVSPropertyOp8
 70
     1
102
RTVSPropertyOp9
 70
     1
102
RTVSPropertyOp10
 70
     1
102
RTVSPropertyOp11
 70
     1
102
RTVSPropertyOp12
 70
     1
102
RTVSPropertyOp13
 70
     1
102
RTVSPropertyOp14
 70
     1
102
RTVSPropertyOp15
 70
     1
102
RTVSPropertyOp16
 70
     1
102
RTVSPropertyOp17
 70
     1
102
RTVSPropertyOp18
 70
     1
102
RTVSPropertyOp19
 70
     1
102
RTVSPropertyOp20
 70
     1
102
RTVSPropertyOp21
 70
     1
102
RTVSPropertyOp22
 70
     1
102
RTVSPropertyOp23
 70
     1
102
RTVSPropertyOp24
 70
     1
102
RTVSPropertyOp25
 70
     1
102
RTVSPropertyOp26
 70
     1
102
RTVSPropertyOp27
 70
     1
102
RTVSPropertyOp28
 70
     1
102
RTVSPropertyOp29
 70
     1
102
RTVSPropertyOp30
 70
     1
102
RTVSPropertyOp31
 70
     1
102
RTVSPropertyOp32
 70
     1
102
RTVSPropertyOp33
 70
     1
102
RTVSPropertyOp34
 70
     1
102
RTVSPropertyOp35
 70
     1
102
RTVSPropertyOp36
 70
     1
102
RTVSPropertyOp37
 70
     1
102
RTVSPropertyOp38
 70
     1
102
RTVSPropertyOp39
 70
     1
102
RTVSPropertyOp40
 70
     1
102
RTVSPropertyOp41
 70
     1
102
RTVSPropertyOp42
 70
     1
102
RTVSPropertyOp43
 70
     1
102
RTVSPropertyOp44
 70
     1
102
RTVSPropertyOp45
 70
     1
102
RTVSPropertyOp46
 70
     1
102
RTVSPropertyOp47
 70
     1
102
RTVSPropertyOp48
 70
     1
102
RTVSPropertyOp49
 70
     1
102
RTVSPropertyOp50
 70
     1
102
RTVSPropertyOp51
 70
     0
102
RTVSPropertyOp52
 70
     0
102
RTVSPropertyOp53
 70
     1
102
RTVSPropertyOp54
 70
     1
102
RTVSPropertyOp55
 70
     1
102
RTVSPropertyOp56
 70
     1
102
RTVSPropertyOp57
 70
     1
102
RTVSPost2010Prop28
280
     0
102
RTVSPost2010PropOp28
 70
     1
102
RTVSPost2010Prop29
280
     1
102
RTVSPost2010PropOp29
 70
     1
102
RTVSPost2010Prop30
280
     1
102
RTVSPost2010PropOp30
 70
     1
102
RTVSPost2010Prop31
280
     0
102
RTVSPost2010PropOp31
 70
     1
102
RTVSPost2010Prop32
280
     0
102
RTVSPost2010PropOp32
 70
     1
102
RTVSPost2010Prop33
280
     0
102
RTVSPost2010PropOp33
 70
     1
102
RTVSPost2010Prop34
280
     0
102
RTVSPost2010PropOp34
 70
     1
102
RTVSPost2010Prop35
280
     0
102
RTVSPost2010PropOp35
 70
     1
102
RTVSPost2010Prop36
280
     0
102
RTVSPost2010PropOp36
 70
     1
102
RTVSPost2010Prop37
 90
       50
102
RTVSPost2010PropOp37
 70
     1
102
RTVSPost2010Prop38
140
0.0
102
RTVSPost2010PropOp38
 70
     1
102
RTVSPost2010Prop39
140
1.0
102
RTVSPost2010PropOp39
 70
     1
102
RTVSPost2010Prop40
 90
        0
102
RTVSPost2010PropOp40
 70
     1
102
RTVSPost2010Prop41ColorIndex
 90
       18
102
RTVSPost2010Prop41ColorRGB
 90
        0
102
RTVSPost2010PropOp41
 70
     1
102
RTVSPost2010Prop42
 90
       50
102
RTVSPost2010PropOp42
 70
     1
102
RTVSPost2010Prop43
 90
        3
102
RTVSPost2010PropOp43
 70
     1
102
RTVSPost2010Prop44ColorIndex
 90
        5
102
RTVSPost2010Prop44ColorRGB
 90
      255
102
RTVSPost2010PropOp44
 70
     1
102
RTVSPost2010Prop45
280
     0
102
RTVSPost2010PropOp45
 70
     1
102
RTVSPost2010Prop46
 90
       50
102
RTVSPost2010PropOp46
 70
     1
102
RTVSPost2010Prop47
 90
       50
102
RTVSPost2010PropOp47
 70
     1
102
RTVSPost2010Prop48
 90
       50
102
RTVSPost2010PropOp48
 70
     1
102
RTVSPost2010Prop49
280
     0
102
RTVSPost2010PropOp49
 70
     1
102
RTVSPost2010Prop50
 90
       50
102
RTVSPost2010PropOp50
 70
     1
102
RTVSPost2010Prop51ColorIndex
 90
      256
102
RTVSPost2010Prop51ColorRGB
 90
-16777216
102
RTVSPost2010PropOp51
 70
     0
102
RTVSPost2010Prop52
140
1.0
102
RTVSPost2010PropOp52
 70
     0
102
RTVSPost2010Prop53
 90
        2
102
RTVSPost2010PropOp53
 70
     1
102
RTVSPost2010Prop54
  1
strokes_ogs.tif
102
RTVSPost2010PropOp54
 70
     1
102
RTVSPost2010Prop55
280
     0
102
RTVSPost2010PropOp55
 70
     1
102
RTVSPost2010Prop56
140
1.0
102
RTVSPost2010PropOp56
 70
     1
102
RTVSPost2010Prop57
140
1.0
102
RTVSPost2010PropOp57
 70
     1
  0
XRECORD
  5
2149
102
{ACAD_REACTORS
330
2148
102
}
330
2148
100
AcDbXrecord
280
     1
102
RTVSPropertyOp0
 70
     1
102
RTVSPropertyOp1
 70
     1
102
RTVSPropertyOp2
 70
     1
102
RTVSPropertyOp3
 70
     1
102
RTVSPropertyOp4
 70
     1
102
RTVSPropertyOp5
 70
     1
102
RTVSPropertyOp6
 70
     1
102
RTVSPropertyOp7
 70
     1
102
RTVSPropertyOp8
 70
     1
102
RTVSPropertyOp9
 70
     1
102
RTVSPropertyOp10
 70
     1
102
RTVSPropertyOp11
 70
     1
102
RTVSPropertyOp12
 70
     1
102
RTVSPropertyOp13
 70
     1
102
RTVSPropertyOp14
 70
     1
102
RTVSPropertyOp15
 70
     1
102
RTVSPropertyOp16
 70
     1
102
RTVSPropertyOp17
 70
     1
102
RTVSPropertyOp18
 70
     1
102
RTVSPropertyOp19
 70
     1
102
RTVSPropertyOp20
 70
     1
102
RTVSPropertyOp21
 70
     1
102
RTVSPropertyOp22
 70
     1
102
RTVSPropertyOp23
 70
     1
102
RTVSPropertyOp24
 70
     1
102
RTVSPropertyOp25
 70
     1
102
RTVSPropertyOp26
 70
     1
102
RTVSPropertyOp27
 70
     1
102
RTVSPropertyOp28
 70
     1
102
RTVSPropertyOp29
 70
     1
102
RTVSPropertyOp30
 70
     1
102
RTVSPropertyOp31
 70
     1
102
RTVSPropertyOp32
 70
     1
102
RTVSPropertyOp33
 70
     1
102
RTVSPropertyOp34
 70
     1
102
RTVSPropertyOp35
 70
     1
102
RTVSPropertyOp36
 70
     1
102
RTVSPropertyOp37
 70
     1
102
RTVSPropertyOp38
 70
     1
102
RTVSPropertyOp39
 70
     1
102
RTVSPropertyOp40
 70
     1
102
RTVSPropertyOp41
 70
     1
102
RTVSPropertyOp42
 70
     1
102
RTVSPropertyOp43
 70
     1
102
RTVSPropertyOp44
 70
     1
102
RTVSPropertyOp45
 70
     1
102
RTVSPropertyOp46
 70
     1
102
RTVSPropertyOp47
 70
     1
102
RTVSPropertyOp48
 70
     1
102
RTVSPropertyOp49
 70
     1
102
RTVSPropertyOp50
 70
     1
102
RTVSPropertyOp51
 70
     0
102
RTVSPropertyOp52
 70
     0
102
RTVSPropertyOp53
 70
     1
102
RTVSPropertyOp54
 70
     1
102
RTVSPropertyOp55
 70
     1
102
RTVSPropertyOp56
 70
     1
102
RTVSPropertyOp57
 70
     1
102
RTVSPost2010Prop28
280
     0
102
RTVSPost2010PropOp28
 70
     1
102
RTVSPost2010Prop29
280
     1
102
RTVSPost2010PropOp29
 70
     1
102
RTVSPost2010Prop30
280
     1
102
RTVSPost2010PropOp30
 70
     1
102
RTVSPost2010Prop31
280
     0
102
RTVSPost2010PropOp31
 70
     1
102
RTVSPost2010Prop32
280
     0
102
RTVSPost2010PropOp32
 70
     1
102
RTVSPost2010Prop33
280
     0
102
RTVSPost2010PropOp33
 70
     1
102
RTVSPost2010Prop34
280
     0
102
RTVSPost2010PropOp34
 70
     1
102
RTVSPost2010Prop35
280
     0
102
RTVSPost2010PropOp35
 70
     1
102
RTVSPost2010Prop36
280
     0
102
RTVSPost2010PropOp36
 70
     1
102
RTVSPost2010Prop37
 90
       50
102
RTVSPost2010PropOp37
 70
     1
102
RTVSPost2010Prop38
140
0.0
102
RTVSPost2010PropOp38
 70
     1
102
RTVSPost2010Prop39
140
1.0
102
RTVSPost2010PropOp39
 70
     1
102
RTVSPost2010Prop40
 90
        0
102
RTVSPost2010PropOp40
 70
     1
102
RTVSPost2010Prop41ColorIndex
 90
       18
102
RTVSPost2010Prop41ColorRGB
 90
        0
102
RTVSPost2010PropOp41
 70
     1
102
RTVSPost2010Prop42
 90
       50
102
RTVSPost2010PropOp42
 70
     1
102
RTVSPost2010Prop43
 90
        3
102
RTVSPost2010PropOp43
 70
     1
102
RTVSPost2010Prop44ColorIndex
 90
        5
102
RTVSPost2010Prop44ColorRGB
 90
      255
102
RTVSPost2010PropOp44
 70
     1
102
RTVSPost2010Prop45
280
     0
102
RTVSPost2010PropOp45
 70
     1
102
RTVSPost2010Prop46
 90
       50
102
RTVSPost2010PropOp46
 70
     1
102
RTVSPost2010Prop47
 90
       50
102
RTVSPost2010PropOp47
 70
     1
102
RTVSPost2010Prop48
 90
       50
102
RTVSPost2010PropOp48
 70
     1
102
RTVSPost2010Prop49
280
     0
102
RTVSPost2010PropOp49
 70
     1
102
RTVSPost2010Prop50
 90
       50
102
RTVSPost2010PropOp50
 70
     1
102
RTVSPost2010Prop51ColorIndex
 90
      256
102
RTVSPost2010Prop51ColorRGB
 90
-16777216
102
RTVSPost2010PropOp51
 70
     0
102
RTVSPost2010Prop52
140
1.0
102
RTVSPost2010PropOp52
 70
     0
102
RTVSPost2010Prop53
 90
        2
102
RTVSPost2010PropOp53
 70
     1
102
RTVSPost2010Prop54
  1
strokes_ogs.tif
102
RTVSPost2010PropOp54
 70
     1
102
RTVSPost2010Prop55
280
     0
102
RTVSPost2010PropOp55
 70
     1
102
RTVSPost2010Prop56
140
1.0
102
RTVSPost2010PropOp56
 70
     1
102
RTVSPost2010Prop57
140
1.0
102
RTVSPost2010PropOp57
 70
     1
  0
XRECORD
  5
214B
102
{ACAD_REACTORS
330
214A
102
}
330
214A
100
AcDbXrecord
280
     1
102
RTVSPropertyOp0
 70
     1
102
RTVSPropertyOp1
 70
     1
102
RTVSPropertyOp2
 70
     1
102
RTVSPropertyOp3
 70
     1
102
RTVSPropertyOp4
 70
     1
102
RTVSPropertyOp5
 70
     1
102
RTVSPropertyOp6
 70
     1
102
RTVSPropertyOp7
 70
     1
102
RTVSPropertyOp8
 70
     1
102
RTVSPropertyOp9
 70
     1
102
RTVSPropertyOp10
 70
     1
102
RTVSPropertyOp11
 70
     1
102
RTVSPropertyOp12
 70
     1
102
RTVSPropertyOp13
 70
     1
102
RTVSPropertyOp14
 70
     1
102
RTVSPropertyOp15
 70
     1
102
RTVSPropertyOp16
 70
     1
102
RTVSPropertyOp17
 70
     1
102
RTVSPropertyOp18
 70
     1
102
RTVSPropertyOp19
 70
     1
102
RTVSPropertyOp20
 70
     1
102
RTVSPropertyOp21
 70
     1
102
RTVSPropertyOp22
 70
     1
102
RTVSPropertyOp23
 70
     1
102
RTVSPropertyOp24
 70
     1
102
RTVSPropertyOp25
 70
     1
102
RTVSPropertyOp26
 70
     1
102
RTVSPropertyOp27
 70
     1
102
RTVSPropertyOp28
 70
     1
102
RTVSPropertyOp29
 70
     1
102
RTVSPropertyOp30
 70
     1
102
RTVSPropertyOp31
 70
     1
102
RTVSPropertyOp32
 70
     1
102
RTVSPropertyOp33
 70
     1
102
RTVSPropertyOp34
 70
     1
102
RTVSPropertyOp35
 70
     1
102
RTVSPropertyOp36
 70
     1
102
RTVSPropertyOp37
 70
     1
102
RTVSPropertyOp38
 70
     1
102
RTVSPropertyOp39
 70
     1
102
RTVSPropertyOp40
 70
     1
102
RTVSPropertyOp41
 70
     1
102
RTVSPropertyOp42
 70
     1
102
RTVSPropertyOp43
 70
     1
102
RTVSPropertyOp44
 70
     1
102
RTVSPropertyOp45
 70
     1
102
RTVSPropertyOp46
 70
     1
102
RTVSPropertyOp47
 70
     1
102
RTVSPropertyOp48
 70
     1
102
RTVSPropertyOp49
 70
     1
102
RTVSPropertyOp50
 70
     1
102
RTVSPropertyOp51
 70
     0
102
RTVSPropertyOp52
 70
     0
102
RTVSPropertyOp53
 70
     1
102
RTVSPropertyOp54
 70
     1
102
RTVSPropertyOp55
 70
     1
102
RTVSPropertyOp56
 70
     1
102
RTVSPropertyOp57
 70
     1
102
RTVSPost2010Prop28
280
     0
102
RTVSPost2010PropOp28
 70
     1
102
RTVSPost2010Prop29
280
     1
102
RTVSPost2010PropOp29
 70
     1
102
RTVSPost2010Prop30
280
     1
102
RTVSPost2010PropOp30
 70
     1
102
RTVSPost2010Prop31
280
     0
102
RTVSPost2010PropOp31
 70
     1
102
RTVSPost2010Prop32
280
     0
102
RTVSPost2010PropOp32
 70
     1
102
RTVSPost2010Prop33
280
     0
102
RTVSPost2010PropOp33
 70
     1
102
RTVSPost2010Prop34
280
     0
102
RTVSPost2010PropOp34
 70
     1
102
RTVSPost2010Prop35
280
     0
102
RTVSPost2010PropOp35
 70
     1
102
RTVSPost2010Prop36
280
     0
102
RTVSPost2010PropOp36
 70
     1
102
RTVSPost2010Prop37
 90
       50
102
RTVSPost2010PropOp37
 70
     1
102
RTVSPost2010Prop38
140
0.0
102
RTVSPost2010PropOp38
 70
     1
102
RTVSPost2010Prop39
140
1.0
102
RTVSPost2010PropOp39
 70
     1
102
RTVSPost2010Prop40
 90
        0
102
RTVSPost2010PropOp40
 70
     1
102
RTVSPost2010Prop41ColorIndex
 90
       18
102
RTVSPost2010Prop41ColorRGB
 90
        0
102
RTVSPost2010PropOp41
 70
     1
102
RTVSPost2010Prop42
 90
       50
102
RTVSPost2010PropOp42
 70
     1
102
RTVSPost2010Prop43
 90
        3
102
RTVSPost2010PropOp43
 70
     1
102
RTVSPost2010Prop44ColorIndex
 90
        5
102
RTVSPost2010Prop44ColorRGB
 90
      255
102
RTVSPost2010PropOp44
 70
     1
102
RTVSPost2010Prop45
280
     0
102
RTVSPost2010PropOp45
 70
     1
102
RTVSPost2010Prop46
 90
       50
102
RTVSPost2010PropOp46
 70
     1
102
RTVSPost2010Prop47
 90
       50
102
RTVSPost2010PropOp47
 70
     1
102
RTVSPost2010Prop48
 90
       50
102
RTVSPost2010PropOp48
 70
     1
102
RTVSPost2010Prop49
280
     0
102
RTVSPost2010PropOp49
 70
     1
102
RTVSPost2010Prop50
 90
       50
102
RTVSPost2010PropOp50
 70
     1
102
RTVSPost2010Prop51ColorIndex
 90
      256
102
RTVSPost2010Prop51ColorRGB
 90
-16777216
102
RTVSPost2010PropOp51
 70
     0
102
RTVSPost2010Prop52
140
1.0
102
RTVSPost2010PropOp52
 70
     0
102
RTVSPost2010Prop53
 90
        2
102
RTVSPost2010PropOp53
 70
     1
102
RTVSPost2010Prop54
  1
strokes_ogs.tif
102
RTVSPost2010PropOp54
 70
     1
102
RTVSPost2010Prop55
280
     0
102
RTVSPost2010PropOp55
 70
     1
102
RTVSPost2010Prop56
140
1.0
102
RTVSPost2010PropOp56
 70
     1
102
RTVSPost2010Prop57
140
1.0
102
RTVSPost2010PropOp57
 70
     1
  0
XRECORD
  5
214D
102
{ACAD_REACTORS
330
214C
102
}
330
214C
100
AcDbXrecord
280
     1
102
RTVSPropertyOp0
 70
     1
102
RTVSPropertyOp1
 70
     1
102
RTVSPropertyOp2
 70
     1
102
RTVSPropertyOp3
 70
     1
102
RTVSPropertyOp4
 70
     1
102
RTVSPropertyOp5
 70
     1
102
RTVSPropertyOp6
 70
     1
102
RTVSPropertyOp7
 70
     1
102
RTVSPropertyOp8
 70
     1
102
RTVSPropertyOp9
 70
     1
102
RTVSPropertyOp10
 70
     1
102
RTVSPropertyOp11
 70
     1
102
RTVSPropertyOp12
 70
     1
102
RTVSPropertyOp13
 70
     1
102
RTVSPropertyOp14
 70
     1
102
RTVSPropertyOp15
 70
     1
102
RTVSPropertyOp16
 70
     1
102
RTVSPropertyOp17
 70
     1
102
RTVSPropertyOp18
 70
     1
102
RTVSPropertyOp19
 70
     1
102
RTVSPropertyOp20
 70
     1
102
RTVSPropertyOp21
 70
     1
102
RTVSPropertyOp22
 70
     1
102
RTVSPropertyOp23
 70
     1
102
RTVSPropertyOp24
 70
     1
102
RTVSPropertyOp25
 70
     1
102
RTVSPropertyOp26
 70
     1
102
RTVSPropertyOp27
 70
     1
102
RTVSPropertyOp28
 70
     1
102
RTVSPropertyOp29
 70
     1
102
RTVSPropertyOp30
 70
     1
102
RTVSPropertyOp31
 70
     1
102
RTVSPropertyOp32
 70
     1
102
RTVSPropertyOp33
 70
     1
102
RTVSPropertyOp34
 70
     1
102
RTVSPropertyOp35
 70
     1
102
RTVSPropertyOp36
 70
     1
102
RTVSPropertyOp37
 70
     1
102
RTVSPropertyOp38
 70
     1
102
RTVSPropertyOp39
 70
     1
102
RTVSPropertyOp40
 70
     1
102
RTVSPropertyOp41
 70
     1
102
RTVSPropertyOp42
 70
     1
102
RTVSPropertyOp43
 70
     1
102
RTVSPropertyOp44
 70
     1
102
RTVSPropertyOp45
 70
     1
102
RTVSPropertyOp46
 70
     1
102
RTVSPropertyOp47
 70
     1
102
RTVSPropertyOp48
 70
     1
102
RTVSPropertyOp49
 70
     1
102
RTVSPropertyOp50
 70
     1
102
RTVSPropertyOp51
 70
     0
102
RTVSPropertyOp52
 70
     0
102
RTVSPropertyOp53
 70
     1
102
RTVSPropertyOp54
 70
     1
102
RTVSPropertyOp55
 70
     1
102
RTVSPropertyOp56
 70
     1
102
RTVSPropertyOp57
 70
     1
102
RTVSPost2010Prop28
280
     0
102
RTVSPost2010PropOp28
 70
     1
102
RTVSPost2010Prop29
280
     1
102
RTVSPost2010PropOp29
 70
     1
102
RTVSPost2010Prop30
280
     1
102
RTVSPost2010PropOp30
 70
     1
102
RTVSPost2010Prop31
280
     0
102
RTVSPost2010PropOp31
 70
     1
102
RTVSPost2010Prop32
280
     0
102
RTVSPost2010PropOp32
 70
     1
102
RTVSPost2010Prop33
280
     0
102
RTVSPost2010PropOp33
 70
     1
102
RTVSPost2010Prop34
280
     0
102
RTVSPost2010PropOp34
 70
     1
102
RTVSPost2010Prop35
280
     0
102
RTVSPost2010PropOp35
 70
     1
102
RTVSPost2010Prop36
280
     0
102
RTVSPost2010PropOp36
 70
     1
102
RTVSPost2010Prop37
 90
       50
102
RTVSPost2010PropOp37
 70
     1
102
RTVSPost2010Prop38
140
0.0
102
RTVSPost2010PropOp38
 70
     1
102
RTVSPost2010Prop39
140
1.0
102
RTVSPost2010PropOp39
 70
     1
102
RTVSPost2010Prop40
 90
        0
102
RTVSPost2010PropOp40
 70
     1
102
RTVSPost2010Prop41ColorIndex
 90
       18
102
RTVSPost2010Prop41ColorRGB
 90
        0
102
RTVSPost2010PropOp41
 70
     1
102
RTVSPost2010Prop42
 90
       50
102
RTVSPost2010PropOp42
 70
     1
102
RTVSPost2010Prop43
 90
        3
102
RTVSPost2010PropOp43
 70
     1
102
RTVSPost2010Prop44ColorIndex
 90
        5
102
RTVSPost2010Prop44ColorRGB
 90
      255
102
RTVSPost2010PropOp44
 70
     1
102
RTVSPost2010Prop45
280
     0
102
RTVSPost2010PropOp45
 70
     1
102
RTVSPost2010Prop46
 90
       50
102
RTVSPost2010PropOp46
 70
     1
102
RTVSPost2010Prop47
 90
       50
102
RTVSPost2010PropOp47
 70
     1
102
RTVSPost2010Prop48
 90
       50
102
RTVSPost2010PropOp48
 70
     1
102
RTVSPost2010Prop49
280
     0
102
RTVSPost2010PropOp49
 70
     1
102
RTVSPost2010Prop50
 90
       50
102
RTVSPost2010PropOp50
 70
     1
102
RTVSPost2010Prop51ColorIndex
 90
      256
102
RTVSPost2010Prop51ColorRGB
 90
-16777216
102
RTVSPost2010PropOp51
 70
     0
102
RTVSPost2010Prop52
140
1.0
102
RTVSPost2010PropOp52
 70
     0
102
RTVSPost2010Prop53
 90
        2
102
RTVSPost2010PropOp53
 70
     1
102
RTVSPost2010Prop54
  1
strokes_ogs.tif
102
RTVSPost2010PropOp54
 70
     1
102
RTVSPost2010Prop55
280
     0
102
RTVSPost2010PropOp55
 70
     1
102
RTVSPost2010Prop56
140
1.0
102
RTVSPost2010PropOp56
 70
     1
102
RTVSPost2010Prop57
140
1.0
102
RTVSPost2010PropOp57
 70
     1
  0
XRECORD
  5
214F
102
{ACAD_REACTORS
330
214E
102
}
330
214E
100
AcDbXrecord
280
     1
102
RTVSPropertyOp0
 70
     1
102
RTVSPropertyOp1
 70
     1
102
RTVSPropertyOp2
 70
     1
102
RTVSPropertyOp3
 70
     1
102
RTVSPropertyOp4
 70
     1
102
RTVSPropertyOp5
 70
     1
102
RTVSPropertyOp6
 70
     1
102
RTVSPropertyOp7
 70
     1
102
RTVSPropertyOp8
 70
     1
102
RTVSPropertyOp9
 70
     1
102
RTVSPropertyOp10
 70
     1
102
RTVSPropertyOp11
 70
     1
102
RTVSPropertyOp12
 70
     1
102
RTVSPropertyOp13
 70
     1
102
RTVSPropertyOp14
 70
     1
102
RTVSPropertyOp15
 70
     1
102
RTVSPropertyOp16
 70
     1
102
RTVSPropertyOp17
 70
     1
102
RTVSPropertyOp18
 70
     1
102
RTVSPropertyOp19
 70
     1
102
RTVSPropertyOp20
 70
     1
102
RTVSPropertyOp21
 70
     1
102
RTVSPropertyOp22
 70
     1
102
RTVSPropertyOp23
 70
     1
102
RTVSPropertyOp24
 70
     1
102
RTVSPropertyOp25
 70
     1
102
RTVSPropertyOp26
 70
     1
102
RTVSPropertyOp27
 70
     1
102
RTVSPropertyOp28
 70
     1
102
RTVSPropertyOp29
 70
     1
102
RTVSPropertyOp30
 70
     1
102
RTVSPropertyOp31
 70
     1
102
RTVSPropertyOp32
 70
     1
102
RTVSPropertyOp33
 70
     1
102
RTVSPropertyOp34
 70
     1
102
RTVSPropertyOp35
 70
     1
102
RTVSPropertyOp36
 70
     1
102
RTVSPropertyOp37
 70
     1
102
RTVSPropertyOp38
 70
     1
102
RTVSPropertyOp39
 70
     1
102
RTVSPropertyOp40
 70
     1
102
RTVSPropertyOp41
 70
     1
102
RTVSPropertyOp42
 70
     1
102
RTVSPropertyOp43
 70
     1
102
RTVSPropertyOp44
 70
     1
102
RTVSPropertyOp45
 70
     1
102
RTVSPropertyOp46
 70
     1
102
RTVSPropertyOp47
 70
     1
102
RTVSPropertyOp48
 70
     1
102
RTVSPropertyOp49
 70
     1
102
RTVSPropertyOp50
 70
     1
102
RTVSPropertyOp51
 70
     0
102
RTVSPropertyOp52
 70
     0
102
RTVSPropertyOp53
 70
     1
102
RTVSPropertyOp54
 70
     1
102
RTVSPropertyOp55
 70
     1
102
RTVSPropertyOp56
 70
     1
102
RTVSPropertyOp57
 70
     1
102
RTVSPost2010Prop28
280
     0
102
RTVSPost2010PropOp28
 70
     1
102
RTVSPost2010Prop29
280
     1
102
RTVSPost2010PropOp29
 70
     1
102
RTVSPost2010Prop30
280
     1
102
RTVSPost2010PropOp30
 70
     1
102
RTVSPost2010Prop31
280
     0
102
RTVSPost2010PropOp31
 70
     1
102
RTVSPost2010Prop32
280
     0
102
RTVSPost2010PropOp32
 70
     1
102
RTVSPost2010Prop33
280
     0
102
RTVSPost2010PropOp33
 70
     1
102
RTVSPost2010Prop34
280
     0
102
RTVSPost2010PropOp34
 70
     1
102
RTVSPost2010Prop35
280
     0
102
RTVSPost2010PropOp35
 70
     1
102
RTVSPost2010Prop36
280
     0
102
RTVSPost2010PropOp36
 70
     1
102
RTVSPost2010Prop37
 90
       50
102
RTVSPost2010PropOp37
 70
     1
102
RTVSPost2010Prop38
140
0.0
102
RTVSPost2010PropOp38
 70
     1
102
RTVSPost2010Prop39
140
1.0
102
RTVSPost2010PropOp39
 70
     1
102
RTVSPost2010Prop40
 90
        0
102
RTVSPost2010PropOp40
 70
     1
102
RTVSPost2010Prop41ColorIndex
 90
       18
102
RTVSPost2010Prop41ColorRGB
 90
        0
102
RTVSPost2010PropOp41
 70
     1
102
RTVSPost2010Prop42
 90
       50
102
RTVSPost2010PropOp42
 70
     1
102
RTVSPost2010Prop43
 90
        3
102
RTVSPost2010PropOp43
 70
     1
102
RTVSPost2010Prop44ColorIndex
 90
        5
102
RTVSPost2010Prop44ColorRGB
 90
      255
102
RTVSPost2010PropOp44
 70
     1
102
RTVSPost2010Prop45
280
     0
102
RTVSPost2010PropOp45
 70
     1
102
RTVSPost2010Prop46
 90
       50
102
RTVSPost2010PropOp46
 70
     1
102
RTVSPost2010Prop47
 90
       50
102
RTVSPost2010PropOp47
 70
     1
102
RTVSPost2010Prop48
 90
       50
102
RTVSPost2010PropOp48
 70
     1
102
RTVSPost2010Prop49
280
     0
102
RTVSPost2010PropOp49
 70
     1
102
RTVSPost2010Prop50
 90
       50
102
RTVSPost2010PropOp50
 70
     1
102
RTVSPost2010Prop51ColorIndex
 90
      256
102
RTVSPost2010Prop51ColorRGB
 90
-16777216
102
RTVSPost2010PropOp51
 70
     0
102
RTVSPost2010Prop52
140
1.0
102
RTVSPost2010PropOp52
 70
     0
102
RTVSPost2010Prop53
 90
        2
102
RTVSPost2010PropOp53
 70
     1
102
RTVSPost2010Prop54
  1
strokes_ogs.tif
102
RTVSPost2010PropOp54
 70
     1
102
RTVSPost2010Prop55
280
     0
102
RTVSPost2010PropOp55
 70
     1
102
RTVSPost2010Prop56
140
1.0
102
RTVSPost2010PropOp56
 70
     1
102
RTVSPost2010Prop57
140
1.0
102
RTVSPost2010PropOp57
 70
     1
  0
XRECORD
  5
2151
102
{ACAD_REACTORS
330
2150
102
}
330
2150
100
AcDbXrecord
280
     1
102
RTVSPropertyOp0
 70
     1
102
RTVSPropertyOp1
 70
     1
102
RTVSPropertyOp2
 70
     1
102
RTVSPropertyOp3
 70
     1
102
RTVSPropertyOp4
 70
     1
102
RTVSPropertyOp5
 70
     1
102
RTVSPropertyOp6
 70
     1
102
RTVSPropertyOp7
 70
     1
102
RTVSPropertyOp8
 70
     1
102
RTVSPropertyOp9
 70
     1
102
RTVSPropertyOp10
 70
     1
102
RTVSPropertyOp11
 70
     1
102
RTVSPropertyOp12
 70
     1
102
RTVSPropertyOp13
 70
     1
102
RTVSPropertyOp14
 70
     1
102
RTVSPropertyOp15
 70
     1
102
RTVSPropertyOp16
 70
     1
102
RTVSPropertyOp17
 70
     1
102
RTVSPropertyOp18
 70
     1
102
RTVSPropertyOp19
 70
     1
102
RTVSPropertyOp20
 70
     1
102
RTVSPropertyOp21
 70
     1
102
RTVSPropertyOp22
 70
     1
102
RTVSPropertyOp23
 70
     1
102
RTVSPropertyOp24
 70
     1
102
RTVSPropertyOp25
 70
     1
102
RTVSPropertyOp26
 70
     1
102
RTVSPropertyOp27
 70
     1
102
RTVSPropertyOp28
 70
     1
102
RTVSPropertyOp29
 70
     1
102
RTVSPropertyOp30
 70
     1
102
RTVSPropertyOp31
 70
     1
102
RTVSPropertyOp32
 70
     1
102
RTVSPropertyOp33
 70
     1
102
RTVSPropertyOp34
 70
     1
102
RTVSPropertyOp35
 70
     1
102
RTVSPropertyOp36
 70
     1
102
RTVSPropertyOp37
 70
     1
102
RTVSPropertyOp38
 70
     1
102
RTVSPropertyOp39
 70
     1
102
RTVSPropertyOp40
 70
     1
102
RTVSPropertyOp41
 70
     1
102
RTVSPropertyOp42
 70
     1
102
RTVSPropertyOp43
 70
     1
102
RTVSPropertyOp44
 70
     1
102
RTVSPropertyOp45
 70
     1
102
RTVSPropertyOp46
 70
     1
102
RTVSPropertyOp47
 70
     1
102
RTVSPropertyOp48
 70
     1
102
RTVSPropertyOp49
 70
     1
102
RTVSPropertyOp50
 70
     1
102
RTVSPropertyOp51
 70
     0
102
RTVSPropertyOp52
 70
     0
102
RTVSPropertyOp53
 70
     1
102
RTVSPropertyOp54
 70
     1
102
RTVSPropertyOp55
 70
     1
102
RTVSPropertyOp56
 70
     1
102
RTVSPropertyOp57
 70
     1
102
RTVSPost2010Prop28
280
     0
102
RTVSPost2010PropOp28
 70
     1
102
RTVSPost2010Prop29
280
     1
102
RTVSPost2010PropOp29
 70
     1
102
RTVSPost2010Prop30
280
     1
102
RTVSPost2010PropOp30
 70
     1
102
RTVSPost2010Prop31
280
     0
102
RTVSPost2010PropOp31
 70
     1
102
RTVSPost2010Prop32
280
     0
102
RTVSPost2010PropOp32
 70
     1
102
RTVSPost2010Prop33
280
     0
102
RTVSPost2010PropOp33
 70
     1
102
RTVSPost2010Prop34
280
     0
102
RTVSPost2010PropOp34
 70
     1
102
RTVSPost2010Prop35
280
     0
102
RTVSPost2010PropOp35
 70
     1
102
RTVSPost2010Prop36
280
     0
102
RTVSPost2010PropOp36
 70
     1
102
RTVSPost2010Prop37
 90
       50
102
RTVSPost2010PropOp37
 70
     1
102
RTVSPost2010Prop38
140
0.0
102
RTVSPost2010PropOp38
 70
     1
102
RTVSPost2010Prop39
140
1.0
102
RTVSPost2010PropOp39
 70
     1
102
RTVSPost2010Prop40
 90
        0
102
RTVSPost2010PropOp40
 70
     1
102
RTVSPost2010Prop41ColorIndex
 90
       18
102
RTVSPost2010Prop41ColorRGB
 90
        0
102
RTVSPost2010PropOp41
 70
     1
102
RTVSPost2010Prop42
 90
       50
102
RTVSPost2010PropOp42
 70
     1
102
RTVSPost2010Prop43
 90
        3
102
RTVSPost2010PropOp43
 70
     1
102
RTVSPost2010Prop44ColorIndex
 90
        5
102
RTVSPost2010Prop44ColorRGB
 90
      255
102
RTVSPost2010PropOp44
 70
     1
102
RTVSPost2010Prop45
280
     0
102
RTVSPost2010PropOp45
 70
     1
102
RTVSPost2010Prop46
 90
       50
102
RTVSPost2010PropOp46
 70
     1
102
RTVSPost2010Prop47
 90
       50
102
RTVSPost2010PropOp47
 70
     1
102
RTVSPost2010Prop48
 90
       50
102
RTVSPost2010PropOp48
 70
     1
102
RTVSPost2010Prop49
280
     0
102
RTVSPost2010PropOp49
 70
     1
102
RTVSPost2010Prop50
 90
       50
102
RTVSPost2010PropOp50
 70
     1
102
RTVSPost2010Prop51ColorIndex
 90
      256
102
RTVSPost2010Prop51ColorRGB
 90
-16777216
102
RTVSPost2010PropOp51
 70
     0
102
RTVSPost2010Prop52
140
1.0
102
RTVSPost2010PropOp52
 70
     0
102
RTVSPost2010Prop53
 90
        2
102
RTVSPost2010PropOp53
 70
     1
102
RTVSPost2010Prop54
  1
strokes_ogs.tif
102
RTVSPost2010PropOp54
 70
     1
102
RTVSPost2010Prop55
280
     0
102
RTVSPost2010PropOp55
 70
     1
102
RTVSPost2010Prop56
140
1.0
102
RTVSPost2010PropOp56
 70
     1
102
RTVSPost2010Prop57
140
1.0
102
RTVSPost2010PropOp57
 70
     1
  0
XRECORD
  5
2153
102
{ACAD_REACTORS
330
2152
102
}
330
2152
100
AcDbXrecord
280
     1
102
RTVSPropertyOp0
 70
     1
102
RTVSPropertyOp1
 70
     1
102
RTVSPropertyOp2
 70
     1
102
RTVSPropertyOp3
 70
     1
102
RTVSPropertyOp4
 70
     1
102
RTVSPropertyOp5
 70
     1
102
RTVSPropertyOp6
 70
     1
102
RTVSPropertyOp7
 70
     1
102
RTVSPropertyOp8
 70
     1
102
RTVSPropertyOp9
 70
     1
102
RTVSPropertyOp10
 70
     1
102
RTVSPropertyOp11
 70
     1
102
RTVSPropertyOp12
 70
     1
102
RTVSPropertyOp13
 70
     1
102
RTVSPropertyOp14
 70
     1
102
RTVSPropertyOp15
 70
     1
102
RTVSPropertyOp16
 70
     1
102
RTVSPropertyOp17
 70
     1
102
RTVSPropertyOp18
 70
     1
102
RTVSPropertyOp19
 70
     1
102
RTVSPropertyOp20
 70
     1
102
RTVSPropertyOp21
 70
     1
102
RTVSPropertyOp22
 70
     1
102
RTVSPropertyOp23
 70
     1
102
RTVSPropertyOp24
 70
     1
102
RTVSPropertyOp25
 70
     1
102
RTVSPropertyOp26
 70
     1
102
RTVSPropertyOp27
 70
     1
102
RTVSPropertyOp28
 70
     1
102
RTVSPropertyOp29
 70
     1
102
RTVSPropertyOp30
 70
     1
102
RTVSPropertyOp31
 70
     1
102
RTVSPropertyOp32
 70
     1
102
RTVSPropertyOp33
 70
     1
102
RTVSPropertyOp34
 70
     1
102
RTVSPropertyOp35
 70
     1
102
RTVSPropertyOp36
 70
     1
102
RTVSPropertyOp37
 70
     1
102
RTVSPropertyOp38
 70
     1
102
RTVSPropertyOp39
 70
     1
102
RTVSPropertyOp40
 70
     1
102
RTVSPropertyOp41
 70
     1
102
RTVSPropertyOp42
 70
     1
102
RTVSPropertyOp43
 70
     1
102
RTVSPropertyOp44
 70
     1
102
RTVSPropertyOp45
 70
     1
102
RTVSPropertyOp46
 70
     1
102
RTVSPropertyOp47
 70
     1
102
RTVSPropertyOp48
 70
     1
102
RTVSPropertyOp49
 70
     1
102
RTVSPropertyOp50
 70
     1
102
RTVSPropertyOp51
 70
     0
102
RTVSPropertyOp52
 70
     0
102
RTVSPropertyOp53
 70
     1
102
RTVSPropertyOp54
 70
     1
102
RTVSPropertyOp55
 70
     1
102
RTVSPropertyOp56
 70
     1
102
RTVSPropertyOp57
 70
     1
102
RTVSPost2010Prop28
280
     0
102
RTVSPost2010PropOp28
 70
     1
102
RTVSPost2010Prop29
280
     1
102
RTVSPost2010PropOp29
 70
     1
102
RTVSPost2010Prop30
280
     1
102
RTVSPost2010PropOp30
 70
     1
102
RTVSPost2010Prop31
280
     0
102
RTVSPost2010PropOp31
 70
     1
102
RTVSPost2010Prop32
280
     0
102
RTVSPost2010PropOp32
 70
     1
102
RTVSPost2010Prop33
280
     0
102
RTVSPost2010PropOp33
 70
     1
102
RTVSPost2010Prop34
280
     0
102
RTVSPost2010PropOp34
 70
     1
102
RTVSPost2010Prop35
280
     0
102
RTVSPost2010PropOp35
 70
     1
102
RTVSPost2010Prop36
280
     0
102
RTVSPost2010PropOp36
 70
     1
102
RTVSPost2010Prop37
 90
       50
102
RTVSPost2010PropOp37
 70
     1
102
RTVSPost2010Prop38
140
0.0
102
RTVSPost2010PropOp38
 70
     1
102
RTVSPost2010Prop39
140
1.0
102
RTVSPost2010PropOp39
 70
     1
102
RTVSPost2010Prop40
 90
        0
102
RTVSPost2010PropOp40
 70
     1
102
RTVSPost2010Prop41ColorIndex
 90
       18
102
RTVSPost2010Prop41ColorRGB
 90
        0
102
RTVSPost2010PropOp41
 70
     1
102
RTVSPost2010Prop42
 90
       50
102
RTVSPost2010PropOp42
 70
     1
102
RTVSPost2010Prop43
 90
        3
102
RTVSPost2010PropOp43
 70
     1
102
RTVSPost2010Prop44ColorIndex
 90
        5
102
RTVSPost2010Prop44ColorRGB
 90
      255
102
RTVSPost2010PropOp44
 70
     1
102
RTVSPost2010Prop45
280
     0
102
RTVSPost2010PropOp45
 70
     1
102
RTVSPost2010Prop46
 90
       50
102
RTVSPost2010PropOp46
 70
     1
102
RTVSPost2010Prop47
 90
       50
102
RTVSPost2010PropOp47
 70
     1
102
RTVSPost2010Prop48
 90
       50
102
RTVSPost2010PropOp48
 70
     1
102
RTVSPost2010Prop49
280
     0
102
RTVSPost2010PropOp49
 70
     1
102
RTVSPost2010Prop50
 90
       50
102
RTVSPost2010PropOp50
 70
     1
102
RTVSPost2010Prop51ColorIndex
 90
      256
102
RTVSPost2010Prop51ColorRGB
 90
-16777216
102
RTVSPost2010PropOp51
 70
     0
102
RTVSPost2010Prop52
140
1.0
102
RTVSPost2010PropOp52
 70
     0
102
RTVSPost2010Prop53
 90
        2
102
RTVSPost2010PropOp53
 70
     1
102
RTVSPost2010Prop54
  1
strokes_ogs.tif
102
RTVSPost2010PropOp54
 70
     1
102
RTVSPost2010Prop55
280
     0
102
RTVSPost2010PropOp55
 70
     1
102
RTVSPost2010Prop56
140
1.0
102
RTVSPost2010PropOp56
 70
     1
102
RTVSPost2010Prop57
140
1.0
102
RTVSPost2010PropOp57
 70
     1
  0
XRECORD
  5
2155
102
{ACAD_REACTORS
330
2154
102
}
330
2154
100
AcDbXrecord
280
     1
102
RTVSPropertyOp0
 70
     0
102
RTVSPropertyOp1
 70
     0
102
RTVSPropertyOp2
 70
     0
102
RTVSPropertyOp3
 70
     0
102
RTVSPropertyOp4
 70
     0
102
RTVSPropertyOp5
 70
     0
102
RTVSPropertyOp6
 70
     0
102
RTVSPropertyOp7
 70
     0
102
RTVSPropertyOp8
 70
     0
102
RTVSPropertyOp9
 70
     0
102
RTVSPropertyOp10
 70
     0
102
RTVSPropertyOp11
 70
     0
102
RTVSPropertyOp12
 70
     0
102
RTVSPropertyOp13
 70
     0
102
RTVSPropertyOp14
 70
     2
102
RTVSPropertyOp15
 70
     0
102
RTVSPropertyOp16
 70
     0
102
RTVSPropertyOp17
 70
     0
102
RTVSPropertyOp18
 70
     0
102
RTVSPropertyOp19
 70
     0
102
RTVSPropertyOp20
 70
     0
102
RTVSPropertyOp21
 70
     0
102
RTVSPropertyOp22
 70
     0
102
RTVSPropertyOp23
 70
     0
102
RTVSPropertyOp24
 70
     0
102
RTVSPropertyOp25
 70
     0
102
RTVSPropertyOp26
 70
     0
102
RTVSPropertyOp27
 70
     0
102
RTVSPropertyOp28
 70
     0
102
RTVSPropertyOp29
 70
     0
102
RTVSPropertyOp30
 70
     0
102
RTVSPropertyOp31
 70
     0
102
RTVSPropertyOp32
 70
     0
102
RTVSPropertyOp33
 70
     0
102
RTVSPropertyOp34
 70
     0
102
RTVSPropertyOp35
 70
     0
102
RTVSPropertyOp36
 70
     0
102
RTVSPropertyOp37
 70
     0
102
RTVSPropertyOp38
 70
     0
102
RTVSPropertyOp39
 70
     0
102
RTVSPropertyOp40
 70
     0
102
RTVSPropertyOp41
 70
     0
102
RTVSPropertyOp42
 70
     0
102
RTVSPropertyOp43
 70
     0
102
RTVSPropertyOp44
 70
     0
102
RTVSPropertyOp45
 70
     0
102
RTVSPropertyOp46
 70
     0
102
RTVSPropertyOp47
 70
     0
102
RTVSPropertyOp48
 70
     0
102
RTVSPropertyOp49
 70
     0
102
RTVSPropertyOp50
 70
     0
102
RTVSPropertyOp51
 70
     0
102
RTVSPropertyOp52
 70
     0
102
RTVSPropertyOp53
 70
     0
102
RTVSPropertyOp54
 70
     0
102
RTVSPropertyOp55
 70
     0
102
RTVSPropertyOp56
 70
     0
102
RTVSPropertyOp57
 70
     0
102
RTVSPost2010Prop28
280
     0
102
RTVSPost2010PropOp28
 70
     0
102
RTVSPost2010Prop29
280
     1
102
RTVSPost2010PropOp29
 70
     0
102
RTVSPost2010Prop30
280
     1
102
RTVSPost2010PropOp30
 70
     0
102
RTVSPost2010Prop31
280
     0
102
RTVSPost2010PropOp31
 70
     0
102
RTVSPost2010Prop32
280
     0
102
RTVSPost2010PropOp32
 70
     0
102
RTVSPost2010Prop33
280
     0
102
RTVSPost2010PropOp33
 70
     0
102
RTVSPost2010Prop34
280
     0
102
RTVSPost2010PropOp34
 70
     0
102
RTVSPost2010Prop35
280
     0
102
RTVSPost2010PropOp35
 70
     0
102
RTVSPost2010Prop36
280
     0
102
RTVSPost2010PropOp36
 70
     0
102
RTVSPost2010Prop37
 90
       50
102
RTVSPost2010PropOp37
 70
     0
102
RTVSPost2010Prop38
140
0.0
102
RTVSPost2010PropOp38
 70
     0
102
RTVSPost2010Prop39
140
1.0
102
RTVSPost2010PropOp39
 70
     0
102
RTVSPost2010Prop40
 90
        0
102
RTVSPost2010PropOp40
 70
     0
102
RTVSPost2010Prop41ColorIndex
 90
       18
102
RTVSPost2010Prop41ColorRGB
 90
        0
102
RTVSPost2010PropOp41
 70
     0
102
RTVSPost2010Prop42
 90
       50
102
RTVSPost2010PropOp42
 70
     0
102
RTVSPost2010Prop43
 90
        3
102
RTVSPost2010PropOp43
 70
     0
102
RTVSPost2010Prop44ColorIndex
 90
        5
102
RTVSPost2010Prop44ColorRGB
 90
      255
102
RTVSPost2010PropOp44
 70
     0
102
RTVSPost2010Prop45
280
     0
102
RTVSPost2010PropOp45
 70
     0
102
RTVSPost2010Prop46
 90
       50
102
RTVSPost2010PropOp46
 70
     0
102
RTVSPost2010Prop47
 90
       50
102
RTVSPost2010PropOp47
 70
     0
102
RTVSPost2010Prop48
 90
       50
102
RTVSPost2010PropOp48
 70
     0
102
RTVSPost2010Prop49
280
     0
102
RTVSPost2010PropOp49
 70
     0
102
RTVSPost2010Prop50
 90
       50
102
RTVSPost2010PropOp50
 70
     0
102
RTVSPost2010Prop51ColorIndex
 90
      256
102
RTVSPost2010Prop51ColorRGB
 90
-16777216
102
RTVSPost2010PropOp51
 70
     0
102
RTVSPost2010Prop52
140
1.0
102
RTVSPost2010PropOp52
 70
     0
102
RTVSPost2010Prop53
 90
        2
102
RTVSPost2010PropOp53
 70
     0
102
RTVSPost2010Prop54
  1
strokes_ogs.tif
102
RTVSPost2010PropOp54
 70
     0
102
RTVSPost2010Prop55
280
     0
102
RTVSPost2010PropOp55
 70
     0
102
RTVSPost2010Prop56
140
1.0
102
RTVSPost2010PropOp56
 70
     0
102
RTVSPost2010Prop57
140
1.0
102
RTVSPost2010PropOp57
 70
     0
  0
XRECORD
  5
2157
102
{ACAD_REACTORS
330
2156
102
}
330
2156
100
AcDbXrecord
280
     1
102
RTVSPropertyOp0
 70
     1
102
RTVSPropertyOp1
 70
     1
102
RTVSPropertyOp2
 70
     1
102
RTVSPropertyOp3
 70
     1
102
RTVSPropertyOp4
 70
     1
102
RTVSPropertyOp5
 70
     1
102
RTVSPropertyOp6
 70
     1
102
RTVSPropertyOp7
 70
     1
102
RTVSPropertyOp8
 70
     1
102
RTVSPropertyOp9
 70
     1
102
RTVSPropertyOp10
 70
     1
102
RTVSPropertyOp11
 70
     1
102
RTVSPropertyOp12
 70
     1
102
RTVSPropertyOp13
 70
     1
102
RTVSPropertyOp14
 70
     1
102
RTVSPropertyOp15
 70
     1
102
RTVSPropertyOp16
 70
     1
102
RTVSPropertyOp17
 70
     1
102
RTVSPropertyOp18
 70
     1
102
RTVSPropertyOp19
 70
     1
102
RTVSPropertyOp20
 70
     1
102
RTVSPropertyOp21
 70
     1
102
RTVSPropertyOp22
 70
     1
102
RTVSPropertyOp23
 70
     1
102
RTVSPropertyOp24
 70
     1
102
RTVSPropertyOp25
 70
     1
102
RTVSPropertyOp26
 70
     1
102
RTVSPropertyOp27
 70
     1
102
RTVSPropertyOp28
 70
     1
102
RTVSPropertyOp29
 70
     1
102
RTVSPropertyOp30
 70
     1
102
RTVSPropertyOp31
 70
     1
102
RTVSPropertyOp32
 70
     1
102
RTVSPropertyOp33
 70
     1
102
RTVSPropertyOp34
 70
     1
102
RTVSPropertyOp35
 70
     1
102
RTVSPropertyOp36
 70
     1
102
RTVSPropertyOp37
 70
     1
102
RTVSPropertyOp38
 70
     1
102
RTVSPropertyOp39
 70
     1
102
RTVSPropertyOp40
 70
     1
102
RTVSPropertyOp41
 70
     1
102
RTVSPropertyOp42
 70
     1
102
RTVSPropertyOp43
 70
     1
102
RTVSPropertyOp44
 70
     1
102
RTVSPropertyOp45
 70
     1
102
RTVSPropertyOp46
 70
     1
102
RTVSPropertyOp47
 70
     1
102
RTVSPropertyOp48
 70
     1
102
RTVSPropertyOp49
 70
     1
102
RTVSPropertyOp50
 70
     1
102
RTVSPropertyOp51
 70
     0
102
RTVSPropertyOp52
 70
     0
102
RTVSPropertyOp53
 70
     1
102
RTVSPropertyOp54
 70
     1
102
RTVSPropertyOp55
 70
     1
102
RTVSPropertyOp56
 70
     1
102
RTVSPropertyOp57
 70
     1
102
RTVSPost2010Prop28
280
     0
102
RTVSPost2010PropOp28
 70
     1
102
RTVSPost2010Prop29
280
     1
102
RTVSPost2010PropOp29
 70
     1
102
RTVSPost2010Prop30
280
     1
102
RTVSPost2010PropOp30
 70
     1
102
RTVSPost2010Prop31
280
     0
102
RTVSPost2010PropOp31
 70
     1
102
RTVSPost2010Prop32
280
     0
102
RTVSPost2010PropOp32
 70
     1
102
RTVSPost2010Prop33
280
     0
102
RTVSPost2010PropOp33
 70
     1
102
RTVSPost2010Prop34
280
     0
102
RTVSPost2010PropOp34
 70
     1
102
RTVSPost2010Prop35
280
     0
102
RTVSPost2010PropOp35
 70
     1
102
RTVSPost2010Prop36
280
     0
102
RTVSPost2010PropOp36
 70
     1
102
RTVSPost2010Prop37
 90
       50
102
RTVSPost2010PropOp37
 70
     1
102
RTVSPost2010Prop38
140
0.0
102
RTVSPost2010PropOp38
 70
     1
102
RTVSPost2010Prop39
140
1.0
102
RTVSPost2010PropOp39
 70
     1
102
RTVSPost2010Prop40
 90
        0
102
RTVSPost2010PropOp40
 70
     1
102
RTVSPost2010Prop41ColorIndex
 90
       18
102
RTVSPost2010Prop41ColorRGB
 90
        0
102
RTVSPost2010PropOp41
 70
     1
102
RTVSPost2010Prop42
 90
       50
102
RTVSPost2010PropOp42
 70
     1
102
RTVSPost2010Prop43
 90
        3
102
RTVSPost2010PropOp43
 70
     1
102
RTVSPost2010Prop44ColorIndex
 90
        5
102
RTVSPost2010Prop44ColorRGB
 90
      255
102
RTVSPost2010PropOp44
 70
     1
102
RTVSPost2010Prop45
280
     0
102
RTVSPost2010PropOp45
 70
     1
102
RTVSPost2010Prop46
 90
       50
102
RTVSPost2010PropOp46
 70
     1
102
RTVSPost2010Prop47
 90
       50
102
RTVSPost2010PropOp47
 70
     1
102
RTVSPost2010Prop48
 90
       50
102
RTVSPost2010PropOp48
 70
     1
102
RTVSPost2010Prop49
280
     0
102
RTVSPost2010PropOp49
 70
     1
102
RTVSPost2010Prop50
 90
       50
102
RTVSPost2010PropOp50
 70
     1
102
RTVSPost2010Prop51ColorIndex
 90
      256
102
RTVSPost2010Prop51ColorRGB
 90
-16777216
102
RTVSPost2010PropOp51
 70
     0
102
RTVSPost2010Prop52
140
1.0
102
RTVSPost2010PropOp52
 70
     0
102
RTVSPost2010Prop53
 90
        2
102
RTVSPost2010PropOp53
 70
     1
102
RTVSPost2010Prop54
  1
strokes_ogs.tif
102
RTVSPost2010PropOp54
 70
     1
102
RTVSPost2010Prop55
280
     0
102
RTVSPost2010PropOp55
 70
     1
102
RTVSPost2010Prop56
140
1.0
102
RTVSPost2010PropOp56
 70
     1
102
RTVSPost2010Prop57
140
1.0
102
RTVSPost2010PropOp57
 70
     1
  0
XRECORD
  5
2159
102
{ACAD_REACTORS
330
2158
102
}
330
2158
100
AcDbXrecord
280
     1
102
RTVSPropertyOp0
 70
     1
102
RTVSPropertyOp1
 70
     1
102
RTVSPropertyOp2
 70
     1
102
RTVSPropertyOp3
 70
     1
102
RTVSPropertyOp4
 70
     1
102
RTVSPropertyOp5
 70
     1
102
RTVSPropertyOp6
 70
     1
102
RTVSPropertyOp7
 70
     1
102
RTVSPropertyOp8
 70
     1
102
RTVSPropertyOp9
 70
     1
102
RTVSPropertyOp10
 70
     1
102
RTVSPropertyOp11
 70
     1
102
RTVSPropertyOp12
 70
     1
102
RTVSPropertyOp13
 70
     1
102
RTVSPropertyOp14
 70
     1
102
RTVSPropertyOp15
 70
     1
102
RTVSPropertyOp16
 70
     1
102
RTVSPropertyOp17
 70
     1
102
RTVSPropertyOp18
 70
     1
102
RTVSPropertyOp19
 70
     1
102
RTVSPropertyOp20
 70
     1
102
RTVSPropertyOp21
 70
     1
102
RTVSPropertyOp22
 70
     1
102
RTVSPropertyOp23
 70
     1
102
RTVSPropertyOp24
 70
     1
102
RTVSPropertyOp25
 70
     1
102
RTVSPropertyOp26
 70
     1
102
RTVSPropertyOp27
 70
     1
102
RTVSPropertyOp28
 70
     1
102
RTVSPropertyOp29
 70
     1
102
RTVSPropertyOp30
 70
     1
102
RTVSPropertyOp31
 70
     1
102
RTVSPropertyOp32
 70
     1
102
RTVSPropertyOp33
 70
     1
102
RTVSPropertyOp34
 70
     1
102
RTVSPropertyOp35
 70
     1
102
RTVSPropertyOp36
 70
     1
102
RTVSPropertyOp37
 70
     1
102
RTVSPropertyOp38
 70
     1
102
RTVSPropertyOp39
 70
     1
102
RTVSPropertyOp40
 70
     1
102
RTVSPropertyOp41
 70
     1
102
RTVSPropertyOp42
 70
     1
102
RTVSPropertyOp43
 70
     1
102
RTVSPropertyOp44
 70
     1
102
RTVSPropertyOp45
 70
     1
102
RTVSPropertyOp46
 70
     1
102
RTVSPropertyOp47
 70
     1
102
RTVSPropertyOp48
 70
     1
102
RTVSPropertyOp49
 70
     1
102
RTVSPropertyOp50
 70
     1
102
RTVSPropertyOp51
 70
     0
102
RTVSPropertyOp52
 70
     0
102
RTVSPropertyOp53
 70
     1
102
RTVSPropertyOp54
 70
     1
102
RTVSPropertyOp55
 70
     1
102
RTVSPropertyOp56
 70
     1
102
RTVSPropertyOp57
 70
     1
102
RTVSPost2010Prop28
280
     0
102
RTVSPost2010PropOp28
 70
     1
102
RTVSPost2010Prop29
280
     1
102
RTVSPost2010PropOp29
 70
     1
102
RTVSPost2010Prop30
280
     1
102
RTVSPost2010PropOp30
 70
     1
102
RTVSPost2010Prop31
280
     0
102
RTVSPost2010PropOp31
 70
     1
102
RTVSPost2010Prop32
280
     0
102
RTVSPost2010PropOp32
 70
     1
102
RTVSPost2010Prop33
280
     0
102
RTVSPost2010PropOp33
 70
     1
102
RTVSPost2010Prop34
280
     0
102
RTVSPost2010PropOp34
 70
     1
102
RTVSPost2010Prop35
280
     0
102
RTVSPost2010PropOp35
 70
     1
102
RTVSPost2010Prop36
280
     0
102
RTVSPost2010PropOp36
 70
     1
102
RTVSPost2010Prop37
 90
       50
102
RTVSPost2010PropOp37
 70
     1
102
RTVSPost2010Prop38
140
0.0
102
RTVSPost2010PropOp38
 70
     1
102
RTVSPost2010Prop39
140
1.0
102
RTVSPost2010PropOp39
 70
     1
102
RTVSPost2010Prop40
 90
        0
102
RTVSPost2010PropOp40
 70
     1
102
RTVSPost2010Prop41ColorIndex
 90
       18
102
RTVSPost2010Prop41ColorRGB
 90
        0
102
RTVSPost2010PropOp41
 70
     1
102
RTVSPost2010Prop42
 90
       50
102
RTVSPost2010PropOp42
 70
     1
102
RTVSPost2010Prop43
 90
        3
102
RTVSPost2010PropOp43
 70
     1
102
RTVSPost2010Prop44ColorIndex
 90
        5
102
RTVSPost2010Prop44ColorRGB
 90
      255
102
RTVSPost2010PropOp44
 70
     1
102
RTVSPost2010Prop45
280
     0
102
RTVSPost2010PropOp45
 70
     1
102
RTVSPost2010Prop46
 90
       50
102
RTVSPost2010PropOp46
 70
     1
102
RTVSPost2010Prop47
 90
       50
102
RTVSPost2010PropOp47
 70
     1
102
RTVSPost2010Prop48
 90
       50
102
RTVSPost2010PropOp48
 70
     1
102
RTVSPost2010Prop49
280
     0
102
RTVSPost2010PropOp49
 70
     1
102
RTVSPost2010Prop50
 90
       50
102
RTVSPost2010PropOp50
 70
     1
102
RTVSPost2010Prop51ColorIndex
 90
      256
102
RTVSPost2010Prop51ColorRGB
 90
-16777216
102
RTVSPost2010PropOp51
 70
     0
102
RTVSPost2010Prop52
140
1.0
102
RTVSPost2010PropOp52
 70
     0
102
RTVSPost2010Prop53
 90
        2
102
RTVSPost2010PropOp53
 70
     1
102
RTVSPost2010Prop54
  1
strokes_ogs.tif
102
RTVSPost2010PropOp54
 70
     1
102
RTVSPost2010Prop55
280
     0
102
RTVSPost2010PropOp55
 70
     1
102
RTVSPost2010Prop56
140
1.0
102
RTVSPost2010PropOp56
 70
     1
102
RTVSPost2010Prop57
140
1.0
102
RTVSPost2010PropOp57
 70
     1
  0
XRECORD
  5
215B
102
{ACAD_REACTORS
330
215A
102
}
330
215A
100
AcDbXrecord
280
     1
102
RTVSPropertyOp0
 70
     1
102
RTVSPropertyOp1
 70
     1
102
RTVSPropertyOp2
 70
     1
102
RTVSPropertyOp3
 70
     1
102
RTVSPropertyOp4
 70
     1
102
RTVSPropertyOp5
 70
     1
102
RTVSPropertyOp6
 70
     1
102
RTVSPropertyOp7
 70
     1
102
RTVSPropertyOp8
 70
     1
102
RTVSPropertyOp9
 70
     1
102
RTVSPropertyOp10
 70
     1
102
RTVSPropertyOp11
 70
     1
102
RTVSPropertyOp12
 70
     1
102
RTVSPropertyOp13
 70
     1
102
RTVSPropertyOp14
 70
     1
102
RTVSPropertyOp15
 70
     1
102
RTVSPropertyOp16
 70
     1
102
RTVSPropertyOp17
 70
     1
102
RTVSPropertyOp18
 70
     1
102
RTVSPropertyOp19
 70
     1
102
RTVSPropertyOp20
 70
     1
102
RTVSPropertyOp21
 70
     1
102
RTVSPropertyOp22
 70
     1
102
RTVSPropertyOp23
 70
     1
102
RTVSPropertyOp24
 70
     1
102
RTVSPropertyOp25
 70
     1
102
RTVSPropertyOp26
 70
     1
102
RTVSPropertyOp27
 70
     1
102
RTVSPropertyOp28
 70
     1
102
RTVSPropertyOp29
 70
     1
102
RTVSPropertyOp30
 70
     1
102
RTVSPropertyOp31
 70
     1
102
RTVSPropertyOp32
 70
     1
102
RTVSPropertyOp33
 70
     1
102
RTVSPropertyOp34
 70
     1
102
RTVSPropertyOp35
 70
     1
102
RTVSPropertyOp36
 70
     1
102
RTVSPropertyOp37
 70
     1
102
RTVSPropertyOp38
 70
     1
102
RTVSPropertyOp39
 70
     1
102
RTVSPropertyOp40
 70
     1
102
RTVSPropertyOp41
 70
     1
102
RTVSPropertyOp42
 70
     1
102
RTVSPropertyOp43
 70
     1
102
RTVSPropertyOp44
 70
     1
102
RTVSPropertyOp45
 70
     1
102
RTVSPropertyOp46
 70
     1
102
RTVSPropertyOp47
 70
     1
102
RTVSPropertyOp48
 70
     1
102
RTVSPropertyOp49
 70
     1
102
RTVSPropertyOp50
 70
     1
102
RTVSPropertyOp51
 70
     0
102
RTVSPropertyOp52
 70
     0
102
RTVSPropertyOp53
 70
     1
102
RTVSPropertyOp54
 70
     1
102
RTVSPropertyOp55
 70
     1
102
RTVSPropertyOp56
 70
     1
102
RTVSPropertyOp57
 70
     1
102
RTVSPost2010Prop28
280
     0
102
RTVSPost2010PropOp28
 70
     1
102
RTVSPost2010Prop29
280
     1
102
RTVSPost2010PropOp29
 70
     1
102
RTVSPost2010Prop30
280
     1
102
RTVSPost2010PropOp30
 70
     1
102
RTVSPost2010Prop31
280
     0
102
RTVSPost2010PropOp31
 70
     1
102
RTVSPost2010Prop32
280
     0
102
RTVSPost2010PropOp32
 70
     1
102
RTVSPost2010Prop33
280
     0
102
RTVSPost2010PropOp33
 70
     1
102
RTVSPost2010Prop34
280
     0
102
RTVSPost2010PropOp34
 70
     1
102
RTVSPost2010Prop35
280
     0
102
RTVSPost2010PropOp35
 70
     1
102
RTVSPost2010Prop36
280
     0
102
RTVSPost2010PropOp36
 70
     1
102
RTVSPost2010Prop37
 90
       50
102
RTVSPost2010PropOp37
 70
     1
102
RTVSPost2010Prop38
140
0.0
102
RTVSPost2010PropOp38
 70
     1
102
RTVSPost2010Prop39
140
1.0
102
RTVSPost2010PropOp39
 70
     1
102
RTVSPost2010Prop40
 90
        0
102
RTVSPost2010PropOp40
 70
     1
102
RTVSPost2010Prop41ColorIndex
 90
       18
102
RTVSPost2010Prop41ColorRGB
 90
        0
102
RTVSPost2010PropOp41
 70
     1
102
RTVSPost2010Prop42
 90
       50
102
RTVSPost2010PropOp42
 70
     1
102
RTVSPost2010Prop43
 90
        3
102
RTVSPost2010PropOp43
 70
     1
102
RTVSPost2010Prop44ColorIndex
 90
        5
102
RTVSPost2010Prop44ColorRGB
 90
      255
102
RTVSPost2010PropOp44
 70
     1
102
RTVSPost2010Prop45
280
     0
102
RTVSPost2010PropOp45
 70
     1
102
RTVSPost2010Prop46
 90
       50
102
RTVSPost2010PropOp46
 70
     1
102
RTVSPost2010Prop47
 90
       50
102
RTVSPost2010PropOp47
 70
     1
102
RTVSPost2010Prop48
 90
       50
102
RTVSPost2010PropOp48
 70
     1
102
RTVSPost2010Prop49
280
     0
102
RTVSPost2010PropOp49
 70
     1
102
RTVSPost2010Prop50
 90
       50
102
RTVSPost2010PropOp50
 70
     1
102
RTVSPost2010Prop51ColorIndex
 90
      256
102
RTVSPost2010Prop51ColorRGB
 90
-16777216
102
RTVSPost2010PropOp51
 70
     0
102
RTVSPost2010Prop52
140
1.0
102
RTVSPost2010PropOp52
 70
     0
102
RTVSPost2010Prop53
 90
        2
102
RTVSPost2010PropOp53
 70
     1
102
RTVSPost2010Prop54
  1
strokes_ogs.tif
102
RTVSPost2010PropOp54
 70
     1
102
RTVSPost2010Prop55
280
     0
102
RTVSPost2010PropOp55
 70
     1
102
RTVSPost2010Prop56
140
1.0
102
RTVSPost2010PropOp56
 70
     1
102
RTVSPost2010Prop57
140
1.0
102
RTVSPost2010PropOp57
 70
     1
  0
XRECORD
  5
215D
102
{ACAD_REACTORS
330
215C
102
}
330
215C
100
AcDbXrecord
280
     1
102
RTVSPropertyOp0
 70
     1
102
RTVSPropertyOp1
 70
     1
102
RTVSPropertyOp2
 70
     1
102
RTVSPropertyOp3
 70
     1
102
RTVSPropertyOp4
 70
     1
102
RTVSPropertyOp5
 70
     1
102
RTVSPropertyOp6
 70
     1
102
RTVSPropertyOp7
 70
     1
102
RTVSPropertyOp8
 70
     1
102
RTVSPropertyOp9
 70
     1
102
RTVSPropertyOp10
 70
     1
102
RTVSPropertyOp11
 70
     1
102
RTVSPropertyOp12
 70
     1
102
RTVSPropertyOp13
 70
     1
102
RTVSPropertyOp14
 70
     1
102
RTVSPropertyOp15
 70
     1
102
RTVSPropertyOp16
 70
     1
102
RTVSPropertyOp17
 70
     1
102
RTVSPropertyOp18
 70
     1
102
RTVSPropertyOp19
 70
     1
102
RTVSPropertyOp20
 70
     1
102
RTVSPropertyOp21
 70
     1
102
RTVSPropertyOp22
 70
     1
102
RTVSPropertyOp23
 70
     1
102
RTVSPropertyOp24
 70
     1
102
RTVSPropertyOp25
 70
     1
102
RTVSPropertyOp26
 70
     1
102
RTVSPropertyOp27
 70
     1
102
RTVSPropertyOp28
 70
     1
102
RTVSPropertyOp29
 70
     1
102
RTVSPropertyOp30
 70
     1
102
RTVSPropertyOp31
 70
     1
102
RTVSPropertyOp32
 70
     1
102
RTVSPropertyOp33
 70
     1
102
RTVSPropertyOp34
 70
     1
102
RTVSPropertyOp35
 70
     1
102
RTVSPropertyOp36
 70
     1
102
RTVSPropertyOp37
 70
     1
102
RTVSPropertyOp38
 70
     1
102
RTVSPropertyOp39
 70
     1
102
RTVSPropertyOp40
 70
     1
102
RTVSPropertyOp41
 70
     1
102
RTVSPropertyOp42
 70
     1
102
RTVSPropertyOp43
 70
     1
102
RTVSPropertyOp44
 70
     1
102
RTVSPropertyOp45
 70
     1
102
RTVSPropertyOp46
 70
     1
102
RTVSPropertyOp47
 70
     1
102
RTVSPropertyOp48
 70
     1
102
RTVSPropertyOp49
 70
     1
102
RTVSPropertyOp50
 70
     1
102
RTVSPropertyOp51
 70
     0
102
RTVSPropertyOp52
 70
     0
102
RTVSPropertyOp53
 70
     1
102
RTVSPropertyOp54
 70
     1
102
RTVSPropertyOp55
 70
     1
102
RTVSPropertyOp56
 70
     1
102
RTVSPropertyOp57
 70
     1
102
RTVSPost2010Prop28
280
     0
102
RTVSPost2010PropOp28
 70
     1
102
RTVSPost2010Prop29
280
     1
102
RTVSPost2010PropOp29
 70
     1
102
RTVSPost2010Prop30
280
     1
102
RTVSPost2010PropOp30
 70
     1
102
RTVSPost2010Prop31
280
     0
102
RTVSPost2010PropOp31
 70
     1
102
RTVSPost2010Prop32
280
     0
102
RTVSPost2010PropOp32
 70
     1
102
RTVSPost2010Prop33
280
     0
102
RTVSPost2010PropOp33
 70
     1
102
RTVSPost2010Prop34
280
     0
102
RTVSPost2010PropOp34
 70
     1
102
RTVSPost2010Prop35
280
     0
102
RTVSPost2010PropOp35
 70
     1
102
RTVSPost2010Prop36
280
     0
102
RTVSPost2010PropOp36
 70
     1
102
RTVSPost2010Prop37
 90
       50
102
RTVSPost2010PropOp37
 70
     1
102
RTVSPost2010Prop38
140
0.0
102
RTVSPost2010PropOp38
 70
     1
102
RTVSPost2010Prop39
140
1.0
102
RTVSPost2010PropOp39
 70
     1
102
RTVSPost2010Prop40
 90
        0
102
RTVSPost2010PropOp40
 70
     1
102
RTVSPost2010Prop41ColorIndex
 90
       18
102
RTVSPost2010Prop41ColorRGB
 90
        0
102
RTVSPost2010PropOp41
 70
     1
102
RTVSPost2010Prop42
 90
       50
102
RTVSPost2010PropOp42
 70
     1
102
RTVSPost2010Prop43
 90
        3
102
RTVSPost2010PropOp43
 70
     1
102
RTVSPost2010Prop44ColorIndex
 90
        5
102
RTVSPost2010Prop44ColorRGB
 90
      255
102
RTVSPost2010PropOp44
 70
     1
102
RTVSPost2010Prop45
280
     0
102
RTVSPost2010PropOp45
 70
     1
102
RTVSPost2010Prop46
 90
       50
102
RTVSPost2010PropOp46
 70
     1
102
RTVSPost2010Prop47
 90
       50
102
RTVSPost2010PropOp47
 70
     1
102
RTVSPost2010Prop48
 90
       50
102
RTVSPost2010PropOp48
 70
     1
102
RTVSPost2010Prop49
280
     0
102
RTVSPost2010PropOp49
 70
     1
102
RTVSPost2010Prop50
 90
       50
102
RTVSPost2010PropOp50
 70
     1
102
RTVSPost2010Prop51ColorIndex
 90
      256
102
RTVSPost2010Prop51ColorRGB
 90
-16777216
102
RTVSPost2010PropOp51
 70
     0
102
RTVSPost2010Prop52
140
1.0
102
RTVSPost2010PropOp52
 70
     0
102
RTVSPost2010Prop53
 90
        2
102
RTVSPost2010PropOp53
 70
     1
102
RTVSPost2010Prop54
  1
strokes_ogs.tif
102
RTVSPost2010PropOp54
 70
     1
102
RTVSPost2010Prop55
280
     0
102
RTVSPost2010PropOp55
 70
     1
102
RTVSPost2010Prop56
140
1.0
102
RTVSPost2010PropOp56
 70
     1
102
RTVSPost2010Prop57
140
1.0
102
RTVSPost2010PropOp57
 70
     1
  0
XRECORD
  5
215F
102
{ACAD_REACTORS
330
215E
102
}
330
215E
100
AcDbXrecord
280
     1
102
RTVSPropertyOp0
 70
     1
102
RTVSPropertyOp1
 70
     1
102
RTVSPropertyOp2
 70
     1
102
RTVSPropertyOp3
 70
     1
102
RTVSPropertyOp4
 70
     1
102
RTVSPropertyOp5
 70
     1
102
RTVSPropertyOp6
 70
     1
102
RTVSPropertyOp7
 70
     1
102
RTVSPropertyOp8
 70
     1
102
RTVSPropertyOp9
 70
     1
102
RTVSPropertyOp10
 70
     1
102
RTVSPropertyOp11
 70
     1
102
RTVSPropertyOp12
 70
     1
102
RTVSPropertyOp13
 70
     1
102
RTVSPropertyOp14
 70
     1
102
RTVSPropertyOp15
 70
     1
102
RTVSPropertyOp16
 70
     1
102
RTVSPropertyOp17
 70
     1
102
RTVSPropertyOp18
 70
     1
102
RTVSPropertyOp19
 70
     1
102
RTVSPropertyOp20
 70
     1
102
RTVSPropertyOp21
 70
     1
102
RTVSPropertyOp22
 70
     1
102
RTVSPropertyOp23
 70
     1
102
RTVSPropertyOp24
 70
     1
102
RTVSPropertyOp25
 70
     1
102
RTVSPropertyOp26
 70
     1
102
RTVSPropertyOp27
 70
     1
102
RTVSPropertyOp28
 70
     1
102
RTVSPropertyOp29
 70
     1
102
RTVSPropertyOp30
 70
     1
102
RTVSPropertyOp31
 70
     1
102
RTVSPropertyOp32
 70
     1
102
RTVSPropertyOp33
 70
     1
102
RTVSPropertyOp34
 70
     1
102
RTVSPropertyOp35
 70
     1
102
RTVSPropertyOp36
 70
     1
102
RTVSPropertyOp37
 70
     1
102
RTVSPropertyOp38
 70
     1
102
RTVSPropertyOp39
 70
     1
102
RTVSPropertyOp40
 70
     1
102
RTVSPropertyOp41
 70
     1
102
RTVSPropertyOp42
 70
     1
102
RTVSPropertyOp43
 70
     1
102
RTVSPropertyOp44
 70
     1
102
RTVSPropertyOp45
 70
     1
102
RTVSPropertyOp46
 70
     1
102
RTVSPropertyOp47
 70
     1
102
RTVSPropertyOp48
 70
     1
102
RTVSPropertyOp49
 70
     1
102
RTVSPropertyOp50
 70
     1
102
RTVSPropertyOp51
 70
     0
102
RTVSPropertyOp52
 70
     0
102
RTVSPropertyOp53
 70
     1
102
RTVSPropertyOp54
 70
     1
102
RTVSPropertyOp55
 70
     1
102
RTVSPropertyOp56
 70
     1
102
RTVSPropertyOp57
 70
     1
102
RTVSPost2010Prop28
280
     0
102
RTVSPost2010PropOp28
 70
     1
102
RTVSPost2010Prop29
280
     1
102
RTVSPost2010PropOp29
 70
     1
102
RTVSPost2010Prop30
280
     1
102
RTVSPost2010PropOp30
 70
     1
102
RTVSPost2010Prop31
280
     0
102
RTVSPost2010PropOp31
 70
     1
102
RTVSPost2010Prop32
280
     0
102
RTVSPost2010PropOp32
 70
     1
102
RTVSPost2010Prop33
280
     0
102
RTVSPost2010PropOp33
 70
     1
102
RTVSPost2010Prop34
280
     0
102
RTVSPost2010PropOp34
 70
     1
102
RTVSPost2010Prop35
280
     0
102
RTVSPost2010PropOp35
 70
     1
102
RTVSPost2010Prop36
280
     0
102
RTVSPost2010PropOp36
 70
     1
102
RTVSPost2010Prop37
 90
       50
102
RTVSPost2010PropOp37
 70
     1
102
RTVSPost2010Prop38
140
0.0
102
RTVSPost2010PropOp38
 70
     1
102
RTVSPost2010Prop39
140
1.0
102
RTVSPost2010PropOp39
 70
     1
102
RTVSPost2010Prop40
 90
        0
102
RTVSPost2010PropOp40
 70
     1
102
RTVSPost2010Prop41ColorIndex
 90
       18
102
RTVSPost2010Prop41ColorRGB
 90
        0
102
RTVSPost2010PropOp41
 70
     1
102
RTVSPost2010Prop42
 90
       50
102
RTVSPost2010PropOp42
 70
     1
102
RTVSPost2010Prop43
 90
        3
102
RTVSPost2010PropOp43
 70
     1
102
RTVSPost2010Prop44ColorIndex
 90
        5
102
RTVSPost2010Prop44ColorRGB
 90
      255
102
RTVSPost2010PropOp44
 70
     1
102
RTVSPost2010Prop45
280
     0
102
RTVSPost2010PropOp45
 70
     1
102
RTVSPost2010Prop46
 90
       50
102
RTVSPost2010PropOp46
 70
     1
102
RTVSPost2010Prop47
 90
       50
102
RTVSPost2010PropOp47
 70
     1
102
RTVSPost2010Prop48
 90
       50
102
RTVSPost2010PropOp48
 70
     1
102
RTVSPost2010Prop49
280
     0
102
RTVSPost2010PropOp49
 70
     1
102
RTVSPost2010Prop50
 90
       50
102
RTVSPost2010PropOp50
 70
     1
102
RTVSPost2010Prop51ColorIndex
 90
      256
102
RTVSPost2010Prop51ColorRGB
 90
-16777216
102
RTVSPost2010PropOp51
 70
     0
102
RTVSPost2010Prop52
140
1.0
102
RTVSPost2010PropOp52
 70
     0
102
RTVSPost2010Prop53
 90
        2
102
RTVSPost2010PropOp53
 70
     1
102
RTVSPost2010Prop54
  1
strokes_ogs.tif
102
RTVSPost2010PropOp54
 70
     1
102
RTVSPost2010Prop55
280
     0
102
RTVSPost2010PropOp55
 70
     1
102
RTVSPost2010Prop56
140
1.0
102
RTVSPost2010PropOp56
 70
     1
102
RTVSPost2010Prop57
140
1.0
102
RTVSPost2010PropOp57
 70
     1
  0
XRECORD
  5
2161
102
{ACAD_REACTORS
330
2160
102
}
330
2160
100
AcDbXrecord
280
     1
102
RTVSPropertyOp0
 70
     1
102
RTVSPropertyOp1
 70
     1
102
RTVSPropertyOp2
 70
     1
102
RTVSPropertyOp3
 70
     1
102
RTVSPropertyOp4
 70
     1
102
RTVSPropertyOp5
 70
     1
102
RTVSPropertyOp6
 70
     1
102
RTVSPropertyOp7
 70
     1
102
RTVSPropertyOp8
 70
     1
102
RTVSPropertyOp9
 70
     1
102
RTVSPropertyOp10
 70
     1
102
RTVSPropertyOp11
 70
     1
102
RTVSPropertyOp12
 70
     1
102
RTVSPropertyOp13
 70
     1
102
RTVSPropertyOp14
 70
     1
102
RTVSPropertyOp15
 70
     1
102
RTVSPropertyOp16
 70
     1
102
RTVSPropertyOp17
 70
     1
102
RTVSPropertyOp18
 70
     1
102
RTVSPropertyOp19
 70
     1
102
RTVSPropertyOp20
 70
     1
102
RTVSPropertyOp21
 70
     1
102
RTVSPropertyOp22
 70
     1
102
RTVSPropertyOp23
 70
     1
102
RTVSPropertyOp24
 70
     1
102
RTVSPropertyOp25
 70
     1
102
RTVSPropertyOp26
 70
     1
102
RTVSPropertyOp27
 70
     1
102
RTVSPropertyOp28
 70
     1
102
RTVSPropertyOp29
 70
     1
102
RTVSPropertyOp30
 70
     1
102
RTVSPropertyOp31
 70
     1
102
RTVSPropertyOp32
 70
     1
102
RTVSPropertyOp33
 70
     1
102
RTVSPropertyOp34
 70
     1
102
RTVSPropertyOp35
 70
     1
102
RTVSPropertyOp36
 70
     1
102
RTVSPropertyOp37
 70
     1
102
RTVSPropertyOp38
 70
     1
102
RTVSPropertyOp39
 70
     1
102
RTVSPropertyOp40
 70
     1
102
RTVSPropertyOp41
 70
     1
102
RTVSPropertyOp42
 70
     1
102
RTVSPropertyOp43
 70
     1
102
RTVSPropertyOp44
 70
     1
102
RTVSPropertyOp45
 70
     1
102
RTVSPropertyOp46
 70
     1
102
RTVSPropertyOp47
 70
     1
102
RTVSPropertyOp48
 70
     1
102
RTVSPropertyOp49
 70
     1
102
RTVSPropertyOp50
 70
     1
102
RTVSPropertyOp51
 70
     0
102
RTVSPropertyOp52
 70
     0
102
RTVSPropertyOp53
 70
     1
102
RTVSPropertyOp54
 70
     1
102
RTVSPropertyOp55
 70
     1
102
RTVSPropertyOp56
 70
     1
102
RTVSPropertyOp57
 70
     1
102
RTVSPost2010Prop28
280
     0
102
RTVSPost2010PropOp28
 70
     1
102
RTVSPost2010Prop29
280
     1
102
RTVSPost2010PropOp29
 70
     1
102
RTVSPost2010Prop30
280
     1
102
RTVSPost2010PropOp30
 70
     1
102
RTVSPost2010Prop31
280
     0
102
RTVSPost2010PropOp31
 70
     1
102
RTVSPost2010Prop32
280
     0
102
RTVSPost2010PropOp32
 70
     1
102
RTVSPost2010Prop33
280
     0
102
RTVSPost2010PropOp33
 70
     1
102
RTVSPost2010Prop34
280
     0
102
RTVSPost2010PropOp34
 70
     1
102
RTVSPost2010Prop35
280
     0
102
RTVSPost2010PropOp35
 70
     1
102
RTVSPost2010Prop36
280
     0
102
RTVSPost2010PropOp36
 70
     1
102
RTVSPost2010Prop37
 90
       50
102
RTVSPost2010PropOp37
 70
     1
102
RTVSPost2010Prop38
140
0.0
102
RTVSPost2010PropOp38
 70
     1
102
RTVSPost2010Prop39
140
1.0
102
RTVSPost2010PropOp39
 70
     1
102
RTVSPost2010Prop40
 90
        0
102
RTVSPost2010PropOp40
 70
     1
102
RTVSPost2010Prop41ColorIndex
 90
       18
102
RTVSPost2010Prop41ColorRGB
 90
        0
102
RTVSPost2010PropOp41
 70
     1
102
RTVSPost2010Prop42
 90
       50
102
RTVSPost2010PropOp42
 70
     1
102
RTVSPost2010Prop43
 90
        3
102
RTVSPost2010PropOp43
 70
     1
102
RTVSPost2010Prop44ColorIndex
 90
        5
102
RTVSPost2010Prop44ColorRGB
 90
      255
102
RTVSPost2010PropOp44
 70
     1
102
RTVSPost2010Prop45
280
     0
102
RTVSPost2010PropOp45
 70
     1
102
RTVSPost2010Prop46
 90
       50
102
RTVSPost2010PropOp46
 70
     1
102
RTVSPost2010Prop47
 90
       50
102
RTVSPost2010PropOp47
 70
     1
102
RTVSPost2010Prop48
 90
       50
102
RTVSPost2010PropOp48
 70
     1
102
RTVSPost2010Prop49
280
     0
102
RTVSPost2010PropOp49
 70
     1
102
RTVSPost2010Prop50
 90
       50
102
RTVSPost2010PropOp50
 70
     1
102
RTVSPost2010Prop51ColorIndex
 90
      256
102
RTVSPost2010Prop51ColorRGB
 90
-16777216
102
RTVSPost2010PropOp51
 70
     0
102
RTVSPost2010Prop52
140
1.0
102
RTVSPost2010PropOp52
 70
     0
102
RTVSPost2010Prop53
 90
        2
102
RTVSPost2010PropOp53
 70
     1
102
RTVSPost2010Prop54
  1
strokes_ogs.tif
102
RTVSPost2010PropOp54
 70
     1
102
RTVSPost2010Prop55
280
     0
102
RTVSPost2010PropOp55
 70
     1
102
RTVSPost2010Prop56
140
1.0
102
RTVSPost2010PropOp56
 70
     1
102
RTVSPost2010Prop57
140
1.0
102
RTVSPost2010PropOp57
 70
     1
  0
XRECORD
  5
2163
102
{ACAD_REACTORS
330
2162
102
}
330
2162
100
AcDbXrecord
280
     1
102
RTVSPropertyOp0
 70
     0
102
RTVSPropertyOp1
 70
     0
102
RTVSPropertyOp2
 70
     0
102
RTVSPropertyOp3
 70
     0
102
RTVSPropertyOp4
 70
     0
102
RTVSPropertyOp5
 70
     0
102
RTVSPropertyOp6
 70
     0
102
RTVSPropertyOp7
 70
     0
102
RTVSPropertyOp8
 70
     0
102
RTVSPropertyOp9
 70
     0
102
RTVSPropertyOp10
 70
     0
102
RTVSPropertyOp11
 70
     0
102
RTVSPropertyOp12
 70
     0
102
RTVSPropertyOp13
 70
     0
102
RTVSPropertyOp14
 70
     2
102
RTVSPropertyOp15
 70
     0
102
RTVSPropertyOp16
 70
     0
102
RTVSPropertyOp17
 70
     0
102
RTVSPropertyOp18
 70
     0
102
RTVSPropertyOp19
 70
     0
102
RTVSPropertyOp20
 70
     0
102
RTVSPropertyOp21
 70
     0
102
RTVSPropertyOp22
 70
     0
102
RTVSPropertyOp23
 70
     0
102
RTVSPropertyOp24
 70
     0
102
RTVSPropertyOp25
 70
     0
102
RTVSPropertyOp26
 70
     0
102
RTVSPropertyOp27
 70
     0
102
RTVSPropertyOp28
 70
     0
102
RTVSPropertyOp29
 70
     0
102
RTVSPropertyOp30
 70
     0
102
RTVSPropertyOp31
 70
     0
102
RTVSPropertyOp32
 70
     0
102
RTVSPropertyOp33
 70
     0
102
RTVSPropertyOp34
 70
     0
102
RTVSPropertyOp35
 70
     0
102
RTVSPropertyOp36
 70
     0
102
RTVSPropertyOp37
 70
     0
102
RTVSPropertyOp38
 70
     0
102
RTVSPropertyOp39
 70
     0
102
RTVSPropertyOp40
 70
     0
102
RTVSPropertyOp41
 70
     0
102
RTVSPropertyOp42
 70
     0
102
RTVSPropertyOp43
 70
     0
102
RTVSPropertyOp44
 70
     0
102
RTVSPropertyOp45
 70
     0
102
RTVSPropertyOp46
 70
     0
102
RTVSPropertyOp47
 70
     0
102
RTVSPropertyOp48
 70
     0
102
RTVSPropertyOp49
 70
     0
102
RTVSPropertyOp50
 70
     0
102
RTVSPropertyOp51
 70
     0
102
RTVSPropertyOp52
 70
     0
102
RTVSPropertyOp53
 70
     0
102
RTVSPropertyOp54
 70
     0
102
RTVSPropertyOp55
 70
     0
102
RTVSPropertyOp56
 70
     0
102
RTVSPropertyOp57
 70
     0
102
RTVSPost2010Prop28
280
     0
102
RTVSPost2010PropOp28
 70
     0
102
RTVSPost2010Prop29
280
     1
102
RTVSPost2010PropOp29
 70
     0
102
RTVSPost2010Prop30
280
     1
102
RTVSPost2010PropOp30
 70
     0
102
RTVSPost2010Prop31
280
     0
102
RTVSPost2010PropOp31
 70
     0
102
RTVSPost2010Prop32
280
     0
102
RTVSPost2010PropOp32
 70
     0
102
RTVSPost2010Prop33
280
     0
102
RTVSPost2010PropOp33
 70
     0
102
RTVSPost2010Prop34
280
     0
102
RTVSPost2010PropOp34
 70
     0
102
RTVSPost2010Prop35
280
     0
102
RTVSPost2010PropOp35
 70
     0
102
RTVSPost2010Prop36
280
     0
102
RTVSPost2010PropOp36
 70
     0
102
RTVSPost2010Prop37
 90
       50
102
RTVSPost2010PropOp37
 70
     0
102
RTVSPost2010Prop38
140
0.0
102
RTVSPost2010PropOp38
 70
     0
102
RTVSPost2010Prop39
140
1.0
102
RTVSPost2010PropOp39
 70
     0
102
RTVSPost2010Prop40
 90
        0
102
RTVSPost2010PropOp40
 70
     0
102
RTVSPost2010Prop41ColorIndex
 90
       18
102
RTVSPost2010Prop41ColorRGB
 90
        0
102
RTVSPost2010PropOp41
 70
     0
102
RTVSPost2010Prop42
 90
       50
102
RTVSPost2010PropOp42
 70
     0
102
RTVSPost2010Prop43
 90
        3
102
RTVSPost2010PropOp43
 70
     0
102
RTVSPost2010Prop44ColorIndex
 90
        5
102
RTVSPost2010Prop44ColorRGB
 90
      255
102
RTVSPost2010PropOp44
 70
     0
102
RTVSPost2010Prop45
280
     0
102
RTVSPost2010PropOp45
 70
     0
102
RTVSPost2010Prop46
 90
       50
102
RTVSPost2010PropOp46
 70
     0
102
RTVSPost2010Prop47
 90
       50
102
RTVSPost2010PropOp47
 70
     0
102
RTVSPost2010Prop48
 90
       50
102
RTVSPost2010PropOp48
 70
     0
102
RTVSPost2010Prop49
280
     0
102
RTVSPost2010PropOp49
 70
     0
102
RTVSPost2010Prop50
 90
       50
102
RTVSPost2010PropOp50
 70
     0
102
RTVSPost2010Prop51ColorIndex
 90
      256
102
RTVSPost2010Prop51ColorRGB
 90
-16777216
102
RTVSPost2010PropOp51
 70
     0
102
RTVSPost2010Prop52
140
1.0
102
RTVSPost2010PropOp52
 70
     0
102
RTVSPost2010Prop53
 90
        2
102
RTVSPost2010PropOp53
 70
     0
102
RTVSPost2010Prop54
  1
strokes_ogs.tif
102
RTVSPost2010PropOp54
 70
     0
102
RTVSPost2010Prop55
280
     0
102
RTVSPost2010PropOp55
 70
     0
102
RTVSPost2010Prop56
140
1.0
102
RTVSPost2010PropOp56
 70
     0
102
RTVSPost2010Prop57
140
1.0
102
RTVSPost2010PropOp57
 70
     0
  0
XRECORD
  5
2165
102
{ACAD_REACTORS
330
2164
102
}
330
2164
100
AcDbXrecord
280
     1
102
RTVSPropertyOp0
 70
     1
102
RTVSPropertyOp1
 70
     1
102
RTVSPropertyOp2
 70
     1
102
RTVSPropertyOp3
 70
     1
102
RTVSPropertyOp4
 70
     1
102
RTVSPropertyOp5
 70
     1
102
RTVSPropertyOp6
 70
     1
102
RTVSPropertyOp7
 70
     1
102
RTVSPropertyOp8
 70
     1
102
RTVSPropertyOp9
 70
     1
102
RTVSPropertyOp10
 70
     1
102
RTVSPropertyOp11
 70
     1
102
RTVSPropertyOp12
 70
     1
102
RTVSPropertyOp13
 70
     1
102
RTVSPropertyOp14
 70
     1
102
RTVSPropertyOp15
 70
     1
102
RTVSPropertyOp16
 70
     1
102
RTVSPropertyOp17
 70
     1
102
RTVSPropertyOp18
 70
     1
102
RTVSPropertyOp19
 70
     1
102
RTVSPropertyOp20
 70
     1
102
RTVSPropertyOp21
 70
     1
102
RTVSPropertyOp22
 70
     1
102
RTVSPropertyOp23
 70
     1
102
RTVSPropertyOp24
 70
     1
102
RTVSPropertyOp25
 70
     1
102
RTVSPropertyOp26
 70
     1
102
RTVSPropertyOp27
 70
     1
102
RTVSPropertyOp28
 70
     1
102
RTVSPropertyOp29
 70
     1
102
RTVSPropertyOp30
 70
     1
102
RTVSPropertyOp31
 70
     1
102
RTVSPropertyOp32
 70
     1
102
RTVSPropertyOp33
 70
     1
102
RTVSPropertyOp34
 70
     1
102
RTVSPropertyOp35
 70
     1
102
RTVSPropertyOp36
 70
     1
102
RTVSPropertyOp37
 70
     1
102
RTVSPropertyOp38
 70
     1
102
RTVSPropertyOp39
 70
     1
102
RTVSPropertyOp40
 70
     1
102
RTVSPropertyOp41
 70
     1
102
RTVSPropertyOp42
 70
     1
102
RTVSPropertyOp43
 70
     1
102
RTVSPropertyOp44
 70
     1
102
RTVSPropertyOp45
 70
     1
102
RTVSPropertyOp46
 70
     1
102
RTVSPropertyOp47
 70
     1
102
RTVSPropertyOp48
 70
     1
102
RTVSPropertyOp49
 70
     1
102
RTVSPropertyOp50
 70
     1
102
RTVSPropertyOp51
 70
     0
102
RTVSPropertyOp52
 70
     0
102
RTVSPropertyOp53
 70
     1
102
RTVSPropertyOp54
 70
     1
102
RTVSPropertyOp55
 70
     1
102
RTVSPropertyOp56
 70
     1
102
RTVSPropertyOp57
 70
     1
102
RTVSPost2010Prop28
280
     0
102
RTVSPost2010PropOp28
 70
     1
102
RTVSPost2010Prop29
280
     1
102
RTVSPost2010PropOp29
 70
     1
102
RTVSPost2010Prop30
280
     1
102
RTVSPost2010PropOp30
 70
     1
102
RTVSPost2010Prop31
280
     0
102
RTVSPost2010PropOp31
 70
     1
102
RTVSPost2010Prop32
280
     0
102
RTVSPost2010PropOp32
 70
     1
102
RTVSPost2010Prop33
280
     0
102
RTVSPost2010PropOp33
 70
     1
102
RTVSPost2010Prop34
280
     0
102
RTVSPost2010PropOp34
 70
     1
102
RTVSPost2010Prop35
280
     0
102
RTVSPost2010PropOp35
 70
     1
102
RTVSPost2010Prop36
280
     0
102
RTVSPost2010PropOp36
 70
     1
102
RTVSPost2010Prop37
 90
       50
102
RTVSPost2010PropOp37
 70
     1
102
RTVSPost2010Prop38
140
0.0
102
RTVSPost2010PropOp38
 70
     1
102
RTVSPost2010Prop39
140
1.0
102
RTVSPost2010PropOp39
 70
     1
102
RTVSPost2010Prop40
 90
        0
102
RTVSPost2010PropOp40
 70
     1
102
RTVSPost2010Prop41ColorIndex
 90
       18
102
RTVSPost2010Prop41ColorRGB
 90
        0
102
RTVSPost2010PropOp41
 70
     1
102
RTVSPost2010Prop42
 90
       50
102
RTVSPost2010PropOp42
 70
     1
102
RTVSPost2010Prop43
 90
        3
102
RTVSPost2010PropOp43
 70
     1
102
RTVSPost2010Prop44ColorIndex
 90
        5
102
RTVSPost2010Prop44ColorRGB
 90
      255
102
RTVSPost2010PropOp44
 70
     1
102
RTVSPost2010Prop45
280
     0
102
RTVSPost2010PropOp45
 70
     1
102
RTVSPost2010Prop46
 90
       50
102
RTVSPost2010PropOp46
 70
     1
102
RTVSPost2010Prop47
 90
       50
102
RTVSPost2010PropOp47
 70
     1
102
RTVSPost2010Prop48
 90
       50
102
RTVSPost2010PropOp48
 70
     1
102
RTVSPost2010Prop49
280
     0
102
RTVSPost2010PropOp49
 70
     1
102
RTVSPost2010Prop50
 90
       50
102
RTVSPost2010PropOp50
 70
     1
102
RTVSPost2010Prop51ColorIndex
 90
      256
102
RTVSPost2010Prop51ColorRGB
 90
-16777216
102
RTVSPost2010PropOp51
 70
     0
102
RTVSPost2010Prop52
140
1.0
102
RTVSPost2010PropOp52
 70
     0
102
RTVSPost2010Prop53
 90
        2
102
RTVSPost2010PropOp53
 70
     1
102
RTVSPost2010Prop54
  1
strokes_ogs.tif
102
RTVSPost2010PropOp54
 70
     1
102
RTVSPost2010Prop55
280
     0
102
RTVSPost2010PropOp55
 70
     1
102
RTVSPost2010Prop56
140
1.0
102
RTVSPost2010PropOp56
 70
     1
102
RTVSPost2010Prop57
140
1.0
102
RTVSPost2010PropOp57
 70
     1
  0
XRECORD
  5
2167
102
{ACAD_REACTORS
330
2166
102
}
330
2166
100
AcDbXrecord
280
     1
102
RTVSPropertyOp0
 70
     1
102
RTVSPropertyOp1
 70
     1
102
RTVSPropertyOp2
 70
     1
102
RTVSPropertyOp3
 70
     1
102
RTVSPropertyOp4
 70
     1
102
RTVSPropertyOp5
 70
     1
102
RTVSPropertyOp6
 70
     1
102
RTVSPropertyOp7
 70
     1
102
RTVSPropertyOp8
 70
     1
102
RTVSPropertyOp9
 70
     1
102
RTVSPropertyOp10
 70
     1
102
RTVSPropertyOp11
 70
     1
102
RTVSPropertyOp12
 70
     1
102
RTVSPropertyOp13
 70
     1
102
RTVSPropertyOp14
 70
     1
102
RTVSPropertyOp15
 70
     1
102
RTVSPropertyOp16
 70
     1
102
RTVSPropertyOp17
 70
     1
102
RTVSPropertyOp18
 70
     1
102
RTVSPropertyOp19
 70
     1
102
RTVSPropertyOp20
 70
     1
102
RTVSPropertyOp21
 70
     1
102
RTVSPropertyOp22
 70
     1
102
RTVSPropertyOp23
 70
     1
102
RTVSPropertyOp24
 70
     1
102
RTVSPropertyOp25
 70
     1
102
RTVSPropertyOp26
 70
     1
102
RTVSPropertyOp27
 70
     1
102
RTVSPropertyOp28
 70
     1
102
RTVSPropertyOp29
 70
     1
102
RTVSPropertyOp30
 70
     1
102
RTVSPropertyOp31
 70
     1
102
RTVSPropertyOp32
 70
     1
102
RTVSPropertyOp33
 70
     1
102
RTVSPropertyOp34
 70
     1
102
RTVSPropertyOp35
 70
     1
102
RTVSPropertyOp36
 70
     1
102
RTVSPropertyOp37
 70
     1
102
RTVSPropertyOp38
 70
     1
102
RTVSPropertyOp39
 70
     1
102
RTVSPropertyOp40
 70
     1
102
RTVSPropertyOp41
 70
     1
102
RTVSPropertyOp42
 70
     1
102
RTVSPropertyOp43
 70
     1
102
RTVSPropertyOp44
 70
     1
102
RTVSPropertyOp45
 70
     1
102
RTVSPropertyOp46
 70
     1
102
RTVSPropertyOp47
 70
     1
102
RTVSPropertyOp48
 70
     1
102
RTVSPropertyOp49
 70
     1
102
RTVSPropertyOp50
 70
     1
102
RTVSPropertyOp51
 70
     0
102
RTVSPropertyOp52
 70
     0
102
RTVSPropertyOp53
 70
     1
102
RTVSPropertyOp54
 70
     1
102
RTVSPropertyOp55
 70
     1
102
RTVSPropertyOp56
 70
     1
102
RTVSPropertyOp57
 70
     1
102
RTVSPost2010Prop28
280
     0
102
RTVSPost2010PropOp28
 70
     1
102
RTVSPost2010Prop29
280
     1
102
RTVSPost2010PropOp29
 70
     1
102
RTVSPost2010Prop30
280
     1
102
RTVSPost2010PropOp30
 70
     1
102
RTVSPost2010Prop31
280
     0
102
RTVSPost2010PropOp31
 70
     1
102
RTVSPost2010Prop32
280
     0
102
RTVSPost2010PropOp32
 70
     1
102
RTVSPost2010Prop33
280
     0
102
RTVSPost2010PropOp33
 70
     1
102
RTVSPost2010Prop34
280
     0
102
RTVSPost2010PropOp34
 70
     1
102
RTVSPost2010Prop35
280
     0
102
RTVSPost2010PropOp35
 70
     1
102
RTVSPost2010Prop36
280
     0
102
RTVSPost2010PropOp36
 70
     1
102
RTVSPost2010Prop37
 90
       50
102
RTVSPost2010PropOp37
 70
     1
102
RTVSPost2010Prop38
140
0.0
102
RTVSPost2010PropOp38
 70
     1
102
RTVSPost2010Prop39
140
1.0
102
RTVSPost2010PropOp39
 70
     1
102
RTVSPost2010Prop40
 90
        0
102
RTVSPost2010PropOp40
 70
     1
102
RTVSPost2010Prop41ColorIndex
 90
       18
102
RTVSPost2010Prop41ColorRGB
 90
        0
102
RTVSPost2010PropOp41
 70
     1
102
RTVSPost2010Prop42
 90
       50
102
RTVSPost2010PropOp42
 70
     1
102
RTVSPost2010Prop43
 90
        3
102
RTVSPost2010PropOp43
 70
     1
102
RTVSPost2010Prop44ColorIndex
 90
        5
102
RTVSPost2010Prop44ColorRGB
 90
      255
102
RTVSPost2010PropOp44
 70
     1
102
RTVSPost2010Prop45
280
     0
102
RTVSPost2010PropOp45
 70
     1
102
RTVSPost2010Prop46
 90
       50
102
RTVSPost2010PropOp46
 70
     1
102
RTVSPost2010Prop47
 90
       50
102
RTVSPost2010PropOp47
 70
     1
102
RTVSPost2010Prop48
 90
       50
102
RTVSPost2010PropOp48
 70
     1
102
RTVSPost2010Prop49
280
     0
102
RTVSPost2010PropOp49
 70
     1
102
RTVSPost2010Prop50
 90
       50
102
RTVSPost2010PropOp50
 70
     1
102
RTVSPost2010Prop51ColorIndex
 90
      256
102
RTVSPost2010Prop51ColorRGB
 90
-16777216
102
RTVSPost2010PropOp51
 70
     0
102
RTVSPost2010Prop52
140
1.0
102
RTVSPost2010PropOp52
 70
     0
102
RTVSPost2010Prop53
 90
        2
102
RTVSPost2010PropOp53
 70
     1
102
RTVSPost2010Prop54
  1
strokes_ogs.tif
102
RTVSPost2010PropOp54
 70
     1
102
RTVSPost2010Prop55
280
     0
102
RTVSPost2010PropOp55
 70
     1
102
RTVSPost2010Prop56
140
1.0
102
RTVSPost2010PropOp56
 70
     1
102
RTVSPost2010Prop57
140
1.0
102
RTVSPost2010PropOp57
 70
     1
  0
XRECORD
  5
2169
102
{ACAD_REACTORS
330
2168
102
}
330
2168
100
AcDbXrecord
280
     1
102
RTVSPropertyOp0
 70
     0
102
RTVSPropertyOp1
 70
     0
102
RTVSPropertyOp2
 70
     0
102
RTVSPropertyOp3
 70
     0
102
RTVSPropertyOp4
 70
     0
102
RTVSPropertyOp5
 70
     0
102
RTVSPropertyOp6
 70
     0
102
RTVSPropertyOp7
 70
     0
102
RTVSPropertyOp8
 70
     0
102
RTVSPropertyOp9
 70
     0
102
RTVSPropertyOp10
 70
     0
102
RTVSPropertyOp11
 70
     0
102
RTVSPropertyOp12
 70
     0
102
RTVSPropertyOp13
 70
     0
102
RTVSPropertyOp14
 70
     2
102
RTVSPropertyOp15
 70
     0
102
RTVSPropertyOp16
 70
     0
102
RTVSPropertyOp17
 70
     0
102
RTVSPropertyOp18
 70
     0
102
RTVSPropertyOp19
 70
     0
102
RTVSPropertyOp20
 70
     0
102
RTVSPropertyOp21
 70
     0
102
RTVSPropertyOp22
 70
     0
102
RTVSPropertyOp23
 70
     0
102
RTVSPropertyOp24
 70
     0
102
RTVSPropertyOp25
 70
     0
102
RTVSPropertyOp26
 70
     0
102
RTVSPropertyOp27
 70
     0
102
RTVSPropertyOp28
 70
     0
102
RTVSPropertyOp29
 70
     0
102
RTVSPropertyOp30
 70
     0
102
RTVSPropertyOp31
 70
     0
102
RTVSPropertyOp32
 70
     0
102
RTVSPropertyOp33
 70
     0
102
RTVSPropertyOp34
 70
     0
102
RTVSPropertyOp35
 70
     0
102
RTVSPropertyOp36
 70
     0
102
RTVSPropertyOp37
 70
     0
102
RTVSPropertyOp38
 70
     0
102
RTVSPropertyOp39
 70
     0
102
RTVSPropertyOp40
 70
     0
102
RTVSPropertyOp41
 70
     0
102
RTVSPropertyOp42
 70
     0
102
RTVSPropertyOp43
 70
     0
102
RTVSPropertyOp44
 70
     0
102
RTVSPropertyOp45
 70
     0
102
RTVSPropertyOp46
 70
     0
102
RTVSPropertyOp47
 70
     0
102
RTVSPropertyOp48
 70
     0
102
RTVSPropertyOp49
 70
     0
102
RTVSPropertyOp50
 70
     0
102
RTVSPropertyOp51
 70
     0
102
RTVSPropertyOp52
 70
     0
102
RTVSPropertyOp53
 70
     0
102
RTVSPropertyOp54
 70
     0
102
RTVSPropertyOp55
 70
     0
102
RTVSPropertyOp56
 70
     0
102
RTVSPropertyOp57
 70
     0
102
RTVSPost2010Prop28
280
     0
102
RTVSPost2010PropOp28
 70
     0
102
RTVSPost2010Prop29
280
     1
102
RTVSPost2010PropOp29
 70
     0
102
RTVSPost2010Prop30
280
     1
102
RTVSPost2010PropOp30
 70
     0
102
RTVSPost2010Prop31
280
     0
102
RTVSPost2010PropOp31
 70
     0
102
RTVSPost2010Prop32
280
     0
102
RTVSPost2010PropOp32
 70
     0
102
RTVSPost2010Prop33
280
     0
102
RTVSPost2010PropOp33
 70
     0
102
RTVSPost2010Prop34
280
     0
102
RTVSPost2010PropOp34
 70
     0
102
RTVSPost2010Prop35
280
     0
102
RTVSPost2010PropOp35
 70
     0
102
RTVSPost2010Prop36
280
     0
102
RTVSPost2010PropOp36
 70
     0
102
RTVSPost2010Prop37
 90
       50
102
RTVSPost2010PropOp37
 70
     0
102
RTVSPost2010Prop38
140
0.0
102
RTVSPost2010PropOp38
 70
     0
102
RTVSPost2010Prop39
140
1.0
102
RTVSPost2010PropOp39
 70
     0
102
RTVSPost2010Prop40
 90
        0
102
RTVSPost2010PropOp40
 70
     0
102
RTVSPost2010Prop41ColorIndex
 90
       18
102
RTVSPost2010Prop41ColorRGB
 90
        0
102
RTVSPost2010PropOp41
 70
     0
102
RTVSPost2010Prop42
 90
       50
102
RTVSPost2010PropOp42
 70
     0
102
RTVSPost2010Prop43
 90
        3
102
RTVSPost2010PropOp43
 70
     0
102
RTVSPost2010Prop44ColorIndex
 90
        5
102
RTVSPost2010Prop44ColorRGB
 90
      255
102
RTVSPost2010PropOp44
 70
     0
102
RTVSPost2010Prop45
280
     0
102
RTVSPost2010PropOp45
 70
     0
102
RTVSPost2010Prop46
 90
       50
102
RTVSPost2010PropOp46
 70
     0
102
RTVSPost2010Prop47
 90
       50
102
RTVSPost2010PropOp47
 70
     0
102
RTVSPost2010Prop48
 90
       50
102
RTVSPost2010PropOp48
 70
     0
102
RTVSPost2010Prop49
280
     0
102
RTVSPost2010PropOp49
 70
     0
102
RTVSPost2010Prop50
 90
       50
102
RTVSPost2010PropOp50
 70
     0
102
RTVSPost2010Prop51ColorIndex
 90
      256
102
RTVSPost2010Prop51ColorRGB
 90
-16777216
102
RTVSPost2010PropOp51
 70
     0
102
RTVSPost2010Prop52
140
1.0
102
RTVSPost2010PropOp52
 70
     0
102
RTVSPost2010Prop53
 90
        2
102
RTVSPost2010PropOp53
 70
     0
102
RTVSPost2010Prop54
  1
strokes_ogs.tif
102
RTVSPost2010PropOp54
 70
     0
102
RTVSPost2010Prop55
280
     0
102
RTVSPost2010PropOp55
 70
     0
102
RTVSPost2010Prop56
140
1.0
102
RTVSPost2010PropOp56
 70
     0
102
RTVSPost2010Prop57
140
1.0
102
RTVSPost2010PropOp57
 70
     0
  0
XRECORD
  5
216B
102
{ACAD_REACTORS
330
216A
102
}
330
216A
100
AcDbXrecord
280
     1
102
RTVSPropertyOp0
 70
     1
102
RTVSPropertyOp1
 70
     1
102
RTVSPropertyOp2
 70
     1
102
RTVSPropertyOp3
 70
     1
102
RTVSPropertyOp4
 70
     1
102
RTVSPropertyOp5
 70
     1
102
RTVSPropertyOp6
 70
     1
102
RTVSPropertyOp7
 70
     1
102
RTVSPropertyOp8
 70
     1
102
RTVSPropertyOp9
 70
     1
102
RTVSPropertyOp10
 70
     1
102
RTVSPropertyOp11
 70
     1
102
RTVSPropertyOp12
 70
     1
102
RTVSPropertyOp13
 70
     1
102
RTVSPropertyOp14
 70
     1
102
RTVSPropertyOp15
 70
     1
102
RTVSPropertyOp16
 70
     1
102
RTVSPropertyOp17
 70
     1
102
RTVSPropertyOp18
 70
     1
102
RTVSPropertyOp19
 70
     1
102
RTVSPropertyOp20
 70
     1
102
RTVSPropertyOp21
 70
     1
102
RTVSPropertyOp22
 70
     1
102
RTVSPropertyOp23
 70
     1
102
RTVSPropertyOp24
 70
     1
102
RTVSPropertyOp25
 70
     1
102
RTVSPropertyOp26
 70
     1
102
RTVSPropertyOp27
 70
     1
102
RTVSPropertyOp28
 70
     1
102
RTVSPropertyOp29
 70
     1
102
RTVSPropertyOp30
 70
     1
102
RTVSPropertyOp31
 70
     1
102
RTVSPropertyOp32
 70
     1
102
RTVSPropertyOp33
 70
     1
102
RTVSPropertyOp34
 70
     1
102
RTVSPropertyOp35
 70
     1
102
RTVSPropertyOp36
 70
     1
102
RTVSPropertyOp37
 70
     1
102
RTVSPropertyOp38
 70
     1
102
RTVSPropertyOp39
 70
     1
102
RTVSPropertyOp40
 70
     1
102
RTVSPropertyOp41
 70
     1
102
RTVSPropertyOp42
 70
     1
102
RTVSPropertyOp43
 70
     1
102
RTVSPropertyOp44
 70
     1
102
RTVSPropertyOp45
 70
     1
102
RTVSPropertyOp46
 70
     1
102
RTVSPropertyOp47
 70
     1
102
RTVSPropertyOp48
 70
     1
102
RTVSPropertyOp49
 70
     1
102
RTVSPropertyOp50
 70
     1
102
RTVSPropertyOp51
 70
     0
102
RTVSPropertyOp52
 70
     0
102
RTVSPropertyOp53
 70
     1
102
RTVSPropertyOp54
 70
     1
102
RTVSPropertyOp55
 70
     1
102
RTVSPropertyOp56
 70
     1
102
RTVSPropertyOp57
 70
     1
102
RTVSPost2010Prop28
280
     0
102
RTVSPost2010PropOp28
 70
     1
102
RTVSPost2010Prop29
280
     1
102
RTVSPost2010PropOp29
 70
     1
102
RTVSPost2010Prop30
280
     1
102
RTVSPost2010PropOp30
 70
     1
102
RTVSPost2010Prop31
280
     0
102
RTVSPost2010PropOp31
 70
     1
102
RTVSPost2010Prop32
280
     0
102
RTVSPost2010PropOp32
 70
     1
102
RTVSPost2010Prop33
280
     0
102
RTVSPost2010PropOp33
 70
     1
102
RTVSPost2010Prop34
280
     0
102
RTVSPost2010PropOp34
 70
     1
102
RTVSPost2010Prop35
280
     0
102
RTVSPost2010PropOp35
 70
     1
102
RTVSPost2010Prop36
280
     0
102
RTVSPost2010PropOp36
 70
     1
102
RTVSPost2010Prop37
 90
       50
102
RTVSPost2010PropOp37
 70
     1
102
RTVSPost2010Prop38
140
0.0
102
RTVSPost2010PropOp38
 70
     1
102
RTVSPost2010Prop39
140
1.0
102
RTVSPost2010PropOp39
 70
     1
102
RTVSPost2010Prop40
 90
        0
102
RTVSPost2010PropOp40
 70
     1
102
RTVSPost2010Prop41ColorIndex
 90
       18
102
RTVSPost2010Prop41ColorRGB
 90
        0
102
RTVSPost2010PropOp41
 70
     1
102
RTVSPost2010Prop42
 90
       50
102
RTVSPost2010PropOp42
 70
     1
102
RTVSPost2010Prop43
 90
        3
102
RTVSPost2010PropOp43
 70
     1
102
RTVSPost2010Prop44ColorIndex
 90
        5
102
RTVSPost2010Prop44ColorRGB
 90
      255
102
RTVSPost2010PropOp44
 70
     1
102
RTVSPost2010Prop45
280
     0
102
RTVSPost2010PropOp45
 70
     1
102
RTVSPost2010Prop46
 90
       50
102
RTVSPost2010PropOp46
 70
     1
102
RTVSPost2010Prop47
 90
       50
102
RTVSPost2010PropOp47
 70
     1
102
RTVSPost2010Prop48
 90
       50
102
RTVSPost2010PropOp48
 70
     1
102
RTVSPost2010Prop49
280
     0
102
RTVSPost2010PropOp49
 70
     1
102
RTVSPost2010Prop50
 90
       50
102
RTVSPost2010PropOp50
 70
     1
102
RTVSPost2010Prop51ColorIndex
 90
      256
102
RTVSPost2010Prop51ColorRGB
 90
-16777216
102
RTVSPost2010PropOp51
 70
     0
102
RTVSPost2010Prop52
140
1.0
102
RTVSPost2010PropOp52
 70
     0
102
RTVSPost2010Prop53
 90
        2
102
RTVSPost2010PropOp53
 70
     1
102
RTVSPost2010Prop54
  1
strokes_ogs.tif
102
RTVSPost2010PropOp54
 70
     1
102
RTVSPost2010Prop55
280
     0
102
RTVSPost2010PropOp55
 70
     1
102
RTVSPost2010Prop56
140
1.0
102
RTVSPost2010PropOp56
 70
     1
102
RTVSPost2010Prop57
140
1.0
102
RTVSPost2010PropOp57
 70
     1
  0
XRECORD
  5
216D
102
{ACAD_REACTORS
330
216C
102
}
330
216C
100
AcDbXrecord
280
     1
102
RTVSPropertyOp0
 70
     1
102
RTVSPropertyOp1
 70
     1
102
RTVSPropertyOp2
 70
     1
102
RTVSPropertyOp3
 70
     1
102
RTVSPropertyOp4
 70
     1
102
RTVSPropertyOp5
 70
     1
102
RTVSPropertyOp6
 70
     1
102
RTVSPropertyOp7
 70
     1
102
RTVSPropertyOp8
 70
     1
102
RTVSPropertyOp9
 70
     1
102
RTVSPropertyOp10
 70
     1
102
RTVSPropertyOp11
 70
     1
102
RTVSPropertyOp12
 70
     1
102
RTVSPropertyOp13
 70
     1
102
RTVSPropertyOp14
 70
     1
102
RTVSPropertyOp15
 70
     1
102
RTVSPropertyOp16
 70
     1
102
RTVSPropertyOp17
 70
     1
102
RTVSPropertyOp18
 70
     1
102
RTVSPropertyOp19
 70
     1
102
RTVSPropertyOp20
 70
     1
102
RTVSPropertyOp21
 70
     1
102
RTVSPropertyOp22
 70
     1
102
RTVSPropertyOp23
 70
     1
102
RTVSPropertyOp24
 70
     1
102
RTVSPropertyOp25
 70
     1
102
RTVSPropertyOp26
 70
     1
102
RTVSPropertyOp27
 70
     1
102
RTVSPropertyOp28
 70
     1
102
RTVSPropertyOp29
 70
     1
102
RTVSPropertyOp30
 70
     1
102
RTVSPropertyOp31
 70
     1
102
RTVSPropertyOp32
 70
     1
102
RTVSPropertyOp33
 70
     1
102
RTVSPropertyOp34
 70
     1
102
RTVSPropertyOp35
 70
     1
102
RTVSPropertyOp36
 70
     1
102
RTVSPropertyOp37
 70
     1
102
RTVSPropertyOp38
 70
     1
102
RTVSPropertyOp39
 70
     1
102
RTVSPropertyOp40
 70
     1
102
RTVSPropertyOp41
 70
     1
102
RTVSPropertyOp42
 70
     1
102
RTVSPropertyOp43
 70
     1
102
RTVSPropertyOp44
 70
     1
102
RTVSPropertyOp45
 70
     1
102
RTVSPropertyOp46
 70
     1
102
RTVSPropertyOp47
 70
     1
102
RTVSPropertyOp48
 70
     1
102
RTVSPropertyOp49
 70
     1
102
RTVSPropertyOp50
 70
     1
102
RTVSPropertyOp51
 70
     0
102
RTVSPropertyOp52
 70
     0
102
RTVSPropertyOp53
 70
     1
102
RTVSPropertyOp54
 70
     1
102
RTVSPropertyOp55
 70
     1
102
RTVSPropertyOp56
 70
     1
102
RTVSPropertyOp57
 70
     1
102
RTVSPost2010Prop28
280
     0
102
RTVSPost2010PropOp28
 70
     1
102
RTVSPost2010Prop29
280
     1
102
RTVSPost2010PropOp29
 70
     1
102
RTVSPost2010Prop30
280
     1
102
RTVSPost2010PropOp30
 70
     1
102
RTVSPost2010Prop31
280
     0
102
RTVSPost2010PropOp31
 70
     1
102
RTVSPost2010Prop32
280
     0
102
RTVSPost2010PropOp32
 70
     1
102
RTVSPost2010Prop33
280
     0
102
RTVSPost2010PropOp33
 70
     1
102
RTVSPost2010Prop34
280
     0
102
RTVSPost2010PropOp34
 70
     1
102
RTVSPost2010Prop35
280
     0
102
RTVSPost2010PropOp35
 70
     1
102
RTVSPost2010Prop36
280
     0
102
RTVSPost2010PropOp36
 70
     1
102
RTVSPost2010Prop37
 90
       50
102
RTVSPost2010PropOp37
 70
     1
102
RTVSPost2010Prop38
140
0.0
102
RTVSPost2010PropOp38
 70
     1
102
RTVSPost2010Prop39
140
1.0
102
RTVSPost2010PropOp39
 70
     1
102
RTVSPost2010Prop40
 90
        0
102
RTVSPost2010PropOp40
 70
     1
102
RTVSPost2010Prop41ColorIndex
 90
       18
102
RTVSPost2010Prop41ColorRGB
 90
        0
102
RTVSPost2010PropOp41
 70
     1
102
RTVSPost2010Prop42
 90
       50
102
RTVSPost2010PropOp42
 70
     1
102
RTVSPost2010Prop43
 90
        3
102
RTVSPost2010PropOp43
 70
     1
102
RTVSPost2010Prop44ColorIndex
 90
        5
102
RTVSPost2010Prop44ColorRGB
 90
      255
102
RTVSPost2010PropOp44
 70
     1
102
RTVSPost2010Prop45
280
     0
102
RTVSPost2010PropOp45
 70
     1
102
RTVSPost2010Prop46
 90
       50
102
RTVSPost2010PropOp46
 70
     1
102
RTVSPost2010Prop47
 90
       50
102
RTVSPost2010PropOp47
 70
     1
102
RTVSPost2010Prop48
 90
       50
102
RTVSPost2010PropOp48
 70
     1
102
RTVSPost2010Prop49
280
     0
102
RTVSPost2010PropOp49
 70
     1
102
RTVSPost2010Prop50
 90
       50
102
RTVSPost2010PropOp50
 70
     1
102
RTVSPost2010Prop51ColorIndex
 90
      256
102
RTVSPost2010Prop51ColorRGB
 90
-16777216
102
RTVSPost2010PropOp51
 70
     0
102
RTVSPost2010Prop52
140
1.0
102
RTVSPost2010PropOp52
 70
     0
102
RTVSPost2010Prop53
 90
        2
102
RTVSPost2010PropOp53
 70
     1
102
RTVSPost2010Prop54
  1
strokes_ogs.tif
102
RTVSPost2010PropOp54
 70
     1
102
RTVSPost2010Prop55
280
     0
102
RTVSPost2010PropOp55
 70
     1
102
RTVSPost2010Prop56
140
1.0
102
RTVSPost2010PropOp56
 70
     1
102
RTVSPost2010Prop57
140
1.0
102
RTVSPost2010PropOp57
 70
     1
  0
XRECORD
  5
216F
102
{ACAD_REACTORS
330
216E
102
}
330
216E
100
AcDbXrecord
280
     1
102
RTVSPropertyOp0
 70
     1
102
RTVSPropertyOp1
 70
     1
102
RTVSPropertyOp2
 70
     1
102
RTVSPropertyOp3
 70
     1
102
RTVSPropertyOp4
 70
     1
102
RTVSPropertyOp5
 70
     1
102
RTVSPropertyOp6
 70
     1
102
RTVSPropertyOp7
 70
     1
102
RTVSPropertyOp8
 70
     1
102
RTVSPropertyOp9
 70
     1
102
RTVSPropertyOp10
 70
     1
102
RTVSPropertyOp11
 70
     1
102
RTVSPropertyOp12
 70
     1
102
RTVSPropertyOp13
 70
     1
102
RTVSPropertyOp14
 70
     1
102
RTVSPropertyOp15
 70
     1
102
RTVSPropertyOp16
 70
     1
102
RTVSPropertyOp17
 70
     1
102
RTVSPropertyOp18
 70
     1
102
RTVSPropertyOp19
 70
     1
102
RTVSPropertyOp20
 70
     1
102
RTVSPropertyOp21
 70
     1
102
RTVSPropertyOp22
 70
     1
102
RTVSPropertyOp23
 70
     1
102
RTVSPropertyOp24
 70
     1
102
RTVSPropertyOp25
 70
     1
102
RTVSPropertyOp26
 70
     1
102
RTVSPropertyOp27
 70
     1
102
RTVSPropertyOp28
 70
     1
102
RTVSPropertyOp29
 70
     1
102
RTVSPropertyOp30
 70
     1
102
RTVSPropertyOp31
 70
     1
102
RTVSPropertyOp32
 70
     1
102
RTVSPropertyOp33
 70
     1
102
RTVSPropertyOp34
 70
     1
102
RTVSPropertyOp35
 70
     1
102
RTVSPropertyOp36
 70
     1
102
RTVSPropertyOp37
 70
     1
102
RTVSPropertyOp38
 70
     1
102
RTVSPropertyOp39
 70
     1
102
RTVSPropertyOp40
 70
     1
102
RTVSPropertyOp41
 70
     1
102
RTVSPropertyOp42
 70
     1
102
RTVSPropertyOp43
 70
     1
102
RTVSPropertyOp44
 70
     1
102
RTVSPropertyOp45
 70
     1
102
RTVSPropertyOp46
 70
     1
102
RTVSPropertyOp47
 70
     1
102
RTVSPropertyOp48
 70
     1
102
RTVSPropertyOp49
 70
     1
102
RTVSPropertyOp50
 70
     1
102
RTVSPropertyOp51
 70
     0
102
RTVSPropertyOp52
 70
     0
102
RTVSPropertyOp53
 70
     1
102
RTVSPropertyOp54
 70
     1
102
RTVSPropertyOp55
 70
     1
102
RTVSPropertyOp56
 70
     1
102
RTVSPropertyOp57
 70
     1
102
RTVSPost2010Prop28
280
     0
102
RTVSPost2010PropOp28
 70
     1
102
RTVSPost2010Prop29
280
     1
102
RTVSPost2010PropOp29
 70
     1
102
RTVSPost2010Prop30
280
     1
102
RTVSPost2010PropOp30
 70
     1
102
RTVSPost2010Prop31
280
     0
102
RTVSPost2010PropOp31
 70
     1
102
RTVSPost2010Prop32
280
     0
102
RTVSPost2010PropOp32
 70
     1
102
RTVSPost2010Prop33
280
     0
102
RTVSPost2010PropOp33
 70
     1
102
RTVSPost2010Prop34
280
     0
102
RTVSPost2010PropOp34
 70
     1
102
RTVSPost2010Prop35
280
     0
102
RTVSPost2010PropOp35
 70
     1
102
RTVSPost2010Prop36
280
     0
102
RTVSPost2010PropOp36
 70
     1
102
RTVSPost2010Prop37
 90
       50
102
RTVSPost2010PropOp37
 70
     1
102
RTVSPost2010Prop38
140
0.0
102
RTVSPost2010PropOp38
 70
     1
102
RTVSPost2010Prop39
140
1.0
102
RTVSPost2010PropOp39
 70
     1
102
RTVSPost2010Prop40
 90
        0
102
RTVSPost2010PropOp40
 70
     1
102
RTVSPost2010Prop41ColorIndex
 90
       18
102
RTVSPost2010Prop41ColorRGB
 90
        0
102
RTVSPost2010PropOp41
 70
     1
102
RTVSPost2010Prop42
 90
       50
102
RTVSPost2010PropOp42
 70
     1
102
RTVSPost2010Prop43
 90
        3
102
RTVSPost2010PropOp43
 70
     1
102
RTVSPost2010Prop44ColorIndex
 90
        5
102
RTVSPost2010Prop44ColorRGB
 90
      255
102
RTVSPost2010PropOp44
 70
     1
102
RTVSPost2010Prop45
280
     0
102
RTVSPost2010PropOp45
 70
     1
102
RTVSPost2010Prop46
 90
       50
102
RTVSPost2010PropOp46
 70
     1
102
RTVSPost2010Prop47
 90
       50
102
RTVSPost2010PropOp47
 70
     1
102
RTVSPost2010Prop48
 90
       50
102
RTVSPost2010PropOp48
 70
     1
102
RTVSPost2010Prop49
280
     0
102
RTVSPost2010PropOp49
 70
     1
102
RTVSPost2010Prop50
 90
       50
102
RTVSPost2010PropOp50
 70
     1
102
RTVSPost2010Prop51ColorIndex
 90
      256
102
RTVSPost2010Prop51ColorRGB
 90
-16777216
102
RTVSPost2010PropOp51
 70
     0
102
RTVSPost2010Prop52
140
1.0
102
RTVSPost2010PropOp52
 70
     0
102
RTVSPost2010Prop53
 90
        2
102
RTVSPost2010PropOp53
 70
     1
102
RTVSPost2010Prop54
  1
strokes_ogs.tif
102
RTVSPost2010PropOp54
 70
     1
102
RTVSPost2010Prop55
280
     0
102
RTVSPost2010PropOp55
 70
     1
102
RTVSPost2010Prop56
140
1.0
102
RTVSPost2010PropOp56
 70
     1
102
RTVSPost2010Prop57
140
1.0
102
RTVSPost2010PropOp57
 70
     1
  0
XRECORD
  5
2171
102
{ACAD_REACTORS
330
2170
102
}
330
2170
100
AcDbXrecord
280
     1
102
RTVSPropertyOp0
 70
     1
102
RTVSPropertyOp1
 70
     1
102
RTVSPropertyOp2
 70
     1
102
RTVSPropertyOp3
 70
     1
102
RTVSPropertyOp4
 70
     1
102
RTVSPropertyOp5
 70
     1
102
RTVSPropertyOp6
 70
     1
102
RTVSPropertyOp7
 70
     1
102
RTVSPropertyOp8
 70
     1
102
RTVSPropertyOp9
 70
     1
102
RTVSPropertyOp10
 70
     1
102
RTVSPropertyOp11
 70
     1
102
RTVSPropertyOp12
 70
     1
102
RTVSPropertyOp13
 70
     1
102
RTVSPropertyOp14
 70
     1
102
RTVSPropertyOp15
 70
     1
102
RTVSPropertyOp16
 70
     1
102
RTVSPropertyOp17
 70
     1
102
RTVSPropertyOp18
 70
     1
102
RTVSPropertyOp19
 70
     1
102
RTVSPropertyOp20
 70
     1
102
RTVSPropertyOp21
 70
     1
102
RTVSPropertyOp22
 70
     1
102
RTVSPropertyOp23
 70
     1
102
RTVSPropertyOp24
 70
     1
102
RTVSPropertyOp25
 70
     1
102
RTVSPropertyOp26
 70
     1
102
RTVSPropertyOp27
 70
     1
102
RTVSPropertyOp28
 70
     1
102
RTVSPropertyOp29
 70
     1
102
RTVSPropertyOp30
 70
     1
102
RTVSPropertyOp31
 70
     1
102
RTVSPropertyOp32
 70
     1
102
RTVSPropertyOp33
 70
     1
102
RTVSPropertyOp34
 70
     1
102
RTVSPropertyOp35
 70
     1
102
RTVSPropertyOp36
 70
     1
102
RTVSPropertyOp37
 70
     1
102
RTVSPropertyOp38
 70
     1
102
RTVSPropertyOp39
 70
     1
102
RTVSPropertyOp40
 70
     1
102
RTVSPropertyOp41
 70
     1
102
RTVSPropertyOp42
 70
     1
102
RTVSPropertyOp43
 70
     1
102
RTVSPropertyOp44
 70
     1
102
RTVSPropertyOp45
 70
     1
102
RTVSPropertyOp46
 70
     1
102
RTVSPropertyOp47
 70
     1
102
RTVSPropertyOp48
 70
     1
102
RTVSPropertyOp49
 70
     1
102
RTVSPropertyOp50
 70
     1
102
RTVSPropertyOp51
 70
     0
102
RTVSPropertyOp52
 70
     0
102
RTVSPropertyOp53
 70
     1
102
RTVSPropertyOp54
 70
     1
102
RTVSPropertyOp55
 70
     1
102
RTVSPropertyOp56
 70
     1
102
RTVSPropertyOp57
 70
     1
102
RTVSPost2010Prop28
280
     0
102
RTVSPost2010PropOp28
 70
     1
102
RTVSPost2010Prop29
280
     1
102
RTVSPost2010PropOp29
 70
     1
102
RTVSPost2010Prop30
280
     1
102
RTVSPost2010PropOp30
 70
     1
102
RTVSPost2010Prop31
280
     0
102
RTVSPost2010PropOp31
 70
     1
102
RTVSPost2010Prop32
280
     0
102
RTVSPost2010PropOp32
 70
     1
102
RTVSPost2010Prop33
280
     0
102
RTVSPost2010PropOp33
 70
     1
102
RTVSPost2010Prop34
280
     0
102
RTVSPost2010PropOp34
 70
     1
102
RTVSPost2010Prop35
280
     0
102
RTVSPost2010PropOp35
 70
     1
102
RTVSPost2010Prop36
280
     0
102
RTVSPost2010PropOp36
 70
     1
102
RTVSPost2010Prop37
 90
       50
102
RTVSPost2010PropOp37
 70
     1
102
RTVSPost2010Prop38
140
0.0
102
RTVSPost2010PropOp38
 70
     1
102
RTVSPost2010Prop39
140
1.0
102
RTVSPost2010PropOp39
 70
     1
102
RTVSPost2010Prop40
 90
        0
102
RTVSPost2010PropOp40
 70
     1
102
RTVSPost2010Prop41ColorIndex
 90
       18
102
RTVSPost2010Prop41ColorRGB
 90
        0
102
RTVSPost2010PropOp41
 70
     1
102
RTVSPost2010Prop42
 90
       50
102
RTVSPost2010PropOp42
 70
     1
102
RTVSPost2010Prop43
 90
        3
102
RTVSPost2010PropOp43
 70
     1
102
RTVSPost2010Prop44ColorIndex
 90
        5
102
RTVSPost2010Prop44ColorRGB
 90
      255
102
RTVSPost2010PropOp44
 70
     1
102
RTVSPost2010Prop45
280
     0
102
RTVSPost2010PropOp45
 70
     1
102
RTVSPost2010Prop46
 90
       50
102
RTVSPost2010PropOp46
 70
     1
102
RTVSPost2010Prop47
 90
       50
102
RTVSPost2010PropOp47
 70
     1
102
RTVSPost2010Prop48
 90
       50
102
RTVSPost2010PropOp48
 70
     1
102
RTVSPost2010Prop49
280
     0
102
RTVSPost2010PropOp49
 70
     1
102
RTVSPost2010Prop50
 90
       50
102
RTVSPost2010PropOp50
 70
     1
102
RTVSPost2010Prop51ColorIndex
 90
      256
102
RTVSPost2010Prop51ColorRGB
 90
-16777216
102
RTVSPost2010PropOp51
 70
     0
102
RTVSPost2010Prop52
140
1.0
102
RTVSPost2010PropOp52
 70
     0
102
RTVSPost2010Prop53
 90
        2
102
RTVSPost2010PropOp53
 70
     1
102
RTVSPost2010Prop54
  1
strokes_ogs.tif
102
RTVSPost2010PropOp54
 70
     1
102
RTVSPost2010Prop55
280
     0
102
RTVSPost2010PropOp55
 70
     1
102
RTVSPost2010Prop56
140
1.0
102
RTVSPost2010PropOp56
 70
     1
102
RTVSPost2010Prop57
140
1.0
102
RTVSPost2010PropOp57
 70
     1
  0
XRECORD
  5
2173
102
{ACAD_REACTORS
330
2172
102
}
330
2172
100
AcDbXrecord
280
     1
102
RTVSPropertyOp0
 70
     1
102
RTVSPropertyOp1
 70
     1
102
RTVSPropertyOp2
 70
     1
102
RTVSPropertyOp3
 70
     1
102
RTVSPropertyOp4
 70
     1
102
RTVSPropertyOp5
 70
     1
102
RTVSPropertyOp6
 70
     1
102
RTVSPropertyOp7
 70
     1
102
RTVSPropertyOp8
 70
     1
102
RTVSPropertyOp9
 70
     1
102
RTVSPropertyOp10
 70
     1
102
RTVSPropertyOp11
 70
     1
102
RTVSPropertyOp12
 70
     1
102
RTVSPropertyOp13
 70
     1
102
RTVSPropertyOp14
 70
     1
102
RTVSPropertyOp15
 70
     1
102
RTVSPropertyOp16
 70
     1
102
RTVSPropertyOp17
 70
     1
102
RTVSPropertyOp18
 70
     1
102
RTVSPropertyOp19
 70
     1
102
RTVSPropertyOp20
 70
     1
102
RTVSPropertyOp21
 70
     1
102
RTVSPropertyOp22
 70
     1
102
RTVSPropertyOp23
 70
     1
102
RTVSPropertyOp24
 70
     1
102
RTVSPropertyOp25
 70
     1
102
RTVSPropertyOp26
 70
     1
102
RTVSPropertyOp27
 70
     1
102
RTVSPropertyOp28
 70
     1
102
RTVSPropertyOp29
 70
     1
102
RTVSPropertyOp30
 70
     1
102
RTVSPropertyOp31
 70
     1
102
RTVSPropertyOp32
 70
     1
102
RTVSPropertyOp33
 70
     1
102
RTVSPropertyOp34
 70
     1
102
RTVSPropertyOp35
 70
     1
102
RTVSPropertyOp36
 70
     1
102
RTVSPropertyOp37
 70
     1
102
RTVSPropertyOp38
 70
     1
102
RTVSPropertyOp39
 70
     1
102
RTVSPropertyOp40
 70
     1
102
RTVSPropertyOp41
 70
     1
102
RTVSPropertyOp42
 70
     1
102
RTVSPropertyOp43
 70
     1
102
RTVSPropertyOp44
 70
     1
102
RTVSPropertyOp45
 70
     1
102
RTVSPropertyOp46
 70
     1
102
RTVSPropertyOp47
 70
     1
102
RTVSPropertyOp48
 70
     1
102
RTVSPropertyOp49
 70
     1
102
RTVSPropertyOp50
 70
     1
102
RTVSPropertyOp51
 70
     0
102
RTVSPropertyOp52
 70
     0
102
RTVSPropertyOp53
 70
     1
102
RTVSPropertyOp54
 70
     1
102
RTVSPropertyOp55
 70
     1
102
RTVSPropertyOp56
 70
     1
102
RTVSPropertyOp57
 70
     1
102
RTVSPost2010Prop28
280
     0
102
RTVSPost2010PropOp28
 70
     1
102
RTVSPost2010Prop29
280
     1
102
RTVSPost2010PropOp29
 70
     1
102
RTVSPost2010Prop30
280
     1
102
RTVSPost2010PropOp30
 70
     1
102
RTVSPost2010Prop31
280
     0
102
RTVSPost2010PropOp31
 70
     1
102
RTVSPost2010Prop32
280
     0
102
RTVSPost2010PropOp32
 70
     1
102
RTVSPost2010Prop33
280
     0
102
RTVSPost2010PropOp33
 70
     1
102
RTVSPost2010Prop34
280
     0
102
RTVSPost2010PropOp34
 70
     1
102
RTVSPost2010Prop35
280
     0
102
RTVSPost2010PropOp35
 70
     1
102
RTVSPost2010Prop36
280
     0
102
RTVSPost2010PropOp36
 70
     1
102
RTVSPost2010Prop37
 90
       50
102
RTVSPost2010PropOp37
 70
     1
102
RTVSPost2010Prop38
140
0.0
102
RTVSPost2010PropOp38
 70
     1
102
RTVSPost2010Prop39
140
1.0
102
RTVSPost2010PropOp39
 70
     1
102
RTVSPost2010Prop40
 90
        0
102
RTVSPost2010PropOp40
 70
     1
102
RTVSPost2010Prop41ColorIndex
 90
       18
102
RTVSPost2010Prop41ColorRGB
 90
        0
102
RTVSPost2010PropOp41
 70
     1
102
RTVSPost2010Prop42
 90
       50
102
RTVSPost2010PropOp42
 70
     1
102
RTVSPost2010Prop43
 90
        3
102
RTVSPost2010PropOp43
 70
     1
102
RTVSPost2010Prop44ColorIndex
 90
        5
102
RTVSPost2010Prop44ColorRGB
 90
      255
102
RTVSPost2010PropOp44
 70
     1
102
RTVSPost2010Prop45
280
     0
102
RTVSPost2010PropOp45
 70
     1
102
RTVSPost2010Prop46
 90
       50
102
RTVSPost2010PropOp46
 70
     1
102
RTVSPost2010Prop47
 90
       50
102
RTVSPost2010PropOp47
 70
     1
102
RTVSPost2010Prop48
 90
       50
102
RTVSPost2010PropOp48
 70
     1
102
RTVSPost2010Prop49
280
     0
102
RTVSPost2010PropOp49
 70
     1
102
RTVSPost2010Prop50
 90
       50
102
RTVSPost2010PropOp50
 70
     1
102
RTVSPost2010Prop51ColorIndex
 90
      256
102
RTVSPost2010Prop51ColorRGB
 90
-16777216
102
RTVSPost2010PropOp51
 70
     0
102
RTVSPost2010Prop52
140
1.0
102
RTVSPost2010PropOp52
 70
     0
102
RTVSPost2010Prop53
 90
        2
102
RTVSPost2010PropOp53
 70
     1
102
RTVSPost2010Prop54
  1
strokes_ogs.tif
102
RTVSPost2010PropOp54
 70
     1
102
RTVSPost2010Prop55
280
     0
102
RTVSPost2010PropOp55
 70
     1
102
RTVSPost2010Prop56
140
1.0
102
RTVSPost2010PropOp56
 70
     1
102
RTVSPost2010Prop57
140
1.0
102
RTVSPost2010PropOp57
 70
     1
  0
XRECORD
  5
2175
102
{ACAD_REACTORS
330
2174
102
}
330
2174
100
AcDbXrecord
280
     1
102
RTVSPropertyOp0
 70
     1
102
RTVSPropertyOp1
 70
     1
102
RTVSPropertyOp2
 70
     1
102
RTVSPropertyOp3
 70
     1
102
RTVSPropertyOp4
 70
     1
102
RTVSPropertyOp5
 70
     1
102
RTVSPropertyOp6
 70
     1
102
RTVSPropertyOp7
 70
     1
102
RTVSPropertyOp8
 70
     1
102
RTVSPropertyOp9
 70
     1
102
RTVSPropertyOp10
 70
     1
102
RTVSPropertyOp11
 70
     1
102
RTVSPropertyOp12
 70
     1
102
RTVSPropertyOp13
 70
     1
102
RTVSPropertyOp14
 70
     1
102
RTVSPropertyOp15
 70
     1
102
RTVSPropertyOp16
 70
     1
102
RTVSPropertyOp17
 70
     1
102
RTVSPropertyOp18
 70
     1
102
RTVSPropertyOp19
 70
     1
102
RTVSPropertyOp20
 70
     1
102
RTVSPropertyOp21
 70
     1
102
RTVSPropertyOp22
 70
     1
102
RTVSPropertyOp23
 70
     1
102
RTVSPropertyOp24
 70
     1
102
RTVSPropertyOp25
 70
     1
102
RTVSPropertyOp26
 70
     1
102
RTVSPropertyOp27
 70
     1
102
RTVSPropertyOp28
 70
     1
102
RTVSPropertyOp29
 70
     1
102
RTVSPropertyOp30
 70
     1
102
RTVSPropertyOp31
 70
     1
102
RTVSPropertyOp32
 70
     1
102
RTVSPropertyOp33
 70
     1
102
RTVSPropertyOp34
 70
     1
102
RTVSPropertyOp35
 70
     1
102
RTVSPropertyOp36
 70
     1
102
RTVSPropertyOp37
 70
     1
102
RTVSPropertyOp38
 70
     1
102
RTVSPropertyOp39
 70
     1
102
RTVSPropertyOp40
 70
     1
102
RTVSPropertyOp41
 70
     1
102
RTVSPropertyOp42
 70
     1
102
RTVSPropertyOp43
 70
     1
102
RTVSPropertyOp44
 70
     1
102
RTVSPropertyOp45
 70
     1
102
RTVSPropertyOp46
 70
     1
102
RTVSPropertyOp47
 70
     1
102
RTVSPropertyOp48
 70
     1
102
RTVSPropertyOp49
 70
     1
102
RTVSPropertyOp50
 70
     1
102
RTVSPropertyOp51
 70
     0
102
RTVSPropertyOp52
 70
     0
102
RTVSPropertyOp53
 70
     1
102
RTVSPropertyOp54
 70
     1
102
RTVSPropertyOp55
 70
     1
102
RTVSPropertyOp56
 70
     1
102
RTVSPropertyOp57
 70
     1
102
RTVSPost2010Prop28
280
     0
102
RTVSPost2010PropOp28
 70
     1
102
RTVSPost2010Prop29
280
     1
102
RTVSPost2010PropOp29
 70
     1
102
RTVSPost2010Prop30
280
     1
102
RTVSPost2010PropOp30
 70
     1
102
RTVSPost2010Prop31
280
     0
102
RTVSPost2010PropOp31
 70
     1
102
RTVSPost2010Prop32
280
     0
102
RTVSPost2010PropOp32
 70
     1
102
RTVSPost2010Prop33
280
     0
102
RTVSPost2010PropOp33
 70
     1
102
RTVSPost2010Prop34
280
     0
102
RTVSPost2010PropOp34
 70
     1
102
RTVSPost2010Prop35
280
     0
102
RTVSPost2010PropOp35
 70
     1
102
RTVSPost2010Prop36
280
     0
102
RTVSPost2010PropOp36
 70
     1
102
RTVSPost2010Prop37
 90
       50
102
RTVSPost2010PropOp37
 70
     1
102
RTVSPost2010Prop38
140
0.0
102
RTVSPost2010PropOp38
 70
     1
102
RTVSPost2010Prop39
140
1.0
102
RTVSPost2010PropOp39
 70
     1
102
RTVSPost2010Prop40
 90
        0
102
RTVSPost2010PropOp40
 70
     1
102
RTVSPost2010Prop41ColorIndex
 90
       18
102
RTVSPost2010Prop41ColorRGB
 90
        0
102
RTVSPost2010PropOp41
 70
     1
102
RTVSPost2010Prop42
 90
       50
102
RTVSPost2010PropOp42
 70
     1
102
RTVSPost2010Prop43
 90
        3
102
RTVSPost2010PropOp43
 70
     1
102
RTVSPost2010Prop44ColorIndex
 90
        5
102
RTVSPost2010Prop44ColorRGB
 90
      255
102
RTVSPost2010PropOp44
 70
     1
102
RTVSPost2010Prop45
280
     0
102
RTVSPost2010PropOp45
 70
     1
102
RTVSPost2010Prop46
 90
       50
102
RTVSPost2010PropOp46
 70
     1
102
RTVSPost2010Prop47
 90
       50
102
RTVSPost2010PropOp47
 70
     1
102
RTVSPost2010Prop48
 90
       50
102
RTVSPost2010PropOp48
 70
     1
102
RTVSPost2010Prop49
280
     0
102
RTVSPost2010PropOp49
 70
     1
102
RTVSPost2010Prop50
 90
       50
102
RTVSPost2010PropOp50
 70
     1
102
RTVSPost2010Prop51ColorIndex
 90
      256
102
RTVSPost2010Prop51ColorRGB
 90
-16777216
102
RTVSPost2010PropOp51
 70
     0
102
RTVSPost2010Prop52
140
1.0
102
RTVSPost2010PropOp52
 70
     0
102
RTVSPost2010Prop53
 90
        2
102
RTVSPost2010PropOp53
 70
     1
102
RTVSPost2010Prop54
  1
strokes_ogs.tif
102
RTVSPost2010PropOp54
 70
     1
102
RTVSPost2010Prop55
280
     0
102
RTVSPost2010PropOp55
 70
     1
102
RTVSPost2010Prop56
140
1.0
102
RTVSPost2010PropOp56
 70
     1
102
RTVSPost2010Prop57
140
1.0
102
RTVSPost2010PropOp57
 70
     1
  0
XRECORD
  5
2177
102
{ACAD_REACTORS
330
2176
102
}
330
2176
100
AcDbXrecord
280
     1
102
RTVSPropertyOp0
 70
     1
102
RTVSPropertyOp1
 70
     1
102
RTVSPropertyOp2
 70
     1
102
RTVSPropertyOp3
 70
     1
102
RTVSPropertyOp4
 70
     1
102
RTVSPropertyOp5
 70
     1
102
RTVSPropertyOp6
 70
     1
102
RTVSPropertyOp7
 70
     1
102
RTVSPropertyOp8
 70
     1
102
RTVSPropertyOp9
 70
     1
102
RTVSPropertyOp10
 70
     1
102
RTVSPropertyOp11
 70
     1
102
RTVSPropertyOp12
 70
     1
102
RTVSPropertyOp13
 70
     1
102
RTVSPropertyOp14
 70
     1
102
RTVSPropertyOp15
 70
     1
102
RTVSPropertyOp16
 70
     1
102
RTVSPropertyOp17
 70
     1
102
RTVSPropertyOp18
 70
     1
102
RTVSPropertyOp19
 70
     1
102
RTVSPropertyOp20
 70
     1
102
RTVSPropertyOp21
 70
     1
102
RTVSPropertyOp22
 70
     1
102
RTVSPropertyOp23
 70
     1
102
RTVSPropertyOp24
 70
     1
102
RTVSPropertyOp25
 70
     1
102
RTVSPropertyOp26
 70
     1
102
RTVSPropertyOp27
 70
     1
102
RTVSPropertyOp28
 70
     1
102
RTVSPropertyOp29
 70
     1
102
RTVSPropertyOp30
 70
     1
102
RTVSPropertyOp31
 70
     1
102
RTVSPropertyOp32
 70
     1
102
RTVSPropertyOp33
 70
     1
102
RTVSPropertyOp34
 70
     1
102
RTVSPropertyOp35
 70
     1
102
RTVSPropertyOp36
 70
     1
102
RTVSPropertyOp37
 70
     1
102
RTVSPropertyOp38
 70
     1
102
RTVSPropertyOp39
 70
     1
102
RTVSPropertyOp40
 70
     1
102
RTVSPropertyOp41
 70
     1
102
RTVSPropertyOp42
 70
     1
102
RTVSPropertyOp43
 70
     1
102
RTVSPropertyOp44
 70
     1
102
RTVSPropertyOp45
 70
     1
102
RTVSPropertyOp46
 70
     1
102
RTVSPropertyOp47
 70
     1
102
RTVSPropertyOp48
 70
     1
102
RTVSPropertyOp49
 70
     1
102
RTVSPropertyOp50
 70
     1
102
RTVSPropertyOp51
 70
     0
102
RTVSPropertyOp52
 70
     0
102
RTVSPropertyOp53
 70
     1
102
RTVSPropertyOp54
 70
     1
102
RTVSPropertyOp55
 70
     1
102
RTVSPropertyOp56
 70
     1
102
RTVSPropertyOp57
 70
     1
102
RTVSPost2010Prop28
280
     0
102
RTVSPost2010PropOp28
 70
     1
102
RTVSPost2010Prop29
280
     1
102
RTVSPost2010PropOp29
 70
     1
102
RTVSPost2010Prop30
280
     1
102
RTVSPost2010PropOp30
 70
     1
102
RTVSPost2010Prop31
280
     0
102
RTVSPost2010PropOp31
 70
     1
102
RTVSPost2010Prop32
280
     0
102
RTVSPost2010PropOp32
 70
     1
102
RTVSPost2010Prop33
280
     0
102
RTVSPost2010PropOp33
 70
     1
102
RTVSPost2010Prop34
280
     0
102
RTVSPost2010PropOp34
 70
     1
102
RTVSPost2010Prop35
280
     0
102
RTVSPost2010PropOp35
 70
     1
102
RTVSPost2010Prop36
280
     0
102
RTVSPost2010PropOp36
 70
     1
102
RTVSPost2010Prop37
 90
       50
102
RTVSPost2010PropOp37
 70
     1
102
RTVSPost2010Prop38
140
0.0
102
RTVSPost2010PropOp38
 70
     1
102
RTVSPost2010Prop39
140
1.0
102
RTVSPost2010PropOp39
 70
     1
102
RTVSPost2010Prop40
 90
        0
102
RTVSPost2010PropOp40
 70
     1
102
RTVSPost2010Prop41ColorIndex
 90
       18
102
RTVSPost2010Prop41ColorRGB
 90
        0
102
RTVSPost2010PropOp41
 70
     1
102
RTVSPost2010Prop42
 90
       50
102
RTVSPost2010PropOp42
 70
     1
102
RTVSPost2010Prop43
 90
        3
102
RTVSPost2010PropOp43
 70
     1
102
RTVSPost2010Prop44ColorIndex
 90
        5
102
RTVSPost2010Prop44ColorRGB
 90
      255
102
RTVSPost2010PropOp44
 70
     1
102
RTVSPost2010Prop45
280
     0
102
RTVSPost2010PropOp45
 70
     1
102
RTVSPost2010Prop46
 90
       50
102
RTVSPost2010PropOp46
 70
     1
102
RTVSPost2010Prop47
 90
       50
102
RTVSPost2010PropOp47
 70
     1
102
RTVSPost2010Prop48
 90
       50
102
RTVSPost2010PropOp48
 70
     1
102
RTVSPost2010Prop49
280
     0
102
RTVSPost2010PropOp49
 70
     1
102
RTVSPost2010Prop50
 90
       50
102
RTVSPost2010PropOp50
 70
     1
102
RTVSPost2010Prop51ColorIndex
 90
      256
102
RTVSPost2010Prop51ColorRGB
 90
-16777216
102
RTVSPost2010PropOp51
 70
     0
102
RTVSPost2010Prop52
140
1.0
102
RTVSPost2010PropOp52
 70
     0
102
RTVSPost2010Prop53
 90
        2
102
RTVSPost2010PropOp53
 70
     1
102
RTVSPost2010Prop54
  1
strokes_ogs.tif
102
RTVSPost2010PropOp54
 70
     1
102
RTVSPost2010Prop55
280
     0
102
RTVSPost2010PropOp55
 70
     1
102
RTVSPost2010Prop56
140
1.0
102
RTVSPost2010PropOp56
 70
     1
102
RTVSPost2010Prop57
140
1.0
102
RTVSPost2010PropOp57
 70
     1
  0
XRECORD
  5
2179
102
{ACAD_REACTORS
330
2178
102
}
330
2178
100
AcDbXrecord
280
     1
102
RTVSPropertyOp0
 70
     1
102
RTVSPropertyOp1
 70
     1
102
RTVSPropertyOp2
 70
     1
102
RTVSPropertyOp3
 70
     1
102
RTVSPropertyOp4
 70
     1
102
RTVSPropertyOp5
 70
     1
102
RTVSPropertyOp6
 70
     1
102
RTVSPropertyOp7
 70
     1
102
RTVSPropertyOp8
 70
     1
102
RTVSPropertyOp9
 70
     1
102
RTVSPropertyOp10
 70
     1
102
RTVSPropertyOp11
 70
     1
102
RTVSPropertyOp12
 70
     1
102
RTVSPropertyOp13
 70
     1
102
RTVSPropertyOp14
 70
     1
102
RTVSPropertyOp15
 70
     1
102
RTVSPropertyOp16
 70
     1
102
RTVSPropertyOp17
 70
     1
102
RTVSPropertyOp18
 70
     1
102
RTVSPropertyOp19
 70
     1
102
RTVSPropertyOp20
 70
     1
102
RTVSPropertyOp21
 70
     1
102
RTVSPropertyOp22
 70
     1
102
RTVSPropertyOp23
 70
     1
102
RTVSPropertyOp24
 70
     1
102
RTVSPropertyOp25
 70
     1
102
RTVSPropertyOp26
 70
     1
102
RTVSPropertyOp27
 70
     1
102
RTVSPropertyOp28
 70
     1
102
RTVSPropertyOp29
 70
     1
102
RTVSPropertyOp30
 70
     1
102
RTVSPropertyOp31
 70
     1
102
RTVSPropertyOp32
 70
     1
102
RTVSPropertyOp33
 70
     1
102
RTVSPropertyOp34
 70
     1
102
RTVSPropertyOp35
 70
     1
102
RTVSPropertyOp36
 70
     1
102
RTVSPropertyOp37
 70
     1
102
RTVSPropertyOp38
 70
     1
102
RTVSPropertyOp39
 70
     1
102
RTVSPropertyOp40
 70
     1
102
RTVSPropertyOp41
 70
     1
102
RTVSPropertyOp42
 70
     1
102
RTVSPropertyOp43
 70
     1
102
RTVSPropertyOp44
 70
     1
102
RTVSPropertyOp45
 70
     1
102
RTVSPropertyOp46
 70
     1
102
RTVSPropertyOp47
 70
     1
102
RTVSPropertyOp48
 70
     1
102
RTVSPropertyOp49
 70
     1
102
RTVSPropertyOp50
 70
     1
102
RTVSPropertyOp51
 70
     0
102
RTVSPropertyOp52
 70
     0
102
RTVSPropertyOp53
 70
     1
102
RTVSPropertyOp54
 70
     1
102
RTVSPropertyOp55
 70
     1
102
RTVSPropertyOp56
 70
     1
102
RTVSPropertyOp57
 70
     1
102
RTVSPost2010Prop28
280
     0
102
RTVSPost2010PropOp28
 70
     1
102
RTVSPost2010Prop29
280
     1
102
RTVSPost2010PropOp29
 70
     1
102
RTVSPost2010Prop30
280
     1
102
RTVSPost2010PropOp30
 70
     1
102
RTVSPost2010Prop31
280
     0
102
RTVSPost2010PropOp31
 70
     1
102
RTVSPost2010Prop32
280
     0
102
RTVSPost2010PropOp32
 70
     1
102
RTVSPost2010Prop33
280
     0
102
RTVSPost2010PropOp33
 70
     1
102
RTVSPost2010Prop34
280
     0
102
RTVSPost2010PropOp34
 70
     1
102
RTVSPost2010Prop35
280
     0
102
RTVSPost2010PropOp35
 70
     1
102
RTVSPost2010Prop36
280
     0
102
RTVSPost2010PropOp36
 70
     1
102
RTVSPost2010Prop37
 90
       50
102
RTVSPost2010PropOp37
 70
     1
102
RTVSPost2010Prop38
140
0.0
102
RTVSPost2010PropOp38
 70
     1
102
RTVSPost2010Prop39
140
1.0
102
RTVSPost2010PropOp39
 70
     1
102
RTVSPost2010Prop40
 90
        0
102
RTVSPost2010PropOp40
 70
     1
102
RTVSPost2010Prop41ColorIndex
 90
       18
102
RTVSPost2010Prop41ColorRGB
 90
        0
102
RTVSPost2010PropOp41
 70
     1
102
RTVSPost2010Prop42
 90
       50
102
RTVSPost2010PropOp42
 70
     1
102
RTVSPost2010Prop43
 90
        3
102
RTVSPost2010PropOp43
 70
     1
102
RTVSPost2010Prop44ColorIndex
 90
        5
102
RTVSPost2010Prop44ColorRGB
 90
      255
102
RTVSPost2010PropOp44
 70
     1
102
RTVSPost2010Prop45
280
     0
102
RTVSPost2010PropOp45
 70
     1
102
RTVSPost2010Prop46
 90
       50
102
RTVSPost2010PropOp46
 70
     1
102
RTVSPost2010Prop47
 90
       50
102
RTVSPost2010PropOp47
 70
     1
102
RTVSPost2010Prop48
 90
       50
102
RTVSPost2010PropOp48
 70
     1
102
RTVSPost2010Prop49
280
     0
102
RTVSPost2010PropOp49
 70
     1
102
RTVSPost2010Prop50
 90
       50
102
RTVSPost2010PropOp50
 70
     1
102
RTVSPost2010Prop51ColorIndex
 90
      256
102
RTVSPost2010Prop51ColorRGB
 90
-16777216
102
RTVSPost2010PropOp51
 70
     0
102
RTVSPost2010Prop52
140
1.0
102
RTVSPost2010PropOp52
 70
     0
102
RTVSPost2010Prop53
 90
        2
102
RTVSPost2010PropOp53
 70
     1
102
RTVSPost2010Prop54
  1
strokes_ogs.tif
102
RTVSPost2010PropOp54
 70
     1
102
RTVSPost2010Prop55
280
     0
102
RTVSPost2010PropOp55
 70
     1
102
RTVSPost2010Prop56
140
1.0
102
RTVSPost2010PropOp56
 70
     1
102
RTVSPost2010Prop57
140
1.0
102
RTVSPost2010PropOp57
 70
     1
  0
ENDSEC
  0
SECTION
  2
THUMBNAILIMAGE
 90
    17448
310
28000000800000008000000001000800000000000000000000000000000000000000000000000000FFFFFF000000FF0000FFFF0000FF0000FFFF0000FF000000FF00FF000000000080808000C0C0C0000000FF007F7FFF000000A5005252A50000007F003F3F7F0000004C0026264C000000260013132600003FFF007F9FFF
310
000029A5005267A500001F7F003F4F7F0000134C00262F4C000009260013172600007FFF007FBFFF000052A500527CA500003F7F003F5F7F0000264C0026394C0000132600131C260000BFFF007FDFFF00007CA5005291A500005F7F003F6F7F0000394C0026424C00001C26001321260000FFFF007FFFFF0000A5A50052A5
310
A500007F7F003F7F7F00004C4C00264C4C00002626001326260000FFBF007FFFDF0000A57C0052A59100007F5F003F7F6F00004C3900264C420000261C001326210000FF7F007FFFBF0000A5520052A57C00007F3F003F7F5F00004C2600264C39000026130013261C0000FF3F007FFF9F0000A5290052A56700007F1F003F
310
7F4F00004C1300264C2F00002609001326170000FF00007FFF7F0000A5000052A55200007F00003F7F3F00004C0000264C260000260000132613003FFF00009FFF7F0029A5000067A552001F7F00004F7F3F00134C00002F4C260009260000172613007FFF0000BFFF7F0052A500007CA552003F7F00005F7F3F00264C0000
310
394C2600132600001C261300BFFF0000DFFF7F007CA5000091A552005F7F00006F7F3F00394C0000424C26001C26000021261300FFFF0000FFFF7F00A5A50000A5A552007F7F00007F7F3F004C4C00004C4C26002626000026261300FFBF0000FFDF7F00A57C0000A59152007F5F00007F6F3F004C3900004C422600261C00
310
0026211300FF7F0000FFBF7F00A5520000A57C52007F3F00007F5F3F004C2600004C39260026130000261C1300FF3F0000FF9F7F00A5290000A56752007F1F00007F4F3F004C1300004C2F26002609000026171300FF000000FF7F7F00A5000000A55252007F0000007F3F3F004C0000004C2626002600000026131300FF00
310
3F00FF7F9F00A5002900A55267007F001F007F3F4F004C0013004C262F002600090026131700FF007F00FF7FBF00A5005200A5527C007F003F007F3F5F004C0026004C2639002600130026131C00FF00BF00FF7FDF00A5007C00A55291007F005F007F3F6F004C0039004C26420026001C0026132100FF00FF00FF7FFF00A5
310
00A500A552A5007F007F007F3F7F004C004C004C264C002600260026132600BF00FF00DF7FFF007C00A5009152A5005F007F006F3F7F0039004C0042264C001C002600211326007F00FF00BF7FFF005200A5007C52A5003F007F005F3F7F0026004C0039264C00130026001C1326003F00FF009F7FFF002900A5006752A500
310
1F007F004F3F7F0013004C002F264C000900260017132600000000002D2D2D005B5B5B0089898900B7B7B700B3B3B30000000000000000000000000000000000000000000000000000000000000000000000000000000000000000000000000000000000000000000000000000000000000000000000000000000000000000
310
00000000000000000000000000000000000000000000000000000000000000000000000000000000000000000000000000000000000000000000000000000000000000000000000000000000000000000000000000000000000000000000000000000000000000000000000000000000000000000000000000000000000000
310
00000000000000000000000000000000000000000000000000000000000000000000000000000000000000000000000000000000000000000000000000000000000000000000000000000000000000000000000000000000000000000000000000000000000000000000000000000000000000000000000000000000000000
310
00000000000000000000000000000000000000000000000000000000000000000000000000000000000000000000000000000000000000000000000000000000000000000000000000000000000000000000000000000000000000000000000000000000000000000000000000000000000000000000000000000000000000
310
00000000000000000000000000000000000000000000000000000000000000000000000000000000000000000000000000000000000000000000000000000000000000000000000000000000000000000000000000000000000000000000000000000000000000000000000000000000000000000000000000000000000000
310
00000000000000000000000000000000000000000000000000000000000000000000000000000000000000000000000000000000000000000000000000000000000000000000000000000000000000000000000000000000000000000000000000000000000000000000000000000000000000000000000000000000000000
310
00000000000000000000000000000000000000000000000000000000000000000000000000000000000000000000000000000000000000000000000000000000000000000000000000000000000000000000000000000000000000000000000000000000000000000000000000000000000000000000000000000000000000
310
00000000000000000000000000000000000000000000000000000000000000000000000000000000000000000000000000000000000000000000000000000000000000000000000000000000000000000000000000000000000000000000000000000000000000000000000000000000000000000000000000000000000000
310
00000000000000000000000000000000000000000000000000000000000000000000000000000000000000000000000000000000000000000000000000000000000000000000000000000000000000000000000000000000000000000000000000000000000000000000000000000000000000000000000000000000000000
310
00000000000000000000000000000000000000000000000000000000000000000000000000000000000000000000000000000000000000000000000000000000000000000000000000000000000000000000000000000000000000000000000000000000000000000000000000000000000000000000000000000000000000
310
00000000000000000000000000000000000000000000000000000000000000000000000000000000000000000000000000000000000000000000000000000000000000000000000000000000000000000000000000000000000000000000000000000000000000000000000000000000000000000000000000000000000000
310
00000000000000000000000000000000000000000000000000000000000000000000000000000000000000000000000000000000000000000000000000000000000000000000000000000000000000000000000000000000000000000000000000000000000000000000000000000000000000000000000000000000000000
310
00000000000000000000000000000000000000000000000000000000000000000000000000000000000000000000000000000000000000000000000000000000000000000000000000000000000000000000000000000000000000000000000000000000000000000000000000000000000000000000000000000000000000
310
00000000000000000000000000000000000000000000000000000000000000000000000000000000000000000000000000000000000000000000000000000000000000000000000000000000000000000000000000000000000000000000000000000000000000000000000000000000000000000000000000000000000000
310
00000000000000000000000000000000000000000000000000000000000000000000000000000000000000000000000000000000000000000000000000000000000000000000000000000000000000000000000000000000000000000000000000000000000000000000000000000000000000000000000000000000000000
310
00000000000000000000000000000000000000000000000000000000000000000000000000000000000000000000000000000000000000000000000000000000000000000000000000000000000000000000000000000000000000000000000000000000000000000000000000000000000000000000000000000000000000
310
00000000000000000000000000000000000000000000000000000000000000000000000000000000000000000000000000000000000000000000000000000000000000000000000000000000000000000000000000000000000000000000000000000000000000000000000000000000000000000000000000000000000000
310
00000000000000000000000000000000000000000000000000000000000000000000000000000000000000000000000000000000000000000000000000000000000000000000000000000000000000000000000000000000000000000000000000000000000000000000000000000000000000000000000000000000000000
310
00000000000000000000000000000000000000000000000000000000000000000000000000000000000000000000000000000000000000000000000000000000000000000000000000000000000000000000000000000000000000000000000000000000000000000000000000000000000000000000000000000000000000
310
00000000000000000000000000000000000000000000000000000000000000000000000000000000000000000000000000000000000000000000000000000000000000000000000000000000000000000000000000000000000000000000000000000000000000000000000000000000000000000000000000000000000000
310
00000000000000000000000000000000000000000000000000000000000000000000000000000000000000000000000000000000000000000000000000000000000000000000000000000000000000000000000000000000000000000000000000000000000000000000000000000000000000000000000000000000000000
310
00000000000000000000000000000000000000000000000000000000000000000000000000000000000000000000000000000000000000000000000000000000000000000000000000000000000000000000000000000000000000000000000000000000000000000000000000000000000000000000000000000000000000
310
00000000000000000000000000000000000000000000000000000000000000000000000000000000000000000000000000000000000000000700000000000000000000000000000000000000000000000000000000000000000000000000000000000000000000000000000000000000000000000000000000000000000000
310
00000000000000000000000000000000000000000000000000000000000000000000000000000000000000000000000000000000000000000000000000000000000000000000000000000000000000000000000000000000000000000000000000000000000000000000000000000000000000000000000000000000000000
310
00000000000000000000000000000000000000000000000000000000000000000000000000000000000000000000000000000000000000000000000000000000000000000000000000000000000000000000000000000000000000000000000000000000000000000000000000000000000000000000000000000000000000
310
00000000000000000000000000000000000000000000000000000000000000000000000000000000000000000000000000000004040404040404000000000000000000000000000000000000000000000000000000000000000000000000000000000000000000000000000000000000000000000000000000000000000000
310
00000000000000000000000000000000000000000000000000000000000000000000000000000000000000000000000000000000040407040404040000000000000000000000000000000000000000000000000000000000000000000000000000000000000000000000000000000000000000000000000000000000000000
310
00000000000000000000000000000000000000000000000000000000000000000000000000000000000000000000000000000000000707070707070700000000000000000000000000000000000000000000000000000000000000000000000000000000000000000000000000000000000000000000000000000000000000
310
00000000000000000000000000000000000000000000000000000000000000000000000000000000000000000000000000000000000000000000000000000000000000000000000000000000000000000000000000000000000000000000000000000000000000000000000000000000000000000000000000000000000000
310
00000000000000000000000000000000000000000000000000000000000000000000000000000000000000000000000000000000000000000000000000000000000000000000000000000000000000000000000000000000000000000000000000000000000000000000000000000000000000000000000000000000000000
310
00000000000000000000000000000000000000000000000000000000000000000000000000000000000000000000000000000000000000000000000000000000000000000000000000000000000000000000000000000000000000000000000000000000000000000000000000000000000000000000000000000000000000
310
00000000000000000000000000000000000000000000000000000000000000000000000000000000000000000000000000000000000000000000000000000000000000000000000000000000000000000000000000000000000000000000000000000000000000000000000000000000000000000000000000000000000000
310
00000000000000000000000000000000000000000000000000000000000000000000000000000000000000000000000000000000000000000000000000000000000000000000000000000000000000000000000000000000000000000000000000000000000000000000000000000000000000000000000000000000000000
310
00000000000000000000000000000000000000000000000000000000000000000000000000000000000000000000000000000000000000000000000000000000000000000000000000000000000000000000000000000000000000000000000000000000000000000000000000000000000000000000000000000000000000
310
00000000000000000000000000000000000000000000000000000000000000000000000000000000000000000000000000000000000000000000000000000000000000000000000000000000000000000000000000000000000000000000000000000000000000000000000000000000000000000000000000000000000000
310
00000000000000000000000000000000000000000000000000000000000000000000000000000000000000000000000000000000000000000000000000000000000000000000000000000000000000000000000000000000000000000000000000000000000000000000000000000000000000000000000000000000000000
310
00000000000000000000000000000000000000000000000000000000000000000000000000000000000000000000000000000000000000000000000000000000000000000000000000000000000000000000000000000000000000000000000000000000000000000000000000000000000000000000000000000000000000
310
00000000000000000000000000000000000000000000000000000000000000000000000000000000000000000000000000000000000000000000000000000000000000000000000000000000000000000000000000000000000000000000000000000000000000000000000000000000000000000000000000000000000000
310
00000000000000000000000000000000000000000000000000000000000000000000000000000000000000000000000000000000000000000000000000000000000000000000000000000000000000000000000000000000000000000000000000000000000000000000000000000000000000000000000000000000000000
310
00000000000000000000000000000000000000000000000000000000000000000000000000000000000000000000000000000000000000000000000000000000000000000000000000000000000000000000000000000000000000000000000000000000000000000000000000000000000000000000000000000000000000
310
00000000000000000000000000000000000000000000000000000000000000000000000000000000000000000000000000000000000000000000000000000000000000000000000000000000000000000000000000000000000000000000000000000000000000000000000000000000000000000000000000000000000000
310
00000000000000000000000000000000000000000000000000000000000000000000000000000000000000000000000000000000000000000000000000000000000000000000000000000000000000000000000000000000000000000000000000000000000000000000000000000000000000000000000000000000000000
310
00000000000000000000000000000000000000000000000000000000000000000000000000000000000000000000000000000000000000000000000000000000000000000000000000000000000000000000000000000000000000000000000000000000000000000000000000000000000000000000000000000000000000
310
00000000000000000000000000000000000000000000000000000000000000000000000000000000000000000000000000000000000000000000000000000000000000000000000000000000000000000000000000000000000000000000000000000000000000000000000000000000000000000000000000000000000000
310
00000000000000000000000000000000000000000000000000000000000000000000000000000000000000000000000000000000000000000000000000000000000000000000000000000000000000000000000000000000000000000000000000000000000000000000000000000000000000000000000000000000000000
310
00000000000000000000000000000000000000000000000000000000000000000000000000000000000000000000000000000000000000000000000000000000000000000000000000000000000000000000000000000000000000000000000000000000000000000000000000000000000000000000000000000000000000
310
00000000000000000000000000000000000000000000000000000000000000000000000000000000000000000000000000000000000000000000000000000000000000000000000000000000000000000000000000000000000000000000000000000000000000000000000000000000000000000000000000000000000000
310
00000000000000000000000000000000000000000000000000000000000000000000000000000000000000000000000000000000000000000000000000000000000000000000000000000000000000000000000000000000000000000000000000000000000000000000000000000000000000000000000000000000000000
310
00000000000000000000000000000000000000000000000000000000000000000000000000000000000000000000000000000000000000000000000000000000000000000000000000000000000000000000000000000000000000000000000000000000000000000000000000000000000000000000000000070000000000
310
00000000000000000000000000000000000000000000000000000000000000000000000000000000000000000000000000000000000000000000000000000000000000000000000000000000000000000000000000000000000000000000000000000000000000000000000000000000000000000000000000000700000000
310
00000007000000000000000000000000000000000000000000000000000000000007000000000000000000000000000000000000000000000000000000070000000000000007000000000000000000000000000000000000000000000000000000000000000000000000000000000000000000000000000000000007000000
310
00000303030300000000000000000000000000000000000000000000070000000003030300000000000000000000000000000000000000000000000000030303030000000000070000000000000000000000000000000000000000000000000000000000000000000000000000000000001F1F1F1F1F1F1F1F1F1F1F071F1F
310
1F1F1F030307031F1F0000000000000000001F1F1F1F1F1F1F1F1F1F1F071F1F1F1F0303031F1F1F000000000000000000000000000000000000000003030303030303030303030303030303030303030303030000000000000000000000000000000000000000000000000000000000001F001F0000000000000000000700
310
0000000000000000001F1F00000000000000001F00000000000000000000070000000000070000001F000000000000000000000000000000000000000300000000000000000000000700000000000000000000000300000000000000000000000000000000000000000000000000000000001F1F1F1F1F1F1F1F1F1F1F1F07
310
1F1F1F1F1F1F1F1F1F1F1F1F000000000000001F1F1F1F1F1F1F1F1F1F1F1F1F1F1F1F00000000000000030000000000000000000000000000000000000300000003030000000000000700000000000003030000000300000000000000000000000000000000000000000000000000000000001F1F1F1F1F1F1F1F1F1F1F03
310
03031F1F1F1F1F1F1F1F1F1F1F00000000000000031F1F1F1F1F1F1F1F1F1F1F1F1F1F1F1F1F0000000000030000000000000000000000000000000000000300000307070300000000000700000000000307070300000300000000000000000000000000000000000000000000000000000000001F1F1F0000000000000000
310
0303030000000000000000001F1F0000000000000703070700000000000000000000000000001F0000000000030000000000000000000000000000000000000300000003030000000000000700000000000003030000000300000000000000000000000000000000000000000000000000000000001F1F1F00000000000000
310
000003000000000000000000001F1F0000000000000003000000000000000000000000000000001F1F1F1F1F1F1F0000000000000000000000000000000000000303030303030303030303030703030303030303030303030300000000000000000000000000000000000000000000000000000000001F1F1F000000000606
310
06060606060606060606000000001F1F000000000000001F000000000000000000000000000000001F00000000001F0000000000000000000000000000000000000300000700000000000000000700000000000000000300000300000000000000000000000000000000000000000000000000000000001F1F1F0000000600
310
0000000007000000000006000000001F1F000000000000001F000000000000000000000000000000001F00000000001F0000000000000000000000000000000000000300070707000000000000030703000000000000070707000300000000000000000000000000000000000000000000000000000000001F1F1F00000006
310
000000000007000000000006000000001F1F000000000000001F000000000000000000000000000000001F00000000001F0000000000000000000000000000000000000300030703000000000000030703000000000000030703000300000000000000000000000000000000000000000000000000000000001F1F1F000000
310
06060606060606060606060606000000001F1F000000000000001F000000000000000000000000000000001F00000000001F0000000000000000000000000000000000000300000700000000000000000700000000000000000300000300000000000000000000000000000000000000000000000000000000001F1F1F0000
310
0000000000000007000000000000000000001F1F000000000000001F000000000000000000000000000000001F00000000001F0000000000000000000000000000000000000300000000000000000000000700000000000000000000000300000000000000000000000000000000000000000000000000000000001F1F1F00
310
000000000000000007000000000000000000001F1F000000000000001F000000000000000000000000000000001F00000000001F0000000000000000000000000000000000000300000000000000000000000700000000000000000000000300000000000000000000000000000000000000000000000000000000001F1F1F
310
00000000000000000007000000000000000000001F1F000000000000001F000000000000000000000000000000001F00000000001F0000000000000000000000000000000000000300000000000000000000000700000000000000000000000300000000000000000000000000000000000000000000000000000000001F1F
310
1F00000000000000030303030300000000000000001F1F000000000000001F000000000000000000000000000000001F00000000001F0000000000000000000000000000000000000300000000000000000000000700000000000000000000000300000000000000000000000000000000000000000000000000000000001F
310
1F1F00000000000003000007000003000000000000001F1F000000000000001F000000000000000000000000000000001F00000000001F000000000000000000000000000000000000030000000000000000000000070000000000000000000000030000000000000000000000000000000000000000000000000000000007
310
07070707070707070703070707070703030707070700070707070000000000071F07070707070007070707070707070707070707070707070700000000000000000000000000000000070307070707070707070707070707070707070707070707000307070000000000000000000000000000000000000000000000000000
310
001F1F1F00000000000703070707070007030000000000001F1F000000000000001F000000000000000000000000000000001F00000000001F00000000000000000000000000000000000003000000000000000000000007000000000000000000000003000000000000000000000000000000000000000000000000000000
310
00001F1F1F00000000000003000007000003000000000000001F1F000000000000001F000000000000000000000000000000001F00000000001F000000000000000000000000000000000000030000000000000000000000070000000000000000000000030000000000000000000000000000000000000000000000000000
310
0000001F1F1F00000000000000030007000300000000000000001F1F000000000000001F000000000000000000000000000000001F00000000001F0000000000000000000000000000000000000300000000000000000000000700000000000000000000000300000000000000000000000000000000000000000000000000
310
000000001F1F1F00000000000000000303030000000000000000001F1F000000000000001F000000000000000000000000000000001F00000000001F00000000000000000000000000000000000003000000000000000000000007000000000000000000000003000000000000000000000000000000000000000000000000
310
00000000001F1F1F00000000000000000003000000000000000000001F1F000000000000001F000000000000000000000000000000001F00000000001F000000000000000000000000000000000000030000000000000000000000070000000000000000000000030000000000000000000000000000000000000000000000
310
0000000000001F1F1F00000000000000000007000000000000000000001F1F000000000000001F000000000000000000000000000000001F00000000001F0000000000000000000000000000000000000300000700000000000000000700000000000000000700000300000000000000000000000000000000000000000000
310
000000000000001F1F1F00000000000000000007000000000000000000001F1F000000000000001F000000000000000000000000000000001F00000000001F00000000000000000000000000000000000003000707070000000000000307030000000000000707070003000000000000000000000000000000000000000000
310
00000000000000001F1F1F00000000000000000007000000000000000000001F1F000000000000001F000000000000000000000000000000001F00000000001F000000000000000000000000000000000000030003070300000000000003070300000000000003070300030000000000000000000000000000000000000000
310
0000000000000000001F1F1F00000000000000000007000000000000000000001F1F000000000000001F000000000000000000000000000000001F00000000001F0000000000000000000000000000000000000300000700000000000000000700000000000000000700000300000000000000000000000000000000000000
310
000000000000000000001F1F1F00000000000000000003000000000000000000001F1F0000000000000003000000000000000000000000000000001F1F1F1F1F1F1F00000000000000000000000000000000000003030303030303030303030307030303030303030303030303000000000000000000000000000000000000
310
00000000000000000000001F1F1F00000000000000000303030000000000000000001F1F0000000000000703070700000000000000000000000000001F000000000003000000000000000000000000000000000000030000000303000000000000070000000000000303000000030000000000000000000000000000000000
310
0000000000000000000000001F1F1F1F1F1F1F1F1F1F1F1F03031F1F1F1F1F1F1F1F1F1F1F00000000000000031F1F1F1F1F1F1F1F1F1F1F1F1F1F1F1F1F0000000000030000000000000000000000000000000000000300000307070300000000000700000000000307070300000300000000000000000000000000000000
310
000000000000000000000000001F001F00000000000000000007000000000000000000001F1F000000000000001F000000000000000000000000000000000000000000000300000000000000000000000000000000000003000000030300000000000007000000000000030300000003000000000000000000000000000000
310
00000000000000000000000000001F001F00000700000000000007000000000000000000001F1F00000000000000001F00000000000000000000070000000000070000001F00000000000000000000000000000000000000030000000000000000000000070000000000000700000000030000000000000000000000000000
310
000000000000000000000000000000001F1F030303031F1F1F1F1F071F1F1F1F1F1F1F1F1F1F1F000000000000000000001F1F1F1F1F1F1F1F1F1F071F1F1F1F0303031F1F00000000000000000000000000000000000000000003030303030303030303030303030303030303030303030000000000000000000000000000
310
00000000000000000000000000000000000000000303000000000000070000000000000000000000000000000000000000000000000000000000000007000000000303030000000000000000000000000000000000000000000000000000000000000000000007000000000000070300000000000000000000000000000000
310
00000000000000000000000000000000000000000000000000000000000700000000000000000000000000000000000000000000000000000000000000000000000000070000000000000000000000000000000000000000000000000000000000000000000000070000000000000000000000000000000000000000000000
310
00000000000000000000000000000000000000000000000000000000000000000000000000000000000000000000000000000000000000000000000000000000000000000000000000000000000000000000000000000000000000000000000000000000000000000000000000000000000000000000000000000000000000
310
00000000000000000000000000000000000000000000000000000000000000000000000000000000000000000000000000000000000000000000000000000000000000000000000000000000000000000000000000000000000000000000000000000000000000000000000000000000000000000000000000000000000000
310
00000000000000000000000000000000000000000000000000000000000000000000000000000000000000000000000000000000000000000000000000000000000000000000000000000000000000000000000000000000000000000000000000000000000000000000000000000000000000000000000000000000000000
310
00000000000000000000000000000000000000000000000000000000000000000000000000000000000000000000000000000000000000000000000000000000000000000000000000000000000000000000000000000000000000000000000000000000000000000000000000000000000000000000000000000000000000
310
00000000000000000000000000000000000000000000000000000000000000000000000000000000000000000000000000000000000000000000000000000000000000000000000000000000000000000000000000000000000000000000000000000000000000000000000000000000000000000000000000000000000000
310
00000000000000000000000000000000000000000000000000000000000000000000000000000000000000000000000000000000000000000000000000000000000000000000000000000000000000000000000000000000000000000000000000000000000000000000000000000000000000000000000000000000000000
310
00000000000000000000000000000000000000000000000000000000000000000000000000000000000000000000000000000000000000000000000000000000000000000000000000000000000000000000000000000000000000000000000000000000000000000000000000000000000000000000000000000000000000
310
00000000000000000000000000000000000000000000000000000000000000000000000000000000000000000000000000000000000000000000000000000000000000000000000000000000000000000000000000000000000000000000000000000000000000000000000000000000000000000000000000000000000000
310
00000000000000000000000000000000000000000000000000000000000000000000000000000000000000000000000000000000000000000000000000000000000000000000000000000000000000000000000000000000000000000000000000000000000000000000000000000000000000000000000000000000000000
310
00000000000000000000000000000000000000000000000000000000000000000000000000000000000000000000000000000000000000000000000000000000000000000000000000000000000000000000000000000000000000000000000000000000000000000000000000000000000000000000000000000000000000
310
00000000000000000000000000000000000000000000000000000000000000000000000000000000000000000000000000000000000000000000000000000000000000000000000000000000000000000000000000000000000000000000000000000000000000000000000000000000000000000000000000000000000000
310
00000000000000000000000000000000000000000000000000000000000000000000000000000000000000000000000000000000000000000000000000000000000000000000000000000000000000000000000000000000000000000000000000000000000000000000000000000000000000000000000000000000000000
310
00000000000000000000000000000000000000000000000000000000000000000000000000000000000000000000000000000000000000000000000000000000000000000000000000000000000000000000000000000000000000000000000000000000000000000000000000000000000000000000000000000000000000
310
00000000000000000000000000000000000000000000000000000000000000000000000000000000000000000000000000000000000000000000000000000000000000000000000000000000000000000000000000000000000000000000000000000000000000000000000000000000000000000000000000000000000000
310
00000000000000000000000000000000000000000000000000000000000000000000000000000000000000000000000000000000000000000000000000000000000000000000000000000000000000000000000000000000000000000000000000000000000000000000000000000000000000000000000000000000000000
310
00000000000000000000000000000000000000000000000000000000000000000000000000000000000000000000000000000000000000000000000000000000000000000000000000000000000000000000000000000000000000000000000000000000000000000000000000000000000000000000000000000000000000
310
00000000000000000000000000000000000000000000000000000000000000000000000000000000000000000000000000000000000000000000000000000000000000000000000000000000000000000000000000000000000000000000000000000000000000000000000000000000000000000000000000000000000000
310
00000000000000000000000000000000000000000000000000000000000000000000000000000000000000000000000000000000000000000000000000000000000000000000000000000000000000000000000000000000000000000000000000000000000000000000000000000000000000000000000000000000000000
310
00000000000000000000000000000000000000000000000000000000000000000000000000000000000000000000000000000000000000000000000000000000000000000000000000000000000000000000000000000000000000000000000000000000000000000000000000000000000000000000000000000000000000
310
00000000000000000000000000000000000000000000000000000000000000000000000000000000000000000000000000000000000000000000000000000000000000000000000000000000000000000000000000000000000000000000000000000000000000000000000000000000000000000000000000000000000000
310
00000000000000000000000000000000000000000000000000000000000000000000000000000000000000000000000000000000000000000000000000000000000000000000000000000000000000000000000000000000000000000000000000000000000000000000000000000000000000000000000000000000000000
310
00000000000000000000000000000000000000000000000000000000000000000000000000000000000000000000000000000000000000000000000000000000000000000000000000000000000000000000000000000000000000000000000000000000000000000000000000000000000000000000000000000000000000
310
00000000000000000000000000000000000000000000000000000000000000000000000000000000000000000000000000000000000000000000000000000000000000000000000000000000000000000000000000000000000000000000000000000000000000000000000000000000000000000000000000000000000000
310
00000000000000000000000000000000000000000000000000000000000000000000000000000000000000000000000000000000000000000000000000000000000000000000000000000000000000000000000000000000000000000000000000000000000000000000000000000000000000000000000000000000000000
310
00000000000000000000000000000000000000000000000000000000000000000000000000000000000000000000000000000000000000000000000000000000000000000000000000000000000000000000000000000000000000000000000000000000000000000000000000000000000000000000000000000000000000
310
00000000000000000000000000000000000000000000000000000000000000000000000000000000000000000000000000000000000000000000000000000000000000000000000000000000000000000000000000000000000000000000000000000000000000000000000000000000000000000000000000000000000000
310
00000000000000000000000000000000000000000000000000000000000000000000000000000000000000000000000000000000000000000000000000000000000000000000000000000000000000000000000000000000000000000000000000000000000000000000000000000000000000000000000000000000000000
310
00000000000000000000000000000000000000000000000000000000000000000000000000000000000000000000000000000000000000000000000000000000000000000000000000000000000000000000000000000000000000000000000000000000000000000000000000000000000000000000000000000000000000
310
00000000000000000000000000000000000000000000000000000000000000000000000000000000000000000000000000000000000000000000000000000000000000000000000000000000000000000000000000000000000000000000000000000000000000000000000000000000000000000000000000000000000000
310
00000000000000000000000000000000000000000000000000000000000000000000000000000000000000000000000000000000000000000000000000000000000000000000000000000000000000000000000000000000000000000000000000000000000000000000000000000000000000000000000000000000000000
310
00000000000000000000000000000000000000000000000000000000000000000000000000000000000000000000000000000000000000000000000000000000000000000000000000000000000000000000000000000000000000000000000000000000000000000000000000000000000000000000000000000000000000
310
00000000000000000000000000000000000000000000000000000000000000000000000000000000000000000000000000000000000000000000000000000000000000000000000000000000000000000000000000000000000000000000000000000000000000000000000000000000000000000000000000000000000000
310
00000000000000000000000000000000000000000000000000000000000000000000000000000000000000000000000000000000000000000000000000000000000000000000000000000000000000000000000000000000000000000000000000000000000000000000000000000000000000000000000000000000000000
310
00000000000000000000000000000000000000000000000000000000000000000000000000000000000000000000000000000000000000000000000000000000000000000000000000000000000000000000000000000000000000000000000000000000000000000000000000000000000000000000000000000000000000
310
00000000000000000000000000000000000000000000000000000000000000000000000000000000000000000000000000000000000000000000000000000000000000000000000000000000000000000000000000000000000000000000000000000000000000000000000000000000000000000000000000000000000000
310
00000000000000000000000000000000000000000000000000000000000000000000000000000000000000000000000000000000000000000000000000000000000000000000000000000000000000000000000000000000000000000000000000000000000000000000000000000000000000000000000000000000000000
310
00000000000000000000000000000000000000000000000000000000000000000000000000000000000000000000000000000000000000000000000000000000000000000000000000000000000000000000000000000000000000000000000000000000000000000000000000000000000000000000000000000000000000
310
00000000000000000000000000000000000000000000000000000000000000000000000000000000000000000000000000000000000000000000000000000000000000000000000000000000000000000000000000000000000000000000000000000000000000000000000000000000000000000000000000000000000000
310
00000000000000000000000000000000000000000000000000000000000000000000000000000000000000000000000000000000000000000000000000000000000000000000000000000000000000000000000000000000000000000000000000000000000000000000000000000000000000000000000000000000000000
310
00000000000000000000000000000000000000000000000000000000000000000000000000000000000000000000000000000000000000000000000000000000000000000000000000000000000000000000000000000000000000000000000000000000000000000000000000000000000000000000000000000000000000
310
00000000000000000000000000000000000000000000000000000000000000000000000000000000000000000000000000000000000000000000000000000000000000000000000000000000000000000000000000000000000000000000000000000000000000000000000000000000000000000000000000000000000000
310
00000000000000000000000000000000000000000000000000000000000000000000000000000000000000000000000000000000000000000000000000000000000000000000000000000000000000000000000000000000000000000000000000000000000000000000000000000000000000000000000000000000000000
310
00000000000000000000000000000000000000000000000000000000000000000000000000000000000000000000000000000000000000000000000000000000000000000000000000000000000000000000000000000000000000000000000000000000000000000000000000000000000000000000000000000000000000
310
00000000000000000000000000000000000000000000000000000000000000000000000000000000000000000000000000000000000000000000000000000000000000000000000000000000000000000000000000000000000000000000000000000000000000000000000000000000000000000000000000000000000000
310
00000000000000000000000000000000000000000000000000000000000000000000000000000000000000000000000000
  0
ENDSEC
  0
EOF
