  0
SECTION
  2
HEADER
  9
$ACADVER
  1
AC1015
  9
$ACADMAINTVER
 70
    20
  9
$DWGCODEPAGE
  3
ANSI_932
  9
$INSBASE
 10
0.0
 20
0.0
 30
0.0
  9
$EXTMIN
 10
-0.0093188573008547
 20
-0.0007496668014255
 30
-0.0000000349181948
  9
$EXTMAX
 10
210.0235180580948
 20
297.0183229054498
 30
0.0000000814935747
  9
$LIMMIN
 10
-175.284588623
 20
-3.174999999999998
  9
$LIMMAX
 10
3.174999999999998
 20
291.2585876465
  9
$ORTHOMODE
 70
     0
  9
$REGENMODE
 70
     1
  9
$FILLMODE
 70
     1
  9
$QTEXTMODE
 70
     0
  9
$MIRRTEXT
 70
     0
  9
$LTSCALE
 40
1.0
  9
$ATTMODE
 70
     1
  9
$TEXTSIZE
 40
2.999994039499997
  9
$TRACEWID
 40
0.05
  9
$TEXTSTYLE
  7
STANDARD
  9
$CLAYER
  8
0
  9
$CELTYPE
  6
ByLayer
  9
$CECOLOR
 62
   256
  9
$CELTSCALE
 40
1.0
  9
$DISPSILH
 70
     0
  9
$DIMSCALE
 40
1.0
  9
$DIMASZ
 40
1.9727878465
  9
$DIMEXO
 40
2.539999961899999
  9
$DIMDLI
 40
0.38
  9
$DIMRND
 40
0.0
  9
$DIMDLE
 40
0.0
  9
$DIMEXE
 40
3.809999942799997
  9
$DIMTP
 40
0.0
  9
$DIMTM
 40
0.0
  9
$DIMTXT
 40
2.999994039499997
  9
$DIMCEN
 40
0.09
  9
$DIMTSZ
 40
0.0
  9
$DIMTOL
 70
     0
  9
$DIMLIM
 70
     0
  9
$DIMTIH
 70
     0
  9
$DIMTOH
 70
     1
  9
$DIMSE1
 70
     0
  9
$DIMSE2
 70
     0
  9
$DIMTAD
 70
     0
  9
$DIMZIN
 70
     0
  9
$DIMBLK
  1

  9
$DIMASO
 70
     1
  9
$DIMSHO
 70
     0
  9
$DIMPOST
  1

  9
$DIMAPOST
  1

  9
$DIMALT
 70
     0
  9
$DIMALTD
 70
     2
  9
$DIMALTF
 40
25.4
  9
$DIMLFAC
 40
1.0
  9
$DIMTOFL
 70
     0
  9
$DIMTVP
 40
0.0
  9
$DIMTIX
 70
     0
  9
$DIMSOXD
 70
     0
  9
$DIMSAH
 70
     0
  9
$DIMBLK1
  1

  9
$DIMBLK2
  1

  9
$DIMSTYLE
  2
Standard
  9
$DIMCLRD
 70
     0
  9
$DIMCLRE
 70
     0
  9
$DIMCLRT
 70
     0
  9
$DIMTFAC
 40
1.0
  9
$DIMGAP
 40
0.09
  9
$DIMJUST
 70
     0
  9
$DIMSD1
 70
     0
  9
$DIMSD2
 70
     0
  9
$DIMTOLJ
 70
     1
  9
$DIMTZIN
 70
     0
  9
$DIMALTZ
 70
     0
  9
$DIMALTTZ
 70
     0
  9
$DIMUPT
 70
     0
  9
$DIMDEC
 70
     4
  9
$DIMTDEC
 70
     4
  9
$DIMALTU
 70
     2
  9
$DIMALTTD
 70
     2
  9
$DIMTXSTY
  7
STANDARD
  9
$DIMAUNIT
 70
     0
  9
$DIMADEC
 70
     0
  9
$DIMALTRND
 40
0.0
  9
$DIMAZIN
 70
     0
  9
$DIMDSEP
 70
    46
  9
$DIMATFIT
 70
     3
  9
$DIMFRAC
 70
     0
  9
$DIMLDRBLK
  1

  9
$DIMLUNIT
 70
     2
  9
$DIMLWD
 70
    -2
  9
$DIMLWE
 70
    -2
  9
$DIMTMOVE
 70
     0
  9
$LUNITS
 70
     2
  9
$LUPREC
 70
     3
  9
$SKETCHINC
 40
0.1
  9
$FILLETRAD
 40
0.0625
  9
$AUNITS
 70
     0
  9
$AUPREC
 70
     0
  9
$MENU
  1
ACAD
  9
$ELEVATION
 40
0.0
  9
$PELEVATION
 40
0.0
  9
$THICKNESS
 40
0.0
  9
$LIMCHECK
 70
     0
  9
$CHAMFERA
 40
0.0
  9
$CHAMFERB
 40
0.0
  9
$CHAMFERC
 40
0.0
  9
$CHAMFERD
 40
0.0
  9
$SKPOLY
 70
     0
  9
$TDCREATE
 40
2453068.409525463
  9
$TDUCREATE
 40
2453068.034525463
  9
$TDUPDATE
 40
2453396.579773114
  9
$TDUUPDATE
 40
2453396.204773114
  9
$TDINDWG
 40
0.0029720139
  9
$TDUSRTIMER
 40
0.0029685880
  9
$USRTIMER
 70
     1
  9
$ANGBASE
 50
0.0
  9
$ANGDIR
 70
     0
  9
$PDMODE
 70
     0
  9
$PDSIZE
 40
0.0
  9
$PLINEWID
 40
0.0
  9
$SPLFRAME
 70
     0
  9
$SPLINETYPE
 70
     6
  9
$SPLINESEGS
 70
     8
  9
$HANDSEED
  5
20C
  9
$SURFTAB1
 70
     6
  9
$SURFTAB2
 70
     6
  9
$SURFTYPE
 70
     6
  9
$SURFU
 70
     6
  9
$SURFV
 70
     6
  9
$UCSBASE
  2

  9
$UCSNAME
  2

  9
$UCSORG
 10
0.0
 20
0.0
 30
0.0
  9
$UCSXDIR
 10
1.0
 20
0.0
 30
0.0
  9
$UCSYDIR
 10
0.0
 20
1.0
 30
0.0
  9
$UCSORTHOREF
  2

  9
$UCSORTHOVIEW
 70
     0
  9
$UCSORGTOP
 10
0.0
 20
0.0
 30
0.0
  9
$UCSORGBOTTOM
 10
0.0
 20
0.0
 30
0.0
  9
$UCSORGLEFT
 10
0.0
 20
0.0
 30
0.0
  9
$UCSORGRIGHT
 10
0.0
 20
0.0
 30
0.0
  9
$UCSORGFRONT
 10
0.0
 20
0.0
 30
0.0
  9
$UCSORGBACK
 10
0.0
 20
0.0
 30
0.0
  9
$PUCSBASE
  2

  9
$PUCSNAME
  2

  9
$PUCSORG
 10
0.0
 20
0.0
 30
0.0
  9
$PUCSXDIR
 10
1.0
 20
0.0
 30
0.0
  9
$PUCSYDIR
 10
0.0
 20
1.0
 30
0.0
  9
$PUCSORTHOREF
  2

  9
$PUCSORTHOVIEW
 70
     0
  9
$PUCSORGTOP
 10
0.0
 20
0.0
 30
0.0
  9
$PUCSORGBOTTOM
 10
0.0
 20
0.0
 30
0.0
  9
$PUCSORGLEFT
 10
0.0
 20
0.0
 30
0.0
  9
$PUCSORGRIGHT
 10
0.0
 20
0.0
 30
0.0
  9
$PUCSORGFRONT
 10
0.0
 20
0.0
 30
0.0
  9
$PUCSORGBACK
 10
0.0
 20
0.0
 30
0.0
  9
$USERI1
 70
     9
  9
$USERI2
 70
     0
  9
$USERI3
 70
     0
  9
$USERI4
 70
     0
  9
$USERI5
 70
     0
  9
$USERR1
 40
0.0
  9
$USERR2
 40
0.0
  9
$USERR3
 40
0.0
  9
$USERR4
 40
0.0
  9
$USERR5
 40
0.0
  9
$WORLDVIEW
 70
     1
  9
$SHADEDGE
 70
     3
  9
$SHADEDIF
 70
    70
  9
$TILEMODE
 70
     1
  9
$MAXACTVP
 70
    64
  9
$PINSBASE
 10
0.0
 20
0.0
 30
0.0
  9
$PLIMCHECK
 70
     0
  9
$PEXTMIN
 10
1.000000000000000E+20
 20
1.000000000000000E+20
 30
1.000000000000000E+20
  9
$PEXTMAX
 10
-1.000000000000000E+20
 20
-1.000000000000000E+20
 30
-1.000000000000000E+20
  9
$PLIMMIN
 10
0.0
 20
0.0
  9
$PLIMMAX
 10
12.0
 20
9.0
  9
$UNITMODE
 70
     0
  9
$VISRETAIN
 70
     1
  9
$PLINEGEN
 70
     0
  9
$PSLTSCALE
 70
     1
  9
$TREEDEPTH
 70
  3020
  9
$CMLSTYLE
  2
Standard
  9
$CMLJUST
 70
     0
  9
$CMLSCALE
 40
1.0
  9
$PROXYGRAPHICS
 70
     1
  9
$MEASUREMENT
 70
     0
  9
$CELWEIGHT
370
    -1
  9
$ENDCAPS
280
     0
  9
$JOINSTYLE
280
     0
  9
$LWDISPLAY
290
     0
  9
$INSUNITS
 70
     0
  9
$HYPERLINKBASE
  1

  9
$STYLESHEET
  1

  9
$XEDIT
290
     1
  9
$CEPSNTYPE
380
     0
  9
$PSTYLEMODE
290
     1
  9
$FINGERPRINTGUID
  2
{60A09558-BEE5-46B2-9865-AAEAFFB8BD4B}
  9
$VERSIONGUID
  2
{DF1DF740-CEF9-4814-9DC4-D66D7FF23908}
  9
$EXTNAMES
290
     1
  9
$PSVPSCALE
 40
0.0
  9
$OLESTARTUP
290
     0
  0
ENDSEC
  0
SECTION
  2
CLASSES
  0
CLASS
  1
ACDBDICTIONARYWDFLT
  2
AcDbDictionaryWithDefault
  3
ObjectDBX Classes
 90
        0
280
     0
281
     0
  0
CLASS
  1
ACDBPLACEHOLDER
  2
AcDbPlaceHolder
  3
ObjectDBX Classes
 90
        0
280
     0
281
     0
  0
CLASS
  1
LAYOUT
  2
AcDbLayout
  3
ObjectDBX Classes
 90
        0
280
     0
281
     0
  0
CLASS
  1
DICTIONARYVAR
  2
AcDbDictionaryVar
  3
ObjectDBX Classes
 90
        0
280
     0
281
     0
  0
CLASS
  1
TABLESTYLE
  2
AcDbTableStyle
  3
ObjectDBX Classes
 90
     2047
280
     0
281
     0
  0
ENDSEC
  0
SECTION
  2
TABLES
  0
TABLE
  2
VPORT
  5
19
330
0
100
AcDbSymbolTable
 70
     2
  0
VPORT
  5
206
330
19
100
AcDbSymbolTableRecord
100
AcDbViewportTableRecord
  2
*Active
 70
     0
 10
0.0
 20
0.0
 11
1.0
 21
1.0
 12
105.007099600397
 22
148.5087866193242
 13
0.0
 23
0.0
 14
1.0
 24
1.0
 15
0.0
 25
0.0
 16
0.0
 26
0.0
 36
1.0
 17
0.0
 27
0.0
 37
0.0
 40
299.2551007221051
 41
1.25
 42
50.0
 43
0.0
 44
0.0
 50
0.0
 51
0.0
 71
     0
 72
   100
 73
     1
 74
     1
 75
     0
 76
     0
 77
     0
 78
     0
281
     0
 65
     1
110
0.0
120
0.0
130
0.0
111
1.0
121
0.0
131
0.0
112
0.0
122
1.0
132
0.0
 79
     0
146
0.0
  0
ENDTAB
  0
TABLE
  2
LTYPE
  5
14
330
0
100
AcDbSymbolTable
 70
     3
  0
LTYPE
  5
15
330
14
100
AcDbSymbolTableRecord
100
AcDbLinetypeTableRecord
  2
ByBlock
 70
     0
  3

 72
    65
 73
     0
 40
0.0
  0
LTYPE
  5
16
330
14
100
AcDbSymbolTableRecord
100
AcDbLinetypeTableRecord
  2
ByLayer
 70
     0
  3

 72
    65
 73
     0
 40
0.0
  0
LTYPE
  5
8
330
14
100
AcDbSymbolTableRecord
100
AcDbLinetypeTableRecord
  2
Continuous
 70
     0
  3
Solid line
 72
    65
 73
     0
 40
0.0
  0
LTYPE
  5
3A
330
14
100
AcDbSymbolTableRecord
100
AcDbLinetypeTableRecord
  2
CENTER
 70
     0
  3
Center
 72
    65
 73
     4
 40
9.100006759199999
 49
6.5000119209
 74
     0
 49
-0.7999984026000001
 74
     0
 49
0.9999980329999999
 74
     0
 49
-0.7999984026000001
 74
     0
  0
LTYPE
  5
103
330
14
100
AcDbSymbolTableRecord
100
AcDbLinetypeTableRecord
  2
PHANTOM
 70
     0
  3
Phantom
 72
    65
 73
     6
 40
9.499981462999999
 49
4.799990654
 74
     0
 49
-0.8999982475999999
 74
     0
 49
0.9999980329999999
 74
     0
 49
-0.8999982475999999
 74
     0
 49
0.9999980329999999
 74
     0
 49
-0.8999982475999999
 74
     0
  0
ENDTAB
  0
TABLE
  2
LAYER
  5
10
330
0
100
AcDbSymbolTable
 70
     1
  0
LAYER
  5
4
330
10
100
AcDbSymbolTableRecord
100
AcDbLayerTableRecord
  2
0
 70
     0
 62
     7
  6
Continuous
370
    -3
390
5
  0
ENDTAB
  0
TABLE
  2
STYLE
  5
11
330
0
100
AcDbSymbolTable
 70
     1
  0
STYLE
  5
12
330
11
100
AcDbSymbolTableRecord
100
AcDbTextStyleTableRecord
  2
STANDARD
 70
     0
 40
0.0
 41
1.0
 50
0.0
 71
     0
 42
2.999994039499997
  3
romans.shx
  4
bigfont.shx
  0
ENDTAB
  0
TABLE
  2
VIEW
  5
17
330
0
100
AcDbSymbolTable
 70
     0
  0
ENDTAB
  0
TABLE
  2
UCS
  5
18
330
0
100
AcDbSymbolTable
 70
     0
  0
ENDTAB
  0
TABLE
  2
APPID
  5
1B
330
0
100
AcDbSymbolTable
 70
     1
  0
APPID
  5
1C
330
1B
100
AcDbSymbolTableRecord
100
AcDbRegAppTableRecord
  2
ACAD
 70
     0
  0
ENDTAB
  0
TABLE
  2
DIMSTYLE
  5
1D
330
0
100
AcDbSymbolTable
 70
     1
100
AcDbDimStyleTable
 71
     0
  0
DIMSTYLE
105
23
330
1D
100
AcDbSymbolTableRecord
100
AcDbDimStyleTableRecord
  2
Standard
 70
     0
340
12
  0
ENDTAB
  0
TABLE
  2
BLOCK_RECORD
  5
1
330
0
100
AcDbSymbolTable
 70
     0
  0
BLOCK_RECORD
  5
2
330
1
100
AcDbSymbolTableRecord
100
AcDbBlockTableRecord
  2
*Model_Space
340
A
  0
BLOCK_RECORD
  5
C
330
1
100
AcDbSymbolTableRecord
100
AcDbBlockTableRecord
  2
*Paper_Space
340
F
  0
ENDTAB
  0
ENDSEC
  0
SECTION
  2
BLOCKS
  0
BLOCK
  5
3
330
2
100
AcDbEntity
  8
0
100
AcDbBlockBegin
  2
*Model_Space
 70
     2
 10
0.0
 20
0.0
 30
0.0
  3
*Model_Space
  1

  0
ENDBLK
  5
9
330
2
100
AcDbEntity
  8
0
100
AcDbBlockEnd
  0
BLOCK
  5
D
330
C
100
AcDbEntity
 67
     1
  8
0
100
AcDbBlockBegin
  2
*Paper_Space
 70
     0
 10
0.0
 20
0.0
 30
0.0
  3
*Paper_Space
  1

  0
ENDBLK
  5
E
330
C
100
AcDbEntity
 67
     1
  8
0
100
AcDbBlockEnd
  0
ENDSEC
  0
SECTION
  2
ENTITIES
  0
LINE
  5
24
330
2
100
AcDbEntity
  8
0
100
AcDbLine
 10
210.0
 20
0.0
 30
0.0
 11
210.0
 21
297.0
 31
0.0
  0
LINE
  5
25
330
2
100
AcDbEntity
  8
0
100
AcDbLine
 10
0.0
 20
297.0
 30
0.0
 11
0.0
 21
0.0
 31
0.0
  0
LINE
  5
26
330
2
100
AcDbEntity
  8
0
100
AcDbLine
 10
0.0
 20
0.0
 30
0.0
 11
210.0
 21
0.0
 31
0.0
  0
LINE
  5
27
330
2
100
AcDbEntity
  8
0
 62
     3
100
AcDbLine
 10
52.90840393739998
 20
173.5799484253
 30
0.0
 11
55.70839173029998
 21
173.5799484253
 31
0.0
  0
LINE
  5
28
330
2
100
AcDbEntity
  8
0
 62
     3
100
AcDbLine
 10
52.90840393739998
 20
172.8499465941999
 30
0.0
 11
55.70839173029998
 21
172.8499465941999
 31
0.0
  0
LINE
  5
29
330
2
100
AcDbEntity
  8
0
 62
     3
100
AcDbLine
 10
52.90840393739998
 20
172.6499465941999
 30
0.0
 11
55.70839173029998
 21
172.6499465941999
 31
0.0
  0
LINE
  5
2A
330
2
100
AcDbEntity
  8
0
 62
     3
100
AcDbLine
 10
52.90840393739998
 20
164.3500228882
 30
0.0
 11
55.70839173029998
 21
164.3500228882
 31
0.0
  0
LINE
  5
2B
330
2
100
AcDbEntity
  8
0
 62
     3
100
AcDbLine
 10
52.90840393739998
 20
164.1500228882
 30
0.0
 11
55.70839173029998
 21
164.1500228882
 31
0.0
  0
LINE
  5
2C
330
2
100
AcDbEntity
  8
0
 62
     3
100
AcDbLine
 10
52.90840393739998
 20
163.4200210571
 30
0.0
 11
55.70839173029998
 21
163.4200210571
 31
0.0
  0
ARC
  5
2D
330
2
100
AcDbEntity
  8
0
 62
     3
100
AcDbCircle
 10
52.9084573431
 20
168.5
 30
0.0
 40
8.899993896499998
100
AcDbArc
 50
269.999690137
 51
282.811103284
  0
LINE
  5
2E
330
2
100
AcDbEntity
  8
0
 62
     3
100
AcDbLine
 10
63.80838634959997
 20
162.2499580185
 30
0.0
 11
52.90839294789998
 21
155.9999594864
 31
0.0
  0
ARC
  5
2F
330
2
100
AcDbEntity
  8
0
 62
     3
100
AcDbCircle
 10
52.9084573431
 20
168.5
 30
0.0
 40
9.5
100
AcDbArc
 50
213.738820887
 51
326.2611809342998
  0
ARC
  5
30
330
2
100
AcDbEntity
  8
0
 62
     3
100
AcDbCircle
 10
52.9084573431
 20
168.5
 30
0.0
 40
9.5
100
AcDbArc
 50
33.7388190657
 51
146.261179113
  0
ARC
  5
31
330
2
100
AcDbEntity
  8
0
 62
     3
100
AcDbCircle
 10
52.9084573431
 20
168.5
 30
0.0
 40
8.899993896499998
100
AcDbArc
 50
27.4218229892
 51
90.000309863
  0
LINE
  5
32
330
2
100
AcDbEntity
  8
0
 62
     3
100
AcDbLine
 10
58.90838867859997
 20
174.9999771118
 30
0.0
 11
46.90838867859997
 21
174.9999771118
 31
0.0
  0
LINE
  5
33
330
2
100
AcDbEntity
  8
0
 62
     3
100
AcDbLine
 10
46.90838867859997
 20
161.9999847412
 30
0.0
 11
58.90838867859997
 21
161.9999847412
 31
0.0
  0
LINE
  5
34
330
2
100
AcDbEntity
  8
0
 62
     3
100
AcDbLine
 10
52.90840393739998
 20
170.8499465941999
 30
0.0
 11
58.90840393739998
 21
170.8499465941999
 31
0.0
  0
LINE
  5
35
330
2
100
AcDbEntity
  8
0
 62
     3
100
AcDbLine
 10
52.90840393739998
 20
170.3499710082999
 30
0.0
 11
58.90840393739998
 21
170.3499710082999
 31
0.0
  0
LINE
  5
36
330
2
100
AcDbEntity
  8
0
 62
     3
100
AcDbLine
 10
52.90840393739998
 20
166.6499984740999
 30
0.0
 11
58.90840393739998
 21
166.6499984740999
 31
0.0
  0
LINE
  5
37
330
2
100
AcDbEntity
  8
0
 62
     3
100
AcDbLine
 10
52.90840393739998
 20
166.1500228881999
 30
0.0
 11
58.90840393739998
 21
166.1500228881999
 31
0.0
  0
LINE
  5
38
330
2
100
AcDbEntity
  8
0
 62
     3
100
AcDbLine
 10
52.9083456667
 20
180.9999710103
 30
0.0
 11
63.80833048149998
 21
174.7499851109999
 31
0.0
  0
LINE
  5
39
330
2
100
AcDbEntity
  8
0
  6
CENTER
 62
     3
100
AcDbLine
 10
65.30841309259996
 20
168.4999847412
 30
0.0
 11
40.50841004089995
 21
168.4999847412
 31
0.0
  0
LINE
  5
3B
330
2
100
AcDbEntity
  8
0
  6
CENTER
 62
     3
100
AcDbLine
 10
49.90841156679996
 20
176.6799865721999
 30
0.0
 11
49.90841156679996
 21
160.3199981689
 31
0.0
  0
LINE
  5
3C
330
2
100
AcDbEntity
  8
0
 62
     3
100
AcDbLine
 10
52.9083407981
 20
155.9999946
 30
0.0
 11
42.00835598319996
 21
162.2499804993999
 31
0.0
  0
ARC
  5
3D
330
2
100
AcDbEntity
  8
0
 62
     3
100
AcDbCircle
 10
52.9084573431
 20
168.5
 30
0.0
 40
8.899993896499998
100
AcDbArc
 50
207.4217701689
 51
269.999690137
  0
LINE
  5
3E
330
2
100
AcDbEntity
  8
0
  6
CENTER
 62
     3
100
AcDbLine
 10
52.90840393739998
 20
182.4999375982999
 30
0.0
 11
52.90840393739998
 21
154.4999657878
 31
0.0
  0
ARC
  5
3F
330
2
100
AcDbEntity
  8
0
 62
     3
100
AcDbCircle
 10
52.90839630799999
 20
168.4999847412
 30
0.0
 40
11.0
100
AcDbArc
 50
230.5050228463999
 51
249.8356056693
  0
LINE
  5
40
330
2
100
AcDbEntity
  8
0
 62
     3
100
AcDbLine
 10
45.68555544099999
 20
173.6999595641999
 30
0.0
 11
46.90840393739998
 21
173.6999595641999
 31
0.0
  0
LINE
  5
41
330
2
100
AcDbEntity
  8
0
 62
     3
100
AcDbLine
 10
45.00841004089997
 20
169.8000022888
 30
0.0
 11
46.90840393739998
 21
169.8000022888
 31
0.0
  0
LINE
  5
42
330
2
100
AcDbEntity
  8
0
 62
     3
100
AcDbLine
 10
45.00841004089997
 20
170.6000022888
 30
0.0
 11
46.90840393739998
 21
170.6000022888
 31
0.0
  0
LINE
  5
43
330
2
100
AcDbEntity
  8
0
 62
     3
100
AcDbLine
 10
45.17216319209999
 20
172.8999595641999
 30
0.0
 11
46.90840393739998
 21
172.8999595641999
 31
0.0
  0
ARC
  5
44
330
2
100
AcDbEntity
  8
0
 62
     3
100
AcDbCircle
 10
52.9084573431
 20
168.5
 30
0.0
 40
8.899993896499998
100
AcDbArc
 50
90.000309863
 51
152.5781205481
  0
ARC
  5
45
330
2
100
AcDbEntity
  8
0
 62
     3
100
AcDbCircle
 10
52.90839630799999
 20
168.4999847412
 30
0.0
 40
11.0
100
AcDbArc
 50
110.1619354626
 51
129.4974906631999
  0
LINE
  5
46
330
2
100
AcDbEntity
  8
0
 62
     3
100
AcDbLine
 10
42.00840813389999
 20
174.7499182909
 30
0.0
 11
52.90842842349996
 21
180.9999322402999
 31
0.0
  0
LINE
  5
47
330
2
100
AcDbEntity
  8
0
 62
     3
100
AcDbLine
 10
45.00841004089997
 20
163.2236328125
 30
0.0
 11
45.00841004089997
 21
173.7763442992999
 31
0.0
  0
LINE
  5
48
330
2
100
AcDbEntity
  8
0
 62
     3
100
AcDbLine
 10
42.00841004089997
 20
162.2499847412
 30
0.0
 11
42.00841004089997
 21
174.7499771118
 31
0.0
  0
ARC
  5
49
330
2
100
AcDbEntity
  8
0
 62
     3
100
AcDbCircle
 10
52.90839630799999
 20
168.4999847412
 30
0.0
 40
11.0
100
AcDbArc
 50
172.2678073968
 51
187.7321206588999
  0
LINE
  5
4A
330
2
100
AcDbEntity
  8
0
 62
     3
100
AcDbLine
 10
50.10841614439996
 20
172.4799865722
 30
0.0
 11
50.10841614439996
 21
174.6799865722
 31
0.0
  0
LINE
  5
4B
330
2
100
AcDbEntity
  8
0
 62
     3
100
AcDbLine
 10
49.70840698909999
 20
174.6799865722
 30
0.0
 11
49.70840698909999
 21
172.4799865722
 31
0.0
  0
LINE
  5
4C
330
2
100
AcDbEntity
  8
0
 62
     3
100
AcDbLine
 10
52.90840393739998
 20
161.9999847412
 30
0.0
 11
52.90840393739998
 21
174.9999771118
 31
0.0
  0
LINE
  5
4D
330
2
100
AcDbEntity
  8
0
 62
     3
100
AcDbLine
 10
46.90840393739998
 20
174.9999771118
 30
0.0
 11
46.90840393739998
 21
161.9999847412
 31
0.0
  0
LINE
  5
4E
330
2
100
AcDbEntity
  8
0
 62
     3
100
AcDbLine
 10
49.70840698909999
 20
167.4
 30
0.0
 11
50.10841614439996
 21
167.4
 31
0.0
  0
LINE
  5
4F
330
2
100
AcDbEntity
  8
0
 62
     3
100
AcDbLine
 10
49.70840698909999
 20
169.6
 30
0.0
 11
50.10841614439996
 21
169.6
 31
0.0
  0
LINE
  5
50
330
2
100
AcDbEntity
  8
0
 62
     3
100
AcDbLine
 10
49.70840698909999
 20
172.4799865722
 30
0.0
 11
50.10841614439996
 21
172.4799865722
 31
0.0
  0
LINE
  5
51
330
2
100
AcDbEntity
  8
0
 62
     3
100
AcDbLine
 10
49.70840698909999
 20
162.3199981689
 30
0.0
 11
50.10841614439996
 21
162.3199981689
 31
0.0
  0
LINE
  5
52
330
2
100
AcDbEntity
  8
0
 62
     3
100
AcDbLine
 10
49.70840698909999
 20
164.5199981689
 30
0.0
 11
50.10841614439996
 21
164.5199981689
 31
0.0
  0
LINE
  5
53
330
2
100
AcDbEntity
  8
0
 62
     3
100
AcDbLine
 10
52.90840393739998
 20
166.1500228881999
 30
0.0
 11
46.90840393739998
 21
166.1500228881999
 31
0.0
  0
LINE
  5
54
330
2
100
AcDbEntity
  8
0
 62
     3
100
AcDbLine
 10
52.90840393739998
 20
166.6499984740999
 30
0.0
 11
46.90840393739998
 21
166.6499984740999
 31
0.0
  0
LINE
  5
55
330
2
100
AcDbEntity
  8
0
 62
     3
100
AcDbLine
 10
52.90840393739998
 20
170.3499710082999
 30
0.0
 11
46.90840393739998
 21
170.3499710082999
 31
0.0
  0
LINE
  5
56
330
2
100
AcDbEntity
  8
0
 62
     3
100
AcDbLine
 10
52.90840393739998
 20
170.8499465941999
 30
0.0
 11
46.90840393739998
 21
170.8499465941999
 31
0.0
  0
LINE
  5
57
330
2
100
AcDbEntity
  8
0
 62
     3
100
AcDbLine
 10
49.70840698909999
 20
163.4200210571
 30
0.0
 11
46.90840393739998
 21
163.4200210571
 31
0.0
  0
LINE
  5
58
330
2
100
AcDbEntity
  8
0
 62
     3
100
AcDbLine
 10
49.70840698909999
 20
164.1500228882
 30
0.0
 11
46.90840393739998
 21
164.1500228882
 31
0.0
  0
LINE
  5
59
330
2
100
AcDbEntity
  8
0
 62
     3
100
AcDbLine
 10
49.70840698909999
 20
164.3500228882
 30
0.0
 11
46.90840393739998
 21
164.3500228882
 31
0.0
  0
LINE
  5
5A
330
2
100
AcDbEntity
  8
0
 62
     3
100
AcDbLine
 10
49.70840698909999
 20
162.3199981689
 30
0.0
 11
49.70840698909999
 21
164.5199981689
 31
0.0
  0
LINE
  5
5B
330
2
100
AcDbEntity
  8
0
 62
     3
100
AcDbLine
 10
49.70840698909999
 20
172.6499465941999
 30
0.0
 11
46.90840393739998
 21
172.6499465941999
 31
0.0
  0
LINE
  5
5C
330
2
100
AcDbEntity
  8
0
 62
     3
100
AcDbLine
 10
49.70840698909999
 20
172.8499465941999
 30
0.0
 11
46.90840393739998
 21
172.8499465941999
 31
0.0
  0
LINE
  5
5D
330
2
100
AcDbEntity
  8
0
 62
     3
100
AcDbLine
 10
49.70840698909999
 20
169.6
 30
0.0
 11
49.70840698909999
 21
167.4
 31
0.0
  0
LINE
  5
5E
330
2
100
AcDbEntity
  8
0
 62
     3
100
AcDbLine
 10
52.90840393739998
 20
163.4200210571
 30
0.0
 11
50.10841614439996
 21
163.4200210571
 31
0.0
  0
LINE
  5
5F
330
2
100
AcDbEntity
  8
0
 62
     3
100
AcDbLine
 10
52.90840393739998
 20
164.1500228882
 30
0.0
 11
50.10841614439996
 21
164.1500228882
 31
0.0
  0
LINE
  5
60
330
2
100
AcDbEntity
  8
0
 62
     3
100
AcDbLine
 10
52.90840393739998
 20
164.3500228882
 30
0.0
 11
50.10841614439996
 21
164.3500228882
 31
0.0
  0
LINE
  5
61
330
2
100
AcDbEntity
  8
0
 62
     3
100
AcDbLine
 10
50.10841614439996
 20
164.5199981689
 30
0.0
 11
50.10841614439996
 21
162.3199981689
 31
0.0
  0
LINE
  5
62
330
2
100
AcDbEntity
  8
0
 62
     3
100
AcDbLine
 10
52.90840393739998
 20
172.6499465941999
 30
0.0
 11
50.10841614439996
 21
172.6499465941999
 31
0.0
  0
LINE
  5
63
330
2
100
AcDbEntity
  8
0
 62
     3
100
AcDbLine
 10
52.90840393739998
 20
172.8499465941999
 30
0.0
 11
50.10841614439996
 21
172.8499465941999
 31
0.0
  0
LINE
  5
64
330
2
100
AcDbEntity
  8
0
 62
     3
100
AcDbLine
 10
50.10841614439996
 20
167.4
 30
0.0
 11
50.10841614439996
 21
169.6
 31
0.0
  0
LINE
  5
65
330
2
100
AcDbEntity
  8
0
 62
     3
100
AcDbLine
 10
49.70840698909999
 20
174.6799865722
 30
0.0
 11
50.10841614439996
 21
174.6799865722
 31
0.0
  0
LINE
  5
66
330
2
100
AcDbEntity
  8
0
 62
     3
100
AcDbLine
 10
49.70840698909999
 20
173.5799484253
 30
0.0
 11
46.90840393739998
 21
173.5799484253
 31
0.0
  0
LINE
  5
67
330
2
100
AcDbEntity
  8
0
 62
     3
100
AcDbLine
 10
52.90840393739998
 20
173.5799484253
 30
0.0
 11
50.10841614439996
 21
173.5799484253
 31
0.0
  0
LINE
  5
68
330
2
100
AcDbEntity
  8
0
  6
CENTER
 62
     3
100
AcDbLine
 10
55.90839630799999
 20
176.6799865721999
 30
0.0
 11
55.90839630799999
 21
160.3199981689
 31
0.0
  0
ARC
  5
69
330
2
100
AcDbEntity
  8
0
 62
     3
100
AcDbCircle
 10
52.9084573431
 20
168.5
 30
0.0
 40
8.899993896499998
100
AcDbArc
 50
282.811103284
 51
332.5781223692998
  0
ARC
  5
6A
330
2
100
AcDbEntity
  8
0
 62
     3
100
AcDbCircle
 10
52.90839630799999
 20
168.4999847412
 30
0.0
 40
11.0
100
AcDbArc
 50
290.1647035103998
 51
309.4948082200998
  0
LINE
  5
6B
330
2
100
AcDbEntity
  8
0
 62
     3
100
AcDbLine
 10
60.64464468259997
 20
172.8999595641999
 30
0.0
 11
58.90840393739998
 21
172.8999595641999
 31
0.0
  0
LINE
  5
6C
330
2
100
AcDbEntity
  8
0
 62
     3
100
AcDbLine
 10
60.8083978339
 20
170.6000022888
 30
0.0
 11
58.90840393739998
 21
170.6000022888
 31
0.0
  0
LINE
  5
6D
330
2
100
AcDbEntity
  8
0
 62
     3
100
AcDbLine
 10
60.8083978339
 20
169.8000022888
 30
0.0
 11
58.90840393739998
 21
169.8000022888
 31
0.0
  0
LINE
  5
6E
330
2
100
AcDbEntity
  8
0
 62
     3
100
AcDbLine
 10
56.10840088559999
 20
174.6799865722
 30
0.0
 11
56.10840088559999
 21
172.4799865722
 31
0.0
  0
LINE
  5
6F
330
2
100
AcDbEntity
  8
0
 62
     3
100
AcDbLine
 10
58.90840393739998
 20
161.9999847412
 30
0.0
 11
58.90840393739998
 21
174.9999771118
 31
0.0
  0
LINE
  5
70
330
2
100
AcDbEntity
  8
0
 62
     3
100
AcDbLine
 10
55.70839173029998
 20
172.4799865722
 30
0.0
 11
55.70839173029998
 21
174.6799865722
 31
0.0
  0
LINE
  5
71
330
2
100
AcDbEntity
  8
0
 62
     3
100
AcDbLine
 10
56.10840088559999
 20
172.8499465941999
 30
0.0
 11
58.90840393739998
 21
172.8499465941999
 31
0.0
  0
LINE
  5
72
330
2
100
AcDbEntity
  8
0
 62
     3
100
AcDbLine
 10
56.10840088559999
 20
172.6499465941999
 30
0.0
 11
58.90840393739998
 21
172.6499465941999
 31
0.0
  0
LINE
  5
73
330
2
100
AcDbEntity
  8
0
 62
     3
100
AcDbLine
 10
56.10840088559999
 20
164.3500228882
 30
0.0
 11
58.90840393739998
 21
164.3500228882
 31
0.0
  0
LINE
  5
74
330
2
100
AcDbEntity
  8
0
 62
     3
100
AcDbLine
 10
56.10840088559999
 20
164.1500228882
 30
0.0
 11
58.90840393739998
 21
164.1500228882
 31
0.0
  0
LINE
  5
75
330
2
100
AcDbEntity
  8
0
 62
     3
100
AcDbLine
 10
56.10840088559999
 20
163.4200210571
 30
0.0
 11
58.90840393739998
 21
163.4200210571
 31
0.0
  0
LINE
  5
76
330
2
100
AcDbEntity
  8
0
 62
     3
100
AcDbLine
 10
56.10840088559999
 20
162.3199981689
 30
0.0
 11
56.10840088559999
 21
164.5199981689
 31
0.0
  0
LINE
  5
77
330
2
100
AcDbEntity
  8
0
 62
     3
100
AcDbLine
 10
55.70839173029998
 20
164.5199981689
 30
0.0
 11
55.70839173029998
 21
162.3199981689
 31
0.0
  0
LINE
  5
78
330
2
100
AcDbEntity
  8
0
 62
     3
100
AcDbLine
 10
56.10840088559999
 20
164.5199981689
 30
0.0
 11
55.70839173029998
 21
164.5199981689
 31
0.0
  0
LINE
  5
79
330
2
100
AcDbEntity
  8
0
 62
     3
100
AcDbLine
 10
56.10840088559999
 20
162.3199981689
 30
0.0
 11
55.70839173029998
 21
162.3199981689
 31
0.0
  0
LINE
  5
7A
330
2
100
AcDbEntity
  8
0
 62
     3
100
AcDbLine
 10
56.10840088559999
 20
169.6
 30
0.0
 11
56.10840088559999
 21
167.4
 31
0.0
  0
LINE
  5
7B
330
2
100
AcDbEntity
  8
0
 62
     3
100
AcDbLine
 10
55.70839173029998
 20
167.4
 30
0.0
 11
55.70839173029998
 21
169.6
 31
0.0
  0
LINE
  5
7C
330
2
100
AcDbEntity
  8
0
 62
     3
100
AcDbLine
 10
56.10840088559999
 20
172.4799865722
 30
0.0
 11
55.70839173029998
 21
172.4799865722
 31
0.0
  0
LINE
  5
7D
330
2
100
AcDbEntity
  8
0
 62
     3
100
AcDbLine
 10
56.10840088559999
 20
169.6
 30
0.0
 11
55.70839173029998
 21
169.6
 31
0.0
  0
LINE
  5
7E
330
2
100
AcDbEntity
  8
0
 62
     3
100
AcDbLine
 10
56.10840088559999
 20
167.4
 30
0.0
 11
55.70839173029998
 21
167.4
 31
0.0
  0
LINE
  5
7F
330
2
100
AcDbEntity
  8
0
 62
     3
100
AcDbLine
 10
56.10840088559999
 20
173.5799484253
 30
0.0
 11
58.90840393739998
 21
173.5799484253
 31
0.0
  0
ARC
  5
80
330
2
100
AcDbEntity
  8
0
 62
     3
100
AcDbCircle
 10
52.90839630799999
 20
168.4999847412
 30
0.0
 40
11.0
100
AcDbArc
 50
50.50356619489999
 51
69.8369903765
  0
LINE
  5
81
330
2
100
AcDbEntity
  8
0
 62
     3
100
AcDbLine
 10
56.10840088559999
 20
174.6799865722
 30
0.0
 11
55.70839173029998
 21
174.6799865722
 31
0.0
  0
LINE
  5
82
330
2
100
AcDbEntity
  8
0
 62
     3
100
AcDbLine
 10
60.13125243379997
 20
173.6999595641999
 30
0.0
 11
58.90840393739998
 21
173.6999595641999
 31
0.0
  0
LINE
  5
83
330
2
100
AcDbEntity
  8
0
 62
     3
100
AcDbLine
 10
63.80841309259996
 20
174.7499771118
 30
0.0
 11
63.80841309259996
 21
162.2499847412
 31
0.0
  0
LINE
  5
84
330
2
100
AcDbEntity
  8
0
 62
     3
100
AcDbLine
 10
60.80841309259996
 20
163.2236328125
 30
0.0
 11
60.80841309259996
 21
173.7763442992999
 31
0.0
  0
ARC
  5
85
330
2
100
AcDbEntity
  8
0
 62
     3
100
AcDbCircle
 10
52.90839630799999
 20
168.4999847412
 30
0.0
 40
11.0
100
AcDbArc
 50
352.2690249917
 51
7.730975008299978
  0
LINE
  5
86
330
2
100
AcDbEntity
  8
0
 62
     3
100
AcDbLine
 10
107.6439614934999
 20
223.0783538817998
 30
0.0
 11
110.1439614934997
 21
223.0783538817998
 31
0.0
  0
LINE
  5
87
330
2
100
AcDbEntity
  8
0
 62
     3
100
AcDbLine
 10
107.6439614934999
 20
214.0783538817998
 30
0.0
 11
110.1439614934997
 21
214.0783538817998
 31
0.0
  0
LINE
  5
88
330
2
100
AcDbEntity
  8
0
  6
CENTER
 62
     3
100
AcDbLine
 10
98.87737518979999
 20
217.7783508300998
 30
0.0
 11
110.0742593450999
 21
217.7783508300998
 31
0.0
  0
LINE
  5
89
330
2
100
AcDbEntity
  8
0
 62
     3
100
AcDbLine
 10
109.3585458440999
 20
177.3999938965
 30
0.0
 11
109.0585733098997
 21
177.3999938965
 31
0.0
  0
LINE
  5
8A
330
2
100
AcDbEntity
  8
0
 62
     3
100
AcDbLine
 10
109.3585611028999
 20
172.8115997314
 30
0.0
 11
108.7585702581999
 21
172.8115997314
 31
0.0
  0
LINE
  5
8B
330
2
100
AcDbEntity
  8
0
 62
     3
100
AcDbLine
 10
108.7585702581999
 20
164.1883850097
 30
0.0
 11
109.3585611028999
 21
164.1883850097
 31
0.0
  0
LINE
  5
8C
330
2
100
AcDbEntity
  8
0
 62
     3
100
AcDbLine
 10
109.0585733098997
 20
159.6000061035
 30
0.0
 11
109.3585458440999
 21
159.6000061035
 31
0.0
  0
LINE
  5
8D
330
2
100
AcDbEntity
  8
0
  6
CENTER
 62
     3
100
AcDbLine
 10
87.52863556579995
 20
168.5
 30
0.0
 11
124.8848367376999
 21
168.5
 31
0.0
  0
LINE
  5
8E
330
2
100
AcDbEntity
  8
0
  6
CENTER
 62
     3
100
AcDbLine
 10
101.3448739690999
 20
218.5783691405999
 30
0.0
 11
134.6980539007997
 21
218.5783691405999
 31
0.0
  0
CIRCLE
  5
8F
330
2
100
AcDbEntity
  8
0
 62
     3
100
AcDbCircle
 10
95.45850617129998
 20
171.75
 30
0.0
 40
1.0
  0
LINE
  5
90
330
2
100
AcDbEntity
  8
0
  6
CENTER
 62
     3
100
AcDbLine
 10
93.45850617129999
 20
171.75
 30
0.0
 11
97.45850617129999
 21
171.75
 31
0.0
  0
LINE
  5
91
330
2
100
AcDbEntity
  8
0
  6
CENTER
 62
     3
100
AcDbLine
 10
89.45875183780001
 20
163.4199981689
 30
0.0
 11
96.06122070979999
 21
163.4199981689
 31
0.0
  0
LINE
  5
92
330
2
100
AcDbEntity
  8
0
  6
CENTER
 62
     3
100
AcDbLine
 10
89.45875183780001
 20
173.5799865721999
 30
0.0
 11
96.06122070979999
 21
173.5799865721999
 31
0.0
  0
LINE
  5
93
330
2
100
AcDbEntity
  8
0
 62
     3
100
AcDbLine
 10
94.35865265559998
 20
164.4012145996
 30
0.0
 11
108.6585794133999
 21
164.4012145996
 31
0.0
  0
LINE
  5
94
330
2
100
AcDbEntity
  8
0
 62
     3
100
AcDbLine
 10
108.6585794133999
 20
159.5999908447
 30
0.0
 11
94.35865265559998
 21
159.5999908447
 31
0.0
  0
LINE
  5
95
330
2
100
AcDbEntity
  8
0
 62
     3
100
AcDbLine
 10
94.35865265559998
 20
177.4000091553
 30
0.0
 11
108.6585794133999
 21
177.4000091553
 31
0.0
  0
LINE
  5
96
330
2
100
AcDbEntity
  8
0
 62
     3
100
AcDbLine
 10
94.35865265559998
 20
159.5999908447
 30
0.0
 11
94.35865265559998
 21
169.8000213622999
 31
0.0
  0
ARC
  5
97
330
2
100
AcDbEntity
  8
0
 62
     3
100
AcDbCircle
 10
92.35865265559999
 20
173.5799865721999
 30
0.0
 40
0.6
100
AcDbArc
 50
270.0
 51
90.0
  0
ARC
  5
98
330
2
100
AcDbEntity
  8
0
 62
     3
100
AcDbCircle
 10
91.55865265560001
 20
173.5799865721999
 30
0.0
 40
0.6
100
AcDbArc
 50
90.0
 51
270.0
  0
ARC
  5
99
330
2
100
AcDbEntity
  8
0
 62
     3
100
AcDbCircle
 10
93.45865265559998
 20
172.6399865722
 30
0.0
 40
0.5
100
AcDbArc
 50
90.0
 51
180.0
  0
LINE
  5
9A
330
2
100
AcDbEntity
  8
0
 62
     3
100
AcDbLine
 10
93.55865265559996
 20
172.8999786376999
 30
0.0
 11
94.35867401789998
 21
173.6999999999999
 31
0.0
  0
LINE
  5
9B
330
2
100
AcDbEntity
  8
0
 62
     3
100
AcDbLine
 10
90.45865265559999
 20
172.7799865722
 30
0.0
 11
90.45865265559999
 21
174.3799865721999
 31
0.0
  0
LINE
  5
9C
330
2
100
AcDbEntity
  8
0
 62
     3
100
AcDbLine
 10
92.35865265559999
 20
172.9799865722
 30
0.0
 11
91.55865265560001
 21
172.9799865722
 31
0.0
  0
LINE
  5
9D
330
2
100
AcDbEntity
  8
0
 62
     3
100
AcDbLine
 10
90.75865265559999
 20
172.4799865722
 30
0.0
 11
92.95865265559999
 21
172.4799865722
 31
0.0
  0
LINE
  5
9E
330
2
100
AcDbEntity
  8
0
 62
     3
100
AcDbLine
 10
90.75865265559999
 20
167.4
 30
0.0
 11
92.95865265559999
 21
167.4
 31
0.0
  0
LINE
  5
9F
330
2
100
AcDbEntity
  8
0
 62
     3
100
AcDbLine
 10
90.75865265559999
 20
169.6
 30
0.0
 11
92.95865265559999
 21
169.6
 31
0.0
  0
LINE
  5
A0
330
2
100
AcDbEntity
  8
0
 62
     3
100
AcDbLine
 10
92.35865265559999
 20
167.8999999999999
 30
0.0
 11
91.55865265560001
 21
167.8999999999999
 31
0.0
  0
LINE
  5
A1
330
2
100
AcDbEntity
  8
0
 62
     3
100
AcDbLine
 10
92.35865265559999
 20
169.1
 30
0.0
 11
91.55865265560001
 21
169.1
 31
0.0
  0
LINE
  5
A2
330
2
100
AcDbEntity
  8
0
 62
     3
100
AcDbLine
 10
90.75865265559999
 20
162.3199981689
 30
0.0
 11
92.95865265559999
 21
162.3199981689
 31
0.0
  0
LINE
  5
A3
330
2
100
AcDbEntity
  8
0
 62
     3
100
AcDbLine
 10
90.75865265559999
 20
164.5199981689
 30
0.0
 11
92.95865265559999
 21
164.5199981689
 31
0.0
  0
LINE
  5
A4
330
2
100
AcDbEntity
  8
0
 62
     3
100
AcDbLine
 10
92.35865265559999
 20
162.8199981688999
 30
0.0
 11
91.55865265560001
 21
162.8199981688999
 31
0.0
  0
LINE
  5
A5
330
2
100
AcDbEntity
  8
0
 62
     3
100
AcDbLine
 10
92.35865265559999
 20
164.0199981688999
 30
0.0
 11
91.55865265560001
 21
164.0199981688999
 31
0.0
  0
ARC
  5
A6
330
2
100
AcDbEntity
  8
0
 62
     3
100
AcDbCircle
 10
91.55865265560001
 20
163.4199981689
 30
0.0
 40
0.6
100
AcDbArc
 50
90.0
 51
270.0
  0
LINE
  5
A7
330
2
100
AcDbEntity
  8
0
 62
     3
100
AcDbLine
 10
90.45865265559999
 20
162.6199981689
 30
0.0
 11
90.45865265559999
 21
164.2199981689
 31
0.0
  0
LINE
  5
A8
330
2
100
AcDbEntity
  8
0
 62
     3
100
AcDbLine
 10
90.75865265559999
 20
162.3199981689
 30
0.0
 11
90.45865265559999
 21
162.6199981689
 31
0.0
  0
LINE
  5
A9
330
2
100
AcDbEntity
  8
0
 62
     3
100
AcDbLine
 10
90.75865265559999
 20
164.5199981689
 30
0.0
 11
90.45865265559999
 21
164.2199981689
 31
0.0
  0
ARC
  5
AA
330
2
100
AcDbEntity
  8
0
 62
     3
100
AcDbCircle
 10
91.55865265560001
 20
168.5
 30
0.0
 40
0.6
100
AcDbArc
 50
90.0
 51
270.0
  0
LINE
  5
AB
330
2
100
AcDbEntity
  8
0
 62
     3
100
AcDbLine
 10
90.45865265559999
 20
167.6999999999999
 30
0.0
 11
90.45865265559999
 21
169.3
 31
0.0
  0
LINE
  5
AC
330
2
100
AcDbEntity
  8
0
 62
     3
100
AcDbLine
 10
90.75865265559999
 20
172.4799865722
 30
0.0
 11
90.45865265559999
 21
172.7799865722
 31
0.0
  0
LINE
  5
AD
330
2
100
AcDbEntity
  8
0
 62
     3
100
AcDbLine
 10
90.75865265559999
 20
167.4
 30
0.0
 11
90.45865265559999
 21
167.6999999999999
 31
0.0
  0
LINE
  5
AE
330
2
100
AcDbEntity
  8
0
 62
     3
100
AcDbLine
 10
90.75865265559999
 20
169.6
 30
0.0
 11
90.45865265559999
 21
169.3
 31
0.0
  0
ARC
  5
AF
330
2
100
AcDbEntity
  8
0
 62
     3
100
AcDbCircle
 10
93.45865265559998
 20
164.3600134277
 30
0.0
 40
0.5
100
AcDbArc
 50
180.0
 51
270.0
  0
LINE
  5
B0
330
2
100
AcDbEntity
  8
0
 62
     3
100
AcDbLine
 10
93.15865265559999
 20
162.6199981689
 30
0.0
 11
94.35865265559998
 21
162.6199981689
 31
0.0
  0
ARC
  5
B1
330
2
100
AcDbEntity
  8
0
 62
     3
100
AcDbCircle
 10
93.15865265559999
 20
162.4199981689
 30
0.0
 40
0.2
100
AcDbArc
 50
90.0
 51
180.0
  0
LINE
  5
B2
330
2
100
AcDbEntity
  8
0
 62
     3
100
AcDbLine
 10
92.95865265559999
 20
164.3600134277
 30
0.0
 11
92.95865265559999
 21
164.5199981689
 31
0.0
  0
LINE
  5
B3
330
2
100
AcDbEntity
  8
0
 62
     3
100
AcDbLine
 10
92.95865265559999
 20
162.3199981689
 30
0.0
 11
92.95865265559999
 21
162.4199981689
 31
0.0
  0
ARC
  5
B4
330
2
100
AcDbEntity
  8
0
 62
     3
100
AcDbCircle
 10
92.35865265559999
 20
163.4199981689
 30
0.0
 40
0.6
100
AcDbArc
 50
270.0
 51
90.0
  0
LINE
  5
B5
330
2
100
AcDbEntity
  8
0
 62
     3
100
AcDbLine
 10
94.15865265559999
 20
163.42
 30
0.0
 11
94.35865265559998
 21
163.42
 31
0.0
  0
LINE
  5
B6
330
2
100
AcDbEntity
  8
0
 62
     3
100
AcDbLine
 10
94.15865265559999
 20
163.42
 30
0.0
 11
94.15865265559999
 21
164.15
 31
0.0
  0
LINE
  5
B7
330
2
100
AcDbEntity
  8
0
 62
     3
100
AcDbLine
 10
93.95865265559999
 20
164.35
 30
0.0
 11
93.95865265559999
 21
166.15
 31
0.0
  0
LINE
  5
B8
330
2
100
AcDbEntity
  8
0
 62
     3
100
AcDbLine
 10
94.35865265559998
 20
166.55
 30
0.0
 11
93.95865265559999
 21
166.15
 31
0.0
  0
LINE
  5
B9
330
2
100
AcDbEntity
  8
0
 62
     3
100
AcDbLine
 10
94.15865265559999
 20
164.15
 30
0.0
 11
93.95865265559999
 21
164.35
 31
0.0
  0
LINE
  5
BA
330
2
100
AcDbEntity
  8
0
 62
     3
100
AcDbLine
 10
93.45865265559998
 20
163.8600134277
 30
0.0
 11
94.15865265559999
 21
163.8600134277
 31
0.0
  0
LINE
  5
BB
330
2
100
AcDbEntity
  8
0
 62
     3
100
AcDbLine
 10
93.15865265559999
 20
167.6999999999999
 30
0.0
 11
94.35865265559998
 21
167.6999999999999
 31
0.0
  0
LINE
  5
BC
330
2
100
AcDbEntity
  8
0
 62
     3
100
AcDbLine
 10
93.15865265559999
 20
169.3
 30
0.0
 11
94.35865265559998
 21
169.3
 31
0.0
  0
LINE
  5
BD
330
2
100
AcDbEntity
  8
0
 62
     3
100
AcDbLine
 10
92.95865265559999
 20
172.4799865722
 30
0.0
 11
92.95865265559999
 21
172.6399865722
 31
0.0
  0
ARC
  5
BE
330
2
100
AcDbEntity
  8
0
 62
     3
100
AcDbCircle
 10
93.15865265559999
 20
167.5
 30
0.0
 40
0.2
100
AcDbArc
 50
90.0
 51
180.0
  0
ARC
  5
BF
330
2
100
AcDbEntity
  8
0
 62
     3
100
AcDbCircle
 10
93.15865265559999
 20
169.5
 30
0.0
 40
0.2
100
AcDbArc
 50
180.0
 51
270.0
  0
LINE
  5
C0
330
2
100
AcDbEntity
  8
0
 62
     3
100
AcDbLine
 10
92.95865265559999
 20
169.5
 30
0.0
 11
92.95865265559999
 21
169.6
 31
0.0
  0
LINE
  5
C1
330
2
100
AcDbEntity
  8
0
 62
     3
100
AcDbLine
 10
92.95865265559999
 20
167.4
 30
0.0
 11
92.95865265559999
 21
167.5
 31
0.0
  0
ARC
  5
C2
330
2
100
AcDbEntity
  8
0
 62
     3
100
AcDbCircle
 10
92.35865265559999
 20
168.5
 30
0.0
 40
0.6
100
AcDbArc
 50
270.0
 51
90.0
  0
LINE
  5
C3
330
2
100
AcDbEntity
  8
0
 62
     3
100
AcDbLine
 10
93.45865265559998
 20
173.1399865721999
 30
0.0
 11
93.79863922790001
 21
173.1399865721999
 31
0.0
  0
LINE
  5
C4
330
2
100
AcDbEntity
  8
0
 62
     3
100
AcDbLine
 10
93.55865265559996
 20
170.6000213622999
 30
0.0
 11
93.55865265559996
 21
172.8999786376999
 31
0.0
  0
LINE
  5
C5
330
2
100
AcDbEntity
  8
0
 62
     3
100
AcDbLine
 10
93.55865265559996
 20
170.6000213622999
 30
0.0
 11
94.35867401789998
 21
169.8
 31
0.0
  0
LINE
  5
C6
330
2
100
AcDbEntity
  8
0
 62
     3
100
AcDbLine
 10
93.55867401789998
 20
172.5987701415999
 30
0.0
 11
94.92974417689998
 21
172.5987701415999
 31
0.0
  0
LINE
  5
C7
330
2
100
AcDbEntity
  8
0
 62
     3
100
AcDbLine
 10
92.35865265559999
 20
174.1799865722
 30
0.0
 11
91.55865265560001
 21
174.1799865722
 31
0.0
  0
LINE
  5
C8
330
2
100
AcDbEntity
  8
0
 62
     3
100
AcDbLine
 10
90.75865265559999
 20
174.6799865722
 30
0.0
 11
92.95865265559999
 21
174.6799865722
 31
0.0
  0
LINE
  5
C9
330
2
100
AcDbEntity
  8
0
 62
     3
100
AcDbLine
 10
90.75865265559999
 20
174.6799865722
 30
0.0
 11
90.45865265559999
 21
174.3799865721999
 31
0.0
  0
LINE
  5
CA
330
2
100
AcDbEntity
  8
0
 62
     3
100
AcDbLine
 10
93.15865265559999
 20
174.3799865721999
 30
0.0
 11
94.35865265559998
 21
174.3799865721999
 31
0.0
  0
LINE
  5
CB
330
2
100
AcDbEntity
  8
0
 62
     3
100
AcDbLine
 10
92.95865265559999
 20
174.5799865721999
 30
0.0
 11
92.95865265559999
 21
174.6799865722
 31
0.0
  0
ARC
  5
CC
330
2
100
AcDbEntity
  8
0
 62
     3
100
AcDbCircle
 10
93.15865265559999
 20
174.5799865721999
 30
0.0
 40
0.2
100
AcDbArc
 50
180.0
 51
270.0
  0
LINE
  5
CD
330
2
100
AcDbEntity
  8
0
 62
     3
100
AcDbLine
 10
94.35865265559998
 20
173.6999786377
 30
0.0
 11
94.35865265559998
 21
177.4000091553
 31
0.0
  0
LINE
  5
CE
330
2
100
AcDbEntity
  8
0
 62
     3
100
AcDbLine
 10
108.7585702581999
 20
177.0999908447
 30
0.0
 11
108.7585702581999
 21
159.8999938965
 31
0.0
  0
LINE
  5
CF
330
2
100
AcDbEntity
  8
0
 62
     3
100
AcDbLine
 10
108.6585794133999
 20
159.5999908447
 30
0.0
 11
108.6585794133999
 21
177.4000091553
 31
0.0
  0
LINE
  5
D0
330
2
100
AcDbEntity
  8
0
 62
     3
100
AcDbLine
 10
107.3585305852999
 20
161.5
 30
0.0
 11
106.0586038274999
 21
161.5
 31
0.0
  0
LINE
  5
D1
330
2
100
AcDbEntity
  8
0
 62
     3
100
AcDbLine
 10
106.0586038274999
 20
161.4601135254
 30
0.0
 11
107.3585763616997
 21
161.4601135254
 31
0.0
  0
LINE
  5
D2
330
2
100
AcDbEntity
  8
0
 62
     3
100
AcDbLine
 10
106.8585763616999
 20
160.1999969482
 30
0.0
 11
107.3585763616997
 21
160.1999969482
 31
0.0
  0
LINE
  5
D3
330
2
100
AcDbEntity
  8
0
 62
     3
100
AcDbLine
 10
106.8585763616999
 20
160.7850036621
 30
0.0
 11
107.3585763616997
 21
160.7850036621
 31
0.0
  0
LINE
  5
D4
330
2
100
AcDbEntity
  8
0
 62
     3
100
AcDbLine
 10
106.8585763616999
 20
160.7850036621
 30
0.0
 11
106.8585763616999
 21
160.1999969482
 31
0.0
  0
LINE
  5
D5
330
2
100
AcDbEntity
  8
0
 62
     3
100
AcDbLine
 10
107.3585305852999
 20
159.8276214599
 30
0.0
 11
106.0586038274999
 21
159.8276214599
 31
0.0
  0
LINE
  5
D6
330
2
100
AcDbEntity
  8
0
 62
     3
100
AcDbLine
 10
106.0586081178999
 20
160.8462399247999
 30
0.0
 11
106.8584907000999
 21
160.1999722845
 31
0.0
  0
LINE
  5
D7
330
2
100
AcDbEntity
  8
0
 62
     3
100
AcDbLine
 10
106.0585996788999
 20
161.3850543808999
 30
0.0
 11
106.8585435558
 21
160.7850049815
 31
0.0
  0
LINE
  5
D8
330
2
100
AcDbEntity
  8
0
 62
     3
100
AcDbLine
 10
106.0586038274999
 20
160.4999999999999
 30
0.0
 11
106.4872689885999
 21
160.4999999999999
 31
0.0
  0
LINE
  5
D9
330
2
100
AcDbEntity
  8
0
 62
     3
100
AcDbLine
 10
106.0586038274999
 20
159.8276214599
 30
0.0
 11
106.0586038274999
 21
161.5
 31
0.0
  0
LINE
  5
DA
330
2
100
AcDbEntity
  8
0
 62
     3
100
AcDbLine
 10
107.3585305852999
 20
159.8276214599
 30
0.0
 11
107.3585305852999
 21
161.5
 31
0.0
  0
LINE
  5
DB
330
2
100
AcDbEntity
  8
0
 62
     3
100
AcDbLine
 10
107.3585763616997
 20
161.4601135254
 30
0.0
 11
107.3585763616997
 21
160.1999969482
 31
0.0
  0
ARC
  5
DC
330
2
100
AcDbEntity
  8
0
 62
     3
100
AcDbCircle
 10
109.0585733098997
 20
159.9000091553
 30
0.0
 40
0.2999999522999999
100
AcDbArc
 50
179.9999640277999
 51
269.9998914002
  0
LINE
  5
DD
330
2
100
AcDbEntity
  8
0
 62
     3
100
AcDbLine
 10
108.6585794133999
 20
160.4999999999999
 30
0.0
 11
108.7585855169999
 21
160.4999999999999
 31
0.0
  0
LINE
  5
DE
330
2
100
AcDbEntity
  8
0
 62
     3
100
AcDbLine
 10
101.6585794133999
 20
176.2923431396
 30
0.0
 11
102.3586526555998
 21
176.2923431396
 31
0.0
  0
LINE
  5
DF
330
2
100
AcDbEntity
  8
0
 62
     3
100
AcDbLine
 10
101.6585794133999
 20
173.7999725342
 30
0.0
 11
102.5308938665999
 21
173.7999725342
 31
0.0
  0
LINE
  5
E0
330
2
100
AcDbEntity
  8
0
 62
     3
100
AcDbLine
 10
101.6585794133999
 20
166.5
 30
0.0
 11
105.8585305852999
 21
166.5
 31
0.0
  0
LINE
  5
E1
330
2
100
AcDbEntity
  8
0
 62
     3
100
AcDbLine
 10
101.6585794133999
 20
166.5
 30
0.0
 11
101.6585794133999
 21
176.2923431396
 31
0.0
  0
LINE
  5
E2
330
2
100
AcDbEntity
  8
0
  6
CENTER
 62
     3
100
AcDbLine
 10
95.45850617129998
 20
173.75
 30
0.0
 11
95.45850617129998
 21
169.7499999999999
 31
0.0
  0
LINE
  5
E3
330
2
100
AcDbEntity
  8
0
 62
     3
100
AcDbLine
 10
95.98726816569998
 20
172.5987701415999
 30
0.0
 11
101.6585794133999
 21
172.5987701415999
 31
0.0
  0
LINE
  5
E4
330
2
100
AcDbEntity
  8
0
 62
     3
100
AcDbLine
 10
104.7585952967999
 20
170.4999735677
 30
0.0
 11
105.0586440378999
 21
175.1999699922
 31
0.0
  0
LINE
  5
E5
330
2
100
AcDbEntity
  8
0
 62
     3
100
AcDbLine
 10
105.8585305852999
 20
166.5
 30
0.0
 11
105.8585305852999
 21
175.1999969481999
 31
0.0
  0
LINE
  5
E6
330
2
100
AcDbEntity
  8
0
 62
     3
100
AcDbLine
 10
105.4585824651999
 20
175.1999969481999
 30
0.0
 11
105.4585824651999
 21
166.5
 31
0.0
  0
LINE
  5
E7
330
2
100
AcDbEntity
  8
0
 62
     3
100
AcDbLine
 10
102.7586784278999
 20
170.5000140255999
 30
0.0
 11
102.3587765101999
 21
176.292347658
 31
0.0
  0
LINE
  5
E8
330
2
100
AcDbEntity
  8
0
 62
     3
100
AcDbLine
 10
105.8585305852999
 20
172.3729705809999
 30
0.0
 11
105.4585824651999
 21
172.3729705809999
 31
0.0
  0
LINE
  5
E9
330
2
100
AcDbEntity
  8
0
 62
     3
100
AcDbLine
 10
102.6252542180998
 20
172.4339599609
 30
0.0
 11
104.8820901555999
 21
172.4339599609
 31
0.0
  0
LINE
  5
EA
330
2
100
AcDbEntity
  8
0
 62
     3
100
AcDbLine
 10
102.7585549993997
 20
167.5
 30
0.0
 11
104.7585549993997
 21
167.5
 31
0.0
  0
LINE
  5
EB
330
2
100
AcDbEntity
  8
0
 62
     3
100
AcDbLine
 10
102.7585549993997
 20
167.5
 30
0.0
 11
102.7585549993997
 21
170.5
 31
0.0
  0
LINE
  5
EC
330
2
100
AcDbEntity
  8
0
 62
     3
100
AcDbLine
 10
104.7585549993997
 20
167.5
 30
0.0
 11
104.7585549993997
 21
170.5
 31
0.0
  0
LINE
  5
ED
330
2
100
AcDbEntity
  8
0
 62
     3
100
AcDbLine
 10
108.6585794133999
 20
164.6270294188999
 30
0.0
 11
108.7585855169999
 21
164.6270294188999
 31
0.0
  0
LINE
  5
EE
330
2
100
AcDbEntity
  8
0
 62
     3
100
AcDbLine
 10
105.8585305852999
 20
172.5987701415999
 30
0.0
 11
108.6585794133999
 21
172.5987701415999
 31
0.0
  0
LINE
  5
EF
330
2
100
AcDbEntity
  8
0
 62
     3
100
AcDbLine
 10
108.7585855169999
 20
172.3729705809999
 30
0.0
 11
108.6585794133999
 21
172.3729705809999
 31
0.0
  0
LINE
  5
F0
330
2
100
AcDbEntity
  8
0
 62
     3
100
AcDbLine
 10
105.0586038274999
 20
175.1999969481999
 30
0.0
 11
105.8585305852999
 21
175.1999969481999
 31
0.0
  0
LINE
  5
F1
330
2
100
AcDbEntity
  8
0
 62
     3
100
AcDbLine
 10
102.5550637883999
 20
173.4507446289
 30
0.0
 11
104.9470315618999
 21
173.4507446289
 31
0.0
  0
LINE
  5
F2
330
2
100
AcDbEntity
  8
0
 62
     3
100
AcDbLine
 10
104.9692483587999
 20
173.7999725342
 30
0.0
 11
105.4586282415999
 21
173.7999725342
 31
0.0
  0
LINE
  5
F3
330
2
100
AcDbEntity
  8
0
 62
     3
100
AcDbLine
 10
105.4586282415999
 20
175.1999969481999
 30
0.0
 11
105.4586282415999
 21
173.7999725342
 31
0.0
  0
LINE
  5
F4
330
2
100
AcDbEntity
  8
0
 62
     3
100
AcDbLine
 10
107.3585305852999
 20
175.4999999999999
 30
0.0
 11
107.3585305852999
 21
177.1723480224
 31
0.0
  0
LINE
  5
F5
330
2
100
AcDbEntity
  8
0
 62
     3
100
AcDbLine
 10
107.3585763616997
 20
176.8000030517
 30
0.0
 11
107.3585763616997
 21
175.5398864745999
 31
0.0
  0
LINE
  5
F6
330
2
100
AcDbEntity
  8
0
 62
     3
100
AcDbLine
 10
107.3585763616997
 20
176.8000030517
 30
0.0
 11
106.8585763616999
 21
176.8000030517
 31
0.0
  0
LINE
  5
F7
330
2
100
AcDbEntity
  8
0
 62
     3
100
AcDbLine
 10
107.3585763616997
 20
176.2150115967
 30
0.0
 11
106.8585763616999
 21
176.2150115967
 31
0.0
  0
LINE
  5
F8
330
2
100
AcDbEntity
  8
0
 62
     3
100
AcDbLine
 10
106.8585763616999
 20
176.8000030517
 30
0.0
 11
106.8585763616999
 21
176.2150115967
 31
0.0
  0
LINE
  5
F9
330
2
100
AcDbEntity
  8
0
 62
     3
100
AcDbLine
 10
106.0586038274999
 20
175.4999999999999
 30
0.0
 11
106.0586038274999
 21
177.1723480224
 31
0.0
  0
LINE
  5
FA
330
2
100
AcDbEntity
  8
0
 62
     3
100
AcDbLine
 10
106.0586038274999
 20
176.2459564209
 30
0.0
 11
106.1728463811999
 21
176.2459564209
 31
0.0
  0
LINE
  5
FB
330
2
100
AcDbEntity
  8
0
 62
     3
100
AcDbLine
 10
106.0586038274999
 20
177.1723480224
 30
0.0
 11
107.3585305852999
 21
177.1723480224
 31
0.0
  0
LINE
  5
FC
330
2
100
AcDbEntity
  8
0
 62
     3
100
AcDbLine
 10
106.0586038274999
 20
175.4999999999999
 30
0.0
 11
107.3585305852999
 21
175.4999999999999
 31
0.0
  0
LINE
  5
FD
330
2
100
AcDbEntity
  8
0
 62
     3
100
AcDbLine
 10
106.8585531480999
 20
176.7999778181
 30
0.0
 11
106.0586112211999
 21
176.1536622302
 31
0.0
  0
LINE
  5
FE
330
2
100
AcDbEntity
  8
0
 62
     3
100
AcDbLine
 10
106.8585755715999
 20
176.2149997773
 30
0.0
 11
106.0585950755998
 21
175.6149229092998
 31
0.0
  0
LINE
  5
FF
330
2
100
AcDbEntity
  8
0
 62
     3
100
AcDbLine
 10
107.3585763616997
 20
175.5398864745999
 30
0.0
 11
106.0586038274999
 21
175.5398864745999
 31
0.0
  0
ARC
  5
100
330
2
100
AcDbEntity
  8
0
 62
     3
100
AcDbCircle
 10
109.0585733098997
 20
177.0999908447
 30
0.0
 40
0.2999999522999999
100
AcDbArc
 50
89.99998201389999
 51
179.9999640277999
  0
LINE
  5
101
330
2
100
AcDbEntity
  8
0
 62
     3
100
AcDbLine
 10
108.7585855169999
 20
176.4999847412
 30
0.0
 11
108.6585794133999
 21
176.4999847412
 31
0.0
  0
LINE
  5
102
330
2
100
AcDbEntity
  8
0
  6
PHANTOM
 62
     3
100
AcDbLine
 10
107.6439483022999
 20
208.5783190213999
 30
0.0
 11
104.6439527851999
 21
206.7783221281998
 31
0.0
  0
LINE
  5
104
330
2
100
AcDbEntity
  8
0
  6
PHANTOM
 62
     3
100
AcDbLine
 10
103.1439614934999
 20
206.7783660888999
 30
0.0
 11
103.1439614934999
 21
228.7783660888999
 31
0.0
  0
LINE
  5
105
330
2
100
AcDbEntity
  8
0
  6
PHANTOM
 62
     3
100
AcDbLine
 10
104.6439614934999
 20
206.7783660888999
 30
0.0
 11
104.6439614934999
 21
228.7783660888999
 31
0.0
  0
LINE
  5
106
330
2
100
AcDbEntity
  8
0
  6
PHANTOM
 62
     3
100
AcDbLine
 10
104.6439614934999
 20
206.7783660888999
 30
0.0
 11
103.1439614934999
 21
206.7783660888999
 31
0.0
  0
LINE
  5
107
330
2
100
AcDbEntity
  8
0
  6
PHANTOM
 62
     3
100
AcDbLine
 10
107.6439614934999
 20
226.9783630371
 30
0.0
 11
107.6439614934999
 21
208.5783538818
 31
0.0
  0
LINE
  5
108
330
2
100
AcDbEntity
  8
0
  6
PHANTOM
 62
     3
100
AcDbLine
 10
104.6439959560999
 20
228.7783192949
 30
0.0
 11
107.6439910560999
 21
226.9783215676
 31
0.0
  0
LINE
  5
109
330
2
100
AcDbEntity
  8
0
  6
PHANTOM
 62
     3
100
AcDbLine
 10
104.6439614934999
 20
228.7783660888999
 30
0.0
 11
103.1439614934999
 21
228.7783660888999
 31
0.0
  0
LINE
  5
10A
330
2
100
AcDbEntity
  8
0
 62
     3
100
AcDbLine
 10
122.9083657903999
 20
177.6999969482
 30
0.0
 11
122.9083657903999
 21
159.3000030517
 31
0.0
  0
LINE
  5
10B
330
2
100
AcDbEntity
  8
0
 62
     3
100
AcDbLine
 10
117.7584634467
 20
163.2236328125
 30
0.0
 11
117.7584634467
 21
159.0639038086
 31
0.0
  0
LINE
  5
10C
330
2
100
AcDbEntity
  8
0
 62
     3
100
AcDbLine
 10
117.5066476507999
 20
163.2236328125
 30
0.0
 11
117.5066476507999
 21
159.4999999999999
 31
0.0
  0
ARC
  5
10D
330
2
100
AcDbEntity
  8
0
 62
     3
100
AcDbCircle
 10
118.3585611028999
 20
159.125
 30
0.0
 40
5.0
100
AcDbArc
 50
141.3178160408999
 51
218.6821666563
  0
LINE
  5
10E
330
2
100
AcDbEntity
  8
0
 62
     3
100
AcDbLine
 10
113.3585611028999
 20
177.8749847412
 30
0.0
 11
113.3585611028999
 21
159.125
 31
0.0
  0
LINE
  5
10F
330
2
100
AcDbEntity
  8
0
 62
     3
100
AcDbLine
 10
109.6680703801999
 20
163.2236328125
 30
0.0
 11
109.6680703801999
 21
160.8782196044999
 31
0.0
  0
LINE
  5
110
330
2
100
AcDbEntity
  8
0
 62
     3
100
AcDbLine
 10
109.3585611028999
 20
164.1883850097
 30
0.0
 11
109.3585611028999
 21
161.3143310547
 31
0.0
  0
LINE
  5
111
330
2
100
AcDbEntity
  8
0
 62
     3
100
AcDbLine
 10
119.8585611028999
 20
179.4999999999999
 30
0.0
 11
119.8585611028999
 21
157.5
 31
0.0
  0
LINE
  5
112
330
2
100
AcDbEntity
  8
0
 62
     3
100
AcDbLine
 10
118.3585611028999
 20
179.4999999999999
 30
0.0
 11
118.3585611028999
 21
157.5
 31
0.0
  0
LINE
  5
113
330
2
100
AcDbEntity
  8
0
 62
     3
100
AcDbLine
 10
116.3585611028999
 20
180.9999847412
 30
0.0
 11
116.3585611028999
 21
156.0
 31
0.0
  0
LINE
  5
114
330
2
100
AcDbEntity
  8
0
 62
     3
100
AcDbLine
 10
116.3585611028999
 20
156.0
 30
0.0
 11
114.4554391547
 21
156.0
 31
0.0
  0
LINE
  5
115
330
2
100
AcDbEntity
  8
0
 62
     3
100
AcDbLine
 10
112.0585580510999
 20
159.6000061035
 30
0.0
 11
113.3585611028999
 21
159.6000061035
 31
0.0
  0
LINE
  5
116
330
2
100
AcDbEntity
  8
0
 62
     3
100
AcDbLine
 10
109.6680551214999
 20
159.0639038086
 30
0.0
 11
113.3585611028999
 21
159.0639038086
 31
0.0
  0
LINE
  5
117
330
2
100
AcDbEntity
  8
0
 62
     3
100
AcDbLine
 10
109.6680703801999
 20
160.8782196044999
 30
0.0
 11
112.0585580510999
 21
160.8782196044999
 31
0.0
  0
LINE
  5
118
330
2
100
AcDbEntity
  8
0
 62
     3
100
AcDbLine
 10
109.6680703801999
 20
159.55519104
 30
0.0
 11
112.0585580510999
 21
159.55519104
 31
0.0
  0
LINE
  5
119
330
2
100
AcDbEntity
  8
0
 62
     3
100
AcDbLine
 10
110.8585135698999
 20
160.6480655057
 30
0.0
 11
112.0585205112999
 21
160.0881203007
 31
0.0
  0
LINE
  5
11A
330
2
100
AcDbEntity
  8
0
 62
     3
100
AcDbLine
 10
109.8585611028999
 20
160.648071289
 30
0.0
 11
110.8585611028999
 21
160.648071289
 31
0.0
  0
LINE
  5
11B
330
2
100
AcDbEntity
  8
0
 62
     3
100
AcDbLine
 10
109.8585611028999
 20
160.8782196044999
 30
0.0
 11
109.8585611028999
 21
160.0881347656
 31
0.0
  0
LINE
  5
11C
330
2
100
AcDbEntity
  8
0
 62
     3
100
AcDbLine
 10
110.8585611028999
 20
160.8782196044999
 30
0.0
 11
110.8585611028999
 21
160.648071289
 31
0.0
  0
LINE
  5
11D
330
2
100
AcDbEntity
  8
0
 62
     3
100
AcDbLine
 10
109.3585611028999
 20
159.6000061035
 30
0.0
 11
109.6420236273
 21
159.6000061035
 31
0.0
  0
LINE
  5
11E
330
2
100
AcDbEntity
  8
0
 62
     3
100
AcDbLine
 10
109.3584427455999
 20
159.5999754884999
 30
0.0
 11
109.6679520228999
 21
159.0638897043
 31
0.0
  0
LINE
  5
11F
330
2
100
AcDbEntity
  8
0
 62
     3
100
AcDbLine
 10
109.6680326527999
 20
159.0639032095999
 30
0.0
 11
109.6680555409997
 21
159.555190441
 31
0.0
  0
LINE
  5
120
330
2
100
AcDbEntity
  8
0
 62
     3
100
AcDbLine
 10
109.3584666544999
 20
161.3143684426
 30
0.0
 11
109.6679733052999
 21
160.8782423094
 31
0.0
  0
LINE
  5
121
330
2
100
AcDbEntity
  8
0
 62
     3
100
AcDbLine
 10
109.6679855370999
 20
159.5551415085
 30
0.0
 11
109.3584537282999
 21
160.0881109387
 31
0.0
  0
LINE
  5
122
330
2
100
AcDbEntity
  8
0
 62
     3
100
AcDbLine
 10
109.3585368637999
 20
160.0881292543
 30
0.0
 11
109.3585292343999
 21
159.6000005921999
 31
0.0
  0
LINE
  5
123
330
2
100
AcDbEntity
  8
0
 62
     3
100
AcDbLine
 10
109.3585611028999
 20
160.0881347656
 30
0.0
 11
109.8585611028999
 21
160.0881347656
 31
0.0
  0
LINE
  5
124
330
2
100
AcDbEntity
  8
0
 62
     3
100
AcDbLine
 10
112.0585580510999
 20
160.8782196044999
 30
0.0
 11
112.0585580510999
 21
159.55519104
 31
0.0
  0
LINE
  5
125
330
2
100
AcDbEntity
  8
0
 62
     3
100
AcDbLine
 10
118.3585611028999
 20
157.5
 30
0.0
 11
119.8585611028999
 21
157.5
 31
0.0
  0
LINE
  5
126
330
2
100
AcDbEntity
  8
0
 62
     3
100
AcDbLine
 10
116.3585611028999
 20
159.0639038086
 30
0.0
 11
118.3585611028999
 21
159.0639038086
 31
0.0
  0
LINE
  5
127
330
2
100
AcDbEntity
  8
0
 62
     3
100
AcDbLine
 10
117.5065456763998
 20
159.4999865562999
 30
0.0
 11
117.7583156958999
 21
159.0639080985
 31
0.0
  0
LINE
  5
128
330
2
100
AcDbEntity
  8
0
 62
     3
100
AcDbLine
 10
116.3585611028999
 20
159.6000061035
 30
0.0
 11
117.5066781683
 21
159.6000061035
 31
0.0
  0
LINE
  5
129
330
2
100
AcDbEntity
  8
0
 62
     3
100
AcDbLine
 10
118.3585611028999
 20
159.4999999999999
 30
0.0
 11
118.3585611028999
 21
159.0
 31
0.0
  0
LINE
  5
12A
330
2
100
AcDbEntity
  8
0
 62
     3
100
AcDbLine
 10
119.858330128
 20
157.499859343
 30
0.0
 11
122.9082998008999
 21
159.2998413619999
 31
0.0
  0
LINE
  5
12B
330
2
100
AcDbEntity
  8
0
 62
     3
100
AcDbLine
 10
116.3585611028999
 20
180.9999847412
 30
0.0
 11
114.4554391547
 21
180.9999847412
 31
0.0
  0
LINE
  5
12C
330
2
100
AcDbEntity
  8
0
 62
     3
100
AcDbLine
 10
116.3585611028999
 20
174.7499847412
 30
0.0
 11
114.4554391547
 21
174.7499847412
 31
0.0
  0
LINE
  5
12D
330
2
100
AcDbEntity
  8
0
 62
     3
100
AcDbLine
 10
114.4554544133999
 20
162.2501678467
 30
0.0
 11
116.3585611028999
 21
162.2501678467
 31
0.0
  0
ARC
  5
12E
330
2
100
AcDbEntity
  8
0
 62
     3
100
AcDbCircle
 10
128.6585641547
 20
168.4499969482
 30
0.0
 40
15.5
100
AcDbArc
 50
156.0178584555997
 51
170.7858202713999
  0
LINE
  5
12F
330
2
100
AcDbEntity
  8
0
 62
     3
100
AcDbLine
 10
109.3585611028999
 20
175.6856536865
 30
0.0
 11
109.3585611028999
 21
172.8115997314
 31
0.0
  0
LINE
  5
130
330
2
100
AcDbEntity
  8
0
 62
     3
100
AcDbLine
 10
109.6680459521999
 20
173.7763228947
 30
0.0
 11
109.3585438784999
 21
172.8115693000999
 31
0.0
  0
LINE
  5
131
330
2
100
AcDbEntity
  8
0
 62
     3
100
AcDbLine
 10
109.6680703801999
 20
163.2236328125
 30
0.0
 11
113.3585611028999
 21
163.2236328125
 31
0.0
  0
LINE
  5
132
330
2
100
AcDbEntity
  8
0
 62
     3
100
AcDbLine
 10
109.3585142457
 20
164.1883936375999
 30
0.0
 11
109.6680163192999
 21
163.2236400429999
 31
0.0
  0
ARC
  5
133
330
2
100
AcDbEntity
  8
0
 62
     3
100
AcDbCircle
 10
128.6585641547
 20
168.4499969482
 30
0.0
 40
15.5
100
AcDbArc
 50
189.2141797286
 51
203.5781768361
  0
LINE
  5
134
330
2
100
AcDbEntity
  8
0
 62
     3
100
AcDbLine
 10
113.3585611028999
 20
177.3999938965
 30
0.0
 11
112.0585580510999
 21
177.3999938965
 31
0.0
  0
LINE
  5
135
330
2
100
AcDbEntity
  8
0
 62
     3
100
AcDbLine
 10
113.3585611028999
 20
173.7763519287
 30
0.0
 11
109.6680703801999
 21
173.7763519287
 31
0.0
  0
LINE
  5
136
330
2
100
AcDbEntity
  8
0
 62
     3
100
AcDbLine
 10
113.3585611028999
 20
177.9360961914
 30
0.0
 11
109.6680551214999
 21
177.9360961914
 31
0.0
  0
LINE
  5
137
330
2
100
AcDbEntity
  8
0
 62
     3
100
AcDbLine
 10
112.0585580510999
 20
176.1217803955
 30
0.0
 11
109.6680703801999
 21
176.1217803955
 31
0.0
  0
LINE
  5
138
330
2
100
AcDbEntity
  8
0
 62
     3
100
AcDbLine
 10
112.0585580510999
 20
177.4448089598999
 30
0.0
 11
109.6680703801999
 21
177.4448089598999
 31
0.0
  0
LINE
  5
139
330
2
100
AcDbEntity
  8
0
 62
     3
100
AcDbLine
 10
112.0585372280998
 20
176.9118570776
 30
0.0
 11
110.8585302867999
 21
176.3519118726
 31
0.0
  0
LINE
  5
13A
330
2
100
AcDbEntity
  8
0
 62
     3
100
AcDbLine
 10
110.8585611028999
 20
176.3519134520999
 30
0.0
 11
109.8585611028999
 21
176.3519134520999
 31
0.0
  0
LINE
  5
13B
330
2
100
AcDbEntity
  8
0
 62
     3
100
AcDbLine
 10
109.8585611028999
 20
176.9118652344
 30
0.0
 11
109.8585611028999
 21
176.1217803955
 31
0.0
  0
LINE
  5
13C
330
2
100
AcDbEntity
  8
0
 62
     3
100
AcDbLine
 10
110.8585611028999
 20
176.3519134520999
 30
0.0
 11
110.8585611028999
 21
176.1217803955
 31
0.0
  0
LINE
  5
13D
330
2
100
AcDbEntity
  8
0
 62
     3
100
AcDbLine
 10
109.6420236273
 20
177.3999938965
 30
0.0
 11
109.3585611028999
 21
177.3999938965
 31
0.0
  0
LINE
  5
13E
330
2
100
AcDbEntity
  8
0
 62
     3
100
AcDbLine
 10
109.6680403033999
 20
177.9360448463
 30
0.0
 11
109.3585310260999
 21
177.3999590622
 31
0.0
  0
LINE
  5
13F
330
2
100
AcDbEntity
  8
0
 62
     3
100
AcDbLine
 10
109.6680600489999
 20
177.4447946819
 30
0.0
 11
109.6680371608
 21
177.9360819133
 31
0.0
  0
LINE
  5
140
330
2
100
AcDbEntity
  8
0
 62
     3
100
AcDbLine
 10
109.3585283328999
 20
177.3999841918999
 30
0.0
 11
109.3585359622998
 21
176.9118555298
 31
0.0
  0
LINE
  5
141
330
2
100
AcDbEntity
  8
0
 62
     3
100
AcDbLine
 10
109.3585197274999
 20
176.9118224999999
 30
0.0
 11
109.6680515363999
 21
177.4447919303
 31
0.0
  0
LINE
  5
142
330
2
100
AcDbEntity
  8
0
 62
     3
100
AcDbLine
 10
109.6680703801999
 20
176.1217803955
 30
0.0
 11
109.6680703801999
 21
173.7763519287
 31
0.0
  0
LINE
  5
143
330
2
100
AcDbEntity
  8
0
 62
     3
100
AcDbLine
 10
109.6679929269999
 20
176.1216916272999
 30
0.0
 11
109.3584862761999
 21
175.6855654940999
 31
0.0
  0
LINE
  5
144
330
2
100
AcDbEntity
  8
0
 62
     3
100
AcDbLine
 10
109.8585611028999
 20
176.9118652344
 30
0.0
 11
109.3585611028999
 21
176.9118652344
 31
0.0
  0
LINE
  5
145
330
2
100
AcDbEntity
  8
0
 62
     3
100
AcDbLine
 10
112.0585580510999
 20
177.4448089598999
 30
0.0
 11
112.0585580510999
 21
176.1217803955
 31
0.0
  0
ARC
  5
146
330
2
100
AcDbEntity
  8
0
 62
     3
100
AcDbCircle
 10
118.3585611028999
 20
177.8749847412
 30
0.0
 40
5.0
100
AcDbArc
 50
141.3178160408999
 51
218.6821666563
  0
LINE
  5
147
330
2
100
AcDbEntity
  8
0
 62
     3
100
AcDbLine
 10
116.3585611028999
 20
163.2236328125
 30
0.0
 11
118.3585611028999
 21
163.2236328125
 31
0.0
  0
LINE
  5
148
330
2
100
AcDbEntity
  8
0
 62
     3
100
AcDbLine
 10
119.8585611028999
 20
179.4999999999999
 30
0.0
 11
118.3585611028999
 21
179.4999999999999
 31
0.0
  0
LINE
  5
149
330
2
100
AcDbEntity
  8
0
 62
     3
100
AcDbLine
 10
118.3585611028999
 20
177.9360961914
 30
0.0
 11
116.3585611028999
 21
177.9360961914
 31
0.0
  0
LINE
  5
14A
330
2
100
AcDbEntity
  8
0
 62
     3
100
AcDbLine
 10
118.3585611028999
 20
173.7763519287
 30
0.0
 11
116.3585611028999
 21
173.7763519287
 31
0.0
  0
LINE
  5
14B
330
2
100
AcDbEntity
  8
0
 62
     3
100
AcDbLine
 10
117.7584304053999
 20
177.9360111934
 30
0.0
 11
117.5066603857999
 21
177.4999327356
 31
0.0
  0
LINE
  5
14C
330
2
100
AcDbEntity
  8
0
 62
     3
100
AcDbLine
 10
117.7584634467
 20
177.9360961914
 30
0.0
 11
117.7584634467
 21
173.7763519287
 31
0.0
  0
LINE
  5
14D
330
2
100
AcDbEntity
  8
0
 62
     3
100
AcDbLine
 10
117.5066476507999
 20
177.5
 30
0.0
 11
117.5066476507999
 21
173.7763519287
 31
0.0
  0
LINE
  5
14E
330
2
100
AcDbEntity
  8
0
 62
     3
100
AcDbLine
 10
117.5066781683
 20
177.3999938965
 30
0.0
 11
116.3585611028999
 21
177.3999938965
 31
0.0
  0
LINE
  5
14F
330
2
100
AcDbEntity
  8
0
 62
     3
100
AcDbLine
 10
122.9084854897999
 20
177.6998450630999
 30
0.0
 11
119.8584766049999
 21
179.4998505592
 31
0.0
  0
LINE
  5
150
330
2
100
AcDbEntity
  8
0
 62
     3
100
AcDbLine
 10
122.2106271428999
 20
219.311706543
 30
0.0
 11
124.2105966253999
 21
219.311706543
 31
0.0
  0
ARC
  5
151
330
2
100
AcDbEntity
  8
0
 62
     3
100
AcDbCircle
 10
123.2106881780999
 20
216.4451293945
 30
0.0
 40
0.1999995708
100
AcDbArc
 50
180.0001452552
 51
0.0
  0
ARC
  5
152
330
2
100
AcDbEntity
  8
0
 62
     3
100
AcDbCircle
 10
123.2106881780999
 20
218.4450988769
 30
0.0
 40
0.1999995708
100
AcDbArc
 50
0.0
 51
179.9998001033
  0
LINE
  5
153
330
2
100
AcDbEntity
  8
0
 62
     3
100
AcDbLine
 10
122.2106271428999
 20
215.5783691406
 30
0.0
 11
124.2105966253999
 21
215.5783691406
 31
0.0
  0
LINE
  5
154
330
2
100
AcDbEntity
  8
0
 62
     3
100
AcDbLine
 10
115.0429330510999
 20
211.078338623
 30
0.0
 11
129.8789621038999
 21
211.078338623
 31
0.0
  0
LINE
  5
155
330
2
100
AcDbEntity
  8
0
 62
     3
100
AcDbLine
 10
115.0429330510999
 20
226.078338623
 30
0.0
 11
129.8789621038999
 21
226.078338623
 31
0.0
  0
LINE
  5
156
330
2
100
AcDbEntity
  8
0
 62
     3
100
AcDbLine
 10
115.0429330510999
 20
227.078338623
 30
0.0
 11
129.8789621038999
 21
227.078338623
 31
0.0
  0
LINE
  5
157
330
2
100
AcDbEntity
  8
0
 62
     3
100
AcDbLine
 10
115.0429330510999
 20
210.078338623
 30
0.0
 11
129.8789621038999
 21
210.078338623
 31
0.0
  0
LINE
  5
158
330
2
100
AcDbEntity
  8
0
 62
     3
100
AcDbLine
 10
115.8106485051999
 20
219.311706543
 30
0.0
 11
117.0106301946999
 21
219.311706543
 31
0.0
  0
LINE
  5
159
330
2
100
AcDbEntity
  8
0
 62
     3
100
AcDbLine
 10
115.8106485051999
 20
215.5783691406
 30
0.0
 11
118.0772958441
 21
215.5783691406
 31
0.0
  0
ARC
  5
15A
330
2
100
AcDbEntity
  8
0
 62
     3
100
AcDbCircle
 10
115.8106942816
 20
218.9117584228
 30
0.0
 40
0.3999996781
100
AcDbArc
 50
89.99987273089997
 51
179.9998001033
  0
LINE
  5
15B
330
2
100
AcDbEntity
  8
0
 62
     3
100
AcDbLine
 10
115.0106301946999
 20
219.311706543
 30
0.0
 11
115.0106301946999
 21
215.7117156982
 31
0.0
  0
LINE
  5
15C
330
2
100
AcDbEntity
  8
0
 62
     3
100
AcDbLine
 10
113.6773172063999
 20
219.311706543
 30
0.0
 11
113.6773172063999
 21
215.7117156982
 31
0.0
  0
LINE
  5
15D
330
2
100
AcDbEntity
  8
0
 62
     3
100
AcDbLine
 10
110.1439614934997
 20
215.078338623
 30
0.0
 11
110.1439614934997
 21
222.078338623
 31
0.0
  0
ARC
  5
15E
330
2
100
AcDbEntity
  8
0
 62
     3
100
AcDbCircle
 10
110.1439614934997
 20
210.5783691405998
 30
0.0
 40
3.5
100
AcDbArc
 50
11.5370262063
 51
89.99998201389999
  0
ARC
  5
15F
330
2
100
AcDbEntity
  8
0
 62
     3
100
AcDbCircle
 10
110.1439614934997
 20
210.5783691405998
 30
0.0
 40
4.5
100
AcDbArc
 50
11.5370262063
 51
89.99998201389999
  0
ARC
  5
160
330
2
100
AcDbEntity
  8
0
 62
     3
100
AcDbCircle
 10
115.0429483098997
 20
211.5783691405999
 30
0.0
 40
1.5
100
AcDbArc
 50
191.5369904615
 51
269.9999633446
  0
ARC
  5
161
330
2
100
AcDbEntity
  8
0
 62
     3
100
AcDbCircle
 10
115.0429483098997
 20
211.5783691405999
 30
0.0
 40
0.5
100
AcDbArc
 50
191.5369904615
 51
269.9999633446
  0
LINE
  5
162
330
2
100
AcDbEntity
  8
0
 62
     3
100
AcDbLine
 10
113.8106485051999
 20
215.5783691406
 30
0.0
 11
114.8772836370999
 21
215.5783691406
 31
0.0
  0
ARC
  5
163
330
2
100
AcDbEntity
  8
0
 62
     3
100
AcDbCircle
 10
113.8106790227999
 20
215.7117919921999
 30
0.0
 40
0.1333329678
100
AcDbArc
 50
180.0001452552
 51
270.0001272691
  0
ARC
  5
164
330
2
100
AcDbEntity
  8
0
 62
     3
100
AcDbCircle
 10
115.8106942816
 20
215.9784545897998
 30
0.0
 40
0.3999996781
100
AcDbArc
 50
180.0001452552
 51
270.0001272691
  0
LINE
  5
165
330
2
100
AcDbEntity
  8
0
 62
     3
100
AcDbLine
 10
115.4106393499999
 20
218.9116973877
 30
0.0
 11
115.4106393499999
 21
215.9783782959
 31
0.0
  0
ARC
  5
166
330
2
100
AcDbEntity
  8
0
 62
     3
100
AcDbCircle
 10
114.8773294133997
 20
215.7117919921999
 30
0.0
 40
0.1333329678
100
AcDbArc
 50
270.0001272691
 51
0.0
  0
ARC
  5
167
330
2
100
AcDbEntity
  8
0
 62
     3
100
AcDbCircle
 10
110.1439614934997
 20
226.5783538817998
 30
0.0
 40
3.5
100
AcDbArc
 50
270.0000179861
 51
348.4629942841999
  0
ARC
  5
168
330
2
100
AcDbEntity
  8
0
 62
     3
100
AcDbCircle
 10
110.1439614934997
 20
226.5783538817998
 30
0.0
 40
4.5
100
AcDbArc
 50
270.0000179861
 51
348.4629942841999
  0
LINE
  5
169
330
2
100
AcDbEntity
  8
0
 62
     3
100
AcDbLine
 10
113.8106485051999
 20
221.5783538818
 30
0.0
 11
114.8772836370999
 21
221.5783538818
 31
0.0
  0
LINE
  5
16A
330
2
100
AcDbEntity
  8
0
 62
     3
100
AcDbLine
 10
113.6773172063999
 20
220.2116851805998
 30
0.0
 11
115.0106301946999
 21
220.2116851805998
 31
0.0
  0
LINE
  5
16B
330
2
100
AcDbEntity
  8
0
 62
     3
100
AcDbLine
 10
113.6773172063999
 20
219.311706543
 30
0.0
 11
115.0106301946999
 21
219.311706543
 31
0.0
  0
ARC
  5
16C
330
2
100
AcDbEntity
  8
0
 62
     3
100
AcDbCircle
 10
113.8106790227999
 20
221.4450836180998
 30
0.0
 40
0.1333329678
100
AcDbArc
 50
89.99987273089997
 51
179.9998001033
  0
LINE
  5
16D
330
2
100
AcDbEntity
  8
0
 62
     3
100
AcDbLine
 10
113.6773172063999
 20
221.4450073241999
 30
0.0
 11
113.6773172063999
 21
220.2116851805998
 31
0.0
  0
LINE
  5
16E
330
2
100
AcDbEntity
  8
0
 62
     3
100
AcDbLine
 10
115.0106301946999
 20
221.4450073241999
 30
0.0
 11
115.0106301946999
 21
220.2116851805998
 31
0.0
  0
ARC
  5
16F
330
2
100
AcDbEntity
  8
0
 62
     3
100
AcDbCircle
 10
114.8773294133997
 20
221.4450836180998
 30
0.0
 40
0.1333329678
100
AcDbArc
 50
0.0
 51
89.99981808940002
  0
ARC
  5
170
330
2
100
AcDbEntity
  8
0
 62
     3
100
AcDbCircle
 10
115.0429483098997
 20
225.5783538817999
 30
0.0
 40
1.5
100
AcDbArc
 50
90.00003665540001
 51
168.4630095385
  0
ARC
  5
171
330
2
100
AcDbEntity
  8
0
 62
     3
100
AcDbCircle
 10
115.0429483098997
 20
225.5783538817999
 30
0.0
 40
0.5
100
AcDbArc
 50
90.00003665540001
 51
168.4630095385
  0
ARC
  5
172
330
2
100
AcDbEntity
  8
0
 62
     3
100
AcDbCircle
 10
121.0106759710999
 20
218.9117584228
 30
0.0
 40
0.3999996781
100
AcDbArc
 50
0.0
 51
89.99981808940002
  0
ARC
  5
173
330
2
100
AcDbEntity
  8
0
 62
     3
100
AcDbCircle
 10
119.0106607122998
 20
218.9117584228
 30
0.0
 40
0.3999996781
100
AcDbArc
 50
89.99987273089997
 51
179.9998001033
  0
ARC
  5
174
330
2
100
AcDbEntity
  8
0
 62
     3
100
AcDbCircle
 10
122.2106881780999
 20
218.9117584228
 30
0.0
 40
0.3999996781
100
AcDbArc
 50
89.99987273089997
 51
179.9998001033
  0
LINE
  5
175
330
2
100
AcDbEntity
  8
0
 62
     3
100
AcDbLine
 10
118.2106271428999
 20
221.4450073241999
 30
0.0
 11
118.2106271428999
 21
215.7117156982
 31
0.0
  0
LINE
  5
176
330
2
100
AcDbEntity
  8
0
 62
     3
100
AcDbLine
 10
119.0106149358999
 20
215.5783691406
 30
0.0
 11
121.0106149358999
 21
215.5783691406
 31
0.0
  0
LINE
  5
177
330
2
100
AcDbEntity
  8
0
 62
     3
100
AcDbLine
 10
117.0106301946999
 20
218.445022583
 30
0.0
 11
117.0106301946999
 21
216.4450378418
 31
0.0
  0
LINE
  5
178
330
2
100
AcDbEntity
  8
0
 62
     3
100
AcDbLine
 10
116.6106362981998
 20
218.445022583
 30
0.0
 11
116.6106362981998
 21
216.4450378418
 31
0.0
  0
ARC
  5
179
330
2
100
AcDbEntity
  8
0
 62
     3
100
AcDbCircle
 10
116.8106942816
 20
216.4451293945
 30
0.0
 40
0.1999995708
100
AcDbArc
 50
180.0001452552
 51
0.0
  0
ARC
  5
17A
330
2
100
AcDbEntity
  8
0
 62
     3
100
AcDbCircle
 10
116.8106942816
 20
218.4450988769
 30
0.0
 40
0.1999995708
100
AcDbArc
 50
0.0
 51
179.9998001033
  0
ARC
  5
17B
330
2
100
AcDbEntity
  8
0
 62
     3
100
AcDbCircle
 10
119.0106607122998
 20
215.9784545897998
 30
0.0
 40
0.3999996781
100
AcDbArc
 50
180.0001452552
 51
270.0001272691
  0
LINE
  5
17C
330
2
100
AcDbEntity
  8
0
 62
     3
100
AcDbLine
 10
118.6106210393999
 20
218.9116973877
 30
0.0
 11
118.6106210393999
 21
215.9783782959
 31
0.0
  0
ARC
  5
17D
330
2
100
AcDbEntity
  8
0
 62
     3
100
AcDbCircle
 10
118.0773416204998
 20
215.7117919921999
 30
0.0
 40
0.1333329678
100
AcDbArc
 50
270.0001272691
 51
0.0
  0
ARC
  5
17E
330
2
100
AcDbEntity
  8
0
 62
     3
100
AcDbCircle
 10
121.0106759710999
 20
215.9784545897998
 30
0.0
 40
0.3999996781
100
AcDbArc
 50
270.0001272691
 51
0.0
  0
LINE
  5
17F
330
2
100
AcDbEntity
  8
0
 62
     3
100
AcDbLine
 10
120.2106271428999
 20
217.0450286864999
 30
0.0
 11
121.4106088323999
 21
217.0450286864999
 31
0.0
  0
LINE
  5
180
330
2
100
AcDbEntity
  8
0
 62
     3
100
AcDbLine
 10
119.8105874700999
 20
217.445022583
 30
0.0
 11
121.4106088323999
 21
217.445022583
 31
0.0
  0
ARC
  5
181
330
2
100
AcDbEntity
  8
0
 62
     3
100
AcDbCircle
 10
120.0106759710999
 20
218.4450988769
 30
0.0
 40
0.1999995708
100
AcDbArc
 50
0.0
 51
179.9998001033
  0
ARC
  5
182
330
2
100
AcDbEntity
  8
0
 62
     3
100
AcDbCircle
 10
120.0106759710999
 20
216.4451293945
 30
0.0
 40
0.1999995708
100
AcDbArc
 50
180.0001452552
 51
0.0
  0
LINE
  5
183
330
2
100
AcDbEntity
  8
0
 62
     3
100
AcDbLine
 10
119.8105874700999
 20
217.445022583
 30
0.0
 11
119.8105874700999
 21
216.4450378418
 31
0.0
  0
LINE
  5
184
330
2
100
AcDbEntity
  8
0
 62
     3
100
AcDbLine
 10
120.2106271428999
 20
217.0450286864999
 30
0.0
 11
120.2106271428999
 21
216.4450378418
 31
0.0
  0
LINE
  5
185
330
2
100
AcDbEntity
  8
0
 62
     3
100
AcDbLine
 10
119.8105874700999
 20
217.8450469971
 30
0.0
 11
120.2106271428999
 21
217.8450469971
 31
0.0
  0
LINE
  5
186
330
2
100
AcDbEntity
  8
0
 62
     3
100
AcDbLine
 10
120.2106271428999
 20
218.445022583
 30
0.0
 11
120.2106271428999
 21
217.8450469971
 31
0.0
  0
LINE
  5
187
330
2
100
AcDbEntity
  8
0
 62
     3
100
AcDbLine
 10
119.8105874700999
 20
218.445022583
 30
0.0
 11
119.8105874700999
 21
217.8450469971
 31
0.0
  0
LINE
  5
188
330
2
100
AcDbEntity
  8
0
 62
     3
100
AcDbLine
 10
123.0106149358999
 20
218.445022583
 30
0.0
 11
123.0106149358999
 21
216.4450378418
 31
0.0
  0
LINE
  5
189
330
2
100
AcDbEntity
  8
0
 62
     3
100
AcDbLine
 10
121.4106088323999
 20
217.0450286864999
 30
0.0
 11
121.4106088323999
 21
215.9783782959
 31
0.0
  0
LINE
  5
18A
330
2
100
AcDbEntity
  8
0
 62
     3
100
AcDbLine
 10
121.8106027288998
 20
218.9116973877
 30
0.0
 11
121.8106027288998
 21
215.9783782959
 31
0.0
  0
LINE
  5
18B
330
2
100
AcDbEntity
  8
0
 62
     3
100
AcDbLine
 10
121.4106088323999
 20
218.9116973877
 30
0.0
 11
121.4106088323999
 21
217.445022583
 31
0.0
  0
ARC
  5
18C
330
2
100
AcDbEntity
  8
0
 62
     3
100
AcDbCircle
 10
122.2106881780999
 20
215.9784545897998
 30
0.0
 40
0.3999996781
100
AcDbArc
 50
180.0001452552
 51
270.0001272691
  0
LINE
  5
18D
330
2
100
AcDbEntity
  8
0
 62
     3
100
AcDbLine
 10
119.0106149358999
 20
219.311706543
 30
0.0
 11
121.0106149358999
 21
219.311706543
 31
0.0
  0
LINE
  5
18E
330
2
100
AcDbEntity
  8
0
 62
     3
100
AcDbLine
 10
117.1439614934999
 20
221.5783538818
 30
0.0
 11
118.0772958441
 21
221.5783538818
 31
0.0
  0
ARC
  5
18F
330
2
100
AcDbEntity
  8
0
 62
     3
100
AcDbCircle
 10
117.1440225286999
 20
221.4450836180998
 30
0.0
 40
0.1333329678
100
AcDbArc
 50
89.99987273089997
 51
179.9998001033
  0
LINE
  5
190
330
2
100
AcDbEntity
  8
0
 62
     3
100
AcDbLine
 10
117.0106301946999
 20
221.4450073241999
 30
0.0
 11
117.0106301946999
 21
219.311706543
 31
0.0
  0
ARC
  5
191
330
2
100
AcDbEntity
  8
0
 62
     3
100
AcDbCircle
 10
118.0773416204998
 20
221.4450836180998
 30
0.0
 40
0.1333329678
100
AcDbArc
 50
0.0
 51
89.99981808940002
  0
ARC
  5
192
330
2
100
AcDbEntity
  8
0
 62
     3
100
AcDbCircle
 10
129.8790383977999
 20
225.0783538817998
 30
0.0
 40
2.0
100
AcDbArc
 50
13.4234151721
 51
90.000309863
  0
ARC
  5
193
330
2
100
AcDbEntity
  8
0
 62
     3
100
AcDbCircle
 10
129.8790383977999
 20
225.0783538817998
 30
0.0
 40
1.0
100
AcDbArc
 50
13.4234151721
 51
90.000309863
  0
ARC
  5
194
330
2
100
AcDbEntity
  8
0
 62
     3
100
AcDbCircle
 10
129.7439370794999
 20
217.0783691405998
 30
0.0
 40
0.5
100
AcDbArc
 50
270.0000179861
 51
0.0
  0
ARC
  5
195
330
2
100
AcDbEntity
  8
0
 62
     3
100
AcDbCircle
 10
128.4939523382997
 20
221.8283691406
 30
0.0
 40
1.75
100
AcDbArc
 50
0.0
 51
179.9999093863
  0
ARC
  5
196
330
2
100
AcDbEntity
  8
0
 62
     3
100
AcDbCircle
 10
129.8789926215
 20
212.0783691405999
 30
0.0
 40
2.0
100
AcDbArc
 50
270.0000179861
 51
346.5766053185
  0
ARC
  5
197
330
2
100
AcDbEntity
  8
0
 62
     3
100
AcDbCircle
 10
129.8789926215
 20
212.0783691405999
 30
0.0
 40
1.0
100
AcDbArc
 50
270.0000179861
 51
346.5766053185
  0
LINE
  5
198
330
2
100
AcDbEntity
  8
0
 62
     3
100
AcDbLine
 10
126.7439523382999
 20
217.0783538817999
 30
0.0
 11
126.7439523382999
 21
221.8283538817999
 31
0.0
  0
ARC
  5
199
330
2
100
AcDbEntity
  8
0
 62
     3
100
AcDbCircle
 10
124.2106576604999
 20
218.9117584228
 30
0.0
 40
0.3999996781
100
AcDbArc
 50
0.0
 51
89.99981808940002
  0
LINE
  5
19A
330
2
100
AcDbEntity
  8
0
 62
     3
100
AcDbLine
 10
124.6106057805999
 20
217.2450256346999
 30
0.0
 11
124.6106057805999
 21
215.9783782959
 31
0.0
  0
ARC
  5
19B
330
2
100
AcDbEntity
  8
0
 62
     3
100
AcDbCircle
 10
124.2106576604999
 20
215.9784545897998
 30
0.0
 40
0.3999996781
100
AcDbArc
 50
270.0001272691
 51
0.0
  0
LINE
  5
19C
330
2
100
AcDbEntity
  8
0
 62
     3
100
AcDbLine
 10
123.4106240911999
 20
217.2450256346999
 30
0.0
 11
123.4106240911999
 21
216.4450378418
 31
0.0
  0
LINE
  5
19D
330
2
100
AcDbEntity
  8
0
 62
     3
100
AcDbLine
 10
123.4106240911999
 20
218.445022583
 30
0.0
 11
123.4106240911999
 21
217.6450347899999
 31
0.0
  0
LINE
  5
19E
330
2
100
AcDbEntity
  8
0
 62
     3
100
AcDbLine
 10
123.4106240911999
 20
217.2450256346999
 30
0.0
 11
124.6106057805999
 21
217.2450256346999
 31
0.0
  0
LINE
  5
19F
330
2
100
AcDbEntity
  8
0
 62
     3
100
AcDbLine
 10
123.4106240911999
 20
217.6450347899999
 30
0.0
 11
124.6106057805999
 21
217.6450347899999
 31
0.0
  0
LINE
  5
1A0
330
2
100
AcDbEntity
  8
0
 62
     3
100
AcDbLine
 10
124.6106057805999
 20
218.9116973877
 30
0.0
 11
124.6106057805999
 21
217.6450347899999
 31
0.0
  0
LINE
  5
1A1
330
2
100
AcDbEntity
  8
0
 62
     3
100
AcDbLine
 10
129.7439523382997
 20
216.5783538818
 30
0.0
 11
127.2439523382999
 21
216.5783538818
 31
0.0
  0
ARC
  5
1A2
330
2
100
AcDbEntity
  8
0
 62
     3
100
AcDbCircle
 10
127.2439523382999
 20
217.0783691405998
 30
0.0
 40
0.5
100
AcDbArc
 50
180.0000359722
 51
270.0000179861
  0
LINE
  5
1A3
330
2
100
AcDbEntity
  8
0
 62
     3
100
AcDbLine
 10
130.2439523382997
 20
221.8283538817999
 30
0.0
 11
130.2439523382997
 21
217.0783538817999
 31
0.0
  0
ARC
  5
1A4
330
2
100
AcDbEntity
  8
0
 62
     3
100
AcDbCircle
 10
102.6439614934999
 20
218.5783691405999
 30
0.0
 40
30.0
100
AcDbArc
 50
346.5767863185
 51
13.42330588899997
  0
ARC
  5
1A5
330
2
100
AcDbEntity
  8
0
 62
     3
100
AcDbCircle
 10
102.6439614934999
 20
218.5783691405999
 30
0.0
 40
29.0
100
AcDbArc
 50
346.5767863185
 51
13.42330588899997
  0
TEXT
  5
1A6
330
2
100
AcDbEntity
  8
0
 62
     5
100
AcDbText
 10
145.0
 20
10.0
 30
0.0
 40
5.0
  1
ＭＡ４－Ｌ００００３Ｄ
 41
0.8443967743953097
 72
     5
 11
199.0413935612998
 21
10.0
 31
0.0
100
AcDbText
  0
LINE
  5
1A7
330
2
100
AcDbEntity
  8
0
 62
     3
100
AcDbLine
 10
166.7001293802998
 20
178.8257684821
 30
0.0
 11
162.9083447756999
 21
180.9999567766999
 31
0.0
  0
LINE
  5
1A8
330
2
100
AcDbEntity
  8
0
 62
     3
100
AcDbLine
 10
164.7246268100999
 20
165.2694579487
 30
0.0
 11
166.1388403482999
 21
166.6836714869
 31
0.0
  0
LINE
  5
1A9
330
2
100
AcDbEntity
  8
0
 62
     3
100
AcDbLine
 10
162.9083473318999
 20
155.9999636500999
 30
0.0
 11
166.7001319365999
 21
158.1741519446999
 31
0.0
  0
LINE
  5
1AA
330
2
100
AcDbEntity
  8
0
 62
     3
100
AcDbLine
 10
164.5832076141998
 20
166.5422307118
 30
0.0
 11
165.4317443687999
 21
167.3907674664
 31
0.0
  0
LINE
  5
1AB
330
2
100
AcDbEntity
  8
0
  6
CENTER
 62
     3
100
AcDbLine
 10
157.6188705776999
 20
173.7894277192999
 30
0.0
 11
166.6264652159
 21
164.7818330810999
 31
0.0
  0
LINE
  5
1AC
330
2
100
AcDbEntity
  8
0
 62
     3
100
AcDbLine
 10
159.4920626138998
 20
173.3304492212
 30
0.0
 11
166.1388403482999
 21
166.6836714869
 31
0.0
  0
CIRCLE
  5
1AD
330
2
100
AcDbEntity
  8
0
 62
     3
100
AcDbCircle
 10
162.9083657903999
 20
168.5
 30
0.0
 40
9.199999809299999
  0
ARC
  5
1AE
330
2
100
AcDbEntity
  8
0
 62
     3
100
AcDbCircle
 10
162.9083657903999
 20
168.5
 30
0.0
 40
11.0
100
AcDbArc
 50
0.0
 51
358.5287053083998
  0
LINE
  5
1AF
330
2
100
AcDbEntity
  8
0
  6
CENTER
 62
     3
100
AcDbLine
 10
148.9083657903999
 20
168.5
 30
0.0
 11
176.9083657903999
 21
168.5
 31
0.0
  0
LINE
  5
1B0
330
2
100
AcDbEntity
  8
0
  6
CENTER
 62
     3
100
AcDbLine
 10
162.9083657903999
 20
183.9999670397999
 30
0.0
 11
162.9083657903999
 21
152.9999742341
 31
0.0
  0
LINE
  5
1B1
330
2
100
AcDbEntity
  8
0
 62
     3
100
AcDbLine
 10
152.0083580939999
 20
162.2499559736
 30
0.0
 11
155.9121551590999
 21
160.0115403544999
 31
0.0
  0
LINE
  5
1B2
330
2
100
AcDbEntity
  8
0
 62
     3
100
AcDbLine
 10
159.1165692945999
 20
158.1741470342
 30
0.0
 11
162.9083406620999
 21
155.9999663296999
 31
0.0
  0
LINE
  5
1B3
330
2
100
AcDbEntity
  8
0
 62
     3
100
AcDbLine
 10
152.0083566350999
 20
174.75
 30
0.0
 11
152.0083566350999
 21
169.9798583984
 31
0.0
  0
LINE
  5
1B4
330
2
100
AcDbEntity
  8
0
 62
     3
100
AcDbLine
 10
152.0083566350999
 20
167.0201263428
 30
0.0
 11
152.0083566350999
 21
162.25
 31
0.0
  0
LINE
  5
1B5
330
2
100
AcDbEntity
  8
0
 62
     3
100
AcDbLine
 10
155.9121577153999
 20
176.9883800723
 30
0.0
 11
152.0083474130998
 21
174.7499568631
 31
0.0
  0
LINE
  5
1B6
330
2
100
AcDbEntity
  8
0
 62
     3
100
AcDbLine
 10
159.4920626138998
 20
173.3304492212
 30
0.0
 11
158.0778490756999
 21
171.9162356831
 31
0.0
  0
LINE
  5
1B7
330
2
100
AcDbEntity
  8
0
 62
     3
100
AcDbLine
 10
161.0123378515999
 20
170.6787988371999
 30
0.0
 11
161.5780254247999
 21
171.2444864104
 31
0.0
  0
LINE
  5
1B8
330
2
100
AcDbEntity
  8
0
 62
     3
100
AcDbLine
 10
158.0778490756999
 20
171.9162356831
 30
0.0
 11
164.7246268100999
 21
165.2694579487
 31
0.0
  0
LINE
  5
1B9
330
2
100
AcDbEntity
  8
0
 62
     3
100
AcDbLine
 10
159.6334818098
 20
172.0576548789999
 30
0.0
 11
161.0123378515999
 21
170.6787988371999
 31
0.0
  0
LINE
  5
1BA
330
2
100
AcDbEntity
  8
0
 62
     3
100
AcDbLine
 10
158.7849558447999
 20
171.209128914
 30
0.0
 11
159.6334818098
 21
172.0576548789999
 31
0.0
  0
LINE
  5
1BB
330
2
100
AcDbEntity
  8
0
 62
     3
100
AcDbLine
 10
162.6386855784
 20
167.3553991804
 30
0.0
 11
163.2043623619999
 21
167.921075964
 31
0.0
  0
LINE
  5
1BC
330
2
100
AcDbEntity
  8
0
 62
     3
100
AcDbLine
 10
163.2043623619999
 20
167.921075964
 30
0.0
 11
164.5832076141998
 21
166.5422307118
 31
0.0
  0
LINE
  5
1BD
330
2
100
AcDbEntity
  8
0
 62
     3
100
AcDbLine
 10
162.9083432183998
 20
180.9999540971
 30
0.0
 11
159.1165586136999
 21
178.8257658025
 31
0.0
  0
LINE
  5
1BE
330
2
100
AcDbEntity
  8
0
 62
     3
100
AcDbLine
 10
169.9045328348999
 20
160.0115376749
 30
0.0
 11
173.8083431371999
 21
162.2499608841
 31
0.0
  0
LINE
  5
1BF
330
2
100
AcDbEntity
  8
0
 62
     3
100
AcDbLine
 10
173.8083273437998
 20
174.7499671327999
 30
0.0
 11
169.9045435158
 21
176.9883751618
 31
0.0
  0
LINE
  5
1C0
330
2
100
AcDbEntity
  8
0
 62
     3
100
AcDbLine
 10
173.8083596869
 20
169.9798583984
 30
0.0
 11
173.8083596869
 21
174.75
 31
0.0
  0
LINE
  5
1C1
330
2
100
AcDbEntity
  8
0
 62
     3
100
AcDbLine
 10
173.8083596869
 20
162.25
 30
0.0
 11
173.8083596869
 21
167.0201263428
 31
0.0
  0
LINE
  5
1C5
330
2
100
AcDbEntity
  8
0
100
AcDbLine
 10
210.0
 20
297.0
 30
0.0
 11
0.0
 21
297.0
 31
0.0
  0
TEXT
  5
1F0
330
2
100
AcDbEntity
  8
0
 62
     7
100
AcDbText
 10
108.0
 20
100.0000029552499
 30
0.0
 40
2.999994089499998
  1
KG2C-21*
 11
108.0
 21
101.4999999999999
 31
0.0
100
AcDbText
 73
     2
  0
TEXT
  5
1F1
330
2
100
AcDbEntity
  8
0
 62
     7
100
AcDbText
 10
108.0
 20
105.0000029552499
 30
0.0
 40
2.999994089499998
  1
KG2C-20*
 11
108.0
 21
106.4999999999999
 31
0.0
100
AcDbText
 73
     2
  0
TEXT
  5
1F2
330
2
100
AcDbEntity
  8
0
 62
     7
100
AcDbText
 10
108.0
 20
110.0000029552499
 30
0.0
 40
2.999994089499998
  1
KG2C-11*
 11
108.0
 21
111.4999999999999
 31
0.0
100
AcDbText
 73
     2
  0
TEXT
  5
1F3
330
2
100
AcDbEntity
  8
0
 62
     7
100
AcDbText
 10
108.0
 20
115.00000295525
 30
0.0
 40
2.999994089499998
  1
KG2C-10*
 11
108.0
 21
116.5
 31
0.0
100
AcDbText
 73
     2
  0
TEXT
  5
1F4
330
2
100
AcDbEntity
  8
0
 62
     7
100
AcDbText
 10
146.0
 20
110.0000029552499
 30
0.0
 40
2.999994089499998
  1
KG3C-21*
 11
146.0
 21
111.4999999999999
 31
0.0
100
AcDbText
 73
     2
  0
TEXT
  5
1F5
330
2
100
AcDbEntity
  8
0
 62
     7
100
AcDbText
 10
146.0
 20
115.0000029552499
 30
0.0
 40
2.999994089499998
  1
KG3C-20*
 11
146.0
 21
116.4999999999999
 31
0.0
100
AcDbText
 73
     2
  0
ENDSEC
  0
SECTION
  2
OBJECTS
  0
DICTIONARY
  5
7
330
0
100
AcDbDictionary
281
     1
  3
ACAD_COLOR
350
200
  3
ACAD_GROUP
350
1F
  3
ACAD_LAYOUT
350
B
  3
ACAD_MATERIAL
350
1FF
  3
ACAD_MLINESTYLE
350
20
  3
ACAD_PLOTSETTINGS
350
21
  3
ACAD_PLOTSTYLENAME
350
6
  3
ACAD_TABLESTYLE
350
201
  3
ACDBHEADERROUNDTRIPXREC
350
207
  3
AcDbVariableDictionary
350
1F8
  0
DICTIONARY
  5
200
102
{ACAD_REACTORS
330
7
102
}
330
7
100
AcDbDictionary
281
     1
  0
DICTIONARY
  5
1F
102
{ACAD_REACTORS
330
7
102
}
330
7
100
AcDbDictionary
281
     1
  0
DICTIONARY
  5
B
102
{ACAD_REACTORS
330
7
102
}
330
7
100
AcDbDictionary
281
     1
  3
Model
350
A
  3
ﾚｲｱｳﾄ1
350
F
  0
DICTIONARY
  5
1FF
102
{ACAD_REACTORS
330
7
102
}
330
7
100
AcDbDictionary
281
     1
  0
DICTIONARY
  5
20
102
{ACAD_REACTORS
330
7
102
}
330
7
100
AcDbDictionary
281
     1
  3
Standard
350
22
  0
DICTIONARY
  5
21
102
{ACAD_REACTORS
330
7
102
}
330
7
100
AcDbDictionary
281
     1
  0
ACDBDICTIONARYWDFLT
  5
6
102
{ACAD_REACTORS
330
7
102
}
330
7
100
AcDbDictionary
281
     1
  3
Normal
350
5
100
AcDbDictionaryWithDefault
340
5
  0
DICTIONARY
  5
201
102
{ACAD_REACTORS
330
7
102
}
330
7
100
AcDbDictionary
281
     1
  3
Standard
350
202
  0
DICTIONARY
  5
207
102
{ACAD_REACTORS
330
7
102
}
330
7
100
AcDbDictionary
281
     1
  0
DICTIONARY
  5
1F8
102
{ACAD_REACTORS
330
7
102
}
330
7
100
AcDbDictionary
281
     1
  3
CTABLESTYLE
350
204
  3
DIMASSOC
350
1F9
  3
PROJECTNAME
350
205
  0
LAYOUT
  5
A
102
{ACAD_XDICTIONARY
360
208
102
}
102
{ACAD_REACTORS
330
B
102
}
330
B
100
AcDbPlotSettings
  1

  2
C:\Program Files\AutoCAD 2000i\plotters\DWF Classic.pc3
  4

  6

 40
0.0
 41
0.0
 42
0.0
 43
0.0
 44
0.0
 45
0.0
 46
0.0
 47
0.0
 48
0.0
 49
0.0
140
0.0
141
0.0
142
1.0
143
1.0
 70
  1712
 72
     0
 73
     0
 74
     0
  7

 75
     0
147
1.0
148
0.0
149
0.0
100
AcDbLayout
  1
Model
 70
     1
 71
     0
 10
0.0
 20
0.0
 11
12.0
 21
9.0
 12
0.0
 22
0.0
 32
0.0
 14
0.0
 24
0.0
 34
0.0
 15
0.0
 25
0.0
 35
0.0
146
0.0
 13
0.0
 23
0.0
 33
0.0
 16
1.0
 26
0.0
 36
0.0
 17
0.0
 27
1.0
 37
0.0
 76
     0
330
2
  0
LAYOUT
  5
F
102
{ACAD_XDICTIONARY
360
20A
102
}
102
{ACAD_REACTORS
330
B
102
}
330
B
100
AcDbPlotSettings
  1

  2
C:\Program Files\AutoCAD 2000i\plotters\DWF Classic.pc3
  4

  6

 40
0.0
 41
0.0
 42
0.0
 43
0.0
 44
0.0
 45
0.0
 46
0.0
 47
0.0
 48
0.0
 49
0.0
140
0.0
141
0.0
142
1.0
143
1.0
 70
   688
 72
     0
 73
     0
 74
     5
  7

 75
    16
147
1.0
148
0.0
149
0.0
100
AcDbLayout
  1
ﾚｲｱｳﾄ1
 70
     1
 71
     1
 10
0.0
 20
0.0
 11
12.0
 21
9.0
 12
0.0
 22
0.0
 32
0.0
 14
1.000000000000000E+20
 24
1.000000000000000E+20
 34
1.000000000000000E+20
 15
-1.000000000000000E+20
 25
-1.000000000000000E+20
 35
-1.000000000000000E+20
146
0.0
 13
0.0
 23
0.0
 33
0.0
 16
1.0
 26
0.0
 36
0.0
 17
0.0
 27
1.0
 37
0.0
 76
     0
330
C
  0
MLINESTYLE
  5
22
102
{ACAD_REACTORS
330
20
102
}
330
20
100
AcDbMlineStyle
  2
STANDARD
 70
     0
  3

 62
   256
 51
90.0
 52
90.0
 71
     2
 49
0.5
 62
   256
  6
BYLAYER
 49
-0.5
 62
   256
  6
BYLAYER
  0
ACDBPLACEHOLDER
  5
5
102
{ACAD_REACTORS
330
6
102
}
330
6
  0
TABLESTYLE
  5
202
102
{ACAD_REACTORS
330
201
102
}
330
201
100
AcDbTableStyle
  3
Standard
 70
     0
 71
     0
 40
0.06
 41
0.06
280
     0
281
     0
  7
STANDARD
140
0.18
170
     2
 62
     0
 63
     7
283
     0
274
    -2
284
     1
 64
     0
275
    -2
285
     1
 65
     0
276
    -2
286
     1
 66
     0
277
    -2
287
     1
 67
     0
278
    -2
288
     1
 68
     0
279
    -2
289
     1
 69
     0
  7
STANDARD
140
0.25
170
     5
 62
     0
 63
     7
283
     0
274
    -2
284
     1
 64
     0
275
    -2
285
     1
 65
     0
276
    -2
286
     1
 66
     0
277
    -2
287
     1
 67
     0
278
    -2
288
     1
 68
     0
279
    -2
289
     1
 69
     0
  7
STANDARD
140
0.18
170
     5
 62
     0
 63
     7
283
     0
274
    -2
284
     1
 64
     0
275
    -2
285
     1
 65
     0
276
    -2
286
     1
 66
     0
277
    -2
287
     1
 67
     0
278
    -2
288
     1
 68
     0
279
    -2
289
     1
 69
     0
  0
DICTIONARYVAR
  5
204
102
{ACAD_REACTORS
330
1F8
102
}
330
1F8
100
DictionaryVariables
280
     0
  1
STANDARD
  0
DICTIONARYVAR
  5
1F9
102
{ACAD_REACTORS
330
1F8
102
}
330
1F8
100
DictionaryVariables
280
     0
  1
1
  0
DICTIONARYVAR
  5
205
102
{ACAD_REACTORS
330
1F8
102
}
330
1F8
100
DictionaryVariables
280
     0
  1

  0
DICTIONARY
  5
208
330
A
100
AcDbDictionary
280
     1
281
     1
  3
ACAD_XREC_ROUNDTRIP
360
209
  0
DICTIONARY
  5
20A
330
F
100
AcDbDictionary
280
     1
281
     1
  3
ACAD_XREC_ROUNDTRIP
360
20B
  0
XRECORD
  5
209
102
{ACAD_REACTORS
330
208
102
}
330
208
100
AcDbXrecord
280
     1
102
SHADEPLOT
 70
     0
102
SHADEPLOTRESLEVEL
 70
     2
102
SHADEPLOTCUSTOMDPI
 70
   300
  0
XRECORD
  5
20B
102
{ACAD_REACTORS
330
20A
102
}
330
20A
100
AcDbXrecord
280
     1
102
SHADEPLOT
 70
     0
102
SHADEPLOTRESLEVEL
 70
     2
102
SHADEPLOTCUSTOMDPI
 70
   300
  0
ENDSEC
  0
EOF
