  0
SECTION
  2
HEADER
  9
$ACADVER
  1
AC1015
  9
$ACADMAINTVER
 70
    13
  9
$DWGCODEPAGE
  3
ANSI_932
  9
$INSBASE
 10
0.0
 20
0.0
 30
0.0
  9
$EXTMIN
 10
-0.0321289738001269
 20
-0.0051204279195645
 30
-0.0000000000000058
  9
$EXTMAX
 10
210.0365386013574
 20
297.0113612228995
 30
0.0000000000000104
  9
$LIMMIN
 10
-287.253704834
 20
-13.8953025818
  9
$LIMMAX
 10
3.174999999999998
 20
294.8630493163999
  9
$ORTHOMODE
 70
     0
  9
$REGENMODE
 70
     1
  9
$FILLMODE
 70
     1
  9
$QTEXTMODE
 70
     0
  9
$MIRRTEXT
 70
     0
  9
$LTSCALE
 40
1.0
  9
$ATTMODE
 70
     1
  9
$TEXTSIZE
 40
2.999994039499997
  9
$TRACEWID
 40
0.05
  9
$TEXTSTYLE
  7
STANDARD
  9
$CLAYER
  8
0
  9
$CELTYPE
  6
ByLayer
  9
$CECOLOR
 62
   256
  9
$CELTSCALE
 40
1.0
  9
$DISPSILH
 70
     0
  9
$DIMSCALE
 40
1.0
  9
$DIMASZ
 40
1.9727878465
  9
$DIMEXO
 40
2.539999961899999
  9
$DIMDLI
 40
0.38
  9
$DIMRND
 40
0.0
  9
$DIMDLE
 40
0.0
  9
$DIMEXE
 40
3.809999942799997
  9
$DIMTP
 40
0.0
  9
$DIMTM
 40
0.0
  9
$DIMTXT
 40
2.999994039499997
  9
$DIMCEN
 40
0.09
  9
$DIMTSZ
 40
0.0
  9
$DIMTOL
 70
     0
  9
$DIMLIM
 70
     0
  9
$DIMTIH
 70
     0
  9
$DIMTOH
 70
     1
  9
$DIMSE1
 70
     0
  9
$DIMSE2
 70
     0
  9
$DIMTAD
 70
     0
  9
$DIMZIN
 70
     0
  9
$DIMBLK
  1

  9
$DIMASO
 70
     1
  9
$DIMSHO
 70
     0
  9
$DIMPOST
  1

  9
$DIMAPOST
  1

  9
$DIMALT
 70
     0
  9
$DIMALTD
 70
     2
  9
$DIMALTF
 40
25.4
  9
$DIMLFAC
 40
1.0
  9
$DIMTOFL
 70
     0
  9
$DIMTVP
 40
0.0
  9
$DIMTIX
 70
     0
  9
$DIMSOXD
 70
     0
  9
$DIMSAH
 70
     0
  9
$DIMBLK1
  1

  9
$DIMBLK2
  1

  9
$DIMSTYLE
  2
Standard
  9
$DIMCLRD
 70
     0
  9
$DIMCLRE
 70
     0
  9
$DIMCLRT
 70
     0
  9
$DIMTFAC
 40
1.0
  9
$DIMGAP
 40
0.09
  9
$DIMJUST
 70
     0
  9
$DIMSD1
 70
     0
  9
$DIMSD2
 70
     0
  9
$DIMTOLJ
 70
     1
  9
$DIMTZIN
 70
     0
  9
$DIMALTZ
 70
     0
  9
$DIMALTTZ
 70
     0
  9
$DIMUPT
 70
     0
  9
$DIMDEC
 70
     4
  9
$DIMTDEC
 70
     4
  9
$DIMALTU
 70
     2
  9
$DIMALTTD
 70
     2
  9
$DIMTXSTY
  7
STANDARD
  9
$DIMAUNIT
 70
     0
  9
$DIMADEC
 70
     0
  9
$DIMALTRND
 40
0.0
  9
$DIMAZIN
 70
     0
  9
$DIMDSEP
 70
    46
  9
$DIMATFIT
 70
     3
  9
$DIMFRAC
 70
     0
  9
$DIMLDRBLK
  1

  9
$DIMLUNIT
 70
     2
  9
$DIMLWD
 70
    -2
  9
$DIMLWE
 70
    -2
  9
$DIMTMOVE
 70
     0
  9
$LUNITS
 70
     2
  9
$LUPREC
 70
     3
  9
$SKETCHINC
 40
0.1
  9
$FILLETRAD
 40
0.0625
  9
$AUNITS
 70
     0
  9
$AUPREC
 70
     0
  9
$MENU
  1
ACAD
  9
$ELEVATION
 40
0.0
  9
$PELEVATION
 40
0.0
  9
$THICKNESS
 40
0.0
  9
$LIMCHECK
 70
     0
  9
$CHAMFERA
 40
0.0
  9
$CHAMFERB
 40
0.0
  9
$CHAMFERC
 40
0.0
  9
$CHAMFERD
 40
0.0
  9
$SKPOLY
 70
     0
  9
$TDCREATE
 40
2452723.527152777
  9
$TDUCREATE
 40
2452723.152152777
  9
$TDUPDATE
 40
2453353.761446030
  9
$TDUUPDATE
 40
2453353.386446030
  9
$TDINDWG
 40
0.0031579051
  9
$TDUSRTIMER
 40
0.0031553704
  9
$USRTIMER
 70
     1
  9
$ANGBASE
 50
0.0
  9
$ANGDIR
 70
     0
  9
$PDMODE
 70
     0
  9
$PDSIZE
 40
0.0
  9
$PLINEWID
 40
0.0
  9
$SPLFRAME
 70
     0
  9
$SPLINETYPE
 70
     6
  9
$SPLINESEGS
 70
     8
  9
$HANDSEED
  5
2F4
  9
$SURFTAB1
 70
     6
  9
$SURFTAB2
 70
     6
  9
$SURFTYPE
 70
     6
  9
$SURFU
 70
     6
  9
$SURFV
 70
     6
  9
$UCSBASE
  2

  9
$UCSNAME
  2

  9
$UCSORG
 10
0.0
 20
0.0
 30
0.0
  9
$UCSXDIR
 10
1.0
 20
0.0
 30
0.0
  9
$UCSYDIR
 10
0.0
 20
1.0
 30
0.0
  9
$UCSORTHOREF
  2

  9
$UCSORTHOVIEW
 70
     0
  9
$UCSORGTOP
 10
0.0
 20
0.0
 30
0.0
  9
$UCSORGBOTTOM
 10
0.0
 20
0.0
 30
0.0
  9
$UCSORGLEFT
 10
0.0
 20
0.0
 30
0.0
  9
$UCSORGRIGHT
 10
0.0
 20
0.0
 30
0.0
  9
$UCSORGFRONT
 10
0.0
 20
0.0
 30
0.0
  9
$UCSORGBACK
 10
0.0
 20
0.0
 30
0.0
  9
$PUCSBASE
  2

  9
$PUCSNAME
  2

  9
$PUCSORG
 10
0.0
 20
0.0
 30
0.0
  9
$PUCSXDIR
 10
1.0
 20
0.0
 30
0.0
  9
$PUCSYDIR
 10
0.0
 20
1.0
 30
0.0
  9
$PUCSORTHOREF
  2

  9
$PUCSORTHOVIEW
 70
     0
  9
$PUCSORGTOP
 10
0.0
 20
0.0
 30
0.0
  9
$PUCSORGBOTTOM
 10
0.0
 20
0.0
 30
0.0
  9
$PUCSORGLEFT
 10
0.0
 20
0.0
 30
0.0
  9
$PUCSORGRIGHT
 10
0.0
 20
0.0
 30
0.0
  9
$PUCSORGFRONT
 10
0.0
 20
0.0
 30
0.0
  9
$PUCSORGBACK
 10
0.0
 20
0.0
 30
0.0
  9
$USERI1
 70
     8
  9
$USERI2
 70
     0
  9
$USERI3
 70
     0
  9
$USERI4
 70
     0
  9
$USERI5
 70
     0
  9
$USERR1
 40
0.0
  9
$USERR2
 40
0.0
  9
$USERR3
 40
0.0
  9
$USERR4
 40
0.0
  9
$USERR5
 40
0.0
  9
$WORLDVIEW
 70
     1
  9
$SHADEDGE
 70
     3
  9
$SHADEDIF
 70
    70
  9
$TILEMODE
 70
     1
  9
$MAXACTVP
 70
    64
  9
$PINSBASE
 10
0.0
 20
0.0
 30
0.0
  9
$PLIMCHECK
 70
     0
  9
$PEXTMIN
 10
1.000000000000000E+20
 20
1.000000000000000E+20
 30
1.000000000000000E+20
  9
$PEXTMAX
 10
-1.000000000000000E+20
 20
-1.000000000000000E+20
 30
-1.000000000000000E+20
  9
$PLIMMIN
 10
0.0
 20
0.0
  9
$PLIMMAX
 10
12.0
 20
9.0
  9
$UNITMODE
 70
     0
  9
$VISRETAIN
 70
     1
  9
$PLINEGEN
 70
     0
  9
$PSLTSCALE
 70
     1
  9
$TREEDEPTH
 70
  3020
  9
$CMLSTYLE
  2
Standard
  9
$CMLJUST
 70
     0
  9
$CMLSCALE
 40
1.0
  9
$PROXYGRAPHICS
 70
     1
  9
$MEASUREMENT
 70
     0
  9
$CELWEIGHT
370
    -1
  9
$ENDCAPS
280
     0
  9
$JOINSTYLE
280
     0
  9
$LWDISPLAY
290
     0
  9
$INSUNITS
 70
     0
  9
$HYPERLINKBASE
  1

  9
$STYLESHEET
  1

  9
$XEDIT
290
     1
  9
$CEPSNTYPE
380
     0
  9
$PSTYLEMODE
290
     1
  9
$FINGERPRINTGUID
  2
{05192BE2-4583-4966-8390-0677576561EA}
  9
$VERSIONGUID
  2
{6BBCE55C-F835-435F-89C2-2FB0706C7554}
  9
$EXTNAMES
290
     1
  9
$PSVPSCALE
 40
0.0
  9
$OLESTARTUP
290
     0
  0
ENDSEC
  0
SECTION
  2
CLASSES
  0
CLASS
  1
ACDBDICTIONARYWDFLT
  2
AcDbDictionaryWithDefault
  3
AutoCAD 2000
 90
        0
280
     0
281
     0
  0
CLASS
  1
ACDBPLACEHOLDER
  2
AcDbPlaceHolder
  3
AutoCAD 2000
 90
        0
280
     0
281
     0
  0
CLASS
  1
LAYOUT
  2
AcDbLayout
  3
AutoCAD 2000
 90
        0
280
     0
281
     0
  0
CLASS
  1
DICTIONARYVAR
  2
AcDbDictionaryVar
  3
AutoCAD 2000
 90
        0
280
     0
281
     0
  0
ENDSEC
  0
SECTION
  2
TABLES
  0
TABLE
  2
VPORT
  5
8
330
0
100
AcDbSymbolTable
 70
     2
  0
VPORT
  5
2F3
330
8
100
AcDbSymbolTableRecord
100
AcDbViewportTableRecord
  2
*Active
 70
     0
 10
0.0
 20
0.0
 11
1.0
 21
1.0
 12
105.0022048137787
 22
148.5031203974899
 13
0.0
 23
0.0
 14
1.0
 24
1.0
 15
0.0
 25
0.0
 16
0.0
 26
0.0
 36
1.0
 17
0.0
 27
0.0
 37
0.0
 40
301.0122190721304
 41
2.253932584269663
 42
50.0
 43
0.0
 44
0.0
 50
0.0
 51
0.0
 71
     0
 72
   100
 73
     1
 74
     1
 75
     0
 76
     0
 77
     0
 78
     0
281
     0
 65
     1
110
0.0
120
0.0
130
0.0
111
1.0
121
0.0
131
0.0
112
0.0
122
1.0
132
0.0
 79
     0
146
0.0
  0
ENDTAB
  0
TABLE
  2
LTYPE
  5
5
330
0
100
AcDbSymbolTable
 70
     3
  0
LTYPE
  5
13
330
5
100
AcDbSymbolTableRecord
100
AcDbLinetypeTableRecord
  2
ByBlock
 70
     0
  3

 72
    65
 73
     0
 40
0.0
  0
LTYPE
  5
14
330
5
100
AcDbSymbolTableRecord
100
AcDbLinetypeTableRecord
  2
ByLayer
 70
     0
  3

 72
    65
 73
     0
 40
0.0
  0
LTYPE
  5
15
330
5
100
AcDbSymbolTableRecord
100
AcDbLinetypeTableRecord
  2
Continuous
 70
     0
  3
Solid line
 72
    65
 73
     0
 40
0.0
  0
LTYPE
  5
24
330
5
100
AcDbSymbolTableRecord
100
AcDbLinetypeTableRecord
  2
DASH
 70
     0
  3
Dash
 72
    65
 73
     2
 40
1.9999960661
 49
0.9999980329999999
 74
     0
 49
-0.9999980329999999
 74
     0
  0
LTYPE
  5
25
330
5
100
AcDbSymbolTableRecord
100
AcDbLinetypeTableRecord
  2
CENTER
 70
     0
  3
Center
 72
    65
 73
     4
 40
9.100006759199999
 49
6.5000119209
 74
     0
 49
-0.7999984026000001
 74
     0
 49
0.9999980329999999
 74
     0
 49
-0.7999984026000001
 74
     0
  0
ENDTAB
  0
TABLE
  2
LAYER
  5
2
330
0
100
AcDbSymbolTable
 70
     1
  0
LAYER
  5
10
330
2
100
AcDbSymbolTableRecord
100
AcDbLayerTableRecord
  2
0
 70
     0
 62
     7
  6
Continuous
370
    -3
390
F
  0
ENDTAB
  0
TABLE
  2
STYLE
  5
3
330
0
100
AcDbSymbolTable
 70
     1
  0
STYLE
  5
11
330
3
100
AcDbSymbolTableRecord
100
AcDbTextStyleTableRecord
  2
STANDARD
 70
     0
 40
0.0
 41
1.0
 50
0.0
 71
     0
 42
2.999994039499997
  3
romans.shx
  4
bigfont.shx
  0
ENDTAB
  0
TABLE
  2
VIEW
  5
6
330
0
100
AcDbSymbolTable
 70
     0
  0
ENDTAB
  0
TABLE
  2
UCS
  5
7
330
0
100
AcDbSymbolTable
 70
     0
  0
ENDTAB
  0
TABLE
  2
APPID
  5
9
330
0
100
AcDbSymbolTable
 70
     1
  0
APPID
  5
12
330
9
100
AcDbSymbolTableRecord
100
AcDbRegAppTableRecord
  2
ACAD
 70
     0
  0
ENDTAB
  0
TABLE
  2
DIMSTYLE
  5
A
330
0
100
AcDbSymbolTable
 70
     1
100
AcDbDimStyleTable
 71
     0
  0
DIMSTYLE
105
2CB
330
A
100
AcDbSymbolTableRecord
100
AcDbDimStyleTableRecord
  2
Standard
 70
     0
340
11
  0
ENDTAB
  0
TABLE
  2
BLOCK_RECORD
  5
1
330
0
100
AcDbSymbolTable
 70
     1
  0
BLOCK_RECORD
  5
1E
330
1
100
AcDbSymbolTableRecord
100
AcDbBlockTableRecord
  2
*Model_Space
340
21
  0
BLOCK_RECORD
  5
1A
330
1
100
AcDbSymbolTableRecord
100
AcDbBlockTableRecord
  2
*Paper_Space
340
1D
  0
ENDTAB
  0
ENDSEC
  0
SECTION
  2
BLOCKS
  0
BLOCK
  5
1F
330
1E
100
AcDbEntity
  8
0
100
AcDbBlockBegin
  2
*Model_Space
 70
     0
 10
0.0
 20
0.0
 30
0.0
  3
*Model_Space
  1

  0
ENDBLK
  5
20
330
1E
100
AcDbEntity
  8
0
100
AcDbBlockEnd
  0
BLOCK
  5
1B
330
1A
100
AcDbEntity
 67
     1
  8
0
100
AcDbBlockBegin
  2
*Paper_Space
 70
     0
 10
0.0
 20
0.0
 30
0.0
  3
*Paper_Space
  1

  0
ENDBLK
  5
1C
330
1A
100
AcDbEntity
 67
     1
  8
0
100
AcDbBlockEnd
  0
ENDSEC
  0
SECTION
  2
ENTITIES
  0
LINE
  5
109
330
1E
100
AcDbEntity
  8
0
 62
     3
100
AcDbLine
 10
51.97180199460217
 20
115.8733431560778
 30
0.0
 11
83.17181420160215
 21
115.8733431560778
 31
0.0
  0
LINE
  5
10A
330
1E
100
AcDbEntity
  8
0
 62
     3
100
AcDbLine
 10
45.57180809810211
 20
196.8733431560778
 30
0.0
 11
42.67181420160214
 21
196.8733431560778
 31
0.0
  0
LINE
  5
10B
330
1E
100
AcDbEntity
  8
0
 62
     3
100
AcDbLine
 10
52.07180809810211
 20
157.8733431560776
 30
0.0
 11
83.0718080981021
 21
157.8733431560776
 31
0.0
  0
LINE
  5
10C
330
1E
100
AcDbEntity
  8
0
 62
     3
100
AcDbLine
 10
83.0718080981021
 20
201.2733370525778
 30
0.0
 11
83.0718080981021
 21
202.2733370525778
 31
0.0
  0
LINE
  5
10D
330
1E
100
AcDbEntity
  8
0
 62
     3
100
AcDbLine
 10
52.07180809810211
 20
201.2733370525778
 30
0.0
 11
52.07180809810211
 21
202.2733370525778
 31
0.0
  0
LINE
  5
10E
330
1E
100
AcDbEntity
  8
0
 62
     3
100
AcDbLine
 10
52.07180809810211
 20
202.2733675701778
 30
0.0
 11
83.0718080981021
 21
202.2733675701778
 31
0.0
  0
LINE
  5
10F
330
1E
100
AcDbEntity
  8
0
 62
     3
100
AcDbLine
 10
52.07180809810211
 20
158.8733431560776
 30
0.0
 11
83.0718080981021
 21
158.8733431560776
 31
0.0
  0
LINE
  5
110
330
1E
100
AcDbEntity
  8
0
 62
     3
100
AcDbLine
 10
90.67181420160212
 20
161.8733431560776
 30
0.0
 11
90.67181420160212
 21
193.8733431560778
 31
0.0
  0
LINE
  5
111
330
1E
100
AcDbEntity
  8
0
 62
     3
100
AcDbLine
 10
90.67181420160212
 20
161.8733431560776
 30
0.0
 11
91.67181420160211
 21
161.8733431560776
 31
0.0
  0
LINE
  5
112
330
1E
100
AcDbEntity
  8
0
 62
     3
100
AcDbLine
 10
49.07180809810211
 20
203.0733248455778
 30
0.0
 11
49.07180809810211
 21
200.3733431560775
 31
0.0
  0
LINE
  5
113
330
1E
100
AcDbEntity
  8
0
 62
     3
100
AcDbLine
 10
83.0718080981021
 20
151.3733431560776
 30
0.0
 11
89.57180809810211
 21
151.3733431560776
 31
0.0
  0
LINE
  5
114
330
1E
100
AcDbEntity
  8
0
 62
     3
100
AcDbLine
 10
52.07180809810211
 20
201.2733675701777
 30
0.0
 11
83.0718080981021
 21
201.2733675701777
 31
0.0
  0
LINE
  5
115
330
1E
100
AcDbEntity
  8
0
 62
     3
100
AcDbLine
 10
91.67181420160211
 20
161.8733431560776
 30
0.0
 11
91.67181420160211
 21
193.8733431560778
 31
0.0
  0
LINE
  5
116
330
1E
100
AcDbEntity
  8
0
 62
     3
100
AcDbLine
 10
83.17181420160215
 20
115.8733126385778
 30
0.0
 11
83.17181420160215
 21
119.8733126385778
 31
0.0
  0
LINE
  5
117
330
1E
100
AcDbEntity
  8
0
  6
CENTER
 62
     3
100
AcDbLine
 10
67.57180809810211
 20
75.17330043147779
 30
0.0
 11
67.57180809810211
 21
211.6070467693778
 31
0.0
  0
LINE
  5
118
330
1E
100
AcDbEntity
  8
0
 62
     3
100
AcDbLine
 10
51.97180199460217
 20
115.8733126385778
 30
0.0
 11
51.97180199460217
 21
119.8733126385778
 31
0.0
  0
LINE
  5
119
330
1E
100
AcDbEntity
  8
0
 62
     3
100
AcDbLine
 10
41.57180809810211
 20
112.4733187420776
 30
0.0
 11
41.57180809810211
 21
139.3733126385777
 31
0.0
  0
LINE
  5
11A
330
1E
100
AcDbEntity
  8
0
 62
     3
100
AcDbLine
 10
49.07180809810211
 20
140.3733431560777
 30
0.0
 11
42.57183861560213
 21
140.3733431560777
 31
0.0
  0
LINE
  5
11B
330
1E
100
AcDbEntity
  8
0
 62
     3
100
AcDbLine
 10
52.07180321110211
 20
143.3733590539778
 30
0.0
 11
49.07179977340212
 21
140.3733558691778
 31
0.0
  0
LINE
  5
11C
330
1E
100
AcDbEntity
  8
0
 62
     3
100
AcDbLine
 10
52.07180809810211
 20
143.3733126385775
 30
0.0
 11
52.07180809810211
 21
151.6733309490778
 31
0.0
  0
LINE
  5
11D
330
1E
100
AcDbEntity
  8
0
 62
     3
100
AcDbLine
 10
133.6201300423838
 20
109.4733187420777
 30
0.0
 11
133.6201300423838
 21
150.5732943279778
 31
0.0
  0
LINE
  5
11E
330
1E
100
AcDbEntity
  8
0
 62
     3
100
AcDbLine
 10
134.6201300423838
 20
108.4733187420777
 30
0.0
 11
168.1201300423838
 21
108.4733187420777
 31
0.0
  0
LINE
  5
11F
330
1E
100
AcDbEntity
  8
0
 62
     3
100
AcDbLine
 10
168.6201300423839
 20
112.8733126385778
 30
0.0
 11
168.6201300423839
 21
122.8733126385778
 31
0.0
  0
LINE
  5
120
330
1E
100
AcDbEntity
  8
0
 62
     3
100
AcDbLine
 10
168.1201300423838
 20
108.4733187420777
 30
0.0
 11
168.1201300423838
 21
140.3733126385778
 31
0.0
  0
LINE
  5
121
330
1E
100
AcDbEntity
  8
0
 62
     3
100
AcDbLine
 10
134.6201300423838
 20
140.3733126385778
 30
0.0
 11
168.1201300423838
 21
140.3733126385778
 31
0.0
  0
LINE
  5
122
330
1E
100
AcDbEntity
  8
0
 62
     3
100
AcDbLine
 10
137.1201300423839
 20
140.3733126385778
 30
0.0
 11
137.1201300423839
 21
151.6733309490778
 31
0.0
  0
LINE
  5
123
330
1E
100
AcDbEntity
  8
0
 62
     3
100
AcDbLine
 10
134.6201300423838
 20
151.5732943279778
 30
0.0
 11
135.7201361458839
 21
151.5732943279778
 31
0.0
  0
LINE
  5
124
330
1E
100
AcDbEntity
  8
0
 62
     3
100
AcDbLine
 10
134.6201300423838
 20
143.3733126385775
 30
0.0
 11
137.1201300423839
 21
143.3733126385775
 31
0.0
  0
LINE
  5
125
330
1E
100
AcDbEntity
  8
0
  6
CENTER
 62
     3
100
AcDbLine
 10
166.7169012826839
 20
117.8733126385778
 30
0.0
 11
169.7541327279839
 21
117.8733126385778
 31
0.0
  0
LINE
  5
126
330
1E
100
AcDbEntity
  8
0
 62
     3
100
AcDbLine
 10
168.1201300423838
 20
112.8733126385778
 30
0.0
 11
168.6201300423839
 21
112.8733126385778
 31
0.0
  0
LINE
  5
127
330
1E
100
AcDbEntity
  8
0
 62
     3
100
AcDbLine
 10
168.1201300423838
 20
122.8733126385778
 30
0.0
 11
168.6201300423839
 21
122.8733126385778
 31
0.0
  0
LINE
  5
128
330
1E
100
AcDbEntity
  8
0
 62
     3
100
AcDbLine
 10
50.47180199460211
 20
121.3733431560777
 30
0.0
 11
84.67181420160216
 21
121.3733431560777
 31
0.0
  0
LINE
  5
129
330
1E
100
AcDbEntity
  8
0
 62
     3
100
AcDbLine
 10
50.47180199460211
 20
114.3733126385777
 30
0.0
 11
50.47180199460211
 21
121.3733126385778
 31
0.0
  0
LINE
  5
12A
330
1E
100
AcDbEntity
  8
0
 62
     3
100
AcDbLine
 10
50.47180199460211
 20
114.3733431560777
 30
0.0
 11
84.67181420160216
 21
114.3733431560777
 31
0.0
  0
LINE
  5
12B
330
1E
100
AcDbEntity
  8
0
 62
     3
100
AcDbLine
 10
84.67181420160216
 20
114.3733126385777
 30
0.0
 11
84.67181420160216
 21
121.3733126385778
 31
0.0
  0
LINE
  5
12C
330
1E
100
AcDbEntity
  8
0
 62
     3
100
AcDbLine
 10
50.47180539250212
 20
114.3733368127778
 30
0.0
 11
51.97181777450214
 21
115.8733491947776
 31
0.0
  0
LINE
  5
12D
330
1E
100
AcDbEntity
  8
0
  6
DASH
 62
     3
100
AcDbLine
 10
160.0701422494839
 20
108.4733492596776
 30
0.0
 11
162.1701483529839
 21
108.4733492596776
 31
0.0
  0
LINE
  5
12E
330
1E
100
AcDbEntity
  8
0
  6
DASH
 62
     3
100
AcDbLine
 10
162.1201300423838
 20
108.4733492596776
 30
0.0
 11
162.1201300423838
 21
138.4733492596778
 31
0.0
  0
LINE
  5
12F
330
1E
100
AcDbEntity
  8
0
  6
DASH
 62
     3
100
AcDbLine
 10
160.1201300423839
 20
108.4733492596776
 30
0.0
 11
160.1201300423839
 21
138.4733492596778
 31
0.0
  0
LINE
  5
130
330
1E
100
AcDbEntity
  8
0
  6
DASH
 62
     3
100
AcDbLine
 10
122.7201361458839
 20
118.9732271892777
 30
0.0
 11
122.7201361458839
 21
116.9732271892778
 31
0.0
  0
LINE
  5
132
330
1E
100
AcDbEntity
  8
0
  6
DASH
 62
     3
100
AcDbLine
 10
132.6201300423837
 20
118.9732271892777
 30
0.0
 11
132.6201300423837
 21
116.9732271892778
 31
0.0
  0
LINE
  5
133
330
1E
100
AcDbEntity
  8
0
  6
DASH
 62
     3
100
AcDbLine
 10
160.1201300423839
 20
97.57335536317782
 30
0.0
 11
162.1201300423838
 21
97.57335536317782
 31
0.0
  0
LINE
  5
134
330
1E
100
AcDbEntity
  8
0
  6
DASH
 62
     3
100
AcDbLine
 10
161.6201300423838
 20
118.9732271892777
 30
0.0
 11
161.6201300423838
 21
116.9732271892778
 31
0.0
  0
LINE
  5
135
330
1E
100
AcDbEntity
  8
0
  6
DASH
 62
     3
100
AcDbLine
 10
159.3201422494839
 20
118.9732271892777
 30
0.0
 11
159.3201422494839
 21
116.9732271892778
 31
0.0
  0
LINE
  5
136
330
1E
100
AcDbEntity
  8
0
  6
DASH
 62
     3
100
AcDbLine
 10
140.6201300423838
 20
118.9732271892777
 30
0.0
 11
140.6201300423838
 21
116.9732271892778
 31
0.0
  0
LINE
  5
137
330
1E
100
AcDbEntity
  8
0
  6
DASH
 62
     3
100
AcDbLine
 10
124.7201361458839
 20
118.9732271892777
 30
0.0
 11
124.7201361458839
 21
116.9732271892778
 31
0.0
  0
LINE
  5
138
330
1E
100
AcDbEntity
  8
0
  6
DASH
 62
     3
100
AcDbLine
 10
160.1201300423839
 20
107.4733492596776
 30
0.0
 11
162.1201300423838
 21
107.4733492596776
 31
0.0
  0
LINE
  5
139
330
1E
100
AcDbEntity
  8
0
  6
DASH
 62
     3
100
AcDbLine
 10
160.1201300423839
 20
136.4733492596778
 30
0.0
 11
162.1201300423838
 21
136.4733492596778
 31
0.0
  0
LINE
  5
13A
330
1E
100
AcDbEntity
  8
0
  6
DASH
 62
     3
100
AcDbLine
 10
160.1201300423839
 20
134.1733614666777
 30
0.0
 11
162.1201300423838
 21
134.1733614666777
 31
0.0
  0
LINE
  5
13B
330
1E
100
AcDbEntity
  8
0
  6
DASH
 62
     3
100
AcDbLine
 10
160.1201300423839
 20
115.4733492596776
 30
0.0
 11
162.1201300423838
 21
115.4733492596776
 31
0.0
  0
LINE
  5
13C
330
1E
100
AcDbEntity
  8
0
  6
DASH
 62
     3
100
AcDbLine
 10
160.1201300423839
 20
99.57335536317785
 30
0.0
 11
162.1201300423838
 21
99.57335536317785
 31
0.0
  0
LINE
  5
13D
330
1E
100
AcDbEntity
  8
0
 62
     3
100
AcDbLine
 10
133.6201300423838
 20
152.6733309490778
 30
0.0
 11
133.6201300423838
 21
154.0354220135778
 31
0.0
  0
LINE
  5
13E
330
1E
100
AcDbEntity
  8
0
 62
     3
100
AcDbLine
 10
140.1201300423838
 20
151.6733309490778
 30
0.0
 11
140.1201300423838
 21
204.0733248455778
 31
0.0
  0
LINE
  5
13F
330
1E
100
AcDbEntity
  8
0
 62
     3
100
AcDbLine
 10
134.6201300423838
 20
151.6733309490778
 30
0.0
 11
140.1201300423838
 21
151.6733309490778
 31
0.0
  0
LINE
  5
140
330
1E
100
AcDbEntity
  8
0
 62
     3
100
AcDbLine
 10
134.6201300423838
 20
204.0733248455778
 30
0.0
 11
140.1201300423838
 21
204.0733248455778
 31
0.0
  0
LINE
  5
141
330
1E
100
AcDbEntity
  8
0
 62
     3
100
AcDbLine
 10
134.1201300423839
 20
158.8733431560776
 30
0.0
 11
136.1201300423839
 21
158.8733431560776
 31
0.0
  0
LINE
  5
142
330
1E
100
AcDbEntity
  8
0
 62
     3
100
AcDbLine
 10
136.1201300423839
 20
196.6733309490778
 30
0.0
 11
136.1201300423839
 21
203.8733431560777
 31
0.0
  0
LINE
  5
143
330
1E
100
AcDbEntity
  8
0
 62
     3
100
AcDbLine
 10
134.1201300423839
 20
196.8733431560778
 30
0.0
 11
136.1201300423839
 21
196.8733431560778
 31
0.0
  0
LINE
  5
144
330
1E
100
AcDbEntity
  8
0
  6
CENTER
 62
     3
100
AcDbLine
 10
89.57043480710217
 20
224.5088082585299
 30
0.0
 11
89.57043480710217
 21
230.4812814031299
 31
0.0
  0
LINE
  5
145
330
1E
100
AcDbEntity
  8
0
 62
     3
100
AcDbLine
 10
86.16839944820213
 20
227.2580591288299
 30
0.0
 11
86.0704636566021
 21
228.3774709268299
 31
0.0
  0
LINE
  5
146
330
1E
100
AcDbEntity
  8
0
 62
     3
100
AcDbLine
 10
92.97247381390212
 20
227.2580160721298
 30
0.0
 11
93.07040960550216
 21
228.3774278701298
 31
0.0
  0
LINE
  5
147
330
1E
100
AcDbEntity
  8
0
 62
     3
100
AcDbLine
 10
133.6201300423838
 20
156.7112337810778
 30
0.0
 11
133.6201300423838
 21
199.0354220135775
 31
0.0
  0
LINE
  5
148
330
1E
100
AcDbEntity
  8
0
 62
     3
100
AcDbLine
 10
136.1201300423839
 20
151.6733309490778
 30
0.0
 11
136.1201300423839
 21
158.8733126385776
 31
0.0
  0
LINE
  5
149
330
1E
100
AcDbEntity
  8
0
  6
CENTER
 62
     3
100
AcDbLine
 10
132.2514776986839
 20
155.3733431560778
 30
0.0
 11
138.4252142708839
 21
155.3733431560778
 31
0.0
  0
LINE
  5
14A
330
1E
100
AcDbEntity
  8
0
 62
     3
100
AcDbLine
 10
135.0007121572837
 20
151.9712306550778
 30
0.0
 11
136.1201239552839
 21
151.8732948634775
 31
0.0
  0
LINE
  5
14B
330
1E
100
AcDbEntity
  8
0
 62
     3
100
AcDbLine
 10
135.0007126113839
 20
158.7754123285778
 30
0.0
 11
136.1201244092839
 21
158.8733481202778
 31
0.0
  0
LINE
  5
14C
330
1E
100
AcDbEntity
  8
0
 62
     3
100
AcDbLine
 10
133.6201300423838
 20
201.7112642986778
 30
0.0
 11
133.6201300423838
 21
203.0733248455778
 31
0.0
  0
LINE
  5
14D
330
1E
100
AcDbEntity
  8
0
 62
     3
100
AcDbLine
 10
45.57180809810211
 20
108.4733187420777
 30
0.0
 11
89.57180809810211
 21
108.4733187420777
 31
0.0
  0
LINE
  5
14E
330
1E
100
AcDbEntity
  8
0
 62
     3
100
AcDbLine
 10
86.07180809810211
 20
140.3733431560777
 30
0.0
 11
92.57180809810213
 21
140.3733431560777
 31
0.0
  0
LINE
  5
14F
330
1E
100
AcDbEntity
  8
0
 62
     3
100
AcDbLine
 10
51.97180199460217
 20
119.8733431560778
 30
0.0
 11
83.17181420160215
 21
119.8733431560778
 31
0.0
  0
LINE
  5
150
330
1E
100
AcDbEntity
  8
0
 62
     3
100
AcDbLine
 10
93.57180809810213
 20
112.4733187420776
 30
0.0
 11
93.57180809810213
 21
139.3733126385777
 31
0.0
  0
LINE
  5
151
330
1E
100
AcDbEntity
  8
0
 62
     3
100
AcDbLine
 10
83.07179374600211
 20
143.3733375119778
 30
0.0
 11
86.07179718360214
 21
140.3733343271777
 31
0.0
  0
LINE
  5
152
330
1E
100
AcDbEntity
  8
0
 62
     3
100
AcDbLine
 10
83.0718080981021
 20
143.3733126385775
 30
0.0
 11
83.0718080981021
 21
151.6733309490778
 31
0.0
  0
LINE
  5
153
330
1E
100
AcDbEntity
  8
0
 62
     3
100
AcDbLine
 10
52.07180809810211
 20
151.5733248455778
 30
0.0
 11
83.0718080981021
 21
151.5733248455778
 31
0.0
  0
LINE
  5
154
330
1E
100
AcDbEntity
  8
0
 62
     3
100
AcDbLine
 10
95.87313866450212
 20
26.50863471559245
 30
0.0
 11
95.87313866450212
 21
51.50863471559245
 31
0.0
  0
LINE
  5
155
330
1E
100
AcDbEntity
  8
0
 62
     3
100
AcDbLine
 10
93.57312035390213
 20
26.00863471559245
 30
0.0
 11
95.3731386645021
 21
26.00863471559245
 31
0.0
  0
LINE
  5
156
330
1E
100
AcDbEntity
  8
0
 62
     3
100
AcDbLine
 10
93.57312035390213
 20
52.00863471559244
 30
0.0
 11
95.3731386645021
 21
52.00863471559244
 31
0.0
  0
LINE
  5
157
330
1E
100
AcDbEntity
  8
0
 62
     3
100
AcDbLine
 10
55.07180809810211
 20
206.3733431560775
 30
0.0
 11
80.07180809810211
 21
206.3733431560775
 31
0.0
  0
LINE
  5
158
330
1E
100
AcDbEntity
  8
0
 62
     3
100
AcDbLine
 10
80.5718080981021
 20
204.3733431560775
 30
0.0
 11
80.5718080981021
 21
205.8733431560777
 31
0.0
  0
LINE
  5
159
330
1E
100
AcDbEntity
  8
0
 62
     3
100
AcDbLine
 10
45.57180809810211
 20
204.3733431560775
 30
0.0
 11
89.57180809810211
 21
204.3733431560775
 31
0.0
  0
LINE
  5
15A
330
1E
100
AcDbEntity
  8
0
 62
     3
100
AcDbLine
 10
48.97183251210214
 20
140.3733431560777
 30
0.0
 11
42.5718080981021
 21
140.3733431560777
 31
0.0
  0
LINE
  5
15B
330
1E
100
AcDbEntity
  8
0
 62
     3
100
AcDbLine
 10
41.57180809810211
 20
141.3733431560776
 30
0.0
 11
41.57180809810211
 21
200.3733431560775
 31
0.0
  0
LINE
  5
15C
330
1E
100
AcDbEntity
  8
0
 62
     3
100
AcDbLine
 10
52.07180809810211
 20
143.4733492596778
 30
0.0
 11
52.07180809810211
 21
151.5733248455778
 31
0.0
  0
LINE
  5
15D
330
1E
100
AcDbEntity
  8
0
 62
     3
100
AcDbLine
 10
52.0718032153021
 20
143.4733570064778
 30
0.0
 11
48.97180182100214
 21
140.3733558733778
 31
0.0
  0
LINE
  5
15E
330
1E
100
AcDbEntity
  8
0
  6
CENTER
 62
     3
100
AcDbLine
 10
50.67578148670214
 20
145.8733431560778
 30
0.0
 11
42.78842186760214
 21
145.8733431560778
 31
0.0
  0
LINE
  5
15F
330
1E
100
AcDbEntity
  8
0
  6
CENTER
 62
     3
100
AcDbLine
 10
46.57180809810211
 20
142.1225802166778
 30
0.0
 11
46.57180809810211
 21
150.0695711834778
 31
0.0
  0
LINE
  5
160
330
1E
100
AcDbEntity
  8
0
 62
     3
100
AcDbLine
 10
52.07180809810211
 20
151.3733431560776
 30
0.0
 11
45.57180809810211
 21
151.3733431560776
 31
0.0
  0
LINE
  5
161
330
1E
100
AcDbEntity
  8
0
 62
     3
100
AcDbLine
 10
39.27313256100211
 20
26.50863471559245
 30
0.0
 11
39.27313256100211
 21
51.50863471559245
 31
0.0
  0
LINE
  5
162
330
1E
100
AcDbEntity
  8
0
 62
     3
100
AcDbLine
 10
41.57312035390214
 20
26.00863471559245
 30
0.0
 11
39.77313256100211
 21
26.00863471559245
 31
0.0
  0
LINE
  5
163
330
1E
100
AcDbEntity
  8
0
 62
     3
100
AcDbLine
 10
41.57312035390214
 20
52.00863471559244
 30
0.0
 11
39.77313256100211
 21
52.00863471559244
 31
0.0
  0
LINE
  5
164
330
1E
100
AcDbEntity
  8
0
 62
     3
100
AcDbLine
 10
54.57180809810211
 20
204.3733431560775
 30
0.0
 11
54.57180809810211
 21
205.8733431560777
 31
0.0
  0
LINE
  5
165
330
1E
100
AcDbEntity
  8
0
 62
     3
100
AcDbLine
 10
168.6201300423839
 20
141.3733126385776
 30
0.0
 11
168.6201300423839
 21
150.3733126385778
 31
0.0
  0
LINE
  5
166
330
1E
100
AcDbEntity
  8
0
 62
     3
100
AcDbLine
 10
168.1201300423838
 20
140.3733126385778
 30
0.0
 11
168.1201300423838
 21
204.3733431560775
 31
0.0
  0
LINE
  5
167
330
1E
100
AcDbEntity
  8
0
  6
CENTER
 62
     3
100
AcDbLine
 10
155.7580389779839
 20
145.8733431560778
 30
0.0
 11
171.1201300423837
 21
145.8733431560778
 31
0.0
  0
LINE
  5
168
330
1E
100
AcDbEntity
  8
0
 62
     3
100
AcDbLine
 10
168.1201300423838
 20
150.3733431560776
 30
0.0
 11
168.6201300423839
 21
150.3733431560776
 31
0.0
  0
LINE
  5
169
330
1E
100
AcDbEntity
  8
0
 62
     3
100
AcDbLine
 10
168.1201300423838
 20
141.3733431560776
 30
0.0
 11
168.6201300423839
 21
141.3733431560776
 31
0.0
  0
LINE
  5
16A
330
1E
100
AcDbEntity
  8
0
 62
     3
100
AcDbLine
 10
168.6201300423839
 20
190.8733126385778
 30
0.0
 11
168.6201300423839
 21
195.8733126385777
 31
0.0
  0
LINE
  5
16B
330
1E
100
AcDbEntity
  8
0
 62
     3
100
AcDbLine
 10
137.1201300423839
 20
140.3733431560777
 30
0.0
 11
168.1201300423838
 21
140.3733431560777
 31
0.0
  0
LINE
  5
16C
330
1E
100
AcDbEntity
  8
0
 62
     3
100
AcDbLine
 10
158.6201300423837
 20
140.3733126385778
 30
0.0
 11
158.6201300423837
 21
155.3733126385778
 31
0.0
  0
LINE
  5
16D
330
1E
100
AcDbEntity
  8
0
 62
     3
100
AcDbLine
 10
140.1201300423838
 20
151.3733431560776
 30
0.0
 11
158.6201300423837
 21
151.3733431560776
 31
0.0
  0
LINE
  5
16E
330
1E
100
AcDbEntity
  8
0
 62
     3
100
AcDbLine
 10
140.1201300423838
 20
151.3733126385778
 30
0.0
 11
140.1201300423838
 21
204.3733431560775
 31
0.0
  0
LINE
  5
16F
330
1E
100
AcDbEntity
  8
0
 62
     3
100
AcDbLine
 10
137.1201300423839
 20
143.4733187420778
 30
0.0
 11
158.6201300423837
 21
143.4733187420778
 31
0.0
  0
LINE
  5
170
330
1E
100
AcDbEntity
  8
0
 62
     3
100
AcDbLine
 10
140.1201300423838
 20
204.3733431560775
 30
0.0
 11
168.1201300423838
 21
204.3733431560775
 31
0.0
  0
LINE
  5
171
330
1E
100
AcDbEntity
  8
0
  6
CENTER
 62
     3
100
AcDbLine
 10
165.9564947884838
 20
193.3733431560778
 30
0.0
 11
171.1201300423837
 21
193.3733431560778
 31
0.0
  0
LINE
  5
172
330
1E
100
AcDbEntity
  8
0
 62
     3
100
AcDbLine
 10
168.1201300423838
 20
195.8733431560778
 30
0.0
 11
168.6201300423839
 21
195.8733431560778
 31
0.0
  0
LINE
  5
173
330
1E
100
AcDbEntity
  8
0
 62
     3
100
AcDbLine
 10
168.1201300423838
 20
190.8733431560778
 30
0.0
 11
168.6201300423839
 21
190.8733431560778
 31
0.0
  0
LINE
  5
174
330
1E
100
AcDbEntity
  8
0
 62
     3
100
AcDbLine
 10
140.6201300423838
 20
204.3733431560775
 30
0.0
 11
140.6201300423838
 21
205.8733431560777
 31
0.0
  0
LINE
  5
175
330
1E
100
AcDbEntity
  8
0
 62
     3
100
AcDbLine
 10
141.1201300423838
 20
206.3733431560775
 30
0.0
 11
166.1201300423838
 21
206.3733431560775
 31
0.0
  0
LINE
  5
176
330
1E
100
AcDbEntity
  8
0
  6
CENTER
 62
     3
100
AcDbLine
 10
153.6201300423838
 20
165.8700777752778
 30
0.0
 11
153.6201300423838
 21
210.8733431560778
 31
0.0
  0
LINE
  5
177
330
1E
100
AcDbEntity
  8
0
  6
CENTER
 62
     3
100
AcDbLine
 10
137.5391363900839
 20
182.3733431560778
 30
0.0
 11
169.6630987923839
 21
182.3733431560778
 31
0.0
  0
LINE
  5
178
330
1E
100
AcDbEntity
  8
0
 62
     3
100
AcDbLine
 10
137.1201300423839
 20
140.3733126385778
 30
0.0
 11
137.1201300423839
 21
151.6733309490778
 31
0.0
  0
LINE
  5
179
330
1E
100
AcDbEntity
  8
0
 62
     3
100
AcDbLine
 10
166.6201300423838
 20
204.3733431560775
 30
0.0
 11
166.6201300423838
 21
205.8733431560777
 31
0.0
  0
LINE
  5
17A
330
1E
100
AcDbEntity
  8
0
  6
CENTER
 62
     3
100
AcDbLine
 10
83.0147402270021
 20
245.87746060233
 30
0.0
 11
51.79745507070214
 21
245.87746060233
 31
0.0
  0
LINE
  5
17B
330
1E
100
AcDbEntity
  8
0
 62
     3
100
AcDbLine
 10
43.07043480710212
 20
260.8774606023299
 30
0.0
 11
48.07043480710212
 21
260.8774606023299
 31
0.0
  0
LINE
  5
17C
330
1E
100
AcDbEntity
  8
0
 62
     3
100
AcDbLine
 10
93.57043480710215
 20
232.3774606023298
 30
0.0
 11
93.57043480710215
 21
260.3774606023299
 31
0.0
  0
LINE
  5
17D
330
1E
100
AcDbEntity
  8
0
 62
     3
100
AcDbLine
 10
95.87045311760212
 20
233.37746060233
 30
0.0
 11
95.87045311760212
 21
258.3774606023299
 31
0.0
  0
LINE
  5
17E
330
1E
100
AcDbEntity
  8
0
 62
     3
100
AcDbLine
 10
93.57043480710215
 20
232.87746060233
 30
0.0
 11
95.37045311760213
 21
232.87746060233
 31
0.0
  0
LINE
  5
17F
330
1E
100
AcDbEntity
  8
0
  6
CENTER
 62
     3
100
AcDbLine
 10
67.57043480710217
 20
221.2763863835298
 30
0.0
 11
67.57043480710217
 21
265.8276253972299
 31
0.0
  0
LINE
  5
180
330
1E
100
AcDbEntity
  8
0
 62
     3
100
AcDbLine
 10
93.57043480710215
 20
258.8774606023299
 30
0.0
 11
95.37045311760213
 21
258.8774606023299
 31
0.0
  0
LINE
  5
181
330
1E
100
AcDbEntity
  8
0
 62
     3
100
AcDbLine
 10
41.57043480710211
 20
232.87746060233
 30
0.0
 11
39.77044701410216
 21
232.87746060233
 31
0.0
  0
LINE
  5
182
330
1E
100
AcDbEntity
  8
0
 62
     3
100
AcDbLine
 10
41.57043480710211
 20
258.8774606023299
 30
0.0
 11
39.77041649650209
 21
258.8774606023299
 31
0.0
  0
LINE
  5
183
330
1E
100
AcDbEntity
  8
0
 62
     3
100
AcDbLine
 10
43.07043480710212
 20
260.3774606023299
 30
0.0
 11
43.07043480710212
 21
260.8774606023299
 31
0.0
  0
LINE
  5
184
330
1E
100
AcDbEntity
  8
0
 62
     3
100
AcDbLine
 10
48.07043480710212
 20
260.3774606023299
 30
0.0
 11
48.07043480710212
 21
260.8774606023299
 31
0.0
  0
LINE
  5
185
330
1E
100
AcDbEntity
  8
0
 62
     3
100
AcDbLine
 10
39.27041649650209
 20
233.37746060233
 30
0.0
 11
39.27041649650209
 21
258.3774606023299
 31
0.0
  0
LINE
  5
186
330
1E
100
AcDbEntity
  8
0
 62
     3
100
AcDbLine
 10
87.07043480710217
 20
260.3774606023299
 30
0.0
 11
87.07043480710217
 21
260.8774606023299
 31
0.0
  0
LINE
  5
187
330
1E
100
AcDbEntity
  8
0
 62
     3
100
AcDbLine
 10
92.07043480710217
 20
260.3774606023299
 30
0.0
 11
92.07043480710217
 21
260.8774606023299
 31
0.0
  0
LINE
  5
188
330
1E
100
AcDbEntity
  8
0
 62
     3
100
AcDbLine
 10
41.57043480710211
 20
232.3774606023298
 30
0.0
 11
93.57043480710215
 21
232.3774606023298
 31
0.0
  0
LINE
  5
189
330
1E
100
AcDbEntity
  8
0
 62
     3
100
AcDbLine
 10
41.57043480710211
 20
232.3774606023298
 30
0.0
 11
41.57043480710211
 21
260.3774606023299
 31
0.0
  0
LINE
  5
18A
330
1E
100
AcDbEntity
  8
0
 62
     3
100
AcDbLine
 10
41.57043480710211
 20
260.3774606023299
 30
0.0
 11
93.57043480710215
 21
260.3774606023299
 31
0.0
  0
LINE
  5
18B
330
1E
100
AcDbEntity
  8
0
 62
     3
100
AcDbLine
 10
92.07043480710217
 20
260.8774606023299
 30
0.0
 11
87.07043480710217
 21
260.8774606023299
 31
0.0
  0
LINE
  5
18C
330
1E
100
AcDbEntity
  8
0
 62
     3
100
AcDbLine
 10
92.27044701410212
 20
225.8774606023298
 30
0.0
 11
90.90835594960214
 21
225.8774606023298
 31
0.0
  0
LINE
  5
18D
330
1E
100
AcDbEntity
  8
0
 62
     3
100
AcDbLine
 10
93.27044701410214
 20
232.3774606023298
 30
0.0
 11
93.27044701410214
 21
226.87746060233
 31
0.0
  0
LINE
  5
18E
330
1E
100
AcDbEntity
  8
0
 62
     3
100
AcDbLine
 10
86.07043480710215
 20
228.3774606023299
 30
0.0
 11
86.07043480710215
 21
226.87746060233
 31
0.0
  0
LINE
  5
18F
330
1E
100
AcDbEntity
  8
0
 62
     3
100
AcDbLine
 10
93.07043480710214
 20
228.3774606023299
 30
0.0
 11
86.07043480710215
 21
228.3774606023299
 31
0.0
  0
LINE
  5
190
330
1E
100
AcDbEntity
  8
0
 62
     3
100
AcDbLine
 10
41.87042260000214
 20
232.3774606023298
 30
0.0
 11
41.87042260000214
 21
226.87746060233
 31
0.0
  0
LINE
  5
191
330
1E
100
AcDbEntity
  8
0
 62
     3
100
AcDbLine
 10
93.27044701410214
 20
232.3774606023298
 30
0.0
 11
41.87045311760214
 21
232.3774606023298
 31
0.0
  0
LINE
  5
192
330
1E
100
AcDbEntity
  8
0
 62
     3
100
AcDbLine
 10
49.07043480710211
 20
228.3774606023299
 30
0.0
 11
49.07043480710211
 21
226.87746060233
 31
0.0
  0
LINE
  5
193
330
1E
100
AcDbEntity
  8
0
 62
     3
100
AcDbLine
 10
135.0006940986839
 20
196.9712679903777
 30
0.0
 11
136.1201058965839
 21
196.8733321986778
 31
0.0
  0
LINE
  5
194
330
1E
100
AcDbEntity
  8
0
 62
     3
100
AcDbLine
 10
135.0007333297837
 20
203.7754192623776
 30
0.0
 11
136.1201451277837
 21
203.8733550539777
 31
0.0
  0
LINE
  5
195
330
1E
100
AcDbEntity
  8
0
  6
CENTER
 62
     3
100
AcDbLine
 10
132.2514776986839
 20
200.3733431560775
 30
0.0
 11
138.2239508431839
 21
200.3733431560775
 31
0.0
  0
LINE
  5
196
330
1E
100
AcDbEntity
  8
0
 62
     3
100
AcDbLine
 10
48.97246041310211
 20
227.2580290698299
 30
0.0
 11
49.07039620470209
 21
228.37744086773
 31
0.0
  0
LINE
  5
197
330
1E
100
AcDbEntity
  8
0
 62
     3
100
AcDbLine
 10
42.16838338770211
 20
227.2580765326299
 30
0.0
 11
42.0704475960021
 21
228.3774883306299
 31
0.0
  0
LINE
  5
198
330
1E
100
AcDbEntity
  8
0
 62
     3
100
AcDbLine
 10
42.0704348071021
 20
228.3774606023299
 30
0.0
 11
49.07043480710211
 21
228.3774606023299
 31
0.0
  0
LINE
  5
199
330
1E
100
AcDbEntity
  8
0
  6
CENTER
 62
     3
100
AcDbLine
 10
45.57043480710212
 20
224.5088082585299
 30
0.0
 11
45.57043480710212
 21
230.4812508855298
 31
0.0
  0
LINE
  5
19A
330
1E
100
AcDbEntity
  8
0
 62
     3
100
AcDbLine
 10
44.23254418210212
 20
225.8774606023298
 30
0.0
 11
42.87045311760214
 21
225.8774606023298
 31
0.0
  0
LINE
  5
19B
330
1E
100
AcDbEntity
  8
0
 62
     3
100
AcDbLine
 10
89.17178368400213
 20
198.3233553631778
 30
0.0
 11
89.97180199460215
 21
198.3233553631778
 31
0.0
  0
LINE
  5
19C
330
1E
100
AcDbEntity
  8
0
 62
     3
100
AcDbLine
 10
89.17178368400213
 20
202.4233309490778
 30
0.0
 11
89.97180199460215
 21
202.4233309490778
 31
0.0
  0
LINE
  5
19D
330
1E
100
AcDbEntity
  8
0
 62
     3
100
AcDbLine
 10
87.52182030510212
 20
199.9733492596775
 30
0.0
 11
87.52182030510212
 21
200.7733370525778
 31
0.0
  0
LINE
  5
19E
330
1E
100
AcDbEntity
  8
0
 62
     3
100
AcDbLine
 10
91.62179589100214
 20
199.9733492596775
 30
0.0
 11
91.62179589100214
 21
200.7733370525778
 31
0.0
  0
LINE
  5
19F
330
1E
100
AcDbEntity
  8
0
 62
     3
100
AcDbLine
 10
88.23251366450211
 20
225.8774606023298
 30
0.0
 11
46.90835594960214
 21
225.8774606023298
 31
0.0
  0
LINE
  5
1A0
330
1E
100
AcDbEntity
  8
0
 62
     3
100
AcDbLine
 10
87.52182030510212
 20
200.7733675701778
 30
0.0
 11
88.17178368400211
 21
200.7733675701778
 31
0.0
  0
LINE
  5
1A1
330
1E
100
AcDbEntity
  8
0
 62
     3
100
AcDbLine
 10
89.17178368400213
 20
198.3233553631778
 30
0.0
 11
89.17178368400213
 21
198.9733492596775
 31
0.0
  0
LINE
  5
1A2
330
1E
100
AcDbEntity
  8
0
 62
     3
100
AcDbLine
 10
89.97180199460215
 20
198.3233553631778
 30
0.0
 11
89.97180199460215
 21
198.9733492596775
 31
0.0
  0
LINE
  5
1A3
330
1E
100
AcDbEntity
  8
0
 62
     3
100
AcDbLine
 10
90.97180199460217
 20
200.7733675701778
 30
0.0
 11
91.62179589100214
 21
200.7733675701778
 31
0.0
  0
LINE
  5
1A4
330
1E
100
AcDbEntity
  8
0
 62
     3
100
AcDbLine
 10
90.97180199460217
 20
199.9733492596775
 30
0.0
 11
91.62179589100214
 21
199.9733492596775
 31
0.0
  0
LINE
  5
1A5
330
1E
100
AcDbEntity
  8
0
 62
     3
100
AcDbLine
 10
87.52182030510212
 20
199.9733492596775
 30
0.0
 11
88.17178368400211
 21
199.9733492596775
 31
0.0
  0
LINE
  5
1A6
330
1E
100
AcDbEntity
  8
0
 62
     3
100
AcDbLine
 10
89.17178368400213
 20
201.7733370525778
 30
0.0
 11
89.17178368400213
 21
202.4233309490778
 31
0.0
  0
LINE
  5
1A7
330
1E
100
AcDbEntity
  8
0
 62
     3
100
AcDbLine
 10
89.17178368400213
 20
153.3233553631778
 30
0.0
 11
89.97180199460215
 21
153.3233553631778
 31
0.0
  0
LINE
  5
1A8
330
1E
100
AcDbEntity
  8
0
 62
     3
100
AcDbLine
 10
89.17178368400213
 20
157.4233309490778
 30
0.0
 11
89.97180199460215
 21
157.4233309490778
 31
0.0
  0
LINE
  5
1A9
330
1E
100
AcDbEntity
  8
0
 62
     3
100
AcDbLine
 10
87.52182030510212
 20
154.9733492596778
 30
0.0
 11
87.52182030510212
 21
155.7733370525778
 31
0.0
  0
LINE
  5
1AA
330
1E
100
AcDbEntity
  8
0
 62
     3
100
AcDbLine
 10
91.62179589100214
 20
154.9733492596778
 30
0.0
 11
91.62179589100214
 21
155.7733370525778
 31
0.0
  0
LINE
  5
1AB
330
1E
100
AcDbEntity
  8
0
 62
     3
100
AcDbLine
 10
89.97180199460215
 20
201.7733370525778
 30
0.0
 11
89.97180199460215
 21
202.4233309490778
 31
0.0
  0
LINE
  5
1AC
330
1E
100
AcDbEntity
  8
0
 62
     3
100
AcDbLine
 10
87.52182030510212
 20
155.7733370525778
 30
0.0
 11
88.17178368400211
 21
155.7733370525778
 31
0.0
  0
LINE
  5
1AD
330
1E
100
AcDbEntity
  8
0
 62
     3
100
AcDbLine
 10
89.17178368400213
 20
153.3233248455778
 30
0.0
 11
89.17178368400213
 21
153.9733492596778
 31
0.0
  0
LINE
  5
1AE
330
1E
100
AcDbEntity
  8
0
 62
     3
100
AcDbLine
 10
89.97180199460215
 20
153.3233248455778
 30
0.0
 11
89.97180199460215
 21
153.9733492596778
 31
0.0
  0
LINE
  5
1AF
330
1E
100
AcDbEntity
  8
0
 62
     3
100
AcDbLine
 10
90.97180199460217
 20
155.7733370525778
 30
0.0
 11
91.62179589100214
 21
155.7733370525778
 31
0.0
  0
LINE
  5
1B0
330
1E
100
AcDbEntity
  8
0
 62
     3
100
AcDbLine
 10
90.97180199460217
 20
154.9733492596778
 30
0.0
 11
91.62179589100214
 21
154.9733492596778
 31
0.0
  0
LINE
  5
1B1
330
1E
100
AcDbEntity
  8
0
 62
     3
100
AcDbLine
 10
87.52182030510212
 20
154.9733492596778
 30
0.0
 11
88.17178368400211
 21
154.9733492596778
 31
0.0
  0
LINE
  5
1B2
330
1E
100
AcDbEntity
  8
0
 62
     3
100
AcDbLine
 10
89.17178368400213
 20
156.7733370525778
 30
0.0
 11
89.17178368400213
 21
157.4233309490778
 31
0.0
  0
LINE
  5
1B3
330
1E
100
AcDbEntity
  8
0
 62
     3
100
AcDbLine
 10
89.97180199460215
 20
156.7733370525778
 30
0.0
 11
89.97180199460215
 21
157.4233309490778
 31
0.0
  0
LINE
  5
1B4
330
1E
100
AcDbEntity
  8
0
 62
     3
100
AcDbLine
 10
45.17181420160214
 20
153.3233553631778
 30
0.0
 11
45.97180199460209
 21
153.3233553631778
 31
0.0
  0
LINE
  5
1B5
330
1E
100
AcDbEntity
  8
0
 62
     3
100
AcDbLine
 10
45.17181420160214
 20
157.4233309490778
 30
0.0
 11
45.97180199460209
 21
157.4233309490778
 31
0.0
  0
LINE
  5
1B6
330
1E
100
AcDbEntity
  8
0
 62
     3
100
AcDbLine
 10
43.52182030510213
 20
154.9733492596778
 30
0.0
 11
43.52182030510213
 21
155.7733370525778
 31
0.0
  0
LINE
  5
1B7
330
1E
100
AcDbEntity
  8
0
 62
     3
100
AcDbLine
 10
47.62179589100212
 20
154.9733492596778
 30
0.0
 11
47.62179589100212
 21
155.7733370525778
 31
0.0
  0
LINE
  5
1B8
330
1E
100
AcDbEntity
  8
0
 62
     3
100
AcDbLine
 10
43.52182030510213
 20
155.7733370525778
 30
0.0
 11
44.17181420160214
 21
155.7733370525778
 31
0.0
  0
LINE
  5
1B9
330
1E
100
AcDbEntity
  8
0
 62
     3
100
AcDbLine
 10
43.52182030510213
 20
154.9733492596778
 30
0.0
 11
44.17181420160214
 21
154.9733492596778
 31
0.0
  0
LINE
  5
1BA
330
1E
100
AcDbEntity
  8
0
 62
     3
100
AcDbLine
 10
45.17178368400209
 20
153.3233248455778
 30
0.0
 11
45.17178368400209
 21
153.9733492596778
 31
0.0
  0
LINE
  5
1BB
330
1E
100
AcDbEntity
  8
0
 62
     3
100
AcDbLine
 10
45.97180199460209
 20
153.3233248455778
 30
0.0
 11
45.97180199460209
 21
153.9733492596778
 31
0.0
  0
LINE
  5
1BC
330
1E
100
AcDbEntity
  8
0
 62
     3
100
AcDbLine
 10
46.97180199460212
 20
155.7733370525778
 30
0.0
 11
47.62182640860209
 21
155.7733370525778
 31
0.0
  0
LINE
  5
1BD
330
1E
100
AcDbEntity
  8
0
 62
     3
100
AcDbLine
 10
46.97180199460212
 20
154.9733492596778
 30
0.0
 11
47.62182640860209
 21
154.9733492596778
 31
0.0
  0
LINE
  5
1BE
330
1E
100
AcDbEntity
  8
0
 62
     3
100
AcDbLine
 10
45.17178368400209
 20
156.7733370525778
 30
0.0
 11
45.17178368400209
 21
157.4233309490778
 31
0.0
  0
LINE
  5
1BF
330
1E
100
AcDbEntity
  8
0
 62
     3
100
AcDbLine
 10
45.97180199460209
 20
156.7733370525778
 30
0.0
 11
45.97180199460209
 21
157.4233309490778
 31
0.0
  0
LINE
  5
1C0
330
1E
100
AcDbEntity
  8
0
 62
     3
100
AcDbLine
 10
45.17181420160214
 20
198.3233553631778
 30
0.0
 11
45.97180199460209
 21
198.3233553631778
 31
0.0
  0
LINE
  5
1C1
330
1E
100
AcDbEntity
  8
0
 62
     3
100
AcDbLine
 10
45.17181420160214
 20
202.4233309490778
 30
0.0
 11
45.97180199460209
 21
202.4233309490778
 31
0.0
  0
LINE
  5
1C2
330
1E
100
AcDbEntity
  8
0
 62
     3
100
AcDbLine
 10
43.52182030510213
 20
199.9733492596775
 30
0.0
 11
43.52182030510213
 21
200.7733370525778
 31
0.0
  0
LINE
  5
1C3
330
1E
100
AcDbEntity
  8
0
 62
     3
100
AcDbLine
 10
47.62179589100212
 20
199.9733492596775
 30
0.0
 11
47.62179589100212
 21
200.7733370525778
 31
0.0
  0
LINE
  5
1C4
330
1E
100
AcDbEntity
  8
0
 62
     3
100
AcDbLine
 10
43.52182030510213
 20
200.7733675701778
 30
0.0
 11
44.17181420160214
 21
200.7733675701778
 31
0.0
  0
LINE
  5
1C5
330
1E
100
AcDbEntity
  8
0
 62
     3
100
AcDbLine
 10
43.52182030510213
 20
199.9733492596775
 30
0.0
 11
44.17181420160214
 21
199.9733492596775
 31
0.0
  0
LINE
  5
1C6
330
1E
100
AcDbEntity
  8
0
 62
     3
100
AcDbLine
 10
45.17178368400209
 20
198.3233553631778
 30
0.0
 11
45.17178368400209
 21
198.9733492596775
 31
0.0
  0
LINE
  5
1C7
330
1E
100
AcDbEntity
  8
0
 62
     3
100
AcDbLine
 10
45.97180199460209
 20
198.3233553631778
 30
0.0
 11
45.97180199460209
 21
198.9733492596775
 31
0.0
  0
LINE
  5
1C8
330
1E
100
AcDbEntity
  8
0
 62
     3
100
AcDbLine
 10
46.97180199460212
 20
200.7733675701778
 30
0.0
 11
47.62182640860209
 21
200.7733675701778
 31
0.0
  0
LINE
  5
1C9
330
1E
100
AcDbEntity
  8
0
 62
     3
100
AcDbLine
 10
46.97180199460212
 20
199.9733492596775
 30
0.0
 11
47.62182640860209
 21
199.9733492596775
 31
0.0
  0
LINE
  5
1CA
330
1E
100
AcDbEntity
  8
0
 62
     3
100
AcDbLine
 10
45.17178368400209
 20
201.7733370525778
 30
0.0
 11
45.17178368400209
 21
202.4233309490778
 31
0.0
  0
LINE
  5
1CB
330
1E
100
AcDbEntity
  8
0
 62
     3
100
AcDbLine
 10
45.97180199460209
 20
201.7733370525778
 30
0.0
 11
45.97180199460209
 21
202.4233309490778
 31
0.0
  0
LINE
  5
1D0
330
1E
100
AcDbEntity
  8
0
 62
     3
100
AcDbLine
 10
65.07312035390214
 20
24.00863471559245
 30
0.0
 11
70.07312035390214
 21
24.00863471559245
 31
0.0
  0
LINE
  5
1D1
330
1E
100
AcDbEntity
  8
0
 62
     3
100
AcDbLine
 10
93.57312035390213
 20
58.00863471559245
 30
0.0
 11
93.57312035390213
 21
24.50863471559244
 31
0.0
  0
LINE
  5
1D2
330
1E
100
AcDbEntity
  8
0
 62
     3
100
AcDbLine
 10
42.57315087150209
 20
59.00863471559245
 30
0.0
 11
92.57312035390215
 21
59.00863471559245
 31
0.0
  0
LINE
  5
1D3
330
1E
100
AcDbEntity
  8
0
 62
     3
100
AcDbLine
 10
41.57315087150209
 20
24.50863471559244
 30
0.0
 11
93.57312035390213
 21
24.50863471559244
 31
0.0
  0
LINE
  5
1D4
330
1E
100
AcDbEntity
  8
0
 62
     3
100
AcDbLine
 10
51.9731142504021
 20
29.50863471559244
 30
0.0
 11
83.17312645740214
 21
29.50863471559244
 31
0.0
  0
LINE
  5
1D5
330
1E
100
AcDbEntity
  8
0
 62
     3
100
AcDbLine
 10
51.9731142504021
 20
33.50863471559245
 30
0.0
 11
83.17312645740214
 21
33.50863471559245
 31
0.0
  0
LINE
  5
1D6
330
1E
100
AcDbEntity
  8
0
 62
     3
100
AcDbLine
 10
83.17312645740214
 20
33.50863471559245
 30
0.0
 11
83.17312645740214
 21
29.50863471559244
 31
0.0
  0
LINE
  5
1D7
330
1E
100
AcDbEntity
  8
0
  6
CENTER
 62
     3
100
AcDbLine
 10
67.57312035390214
 20
62.69418159059245
 30
0.0
 11
67.57312035390214
 21
21.14929023319246
 31
0.0
  0
LINE
  5
1D8
330
1E
100
AcDbEntity
  8
0
 62
     3
100
AcDbLine
 10
41.57315087150209
 20
58.00863471559245
 30
0.0
 11
41.57315087150209
 21
24.50863471559244
 31
0.0
  0
LINE
  5
1D9
330
1E
100
AcDbEntity
  8
0
 62
     3
100
AcDbLine
 10
51.9731142504021
 20
33.50863471559245
 30
0.0
 11
51.9731142504021
 21
29.50863471559244
 31
0.0
  0
LINE
  5
1DA
330
1E
100
AcDbEntity
  8
0
 62
     3
100
AcDbLine
 10
70.07312035390214
 20
24.50863471559244
 30
0.0
 11
70.07312035390214
 21
24.00863471559245
 31
0.0
  0
LINE
  5
1DB
330
1E
100
AcDbEntity
  8
0
 62
     3
100
AcDbLine
 10
65.07312035390214
 20
24.50863471559244
 30
0.0
 11
65.07312035390214
 21
24.00863471559245
 31
0.0
  0
LINE
  5
1DC
330
1E
100
AcDbEntity
  8
0
 62
     3
100
AcDbLine
 10
52.57312035390214
 20
24.50863471559244
 30
0.0
 11
52.57312035390214
 21
24.00863471559245
 31
0.0
  0
LINE
  5
1DD
330
1E
100
AcDbEntity
  8
0
 62
     3
100
AcDbLine
 10
42.57315087150209
 20
24.50863471559244
 30
0.0
 11
42.57315087150209
 21
24.00863471559245
 31
0.0
  0
LINE
  5
1DE
330
1E
100
AcDbEntity
  8
0
 62
     3
100
AcDbLine
 10
42.57315087150209
 20
24.00863471559245
 30
0.0
 11
52.57312035390214
 21
24.00863471559245
 31
0.0
  0
LINE
  5
1DF
330
1E
100
AcDbEntity
  8
0
 62
     3
100
AcDbLine
 10
92.57312035390215
 20
24.50863471559244
 30
0.0
 11
92.57312035390215
 21
24.00863471559245
 31
0.0
  0
LINE
  5
1E0
330
1E
100
AcDbEntity
  8
0
 62
     3
100
AcDbLine
 10
82.57312035390214
 20
24.50863471559244
 30
0.0
 11
82.57312035390214
 21
24.00863471559245
 31
0.0
  0
LINE
  5
1E1
330
1E
100
AcDbEntity
  8
0
 62
     3
100
AcDbLine
 10
92.57312035390215
 20
24.00863471559245
 30
0.0
 11
82.57312035390214
 21
24.00863471559245
 31
0.0
  0
LINE
  5
1E2
330
1E
100
AcDbEntity
  8
0
 62
     3
100
AcDbLine
 10
50.47311425040209
 20
35.00863471559245
 30
0.0
 11
84.67312645740213
 21
35.00863471559245
 31
0.0
  0
LINE
  5
1E3
330
1E
100
AcDbEntity
  8
0
 62
     3
100
AcDbLine
 10
50.47311425040209
 20
35.00863471559245
 30
0.0
 11
50.47311425040209
 21
28.00863471559244
 31
0.0
  0
LINE
  5
1E4
330
1E
100
AcDbEntity
  8
0
 62
     3
100
AcDbLine
 10
50.47311425040209
 20
28.00863471559244
 30
0.0
 11
84.67312645740213
 21
28.00863471559244
 31
0.0
  0
LINE
  5
1E5
330
1E
100
AcDbEntity
  8
0
 62
     3
100
AcDbLine
 10
84.67312645740213
 20
35.00863471559245
 30
0.0
 11
84.67312645740213
 21
28.00863471559244
 31
0.0
  0
LINE
  5
1E6
330
1E
100
AcDbEntity
  8
0
 62
     3
100
AcDbLine
 10
50.47311497940211
 20
28.00866882679244
 30
0.0
 11
51.97310578220208
 21
29.50865962959244
 31
0.0
  0
LINE
  5
1E7
330
1E
100
AcDbEntity
  8
0
 62
     3
100
AcDbLine
 10
51.97312736140212
 20
33.50864229679244
 30
0.0
 11
50.47311497940211
 21
35.00865467879244
 31
0.0
  0
LINE
  5
1E8
330
1E
100
AcDbEntity
  8
0
 62
     3
100
AcDbLine
 10
84.67314696990213
 20
35.00865467879244
 30
0.0
 11
83.17313458790215
 21
33.50864229679244
 31
0.0
  0
LINE
  5
1E9
330
1E
100
AcDbEntity
  8
0
 62
     3
100
AcDbLine
 10
83.17315616710208
 20
29.50865962959244
 30
0.0
 11
84.67314696990213
 21
28.00866882679244
 31
0.0
  0
LINE
  5
1EA
330
1E
100
AcDbEntity
  8
0
 62
     3
100
AcDbLine
 10
39.27182030510214
 20
169.8733431560778
 30
0.0
 11
39.27182030510214
 21
194.8733431560778
 31
0.0
  0
LINE
  5
1EB
330
1E
100
AcDbEntity
  8
0
 62
     3
100
AcDbLine
 10
41.57180809810211
 20
169.3733431560776
 30
0.0
 11
39.77182030510213
 21
169.3733431560776
 31
0.0
  0
LINE
  5
1EC
330
1E
100
AcDbEntity
  8
0
 62
     3
100
AcDbLine
 10
41.57180809810211
 20
195.3733431560775
 30
0.0
 11
39.77182030510213
 21
195.3733431560775
 31
0.0
  0
LINE
  5
1ED
330
1E
100
AcDbEntity
  8
0
 62
     3
100
AcDbLine
 10
95.87179589100214
 20
169.8733431560778
 30
0.0
 11
95.87179589100214
 21
194.8733431560778
 31
0.0
  0
LINE
  5
1EE
330
1E
100
AcDbEntity
  8
0
 62
     3
100
AcDbLine
 10
93.57180809810213
 20
169.3733431560776
 30
0.0
 11
95.37179589100214
 21
169.3733431560776
 31
0.0
  0
LINE
  5
1EF
330
1E
100
AcDbEntity
  8
0
 62
     3
100
AcDbLine
 10
93.57180809810213
 20
195.3733431560775
 30
0.0
 11
95.37179589100214
 21
195.3733431560775
 31
0.0
  0
LINE
  5
1F1
330
1E
100
AcDbEntity
  8
0
  6
CENTER
 62
     3
100
AcDbLine
 10
114.3201422494839
 20
112.4744173748777
 30
0.0
 11
114.3201422494839
 21
122.8864046795776
 31
0.0
  0
ARC
  5
1F2
330
1E
100
AcDbEntity
  8
0
  6
DASH
 62
     3
100
AcDbCircle
 10
162.1701483529839
 20
107.4733492596776
 30
0.0
 40
1.0
100
AcDbArc
 50
0.0
 51
89.99998201389999
  0
ARC
  5
1F3
330
1E
100
AcDbEntity
  8
0
  6
DASH
 62
     3
100
AcDbCircle
 10
132.6201300423837
 20
116.9232088787776
 30
0.0
 40
1.0
100
AcDbArc
 50
270.0000179861
 51
0.0
  0
ARC
  5
1F4
330
1E
100
AcDbEntity
  8
0
  6
DASH
 62
     3
100
AcDbCircle
 10
160.0701422494839
 20
107.4733492596776
 30
0.0
 40
1.0
100
AcDbArc
 50
89.99998201389999
 51
179.9999640277999
  0
ARC
  5
1F5
330
1E
100
AcDbEntity
  8
0
  6
DASH
 62
     3
100
AcDbCircle
 10
132.6201300423837
 20
119.0232149822777
 30
0.0
 40
1.0
100
AcDbArc
 50
0.0
 51
89.99998201389999
  0
LINE
  5
1F6
330
1E
100
AcDbEntity
  8
0
  6
CENTER
 62
     3
100
AcDbLine
 10
166.6189398568839
 20
89.1733004314778
 30
0.0
 11
156.2069525521839
 21
89.1733004314778
 31
0.0
  0
LINE
  5
1F7
330
1E
100
AcDbEntity
  8
0
  6
DASH
 62
     3
100
AcDbLine
 10
105.3201422494839
 20
116.9732271892778
 30
0.0
 11
128.1201300423838
 21
116.9732271892778
 31
0.0
  0
LINE
  5
1F8
330
1E
100
AcDbEntity
  8
0
  6
DASH
 62
     3
100
AcDbLine
 10
105.3201422494839
 20
118.9732271892777
 30
0.0
 11
128.1201300423838
 21
118.9732271892777
 31
0.0
  0
LINE
  5
1F9
330
1E
100
AcDbEntity
  8
0
  6
DASH
 62
     3
100
AcDbLine
 10
105.3201422494839
 20
118.9732271892777
 30
0.0
 11
105.3201422494839
 21
116.9732271892778
 31
0.0
  0
LINE
  5
1FA
330
1E
100
AcDbEntity
  8
0
  6
DASH
 62
     3
100
AcDbLine
 10
163.6201300423838
 20
118.9732271892777
 30
0.0
 11
163.6201300423838
 21
116.9732271892778
 31
0.0
  0
LINE
  5
1FB
330
1E
100
AcDbEntity
  8
0
  6
DASH
 62
     3
100
AcDbLine
 10
128.1201300423838
 20
120.0232149822777
 30
0.0
 11
128.1201300423838
 21
115.9232393963778
 31
0.0
  0
LINE
  5
1FC
330
1E
100
AcDbEntity
  8
0
  6
DASH
 62
     3
100
AcDbLine
 10
132.6201300423837
 20
120.0232149822777
 30
0.0
 11
128.1201300423838
 21
120.0232149822777
 31
0.0
  0
LINE
  5
1FD
330
1E
100
AcDbEntity
  8
0
  6
DASH
 62
     3
100
AcDbLine
 10
132.6201300423837
 20
115.9232393963778
 30
0.0
 11
128.1201300423838
 21
115.9232393963778
 31
0.0
  0
LINE
  5
1FE
330
1E
100
AcDbEntity
  8
0
  6
DASH
 62
     3
100
AcDbLine
 10
133.6201300423838
 20
119.0232149822777
 30
0.0
 11
133.6201300423838
 21
116.9232088787776
 31
0.0
  0
LINE
  5
1FF
330
1E
100
AcDbEntity
  8
0
  6
DASH
 62
     3
100
AcDbLine
 10
133.6201300423838
 20
116.9732271892778
 30
0.0
 11
163.6201300423838
 21
116.9732271892778
 31
0.0
  0
LINE
  5
200
330
1E
100
AcDbEntity
  8
0
  6
DASH
 62
     3
100
AcDbLine
 10
133.6201300423838
 20
118.9732271892777
 30
0.0
 11
163.6201300423838
 21
118.9732271892777
 31
0.0
  0
LINE
  5
201
330
1E
100
AcDbEntity
  8
0
  6
DASH
 62
     3
100
AcDbLine
 10
162.1201300423838
 20
80.17333094907781
 30
0.0
 11
162.1201300423838
 21
102.9733492596776
 31
0.0
  0
LINE
  5
202
330
1E
100
AcDbEntity
  8
0
  6
DASH
 62
     3
100
AcDbLine
 10
160.1201300423839
 20
80.17333094907781
 30
0.0
 11
160.1201300423839
 21
102.9733492596776
 31
0.0
  0
LINE
  5
203
330
1E
100
AcDbEntity
  8
0
  6
DASH
 62
     3
100
AcDbLine
 10
160.1201300423839
 20
80.17333094907781
 30
0.0
 11
162.1201300423838
 21
80.17333094907781
 31
0.0
  0
LINE
  5
204
330
1E
100
AcDbEntity
  8
0
  6
DASH
 62
     3
100
AcDbLine
 10
160.1201300423839
 20
138.4733492596778
 30
0.0
 11
162.1201300423838
 21
138.4733492596778
 31
0.0
  0
ARC
  5
205
330
1E
100
AcDbEntity
  8
0
  6
DASH
 62
     3
100
AcDbCircle
 10
56.57171654530213
 20
89.6733004314778
 30
0.0
 40
3.1999988556
100
AcDbArc
 50
0.0
 51
179.9999640277999
  0
ARC
  5
206
330
1E
100
AcDbEntity
  8
0
  6
DASH
 62
     3
100
AcDbCircle
 10
46.05499291250214
 20
98.5733248455778
 30
0.0
 40
1.816666722299999
100
AcDbArc
 50
326.6015121850998
 51
33.3984878149
  0
LINE
  5
208
330
1E
100
AcDbEntity
  8
0
  6
DASH
 62
     3
100
AcDbLine
 10
85.57193016840209
 20
80.17330043147779
 30
0.0
 11
49.57193016840211
 21
80.17330043147779
 31
0.0
  0
LINE
  5
209
330
1E
100
AcDbEntity
  8
0
  6
DASH
 62
     3
100
AcDbLine
 10
78.57189965080215
 20
84.1733004314778
 30
0.0
 11
78.57189965080215
 21
94.1733004314778
 31
0.0
  0
LINE
  5
20A
330
1E
100
AcDbEntity
  8
0
  6
DASH
 62
     3
100
AcDbLine
 10
52.97180199460218
 20
107.4733187420777
 30
0.0
 11
52.97180199460218
 21
108.4733187420777
 31
0.0
  0
LINE
  5
20B
330
1E
100
AcDbEntity
  8
0
  6
DASH
 62
     3
100
AcDbLine
 10
56.57189965080214
 20
84.1733004314778
 30
0.0
 11
56.57189965080214
 21
94.1733004314778
 31
0.0
  0
LINE
  5
20C
330
1E
100
AcDbEntity
  8
0
  6
DASH
 62
     3
100
AcDbLine
 10
64.57180809810211
 20
96.17330043147781
 30
0.0
 11
70.57180809810211
 21
96.17330043147781
 31
0.0
  0
LINE
  5
20D
330
1E
100
AcDbEntity
  8
0
  6
DASH
 62
     3
100
AcDbLine
 10
64.57180809810211
 20
104.9733187420778
 30
0.0
 11
70.57180809810211
 21
104.9733187420778
 31
0.0
  0
LINE
  5
20E
330
1E
100
AcDbEntity
  8
0
  6
DASH
 62
     3
100
AcDbLine
 10
75.37191796130206
 20
88.67330043147779
 30
0.0
 11
75.37191796130206
 21
89.6733004314778
 31
0.0
  0
LINE
  5
20F
330
1E
100
AcDbEntity
  8
0
  6
DASH
 62
     3
100
AcDbLine
 10
81.77191185780214
 20
89.6733004314778
 30
0.0
 11
81.77191185780214
 21
88.67330043147779
 31
0.0
  0
LINE
  5
210
330
1E
100
AcDbEntity
  8
0
  6
DASH
 62
     3
100
AcDbLine
 10
59.7716982348021
 20
88.67330043147779
 30
0.0
 11
59.7716982348021
 21
89.6733004314778
 31
0.0
  0
LINE
  5
211
330
1E
100
AcDbEntity
  8
0
  6
DASH
 62
     3
100
AcDbLine
 10
53.37170433830214
 20
89.6733004314778
 30
0.0
 11
53.37170433830214
 21
88.67330043147779
 31
0.0
  0
LINE
  5
212
330
1E
100
AcDbEntity
  8
0
  6
DASH
 62
     3
100
AcDbLine
 10
87.57196068600212
 20
97.57332484557782
 30
0.0
 11
87.57196068600212
 21
82.17336146667781
 31
0.0
  0
LINE
  5
213
330
1E
100
AcDbEntity
  8
0
  6
DASH
 62
     3
100
AcDbLine
 10
47.57196068600211
 20
97.57378260927779
 30
0.0
 11
47.57196068600211
 21
82.17336146667781
 31
0.0
  0
LINE
  5
214
330
1E
100
AcDbEntity
  8
0
  6
DASH
 62
     3
100
AcDbLine
 10
46.22183251210214
 20
102.9733187420778
 30
0.0
 11
88.92181420160211
 21
102.9733187420778
 31
0.0
  0
LINE
  5
215
330
1E
100
AcDbEntity
  8
0
  6
DASH
 62
     3
100
AcDbLine
 10
88.92181420160211
 20
102.9733187420778
 30
0.0
 11
88.92181420160211
 21
106.4733187420777
 31
0.0
  0
LINE
  5
216
330
1E
100
AcDbEntity
  8
0
  6
DASH
 62
     3
100
AcDbLine
 10
46.22180199460212
 20
102.9733187420778
 30
0.0
 11
46.22180199460212
 21
106.4733187420777
 31
0.0
  0
LINE
  5
217
330
1E
100
AcDbEntity
  8
0
  6
DASH
 62
     3
100
AcDbLine
 10
87.57196068600212
 20
105.4733187420777
 30
0.0
 11
87.57196068600212
 21
99.57332484557779
 31
0.0
  0
LINE
  5
218
330
1E
100
AcDbEntity
  8
0
  6
DASH
 62
     3
100
AcDbLine
 10
71.57180809810211
 20
97.1733004314778
 30
0.0
 11
71.57180809810211
 21
103.9733187420778
 31
0.0
  0
LINE
  5
219
330
1E
100
AcDbEntity
  8
0
  6
DASH
 62
     3
100
AcDbLine
 10
63.57180809810211
 20
97.1733004314778
 30
0.0
 11
63.57180809810211
 21
103.9733187420778
 31
0.0
  0
LINE
  5
21A
330
1E
100
AcDbEntity
  8
0
  6
DASH
 62
     3
100
AcDbLine
 10
47.57196068600211
 20
105.4733187420777
 30
0.0
 11
47.57196068600211
 21
99.57283656427781
 31
0.0
  0
LINE
  5
21B
330
1E
100
AcDbEntity
  8
0
  6
DASH
 62
     3
100
AcDbLine
 10
48.22183251210214
 20
108.4733187420777
 30
0.0
 11
86.92181420160215
 21
108.4733187420777
 31
0.0
  0
ARC
  5
21E
330
1E
100
AcDbEntity
  8
0
 62
     3
100
AcDbCircle
 10
134.6201300423838
 20
152.6733309490778
 30
0.0
 40
1.0
100
AcDbArc
 50
180.0000359722
 51
270.0000179861
  0
ARC
  5
21F
330
1E
100
AcDbEntity
  8
0
 62
     3
100
AcDbCircle
 10
134.6201300423838
 20
203.0733248455778
 30
0.0
 40
1.0
100
AcDbArc
 50
89.99998201389999
 51
179.9999640277999
  0
ARC
  5
220
330
1E
100
AcDbEntity
  8
0
 62
     3
100
AcDbCircle
 10
134.1201300423839
 20
159.3733126385778
 30
0.0
 40
0.5
100
AcDbArc
 50
180.0000359722
 51
270.0000179861
  0
ARC
  5
221
330
1E
100
AcDbEntity
  8
0
 62
     3
100
AcDbCircle
 10
134.1201300423839
 20
196.3733126385775
 30
0.0
 40
0.5
100
AcDbArc
 50
89.99998201389999
 51
179.9999640277999
  0
ARC
  5
222
330
1E
100
AcDbEntity
  8
0
 62
     3
100
AcDbCircle
 10
89.57043480710217
 20
234.77745449883
 30
0.0
 40
9.0
100
AcDbArc
 50
254.1191724675999
 51
285.8808635044998
  0
ARC
  5
223
330
1E
100
AcDbEntity
  8
0
 62
     3
100
AcDbCircle
 10
87.46340966060211
 20
227.3713570867299
 30
0.0
 40
1.2999999523
100
AcDbArc
 50
185.0000076522
 51
254.1191724675999
  0
ARC
  5
224
330
1E
100
AcDbEntity
  8
0
 62
     3
100
AcDbCircle
 10
91.67745995350214
 20
227.3713570867299
 30
0.0
 40
1.2999999523
100
AcDbArc
 50
285.8808635044998
 51
355.0000009991999
  0
ARC
  5
225
330
1E
100
AcDbEntity
  8
0
 62
     3
100
AcDbCircle
 10
142.5201239388839
 20
155.3733126385778
 30
0.0
 40
9.0
100
AcDbArc
 50
164.1191185094
 51
195.8808095462998
  0
ARC
  5
226
330
1E
100
AcDbEntity
  8
0
 62
     3
100
AcDbCircle
 10
135.1140265267839
 20
153.2663180096776
 30
0.0
 40
1.2999999523
100
AcDbArc
 50
195.8808814906
 51
265.0000463061
  0
ARC
  5
227
330
1E
100
AcDbEntity
  8
0
 62
     3
100
AcDbCircle
 10
135.1140265267839
 20
157.4803377850778
 30
0.0
 40
1.2999999523
100
AcDbArc
 50
94.99995369389999
 51
164.1191185094
  0
ARC
  5
228
330
1E
100
AcDbEntity
  8
0
 62
     3
100
AcDbCircle
 10
89.57180809810211
 20
112.4733187420776
 30
0.0
 40
4.0
100
AcDbArc
 50
270.0000179861
 51
0.0
  0
ARC
  5
229
330
1E
100
AcDbEntity
  8
0
 62
     3
100
AcDbCircle
 10
92.57180809810213
 20
139.3733126385777
 30
0.0
 40
1.0
100
AcDbArc
 50
0.0
 51
89.99998201389999
  0
ARC
  5
22A
330
1E
100
AcDbEntity
  8
0
 62
     3
100
AcDbCircle
 10
45.57180809810211
 20
112.4733187420776
 30
0.0
 40
4.0
100
AcDbArc
 50
180.0000359722
 51
270.0000179861
  0
ARC
  5
22B
330
1E
100
AcDbEntity
  8
0
 62
     3
100
AcDbCircle
 10
42.57183861560213
 20
139.3733126385777
 30
0.0
 40
1.0
100
AcDbArc
 50
89.99998201389999
 51
179.9999640277999
  0
ARC
  5
22C
330
1E
100
AcDbEntity
  8
0
 62
     3
100
AcDbCircle
 10
134.6201300423838
 20
109.4733187420777
 30
0.0
 40
1.0
100
AcDbArc
 50
180.0000359722
 51
270.0000179861
  0
ARC
  5
22D
330
1E
100
AcDbEntity
  8
0
 62
     3
100
AcDbCircle
 10
134.6201300423838
 20
139.3733126385777
 30
0.0
 40
1.0
100
AcDbArc
 50
89.99998201389999
 51
179.9999640277999
  0
ARC
  5
22E
330
1E
100
AcDbEntity
  8
0
 62
     3
100
AcDbCircle
 10
134.6201300423838
 20
142.3733126385775
 30
0.0
 40
1.0
100
AcDbArc
 50
89.99998201389999
 51
179.9999640277999
  0
ARC
  5
22F
330
1E
100
AcDbEntity
  8
0
 62
     3
100
AcDbCircle
 10
89.27182030510213
 20
155.6733309490778
 30
0.0
 40
4.0
100
AcDbArc
 50
270.0000179861
 51
0.0
  0
ARC
  5
230
330
1E
100
AcDbEntity
  8
0
 62
     3
100
AcDbCircle
 10
45.87182640860206
 20
155.6733309490778
 30
0.0
 40
4.0
100
AcDbArc
 50
180.0000359722
 51
270.0000179861
  0
ARC
  5
231
330
1E
100
AcDbEntity
  8
0
 62
     3
100
AcDbCircle
 10
45.87182640860206
 20
200.0733248455778
 30
0.0
 40
4.0
100
AcDbArc
 50
89.99998201389999
 51
179.9999640277999
  0
ARC
  5
232
330
1E
100
AcDbEntity
  8
0
 62
     3
100
AcDbCircle
 10
134.6201300423838
 20
150.5732943279778
 30
0.0
 40
1.0
100
AcDbArc
 50
89.99998201389999
 51
179.9999640277999
  0
LINE
  5
233
330
1E
100
AcDbEntity
  8
0
 62
     3
100
AcDbLine
 10
44.47180199460212
 20
161.8733431560776
 30
0.0
 11
44.47180199460212
 21
193.8733431560778
 31
0.0
  0
LINE
  5
234
330
1E
100
AcDbEntity
  8
0
 62
     3
100
AcDbLine
 10
44.47180199460212
 20
161.8733431560776
 30
0.0
 11
43.47180199460209
 21
161.8733431560776
 31
0.0
  0
LINE
  5
235
330
1E
100
AcDbEntity
  8
0
  6
CENTER
 62
     3
100
AcDbLine
 10
88.57180809810211
 20
142.1225802166778
 30
0.0
 11
88.57180809810211
 21
149.7785860760778
 31
0.0
  0
LINE
  5
236
330
1E
100
AcDbEntity
  8
0
  6
CENTER
 62
     3
100
AcDbLine
 10
83.8840639574021
 20
145.8733431560778
 30
0.0
 11
92.61404442620213
 21
145.8733431560778
 31
0.0
  0
LINE
  5
237
330
1E
100
AcDbEntity
  8
0
 62
     3
100
AcDbLine
 10
83.07181532090217
 20
143.4733570436778
 30
0.0
 11
86.17181671520212
 21
140.3733559105778
 31
0.0
  0
LINE
  5
238
330
1E
100
AcDbEntity
  8
0
 62
     3
100
AcDbLine
 10
83.0718080981021
 20
143.4733492596778
 30
0.0
 11
83.0718080981021
 21
151.6733309490778
 31
0.0
  0
LINE
  5
239
330
1E
100
AcDbEntity
  8
0
 62
     3
100
AcDbLine
 10
93.57180809810213
 20
141.3733431560776
 30
0.0
 11
93.57180809810213
 21
200.3733431560775
 31
0.0
  0
LINE
  5
23A
330
1E
100
AcDbEntity
  8
0
 62
     3
100
AcDbLine
 10
83.0718080981021
 20
157.8733431560776
 30
0.0
 11
83.0718080981021
 21
158.8733431560776
 31
0.0
  0
LINE
  5
23B
330
1E
100
AcDbEntity
  8
0
 62
     3
100
AcDbLine
 10
86.07180809810211
 20
203.0733248455778
 30
0.0
 11
86.07180809810211
 21
200.3733431560775
 31
0.0
  0
LINE
  5
23C
330
1E
100
AcDbEntity
  8
0
 62
     3
100
AcDbLine
 10
45.57180809810211
 20
158.8733431560776
 30
0.0
 11
42.67181420160214
 21
158.8733431560776
 31
0.0
  0
LINE
  5
23D
330
1E
100
AcDbEntity
  8
0
 62
     3
100
AcDbLine
 10
89.57180809810211
 20
196.8733431560778
 30
0.0
 11
92.47183251210216
 21
196.8733431560778
 31
0.0
  0
ARC
  5
23E
330
1E
100
AcDbEntity
  8
0
 62
     3
100
AcDbCircle
 10
89.27182030510213
 20
200.0733248455778
 30
0.0
 40
4.0
100
AcDbArc
 50
0.0
 51
89.99998201389999
  0
ARC
  5
23F
330
1E
100
AcDbEntity
  8
0
 62
     3
100
AcDbCircle
 10
92.27182030510212
 20
159.8733431560776
 30
0.0
 40
1.0
100
AcDbArc
 50
270.0000179861
 51
0.0
  0
ARC
  5
240
330
1E
100
AcDbEntity
  8
0
 62
     3
100
AcDbCircle
 10
85.07180809810211
 20
152.6733309490778
 30
0.0
 40
1.0
100
AcDbArc
 50
270.0000179861
 51
0.0
  0
ARC
  5
241
330
1E
100
AcDbEntity
  8
0
 62
     3
100
AcDbCircle
 10
85.07180809810211
 20
203.0733248455778
 30
0.0
 40
1.0
100
AcDbArc
 50
0.0
 51
89.99998201389999
  0
ARC
  5
242
330
1E
100
AcDbEntity
  8
0
 62
     3
100
AcDbCircle
 10
89.57180809810211
 20
200.3733431560775
 30
0.0
 40
3.5
100
AcDbArc
 50
180.0000359722
 51
270.0000179861
  0
ARC
  5
243
330
1E
100
AcDbEntity
  8
0
 62
     3
100
AcDbCircle
 10
89.57180809810211
 20
155.3733431560778
 30
0.0
 40
3.5
100
AcDbArc
 50
89.99998201389999
 51
179.9999640277999
  0
ARC
  5
244
330
1E
100
AcDbEntity
  8
0
 62
     3
100
AcDbCircle
 10
92.27182030510212
 20
195.8733431560778
 30
0.0
 40
1.0
100
AcDbArc
 50
0.0
 51
89.99998201389999
  0
ARC
  5
245
330
1E
100
AcDbEntity
  8
0
 62
     3
100
AcDbCircle
 10
45.57180809810211
 20
155.3733431560778
 30
0.0
 40
3.5
100
AcDbArc
 50
0.0
 51
89.99998201389999
  0
ARC
  5
246
330
1E
100
AcDbEntity
  8
0
 62
     3
100
AcDbCircle
 10
42.87182640860208
 20
159.8733431560776
 30
0.0
 40
1.0
100
AcDbArc
 50
180.0000359722
 51
270.0000179861
  0
ARC
  5
247
330
1E
100
AcDbEntity
  8
0
 62
     3
100
AcDbCircle
 10
50.07180809810211
 20
203.0733248455778
 30
0.0
 40
1.0
100
AcDbArc
 50
89.99998201389999
 51
179.9999640277999
  0
ARC
  5
248
330
1E
100
AcDbEntity
  8
0
 62
     3
100
AcDbCircle
 10
45.57180809810211
 20
200.3733431560775
 30
0.0
 40
3.5
100
AcDbArc
 50
270.0000179861
 51
0.0
  0
ARC
  5
249
330
1E
100
AcDbEntity
  8
0
 62
     3
100
AcDbCircle
 10
42.87182640860208
 20
195.8733431560778
 30
0.0
 40
1.0
100
AcDbArc
 50
89.99998201389999
 51
179.9999640277999
  0
ARC
  5
24A
330
1E
100
AcDbEntity
  8
0
 62
     3
100
AcDbCircle
 10
50.07180809810211
 20
152.6733309490778
 30
0.0
 40
1.0
100
AcDbArc
 50
180.0000359722
 51
270.0000179861
  0
ARC
  5
24B
330
1E
100
AcDbEntity
  8
0
 62
     3
100
AcDbCircle
 10
89.57180809810211
 20
155.3733431560778
 30
0.0
 40
4.0
100
AcDbArc
 50
270.0000179861
 51
0.0
  0
ARC
  5
24C
330
1E
100
AcDbEntity
  8
0
 62
     3
100
AcDbCircle
 10
95.3731386645021
 20
51.50863471559245
 30
0.0
 40
0.5
100
AcDbArc
 50
0.0
 51
89.99998201389999
  0
ARC
  5
24D
330
1E
100
AcDbEntity
  8
0
 62
     3
100
AcDbCircle
 10
80.07180809810211
 20
205.8733431560777
 30
0.0
 40
0.5
100
AcDbArc
 50
0.0
 51
89.99998201389999
  0
ARC
  5
24E
330
1E
100
AcDbEntity
  8
0
 62
     3
100
AcDbCircle
 10
89.57180809810211
 20
200.3733431560775
 30
0.0
 40
4.0
100
AcDbArc
 50
0.0
 51
89.99998201389999
  0
ARC
  5
24F
330
1E
100
AcDbEntity
  8
0
 62
     3
100
AcDbCircle
 10
45.57180809810211
 20
155.3733431560778
 30
0.0
 40
4.0
100
AcDbArc
 50
180.0000359722
 51
270.0000179861
  0
ARC
  5
250
330
1E
100
AcDbEntity
  8
0
 62
     3
100
AcDbCircle
 10
39.77313256100211
 20
26.50863471559245
 30
0.0
 40
0.5
100
AcDbArc
 50
180.0000359722
 51
270.0000179861
  0
ARC
  5
251
330
1E
100
AcDbEntity
  8
0
 62
     3
100
AcDbCircle
 10
95.3731386645021
 20
26.50863471559245
 30
0.0
 40
0.5
100
AcDbArc
 50
270.0000179861
 51
0.0
  0
LINE
  5
252
330
1E
100
AcDbEntity
  8
0
 62
     3
100
AcDbLine
 10
89.57180809810211
 20
158.8733431560776
 30
0.0
 11
92.47183251210216
 21
158.8733431560776
 31
0.0
  0
ARC
  5
253
330
1E
100
AcDbEntity
  8
0
 62
     3
100
AcDbCircle
 10
39.77313256100211
 20
51.50863471559245
 30
0.0
 40
0.5
100
AcDbArc
 50
89.99998201389999
 51
179.9999640277999
  0
ARC
  5
254
330
1E
100
AcDbEntity
  8
0
 62
     3
100
AcDbCircle
 10
55.07180809810211
 20
205.8733431560777
 30
0.0
 40
0.5
100
AcDbArc
 50
89.99998201389999
 51
179.9999640277999
  0
ARC
  5
255
330
1E
100
AcDbEntity
  8
0
 62
     3
100
AcDbCircle
 10
45.57180809810211
 20
200.3733431560775
 30
0.0
 40
4.0
100
AcDbArc
 50
89.99998201389999
 51
179.9999640277999
  0
CIRCLE
  5
256
330
1E
100
AcDbEntity
  8
0
 62
     3
100
AcDbCircle
 10
46.57180809810211
 20
145.8733431560778
 30
0.0
 40
2.6999988556
  0
CIRCLE
  5
257
330
1E
100
AcDbEntity
  8
0
 62
     3
100
AcDbCircle
 10
88.57180809810211
 20
145.8733431560778
 30
0.0
 40
2.6999988556
  0
ARC
  5
258
330
1E
100
AcDbEntity
  8
0
 62
     3
100
AcDbCircle
 10
42.5718080981021
 20
141.3733431560776
 30
0.0
 40
1.0
100
AcDbArc
 50
180.0000359722
 51
270.0000179861
  0
LINE
  5
259
330
1E
100
AcDbEntity
  8
0
 62
     3
100
AcDbLine
 10
52.07180809810211
 20
157.8733431560776
 30
0.0
 11
52.07180809810211
 21
158.8733431560776
 31
0.0
  0
LINE
  5
25A
330
1E
100
AcDbEntity
  8
0
 62
     3
100
AcDbLine
 10
49.07180809810211
 20
152.6733309490778
 30
0.0
 11
49.07180809810211
 21
155.3733431560778
 31
0.0
  0
LINE
  5
25B
330
1E
100
AcDbEntity
  8
0
 62
     3
100
AcDbLine
 10
43.47180199460209
 20
161.8733431560776
 30
0.0
 11
43.47180199460209
 21
193.8733431560778
 31
0.0
  0
LINE
  5
25C
330
1E
100
AcDbEntity
  8
0
 62
     3
100
AcDbLine
 10
86.17181420160216
 20
140.3733431560777
 30
0.0
 11
92.57180809810213
 21
140.3733431560777
 31
0.0
  0
LINE
  5
25D
330
1E
100
AcDbEntity
  8
0
 62
     3
100
AcDbLine
 10
44.47180199460212
 20
193.8733431560778
 30
0.0
 11
43.47180199460209
 21
193.8733431560778
 31
0.0
  0
LINE
  5
25E
330
1E
100
AcDbEntity
  8
0
 62
     3
100
AcDbLine
 10
135.7201361458839
 20
151.5732943279778
 30
0.0
 11
135.7201361458839
 21
151.6733309490778
 31
0.0
  0
LINE
  5
25F
330
1E
100
AcDbEntity
  8
0
 62
     3
100
AcDbLine
 10
90.67181420160212
 20
193.8733431560778
 30
0.0
 11
91.67181420160211
 21
193.8733431560778
 31
0.0
  0
LINE
  5
260
330
1E
100
AcDbEntity
  8
0
 62
     3
100
AcDbLine
 10
51.97181642580209
 20
119.8733520924778
 30
0.0
 11
50.47182562300212
 21
121.3733428952778
 31
0.0
  0
LINE
  5
261
330
1E
100
AcDbEntity
  8
0
 62
     3
100
AcDbLine
 10
84.67181580390215
 20
121.3733442439778
 30
0.0
 11
83.17182500110209
 21
119.8733534411777
 31
0.0
  0
LINE
  5
262
330
1E
100
AcDbEntity
  8
0
 62
     3
100
AcDbLine
 10
83.17182500110209
 20
115.8733491947776
 30
0.0
 11
84.67183738310211
 21
114.3733368127778
 31
0.0
  0
LINE
  5
263
330
1E
100
AcDbEntity
  8
0
 62
     3
100
AcDbLine
 10
45.67181420160214
 20
151.6733309490778
 30
0.0
 11
89.47183251210214
 21
151.6733309490778
 31
0.0
  0
LINE
  5
264
330
1E
100
AcDbEntity
  8
0
 62
     3
100
AcDbLine
 10
45.67181420160214
 20
204.0733553631778
 30
0.0
 11
89.47183251210214
 21
204.0733553631778
 31
0.0
  0
LINE
  5
265
330
1E
100
AcDbEntity
  8
0
 62
     3
100
AcDbLine
 10
41.87179589100213
 20
155.3733431560778
 30
0.0
 11
41.87179589100213
 21
200.3733431560775
 31
0.0
  0
LINE
  5
266
330
1E
100
AcDbEntity
  8
0
 62
     3
100
AcDbLine
 10
93.27182030510213
 20
155.3733431560778
 30
0.0
 11
93.27182030510213
 21
200.3733431560775
 31
0.0
  0
LINE
  5
267
330
1E
100
AcDbEntity
  8
0
 62
     3
100
AcDbLine
 10
86.07180809810211
 20
152.6733309490778
 30
0.0
 11
86.07180809810211
 21
155.3733431560778
 31
0.0
  0
ARC
  5
268
330
1E
100
AcDbEntity
  8
0
 62
     3
100
AcDbCircle
 10
92.57180809810213
 20
141.3733431560776
 30
0.0
 40
1.0
100
AcDbArc
 50
270.0000179861
 51
0.0
  0
ARC
  5
269
330
1E
100
AcDbEntity
  8
0
 62
     3
100
AcDbCircle
 10
141.1201300423838
 20
205.8733431560777
 30
0.0
 40
0.5
100
AcDbArc
 50
89.99998201389999
 51
179.9999640277999
  0
ARC
  5
26A
330
1E
100
AcDbEntity
  8
0
 62
     3
100
AcDbCircle
 10
166.1201300423838
 20
205.8733431560777
 30
0.0
 40
0.5
100
AcDbArc
 50
0.0
 51
89.99998201389999
  0
CIRCLE
  5
26B
330
1E
100
AcDbEntity
  8
0
 62
     3
100
AcDbCircle
 10
153.6201300423838
 20
182.3733126385778
 30
0.0
 40
13.0
  0
CIRCLE
  5
26C
330
1E
100
AcDbEntity
  8
0
 62
     3
100
AcDbCircle
 10
153.6201300423838
 20
182.3733126385778
 30
0.0
 40
10.5
  0
CIRCLE
  5
26D
330
1E
100
AcDbEntity
  8
0
 62
     3
100
AcDbCircle
 10
153.6201300423838
 20
182.3733126385778
 30
0.0
 40
9.5
  0
CIRCLE
  5
26E
330
1E
100
AcDbEntity
  8
0
 62
     3
100
AcDbCircle
 10
153.6201300423838
 20
182.3733126385778
 30
0.0
 40
8.299999237099999
  0
CIRCLE
  5
26F
330
1E
100
AcDbEntity
  8
0
 62
     3
100
AcDbCircle
 10
67.57043480710217
 20
245.87746060233
 30
0.0
 40
13.0
  0
CIRCLE
  5
270
330
1E
100
AcDbEntity
  8
0
 62
     3
100
AcDbCircle
 10
67.57043480710217
 20
245.87746060233
 30
0.0
 40
8.299999237099999
  0
CIRCLE
  5
271
330
1E
100
AcDbEntity
  8
0
 62
     3
100
AcDbCircle
 10
67.57043480710217
 20
245.87746060233
 30
0.0
 40
9.5
  0
CIRCLE
  5
272
330
1E
100
AcDbEntity
  8
0
 62
     3
100
AcDbCircle
 10
67.57043480710217
 20
245.87746060233
 30
0.0
 40
10.5
  0
ARC
  5
273
330
1E
100
AcDbEntity
  8
0
 62
     3
100
AcDbCircle
 10
95.37045311760213
 20
233.37746060233
 30
0.0
 40
0.5
100
AcDbArc
 50
270.0000179861
 51
0.0
  0
ARC
  5
274
330
1E
100
AcDbEntity
  8
0
 62
     3
100
AcDbCircle
 10
95.37045311760213
 20
258.3774606023299
 30
0.0
 40
0.5
100
AcDbArc
 50
0.0
 51
89.99998201389999
  0
ARC
  5
275
330
1E
100
AcDbEntity
  8
0
 62
     3
100
AcDbCircle
 10
39.77044701410216
 20
233.37746060233
 30
0.0
 40
0.5
100
AcDbArc
 50
180.0000359722
 51
270.0000179861
  0
ARC
  5
276
330
1E
100
AcDbEntity
  8
0
 62
     3
100
AcDbCircle
 10
39.77041649650209
 20
258.3774606023299
 30
0.0
 40
0.5
100
AcDbArc
 50
89.99998201389999
 51
179.9999640277999
  0
ARC
  5
277
330
1E
100
AcDbEntity
  8
0
 62
     3
100
AcDbCircle
 10
42.87045311760214
 20
229.3774606023299
 30
0.0
 40
1.0
100
AcDbArc
 50
179.9999640277999
 51
270.0000006831999
  0
ARC
  5
278
330
1E
100
AcDbEntity
  8
0
 62
     3
100
AcDbCircle
 10
92.27044701410212
 20
226.87746060233
 30
0.0
 40
1.0
100
AcDbArc
 50
270.0000179861
 51
0.0
  0
ARC
  5
279
330
1E
100
AcDbEntity
  8
0
 62
     3
100
AcDbCircle
 10
92.27044701410212
 20
229.3774606023299
 30
0.0
 40
1.0
100
AcDbArc
 50
270.0000179861
 51
0.0
  0
ARC
  5
27A
330
1E
100
AcDbEntity
  8
0
 62
     3
100
AcDbCircle
 10
85.07043480710217
 20
226.87746060233
 30
0.0
 40
1.0
100
AcDbArc
 50
270.0000179861
 51
0.0
  0
ARC
  5
27B
330
1E
100
AcDbEntity
  8
0
 62
     3
100
AcDbCircle
 10
50.07043480710212
 20
226.87746060233
 30
0.0
 40
1.0
100
AcDbArc
 50
179.9999640277999
 51
270.0000006831999
  0
ARC
  5
27C
330
1E
100
AcDbEntity
  8
0
 62
     3
100
AcDbCircle
 10
42.87045311760214
 20
226.87746060233
 30
0.0
 40
1.0
100
AcDbArc
 50
179.9999640277999
 51
270.0000006831999
  0
ARC
  5
27D
330
1E
100
AcDbEntity
  8
0
 62
     3
100
AcDbCircle
 10
135.1140265267839
 20
198.2663180096775
 30
0.0
 40
1.2999999523
100
AcDbArc
 50
195.8808814906
 51
265.0000463061
  0
ARC
  5
27E
330
1E
100
AcDbEntity
  8
0
 62
     3
100
AcDbCircle
 10
142.5201239388839
 20
200.3733431560775
 30
0.0
 40
9.0
100
AcDbArc
 50
164.1191185094
 51
195.8808095462998
  0
ARC
  5
27F
330
1E
100
AcDbEntity
  8
0
 62
     3
100
AcDbCircle
 10
135.1140265267839
 20
202.4803377850778
 30
0.0
 40
1.2999999523
100
AcDbArc
 50
94.99995369389999
 51
164.1191185094
  0
ARC
  5
280
330
1E
100
AcDbEntity
  8
0
 62
     3
100
AcDbCircle
 10
47.67745995350213
 20
227.3713570867299
 30
0.0
 40
1.2999999523
100
AcDbArc
 50
285.8808635044998
 51
355.0000009991999
  0
ARC
  5
281
330
1E
100
AcDbEntity
  8
0
 62
     3
100
AcDbCircle
 10
45.57043480710212
 20
234.77745449883
 30
0.0
 40
9.0
100
AcDbArc
 50
254.1191724675999
 51
285.8808635044998
  0
ARC
  5
282
330
1E
100
AcDbEntity
  8
0
 62
     3
100
AcDbCircle
 10
43.46344017810213
 20
227.3713570867299
 30
0.0
 40
1.2999999523
100
AcDbArc
 50
185.0000076522
 51
254.1191724675999
  0
CIRCLE
  5
283
330
1E
100
AcDbEntity
  8
0
 62
     3
100
AcDbCircle
 10
89.57180809810211
 20
200.3733431560775
 30
0.0
 40
3.5
  0
ARC
  5
284
330
1E
100
AcDbEntity
  8
0
 62
     3
100
AcDbCircle
 10
90.97180199460217
 20
201.7733370525778
 30
0.0
 40
1.0
100
AcDbArc
 50
180.0000359722
 51
270.0000179861
  0
ARC
  5
285
330
1E
100
AcDbEntity
  8
0
 62
     3
100
AcDbCircle
 10
88.17178368400211
 20
201.7733370525778
 30
0.0
 40
1.0
100
AcDbArc
 50
270.0000179861
 51
0.0
  0
ARC
  5
286
330
1E
100
AcDbEntity
  8
0
 62
     3
100
AcDbCircle
 10
88.17178368400211
 20
198.9733492596775
 30
0.0
 40
1.0
100
AcDbArc
 50
0.0
 51
89.99998201389999
  0
ARC
  5
287
330
1E
100
AcDbEntity
  8
0
 62
     3
100
AcDbCircle
 10
90.97180199460217
 20
198.9733492596775
 30
0.0
 40
1.0
100
AcDbArc
 50
89.99998201389999
 51
179.9999640277999
  0
ARC
  5
288
330
1E
100
AcDbEntity
  8
0
 62
     3
100
AcDbCircle
 10
90.97180199460217
 20
156.7733370525778
 30
0.0
 40
1.0
100
AcDbArc
 50
180.0000359722
 51
270.0000179861
  0
ARC
  5
289
330
1E
100
AcDbEntity
  8
0
 62
     3
100
AcDbCircle
 10
88.17178368400211
 20
156.7733370525778
 30
0.0
 40
1.0
100
AcDbArc
 50
270.0000179861
 51
0.0
  0
ARC
  5
28A
330
1E
100
AcDbEntity
  8
0
 62
     3
100
AcDbCircle
 10
88.17178368400211
 20
153.9733492596778
 30
0.0
 40
1.0
100
AcDbArc
 50
0.0
 51
89.99998201389999
  0
ARC
  5
28B
330
1E
100
AcDbEntity
  8
0
 62
     3
100
AcDbCircle
 10
90.97180199460217
 20
153.9733492596778
 30
0.0
 40
1.0
100
AcDbArc
 50
89.99998201389999
 51
179.9999640277999
  0
CIRCLE
  5
28C
330
1E
100
AcDbEntity
  8
0
 62
     3
100
AcDbCircle
 10
89.57180809810211
 20
155.3733431560778
 30
0.0
 40
3.5
  0
ARC
  5
28D
330
1E
100
AcDbEntity
  8
0
 62
     3
100
AcDbCircle
 10
46.97180199460212
 20
156.7733370525778
 30
0.0
 40
1.0
100
AcDbArc
 50
180.0000359722
 51
270.0000179861
  0
ARC
  5
28E
330
1E
100
AcDbEntity
  8
0
 62
     3
100
AcDbCircle
 10
44.17181420160214
 20
156.7733370525778
 30
0.0
 40
1.0
100
AcDbArc
 50
270.0000179861
 51
0.0
  0
ARC
  5
28F
330
1E
100
AcDbEntity
  8
0
 62
     3
100
AcDbCircle
 10
44.17181420160214
 20
153.9733492596778
 30
0.0
 40
1.0
100
AcDbArc
 50
0.0
 51
89.99998201389999
  0
ARC
  5
290
330
1E
100
AcDbEntity
  8
0
 62
     3
100
AcDbCircle
 10
46.97180199460212
 20
153.9733492596778
 30
0.0
 40
1.0
100
AcDbArc
 50
89.99998201389999
 51
179.9999640277999
  0
CIRCLE
  5
291
330
1E
100
AcDbEntity
  8
0
 62
     3
100
AcDbCircle
 10
45.57180809810211
 20
155.3733431560778
 30
0.0
 40
3.5
  0
ARC
  5
292
330
1E
100
AcDbEntity
  8
0
 62
     3
100
AcDbCircle
 10
46.97180199460212
 20
201.7733370525778
 30
0.0
 40
1.0
100
AcDbArc
 50
180.0000359722
 51
270.0000179861
  0
ARC
  5
293
330
1E
100
AcDbEntity
  8
0
 62
     3
100
AcDbCircle
 10
44.17181420160214
 20
201.7733370525778
 30
0.0
 40
1.0
100
AcDbArc
 50
270.0000179861
 51
0.0
  0
ARC
  5
294
330
1E
100
AcDbEntity
  8
0
 62
     3
100
AcDbCircle
 10
44.17181420160214
 20
198.9733492596775
 30
0.0
 40
1.0
100
AcDbArc
 50
0.0
 51
89.99998201389999
  0
ARC
  5
295
330
1E
100
AcDbEntity
  8
0
 62
     3
100
AcDbCircle
 10
46.97180199460212
 20
198.9733492596775
 30
0.0
 40
1.0
100
AcDbArc
 50
89.99998201389999
 51
179.9999640277999
  0
CIRCLE
  5
296
330
1E
100
AcDbEntity
  8
0
 62
     3
100
AcDbCircle
 10
45.57180809810211
 20
200.3733431560775
 30
0.0
 40
3.5
  0
ARC
  5
297
330
1E
100
AcDbEntity
  8
0
 62
     3
100
AcDbCircle
 10
92.57312035390215
 20
58.00863471559245
 30
0.0
 40
1.0
100
AcDbArc
 50
0.0
 51
89.99998201389999
  0
ARC
  5
298
330
1E
100
AcDbEntity
  8
0
 62
     3
100
AcDbCircle
 10
42.57315087150209
 20
58.00863471559245
 30
0.0
 40
1.0
100
AcDbArc
 50
89.99998201389999
 51
179.9999640277999
  0
ARC
  5
299
330
1E
100
AcDbEntity
  8
0
 62
     3
100
AcDbCircle
 10
95.37179589100214
 20
169.8733431560778
 30
0.0
 40
0.5
100
AcDbArc
 50
270.0000179861
 51
0.0
  0
ARC
  5
29A
330
1E
100
AcDbEntity
  8
0
 62
     3
100
AcDbCircle
 10
95.37179589100214
 20
194.8733431560778
 30
0.0
 40
0.5
100
AcDbArc
 50
0.0
 51
89.99998201389999
  0
ARC
  5
29B
330
1E
100
AcDbEntity
  8
0
 62
     3
100
AcDbCircle
 10
39.77182030510213
 20
169.8733431560778
 30
0.0
 40
0.5
100
AcDbArc
 50
180.0000359722
 51
270.0000179861
  0
ARC
  5
29C
330
1E
100
AcDbEntity
  8
0
 62
     3
100
AcDbCircle
 10
39.77182030510213
 20
194.8733431560778
 30
0.0
 40
0.5
100
AcDbArc
 50
89.99998201389999
 51
179.9999640277999
  0
LINE
  5
29D
330
1E
100
AcDbEntity
  8
0
  6
DASH
 62
     3
100
AcDbLine
 10
159.0701422494839
 20
107.4733492596776
 30
0.0
 11
159.0701422494839
 21
102.9733492596776
 31
0.0
  0
LINE
  5
29E
330
1E
100
AcDbEntity
  8
0
  6
DASH
 62
     3
100
AcDbLine
 10
163.1701483529839
 20
107.4733492596776
 30
0.0
 11
163.1701483529839
 21
102.9733492596776
 31
0.0
  0
LINE
  5
29F
330
1E
100
AcDbEntity
  8
0
  6
DASH
 62
     3
100
AcDbLine
 10
159.0701422494839
 20
102.9733492596776
 30
0.0
 11
163.1701483529839
 21
102.9733492596776
 31
0.0
  0
LINE
  5
2A0
330
1E
100
AcDbEntity
  8
0
  6
DASH
 62
     3
100
AcDbLine
 10
82.17181420160216
 20
107.4733187420777
 30
0.0
 11
85.57196068600211
 21
107.4733187420777
 31
0.0
  0
LINE
  5
2A1
330
1E
100
AcDbEntity
  8
0
  6
DASH
 62
     3
100
AcDbLine
 10
49.57196068600211
 20
107.4733187420777
 30
0.0
 11
52.97183251210213
 21
107.4733187420777
 31
0.0
  0
ARC
  5
2A2
330
1E
100
AcDbEntity
  8
0
  6
DASH
 62
     3
100
AcDbCircle
 10
56.57171654530213
 20
88.67330043147779
 30
0.0
 40
3.1999988556
100
AcDbArc
 50
180.0000359722
 51
0.0
  0
LINE
  5
2A4
330
1E
100
AcDbEntity
  8
0
  6
CENTER
 62
     3
100
AcDbLine
 10
83.57193016840211
 20
89.1733004314778
 30
0.0
 11
51.5719301684021
 21
89.1733004314778
 31
0.0
  0
ARC
  5
2A5
330
1E
100
AcDbEntity
  8
0
  6
DASH
 62
     3
100
AcDbCircle
 10
89.08862328360212
 20
98.5733248455778
 30
0.0
 40
1.816666722299999
100
AcDbArc
 50
146.6014864581999
 51
213.3984415974
  0
ARC
  5
2A6
330
1E
100
AcDbEntity
  8
0
  6
DASH
 62
     3
100
AcDbCircle
 10
86.92181420160215
 20
106.4733187420777
 30
0.0
 40
2.0
100
AcDbArc
 50
0.0
 51
89.99998201389999
  0
ARC
  5
2A7
330
1E
100
AcDbEntity
  8
0
  6
DASH
 62
     3
100
AcDbCircle
 10
48.22183251210214
 20
106.4733187420777
 30
0.0
 40
2.0
100
AcDbArc
 50
89.99998201389999
 51
179.9999640277999
  0
ARC
  5
2A8
330
1E
100
AcDbEntity
  8
0
  6
DASH
 62
     3
100
AcDbCircle
 10
85.57186913320213
 20
82.1733004314778
 30
0.0
 40
2.0
100
AcDbArc
 50
270.0000726275999
 51
0.0004551182000068
  0
ARC
  5
2A9
330
1E
100
AcDbEntity
  8
0
  6
DASH
 62
     3
100
AcDbCircle
 10
49.5718996508021
 20
82.1733004314778
 30
0.0
 40
2.0
100
AcDbArc
 50
179.9995268956999
 51
270.0000006831999
  0
ARC
  5
2AA
330
1E
100
AcDbEntity
  8
0
  6
DASH
 62
     3
100
AcDbCircle
 10
48.07165551020212
 20
104.2134920818778
 30
0.0
 40
0.5
100
AcDbArc
 50
179.9990897636
 51
209.4804265233999
  0
ARC
  5
2AB
330
1E
100
AcDbEntity
  8
0
  6
DASH
 62
     3
100
AcDbCircle
 10
48.07165551020212
 20
101.9331881267777
 30
0.0
 40
0.5
100
AcDbArc
 50
150.5182994189
 51
179.9990351221
  0
ARC
  5
2AC
330
1E
100
AcDbEntity
  8
0
  6
DASH
 62
     3
100
AcDbCircle
 10
70.57180809810211
 20
97.1733004314778
 30
0.0
 40
1.0
100
AcDbArc
 50
270.0000179861
 51
0.0
  0
ARC
  5
2AD
330
1E
100
AcDbEntity
  8
0
  6
DASH
 62
     3
100
AcDbCircle
 10
64.57180809810211
 20
97.1733004314778
 30
0.0
 40
1.0
100
AcDbArc
 50
180.0000359722
 51
270.0000179861
  0
ARC
  5
2AE
330
1E
100
AcDbEntity
  8
0
  6
DASH
 62
     3
100
AcDbCircle
 10
64.57180809810211
 20
103.9733187420778
 30
0.0
 40
1.0
100
AcDbArc
 50
89.99998201389999
 51
179.9999640277999
  0
ARC
  5
2AF
330
1E
100
AcDbEntity
  8
0
  6
DASH
 62
     3
100
AcDbCircle
 10
70.57180809810211
 20
103.9733187420778
 30
0.0
 40
1.0
100
AcDbArc
 50
0.0
 51
89.99998201389999
  0
ARC
  5
2B0
330
1E
100
AcDbEntity
  8
0
  6
DASH
 62
     3
100
AcDbCircle
 10
49.57196068600211
 20
105.4733187420777
 30
0.0
 40
2.0
100
AcDbArc
 50
89.99998201389999
 51
179.9999640277999
  0
ARC
  5
2B1
330
1E
100
AcDbEntity
  8
0
  6
DASH
 62
     3
100
AcDbCircle
 10
85.57196068600211
 20
105.4733187420777
 30
0.0
 40
2.0
100
AcDbArc
 50
0.0
 51
89.99998201389999
  0
ARC
  5
2B2
330
1E
100
AcDbEntity
  8
0
  6
DASH
 62
     3
100
AcDbCircle
 10
78.57193016840209
 20
88.67330043147779
 30
0.0
 40
3.1999988556
100
AcDbArc
 50
180.0000359722
 51
0.0
  0
ARC
  5
2B3
330
1E
100
AcDbEntity
  8
0
  6
DASH
 62
     3
100
AcDbCircle
 10
78.57193016840209
 20
89.6733004314778
 30
0.0
 40
3.1999988556
100
AcDbArc
 50
0.0
 51
179.9999640277999
  0
LINE
  5
2D3
330
1E
100
AcDbEntity
  8
0
100
AcDbLine
 10
0.0
 20
0.0
 30
0.0
 11
210.0
 21
0.0
 31
0.0
  0
LINE
  5
2D4
330
1E
100
AcDbEntity
  8
0
100
AcDbLine
 10
210.0
 20
0.0
 30
0.0
 11
210.0
 21
297.0
 31
0.0
  0
LINE
  5
2D5
330
1E
100
AcDbEntity
  8
0
100
AcDbLine
 10
210.0
 20
297.0
 30
0.0
 11
0.0
 21
297.0
 31
0.0
  0
LINE
  5
2D6
330
1E
100
AcDbEntity
  8
0
100
AcDbLine
 10
0.0
 20
297.0
 30
0.0
 11
0.0
 21
0.0
 31
0.0
  0
TEXT
  5
2D7
330
1E
100
AcDbEntity
  8
0
 62
     5
100
AcDbText
 10
145.0
 20
10.0
 30
0.0
 40
5.0
  1
ＭＡ４－Ｅ００００８Ｄ
 41
0.8443967743953098
 72
     5
 11
199.0413935612998
 21
10.0
 31
0.0
100
AcDbText
  0
TEXT
  5
2F0
330
1E
100
AcDbEntity
  8
0
 62
     7
100
AcDbText
 10
146.0
 20
55.00000295525
 30
0.0
 40
2.999994089499998
  1
HS2B-11NB
 11
146.0
 21
56.5
 31
0.0
100
AcDbText
 73
     2
  0
ENDSEC
  0
SECTION
  2
OBJECTS
  0
DICTIONARY
  5
C
330
0
100
AcDbDictionary
281
     1
  3
ACAD_GROUP
350
D
  3
ACAD_LAYOUT
350
19
  3
ACAD_MLINESTYLE
350
16
  3
ACAD_PLOTSETTINGS
350
18
  3
ACAD_PLOTSTYLENAME
350
E
  3
AcDbVariableDictionary
350
2F1
  0
DICTIONARY
  5
D
102
{ACAD_REACTORS
330
C
102
}
330
C
100
AcDbDictionary
281
     1
  0
DICTIONARY
  5
19
102
{ACAD_REACTORS
330
C
102
}
330
C
100
AcDbDictionary
281
     1
  3
Model
350
21
  3
ﾚｲｱｳﾄ1
350
1D
  0
DICTIONARY
  5
16
102
{ACAD_REACTORS
330
C
102
}
330
C
100
AcDbDictionary
281
     1
  3
Standard
350
17
  0
DICTIONARY
  5
18
102
{ACAD_REACTORS
330
C
102
}
330
C
100
AcDbDictionary
281
     1
  0
ACDBDICTIONARYWDFLT
  5
E
102
{ACAD_REACTORS
330
C
102
}
330
C
100
AcDbDictionary
281
     1
  3
Normal
350
F
100
AcDbDictionaryWithDefault
340
F
  0
DICTIONARY
  5
2F1
102
{ACAD_REACTORS
330
C
102
}
330
C
100
AcDbDictionary
281
     1
  3
DIMASSOC
350
2F2
  0
LAYOUT
  5
21
102
{ACAD_REACTORS
330
19
102
}
330
19
100
AcDbPlotSettings
  1

  2
C:\Program Files\AutoCAD 2000i\plotters\DWF Classic.pc3
  4

  6

 40
0.0
 41
0.0
 42
0.0
 43
0.0
 44
0.0
 45
0.0
 46
0.0
 47
0.0
 48
0.0
 49
0.0
140
0.0
141
0.0
142
1.0
143
1.0
 70
  1712
 72
     0
 73
     0
 74
     0
  7

 75
     0
147
1.0
148
0.0
149
0.0
100
AcDbLayout
  1
Model
 70
     1
 71
     0
 10
0.0
 20
0.0
 11
12.0
 21
9.0
 12
0.0
 22
0.0
 32
0.0
 14
0.0
 24
0.0
 34
0.0
 15
0.0
 25
0.0
 35
0.0
146
0.0
 13
0.0
 23
0.0
 33
0.0
 16
1.0
 26
0.0
 36
0.0
 17
0.0
 27
1.0
 37
0.0
 76
     0
330
1E
  0
LAYOUT
  5
1D
102
{ACAD_REACTORS
330
19
102
}
330
19
100
AcDbPlotSettings
  1

  2
C:\Program Files\AutoCAD 2000i\plotters\DWF Classic.pc3
  4

  6

 40
0.0
 41
0.0
 42
0.0
 43
0.0
 44
0.0
 45
0.0
 46
0.0
 47
0.0
 48
0.0
 49
0.0
140
0.0
141
0.0
142
1.0
143
1.0
 70
   688
 72
     0
 73
     0
 74
     5
  7

 75
    16
147
1.0
148
0.0
149
0.0
100
AcDbLayout
  1
ﾚｲｱｳﾄ1
 70
     1
 71
     1
 10
0.0
 20
0.0
 11
12.0
 21
9.0
 12
0.0
 22
0.0
 32
0.0
 14
1.000000000000000E+20
 24
1.000000000000000E+20
 34
1.000000000000000E+20
 15
-1.000000000000000E+20
 25
-1.000000000000000E+20
 35
-1.000000000000000E+20
146
0.0
 13
0.0
 23
0.0
 33
0.0
 16
1.0
 26
0.0
 36
0.0
 17
0.0
 27
1.0
 37
0.0
 76
     0
330
1A
  0
MLINESTYLE
  5
17
102
{ACAD_REACTORS
330
16
102
}
330
16
100
AcDbMlineStyle
  2
STANDARD
 70
     0
  3

 62
   256
 51
90.0
 52
90.0
 71
     2
 49
0.5
 62
   256
  6
BYLAYER
 49
-0.5
 62
   256
  6
BYLAYER
  0
ACDBPLACEHOLDER
  5
F
102
{ACAD_REACTORS
330
E
102
}
330
E
  0
DICTIONARYVAR
  5
2F2
102
{ACAD_REACTORS
330
2F1
102
}
330
2F1
100
DictionaryVariables
280
     0
  1
1
  0
ENDSEC
  0
EOF
