  0
SECTION
  2
HEADER
  9
$ACADVER
  1
AC1015
  9
$ACADMAINTVER
 70
    13
  9
$DWGCODEPAGE
  3
ANSI_932
  9
$INSBASE
 10
0.0
 20
0.0
 30
0.0
  9
$EXTMIN
 10
-0.0015034793623272
 20
-0.0088561469478918
 30
-0.0000000000000058
  9
$EXTMAX
 10
210.005224979548
 20
297.002696897329
 30
0.0000000000000104
  9
$LIMMIN
 10
-267.109387207
 20
-40.124836731
  9
$LIMMAX
 10
3.174999999999998
 20
291.2585876465
  9
$ORTHOMODE
 70
     0
  9
$REGENMODE
 70
     1
  9
$FILLMODE
 70
     1
  9
$QTEXTMODE
 70
     0
  9
$MIRRTEXT
 70
     0
  9
$LTSCALE
 40
1.0
  9
$ATTMODE
 70
     1
  9
$TEXTSIZE
 40
2.999994039499997
  9
$TRACEWID
 40
0.05
  9
$TEXTSTYLE
  7
STANDARD
  9
$CLAYER
  8
0
  9
$CELTYPE
  6
ByLayer
  9
$CECOLOR
 62
   256
  9
$CELTSCALE
 40
1.0
  9
$DISPSILH
 70
     0
  9
$DIMSCALE
 40
1.0
  9
$DIMASZ
 40
1.9727878465
  9
$DIMEXO
 40
2.539999961899999
  9
$DIMDLI
 40
0.38
  9
$DIMRND
 40
0.0
  9
$DIMDLE
 40
0.0
  9
$DIMEXE
 40
3.809999942799997
  9
$DIMTP
 40
0.0
  9
$DIMTM
 40
0.0
  9
$DIMTXT
 40
2.999994039499997
  9
$DIMCEN
 40
0.09
  9
$DIMTSZ
 40
0.0
  9
$DIMTOL
 70
     0
  9
$DIMLIM
 70
     0
  9
$DIMTIH
 70
     0
  9
$DIMTOH
 70
     1
  9
$DIMSE1
 70
     0
  9
$DIMSE2
 70
     0
  9
$DIMTAD
 70
     0
  9
$DIMZIN
 70
     0
  9
$DIMBLK
  1

  9
$DIMASO
 70
     1
  9
$DIMSHO
 70
     0
  9
$DIMPOST
  1

  9
$DIMAPOST
  1

  9
$DIMALT
 70
     0
  9
$DIMALTD
 70
     2
  9
$DIMALTF
 40
25.4
  9
$DIMLFAC
 40
1.0
  9
$DIMTOFL
 70
     0
  9
$DIMTVP
 40
0.0
  9
$DIMTIX
 70
     0
  9
$DIMSOXD
 70
     0
  9
$DIMSAH
 70
     0
  9
$DIMBLK1
  1

  9
$DIMBLK2
  1

  9
$DIMSTYLE
  2
Standard
  9
$DIMCLRD
 70
     0
  9
$DIMCLRE
 70
     0
  9
$DIMCLRT
 70
     0
  9
$DIMTFAC
 40
1.0
  9
$DIMGAP
 40
0.09
  9
$DIMJUST
 70
     0
  9
$DIMSD1
 70
     0
  9
$DIMSD2
 70
     0
  9
$DIMTOLJ
 70
     1
  9
$DIMTZIN
 70
     0
  9
$DIMALTZ
 70
     0
  9
$DIMALTTZ
 70
     0
  9
$DIMUPT
 70
     0
  9
$DIMDEC
 70
     4
  9
$DIMTDEC
 70
     4
  9
$DIMALTU
 70
     2
  9
$DIMALTTD
 70
     2
  9
$DIMTXSTY
  7
STANDARD
  9
$DIMAUNIT
 70
     0
  9
$DIMADEC
 70
     0
  9
$DIMALTRND
 40
0.0
  9
$DIMAZIN
 70
     0
  9
$DIMDSEP
 70
    46
  9
$DIMATFIT
 70
     3
  9
$DIMFRAC
 70
     0
  9
$DIMLDRBLK
  1

  9
$DIMLUNIT
 70
     2
  9
$DIMLWD
 70
    -2
  9
$DIMLWE
 70
    -2
  9
$DIMTMOVE
 70
     0
  9
$LUNITS
 70
     2
  9
$LUPREC
 70
     3
  9
$SKETCHINC
 40
0.1
  9
$FILLETRAD
 40
0.0625
  9
$AUNITS
 70
     0
  9
$AUPREC
 70
     0
  9
$MENU
  1
ACAD
  9
$ELEVATION
 40
0.0
  9
$PELEVATION
 40
0.0
  9
$THICKNESS
 40
0.0
  9
$LIMCHECK
 70
     0
  9
$CHAMFERA
 40
0.0
  9
$CHAMFERB
 40
0.0
  9
$CHAMFERC
 40
0.0
  9
$CHAMFERD
 40
0.0
  9
$SKPOLY
 70
     0
  9
$TDCREATE
 40
2452723.526736110
  9
$TDUCREATE
 40
2452723.151736110
  9
$TDUPDATE
 40
2453353.761021771
  9
$TDUUPDATE
 40
2453353.386021770
  9
$TDINDWG
 40
0.0030868287
  9
$TDUSRTIMER
 40
0.0030862847
  9
$USRTIMER
 70
     1
  9
$ANGBASE
 50
0.0
  9
$ANGDIR
 70
     0
  9
$PDMODE
 70
     0
  9
$PDSIZE
 40
0.0
  9
$PLINEWID
 40
0.0
  9
$SPLFRAME
 70
     0
  9
$SPLINETYPE
 70
     6
  9
$SPLINESEGS
 70
     8
  9
$HANDSEED
  5
38D
  9
$SURFTAB1
 70
     6
  9
$SURFTAB2
 70
     6
  9
$SURFTYPE
 70
     6
  9
$SURFU
 70
     6
  9
$SURFV
 70
     6
  9
$UCSBASE
  2

  9
$UCSNAME
  2

  9
$UCSORG
 10
0.0
 20
0.0
 30
0.0
  9
$UCSXDIR
 10
1.0
 20
0.0
 30
0.0
  9
$UCSYDIR
 10
0.0
 20
1.0
 30
0.0
  9
$UCSORTHOREF
  2

  9
$UCSORTHOVIEW
 70
     0
  9
$UCSORGTOP
 10
0.0
 20
0.0
 30
0.0
  9
$UCSORGBOTTOM
 10
0.0
 20
0.0
 30
0.0
  9
$UCSORGLEFT
 10
0.0
 20
0.0
 30
0.0
  9
$UCSORGRIGHT
 10
0.0
 20
0.0
 30
0.0
  9
$UCSORGFRONT
 10
0.0
 20
0.0
 30
0.0
  9
$UCSORGBACK
 10
0.0
 20
0.0
 30
0.0
  9
$PUCSBASE
  2

  9
$PUCSNAME
  2

  9
$PUCSORG
 10
0.0
 20
0.0
 30
0.0
  9
$PUCSXDIR
 10
1.0
 20
0.0
 30
0.0
  9
$PUCSYDIR
 10
0.0
 20
1.0
 30
0.0
  9
$PUCSORTHOREF
  2

  9
$PUCSORTHOVIEW
 70
     0
  9
$PUCSORGTOP
 10
0.0
 20
0.0
 30
0.0
  9
$PUCSORGBOTTOM
 10
0.0
 20
0.0
 30
0.0
  9
$PUCSORGLEFT
 10
0.0
 20
0.0
 30
0.0
  9
$PUCSORGRIGHT
 10
0.0
 20
0.0
 30
0.0
  9
$PUCSORGFRONT
 10
0.0
 20
0.0
 30
0.0
  9
$PUCSORGBACK
 10
0.0
 20
0.0
 30
0.0
  9
$USERI1
 70
     8
  9
$USERI2
 70
     0
  9
$USERI3
 70
     0
  9
$USERI4
 70
     0
  9
$USERI5
 70
     0
  9
$USERR1
 40
0.0
  9
$USERR2
 40
0.0
  9
$USERR3
 40
0.0
  9
$USERR4
 40
0.0
  9
$USERR5
 40
0.0
  9
$WORLDVIEW
 70
     1
  9
$SHADEDGE
 70
     3
  9
$SHADEDIF
 70
    70
  9
$TILEMODE
 70
     1
  9
$MAXACTVP
 70
    64
  9
$PINSBASE
 10
0.0
 20
0.0
 30
0.0
  9
$PLIMCHECK
 70
     0
  9
$PEXTMIN
 10
1.000000000000000E+20
 20
1.000000000000000E+20
 30
1.000000000000000E+20
  9
$PEXTMAX
 10
-1.000000000000000E+20
 20
-1.000000000000000E+20
 30
-1.000000000000000E+20
  9
$PLIMMIN
 10
0.0
 20
0.0
  9
$PLIMMAX
 10
12.0
 20
9.0
  9
$UNITMODE
 70
     0
  9
$VISRETAIN
 70
     1
  9
$PLINEGEN
 70
     0
  9
$PSLTSCALE
 70
     1
  9
$TREEDEPTH
 70
  3020
  9
$CMLSTYLE
  2
Standard
  9
$CMLJUST
 70
     0
  9
$CMLSCALE
 40
1.0
  9
$PROXYGRAPHICS
 70
     1
  9
$MEASUREMENT
 70
     0
  9
$CELWEIGHT
370
    -1
  9
$ENDCAPS
280
     0
  9
$JOINSTYLE
280
     0
  9
$LWDISPLAY
290
     0
  9
$INSUNITS
 70
     0
  9
$HYPERLINKBASE
  1

  9
$STYLESHEET
  1

  9
$XEDIT
290
     1
  9
$CEPSNTYPE
380
     0
  9
$PSTYLEMODE
290
     1
  9
$FINGERPRINTGUID
  2
{F0138533-5A4C-468E-A3BE-1B98D90E8182}
  9
$VERSIONGUID
  2
{EACD4E3D-ED3F-4A0F-B738-3D5E2313E60A}
  9
$EXTNAMES
290
     1
  9
$PSVPSCALE
 40
0.0
  9
$OLESTARTUP
290
     0
  0
ENDSEC
  0
SECTION
  2
CLASSES
  0
CLASS
  1
ACDBDICTIONARYWDFLT
  2
AcDbDictionaryWithDefault
  3
AutoCAD 2000
 90
        0
280
     0
281
     0
  0
CLASS
  1
ACDBPLACEHOLDER
  2
AcDbPlaceHolder
  3
AutoCAD 2000
 90
        0
280
     0
281
     0
  0
CLASS
  1
LAYOUT
  2
AcDbLayout
  3
AutoCAD 2000
 90
        0
280
     0
281
     0
  0
CLASS
  1
DICTIONARYVAR
  2
AcDbDictionaryVar
  3
AutoCAD 2000
 90
        0
280
     0
281
     0
  0
ENDSEC
  0
SECTION
  2
TABLES
  0
TABLE
  2
VPORT
  5
8
330
0
100
AcDbSymbolTable
 70
     2
  0
VPORT
  5
38C
330
8
100
AcDbSymbolTableRecord
100
AcDbViewportTableRecord
  2
*Active
 70
     0
 10
0.0
 20
0.0
 11
1.0
 21
1.0
 12
105.0018607500928
 22
148.4969203751906
 13
0.0
 23
0.0
 14
1.0
 24
1.0
 15
0.0
 25
0.0
 16
0.0
 26
0.0
 36
1.0
 17
0.0
 27
0.0
 37
0.0
 40
301.0072241614646
 41
2.253932584269663
 42
50.0
 43
0.0
 44
0.0
 50
0.0
 51
0.0
 71
     0
 72
   100
 73
     1
 74
     1
 75
     0
 76
     0
 77
     0
 78
     0
281
     0
 65
     1
110
0.0
120
0.0
130
0.0
111
1.0
121
0.0
131
0.0
112
0.0
122
1.0
132
0.0
 79
     0
146
0.0
  0
ENDTAB
  0
TABLE
  2
LTYPE
  5
5
330
0
100
AcDbSymbolTable
 70
     3
  0
LTYPE
  5
13
330
5
100
AcDbSymbolTableRecord
100
AcDbLinetypeTableRecord
  2
ByBlock
 70
     0
  3

 72
    65
 73
     0
 40
0.0
  0
LTYPE
  5
14
330
5
100
AcDbSymbolTableRecord
100
AcDbLinetypeTableRecord
  2
ByLayer
 70
     0
  3

 72
    65
 73
     0
 40
0.0
  0
LTYPE
  5
15
330
5
100
AcDbSymbolTableRecord
100
AcDbLinetypeTableRecord
  2
Continuous
 70
     0
  3
Solid line
 72
    65
 73
     0
 40
0.0
  0
LTYPE
  5
24
330
5
100
AcDbSymbolTableRecord
100
AcDbLinetypeTableRecord
  2
DASH
 70
     0
  3
Dash
 72
    65
 73
     2
 40
1.9999960661
 49
0.9999980329999999
 74
     0
 49
-0.9999980329999999
 74
     0
  0
LTYPE
  5
25
330
5
100
AcDbSymbolTableRecord
100
AcDbLinetypeTableRecord
  2
CENTER
 70
     0
  3
Center
 72
    65
 73
     4
 40
9.100006759199999
 49
6.5000119209
 74
     0
 49
-0.7999984026000001
 74
     0
 49
0.9999980329999999
 74
     0
 49
-0.7999984026000001
 74
     0
  0
ENDTAB
  0
TABLE
  2
LAYER
  5
2
330
0
100
AcDbSymbolTable
 70
     1
  0
LAYER
  5
10
330
2
100
AcDbSymbolTableRecord
100
AcDbLayerTableRecord
  2
0
 70
     0
 62
     7
  6
Continuous
370
    -3
390
F
  0
ENDTAB
  0
TABLE
  2
STYLE
  5
3
330
0
100
AcDbSymbolTable
 70
     1
  0
STYLE
  5
11
330
3
100
AcDbSymbolTableRecord
100
AcDbTextStyleTableRecord
  2
STANDARD
 70
     0
 40
0.0
 41
1.0
 50
0.0
 71
     0
 42
2.999994039499997
  3
romans.shx
  4
bigfont.shx
  0
ENDTAB
  0
TABLE
  2
VIEW
  5
6
330
0
100
AcDbSymbolTable
 70
     0
  0
ENDTAB
  0
TABLE
  2
UCS
  5
7
330
0
100
AcDbSymbolTable
 70
     0
  0
ENDTAB
  0
TABLE
  2
APPID
  5
9
330
0
100
AcDbSymbolTable
 70
     1
  0
APPID
  5
12
330
9
100
AcDbSymbolTableRecord
100
AcDbRegAppTableRecord
  2
ACAD
 70
     0
  0
ENDTAB
  0
TABLE
  2
DIMSTYLE
  5
A
330
0
100
AcDbSymbolTable
 70
     1
100
AcDbDimStyleTable
 71
     0
  0
DIMSTYLE
105
364
330
A
100
AcDbSymbolTableRecord
100
AcDbDimStyleTableRecord
  2
Standard
 70
     0
340
11
  0
ENDTAB
  0
TABLE
  2
BLOCK_RECORD
  5
1
330
0
100
AcDbSymbolTable
 70
     1
  0
BLOCK_RECORD
  5
1E
330
1
100
AcDbSymbolTableRecord
100
AcDbBlockTableRecord
  2
*Model_Space
340
21
  0
BLOCK_RECORD
  5
1A
330
1
100
AcDbSymbolTableRecord
100
AcDbBlockTableRecord
  2
*Paper_Space
340
1D
  0
ENDTAB
  0
ENDSEC
  0
SECTION
  2
BLOCKS
  0
BLOCK
  5
1F
330
1E
100
AcDbEntity
  8
0
100
AcDbBlockBegin
  2
*Model_Space
 70
     0
 10
0.0
 20
0.0
 30
0.0
  3
*Model_Space
  1

  0
ENDBLK
  5
20
330
1E
100
AcDbEntity
  8
0
100
AcDbBlockEnd
  0
BLOCK
  5
1B
330
1A
100
AcDbEntity
 67
     1
  8
0
100
AcDbBlockBegin
  2
*Paper_Space
 70
     0
 10
0.0
 20
0.0
 30
0.0
  3
*Paper_Space
  1

  0
ENDBLK
  5
1C
330
1A
100
AcDbEntity
 67
     1
  8
0
100
AcDbBlockEnd
  0
ENDSEC
  0
SECTION
  2
ENTITIES
  0
CIRCLE
  5
121
330
1E
100
AcDbEntity
  8
0
 62
     3
100
AcDbCircle
 10
58.9297044632649
 20
189.2469417255025
 30
0.0
 40
6.199991226199998
  0
LINE
  5
122
330
1E
100
AcDbEntity
  8
0
 62
     3
100
AcDbLine
 10
33.42833117226492
 20
233.2731036345411
 30
0.0
 11
40.42833117226492
 21
233.2731036345411
 31
0.0
  0
LINE
  5
123
330
1E
100
AcDbEntity
  8
0
 62
     3
100
AcDbLine
 10
82.02971056676492
 20
162.8469478290023
 30
0.0
 11
82.02971056676492
 21
194.8469478290024
 31
0.0
  0
LINE
  5
124
330
1E
100
AcDbEntity
  8
0
  6
CENTER
 62
     3
100
AcDbLine
 10
58.92833117226492
 20
221.4774493376411
 30
0.0
 11
58.92833117226492
 21
270.7232684294412
 31
0.0
  0
LINE
  5
125
330
1E
100
AcDbEntity
  8
0
 62
     3
100
AcDbLine
 10
37.32969835976492
 20
199.2969600361023
 30
0.0
 11
37.32969835976492
 21
199.9469539326024
 31
0.0
  0
LINE
  5
126
330
1E
100
AcDbEntity
  8
0
 62
     3
100
AcDbLine
 10
38.32969835976492
 20
201.7469722431024
 30
0.0
 11
38.97972277376489
 21
201.7469722431024
 31
0.0
  0
LINE
  5
127
330
1E
100
AcDbEntity
  8
0
 62
     3
100
AcDbLine
 10
38.32969835976492
 20
200.9469539326024
 30
0.0
 11
38.97972277376489
 21
200.9469539326024
 31
0.0
  0
LINE
  5
128
330
1E
100
AcDbEntity
  8
0
 62
     3
100
AcDbLine
 10
36.5296800491649
 20
202.7469417255025
 30
0.0
 11
36.5296800491649
 21
203.3969356220024
 31
0.0
  0
LINE
  5
129
330
1E
100
AcDbEntity
  8
0
 62
     3
100
AcDbLine
 10
37.32969835976492
 20
202.7469417255025
 30
0.0
 11
37.32969835976492
 21
203.3969356220024
 31
0.0
  0
ARC
  5
130
330
1E
100
AcDbEntity
  8
0
  6
DASH
 62
     3
100
AcDbCircle
 10
39.42955187536489
 20
105.1870967548024
 30
0.0
 40
0.5
100
AcDbArc
 50
179.9990897636
 51
209.4804265233999
  0
ARC
  5
132
330
1E
100
AcDbEntity
  8
0
  6
DASH
 62
     3
100
AcDbCircle
 10
40.92979601596491
 20
83.1469051044025
 30
0.0
 40
2.0
100
AcDbArc
 50
179.9995268956999
 51
270.0000006831999
  0
LINE
  5
133
330
1E
100
AcDbEntity
  8
0
 62
     3
100
AcDbLine
 10
56.43101671906492
 20
19.34635131394401
 30
0.0
 11
61.43101671906492
 21
19.34635131394401
 31
0.0
  0
LINE
  5
134
330
1E
100
AcDbEntity
  8
0
 62
     3
100
AcDbLine
 10
84.93101671906492
 20
53.34635131394399
 30
0.0
 11
84.93101671906492
 21
19.84635131394401
 31
0.0
  0
LINE
  5
135
330
1E
100
AcDbEntity
  8
0
 62
     3
100
AcDbLine
 10
33.93104723666491
 20
54.34635131394401
 30
0.0
 11
83.93101671906492
 21
54.34635131394401
 31
0.0
  0
LINE
  5
136
330
1E
100
AcDbEntity
  8
0
 62
     3
100
AcDbLine
 10
32.93104723666491
 20
19.84635131394401
 30
0.0
 11
84.93101671906492
 21
19.84635131394401
 31
0.0
  0
LINE
  5
137
330
1E
100
AcDbEntity
  8
0
 62
     3
100
AcDbLine
 10
43.33101061556489
 20
24.84635131394401
 30
0.0
 11
74.53102282256492
 21
24.84635131394401
 31
0.0
  0
LINE
  5
138
330
1E
100
AcDbEntity
  8
0
 62
     3
100
AcDbLine
 10
43.33101061556489
 20
28.84635131394401
 30
0.0
 11
74.53102282256492
 21
28.84635131394401
 31
0.0
  0
LINE
  5
139
330
1E
100
AcDbEntity
  8
0
 62
     3
100
AcDbLine
 10
74.53102282256492
 20
28.84635131394401
 30
0.0
 11
74.53102282256492
 21
24.84635131394401
 31
0.0
  0
LINE
  5
13A
330
1E
100
AcDbEntity
  8
0
  6
CENTER
 62
     3
100
AcDbLine
 10
58.93101671906492
 20
63.570228267044
 30
0.0
 11
58.93101671906492
 21
12.84586303264399
 31
0.0
  0
LINE
  5
13B
330
1E
100
AcDbEntity
  8
0
 62
     3
100
AcDbLine
 10
32.93104723666491
 20
53.34635131394399
 30
0.0
 11
32.93104723666491
 21
19.84635131394401
 31
0.0
  0
LINE
  5
13C
330
1E
100
AcDbEntity
  8
0
 62
     3
100
AcDbLine
 10
43.33101061556489
 20
28.84635131394401
 30
0.0
 11
43.33101061556489
 21
24.84635131394401
 31
0.0
  0
LINE
  5
13D
330
1E
100
AcDbEntity
  8
0
 62
     3
100
AcDbLine
 10
61.43101671906492
 20
19.84635131394401
 30
0.0
 11
61.43101671906492
 21
19.34635131394401
 31
0.0
  0
LINE
  5
13E
330
1E
100
AcDbEntity
  8
0
 62
     3
100
AcDbLine
 10
56.43101671906492
 20
19.84635131394401
 30
0.0
 11
56.43101671906492
 21
19.34635131394401
 31
0.0
  0
LINE
  5
13F
330
1E
100
AcDbEntity
  8
0
 62
     3
100
AcDbLine
 10
43.93101671906491
 20
19.84635131394401
 30
0.0
 11
43.93101671906491
 21
19.34635131394401
 31
0.0
  0
LINE
  5
140
330
1E
100
AcDbEntity
  8
0
 62
     3
100
AcDbLine
 10
33.93104723666491
 20
19.84635131394401
 30
0.0
 11
33.93104723666491
 21
19.34635131394401
 31
0.0
  0
LINE
  5
141
330
1E
100
AcDbEntity
  8
0
 62
     3
100
AcDbLine
 10
33.93104723666491
 20
19.34635131394401
 30
0.0
 11
43.93101671906491
 21
19.34635131394401
 31
0.0
  0
LINE
  5
142
330
1E
100
AcDbEntity
  8
0
 62
     3
100
AcDbLine
 10
83.93101671906492
 20
19.84635131394401
 30
0.0
 11
83.93101671906492
 21
19.34635131394401
 31
0.0
  0
LINE
  5
143
330
1E
100
AcDbEntity
  8
0
 62
     3
100
AcDbLine
 10
73.93101671906492
 20
19.84635131394401
 30
0.0
 11
73.93101671906492
 21
19.34635131394401
 31
0.0
  0
LINE
  5
144
330
1E
100
AcDbEntity
  8
0
 62
     3
100
AcDbLine
 10
83.93101671906492
 20
19.34635131394401
 30
0.0
 11
73.93101671906492
 21
19.34635131394401
 31
0.0
  0
LINE
  5
145
330
1E
100
AcDbEntity
  8
0
 62
     3
100
AcDbLine
 10
41.83101061556491
 20
30.34635131394401
 30
0.0
 11
76.03102282256492
 21
30.34635131394401
 31
0.0
  0
LINE
  5
146
330
1E
100
AcDbEntity
  8
0
 62
     3
100
AcDbLine
 10
41.83101061556491
 20
30.34635131394401
 30
0.0
 11
41.83101061556491
 21
23.34635131394401
 31
0.0
  0
LINE
  5
147
330
1E
100
AcDbEntity
  8
0
 62
     3
100
AcDbLine
 10
41.83101061556491
 20
23.34635131394401
 30
0.0
 11
76.03102282256492
 21
23.34635131394401
 31
0.0
  0
LINE
  5
148
330
1E
100
AcDbEntity
  8
0
 62
     3
100
AcDbLine
 10
76.03102282256492
 20
30.34635131394401
 30
0.0
 11
76.03102282256492
 21
23.34635131394401
 31
0.0
  0
LINE
  5
149
330
1E
100
AcDbEntity
  8
0
 62
     3
100
AcDbLine
 10
41.8310219604649
 20
23.34636915394401
 30
0.0
 11
43.33101276326489
 21
24.84635995674401
 31
0.0
  0
LINE
  5
14A
330
1E
100
AcDbEntity
  8
0
 62
     3
100
AcDbLine
 10
43.33103434246493
 20
28.84634262394398
 30
0.0
 11
41.8310219604649
 21
30.346355005844
 31
0.0
  0
LINE
  5
14B
330
1E
100
AcDbEntity
  8
0
 62
     3
100
AcDbLine
 10
76.0310539509649
 20
30.346355005844
 30
0.0
 11
74.53104156896491
 21
28.84634262394398
 31
0.0
  0
LINE
  5
14C
330
1E
100
AcDbEntity
  8
0
 62
     3
100
AcDbLine
 10
74.53106314816491
 20
24.84635995674401
 30
0.0
 11
76.0310539509649
 21
23.34636915394401
 31
0.0
  0
LINE
  5
14D
330
1E
100
AcDbEntity
  8
0
 62
     3
100
AcDbLine
 10
30.62971667026487
 20
170.8469478290024
 30
0.0
 11
30.62971667026487
 21
195.8469478290025
 31
0.0
  0
LINE
  5
14E
330
1E
100
AcDbEntity
  8
0
 62
     3
100
AcDbLine
 10
32.92970446326489
 20
170.3469478290024
 30
0.0
 11
31.12971667026491
 21
170.3469478290024
 31
0.0
  0
LINE
  5
14F
330
1E
100
AcDbEntity
  8
0
 62
     3
100
AcDbLine
 10
32.92970446326489
 20
196.3469478290024
 30
0.0
 11
31.12971667026491
 21
196.3469478290024
 31
0.0
  0
LINE
  5
150
330
1E
100
AcDbEntity
  8
0
 62
     3
100
AcDbLine
 10
87.22972277376491
 20
170.8469478290024
 30
0.0
 11
87.22972277376491
 21
195.8469478290025
 31
0.0
  0
LINE
  5
151
330
1E
100
AcDbEntity
  8
0
 62
     3
100
AcDbLine
 10
84.9297044632649
 20
170.3469478290024
 30
0.0
 11
86.72972277376493
 21
170.3469478290024
 31
0.0
  0
LINE
  5
152
330
1E
100
AcDbEntity
  8
0
 62
     3
100
AcDbLine
 10
84.9297044632649
 20
196.3469478290024
 30
0.0
 11
86.72972277376493
 21
196.3469478290024
 31
0.0
  0
LINE
  5
153
330
1E
100
AcDbEntity
  8
0
  6
CENTER
 62
     3
100
AcDbLine
 10
51.42976549836492
 20
189.2469417255025
 30
0.0
 11
66.4297044632649
 21
189.2469417255025
 31
0.0
  0
LINE
  5
155
330
1E
100
AcDbEntity
  8
0
 62
     3
100
AcDbLine
 10
52.73100451206492
 20
54.94635741744399
 30
0.0
 11
65.13102892616489
 21
54.94635741744399
 31
0.0
  0
LINE
  5
156
330
1E
100
AcDbEntity
  8
0
 62
     3
100
AcDbLine
 10
65.13102892616489
 20
56.74570434124399
 30
0.0
 11
65.13102892616489
 21
54.94635741744399
 31
0.0
  0
LINE
  5
157
330
1E
100
AcDbEntity
  8
0
 62
     3
100
AcDbLine
 10
52.73100451206492
 20
56.74570434124399
 30
0.0
 11
52.73100451206492
 21
54.94635741744399
 31
0.0
  0
LINE
  5
158
330
1E
100
AcDbEntity
  8
0
 62
     3
100
AcDbLine
 10
65.00410631866492
 20
56.99072997604401
 30
0.0
 11
65.00410631866492
 21
54.94632689984399
 31
0.0
  0
LINE
  5
159
330
1E
100
AcDbEntity
  8
0
 62
     3
100
AcDbLine
 10
64.8466966507649
 20
57.12036864794402
 30
0.0
 11
64.8466966507649
 21
54.94632689984399
 31
0.0
  0
LINE
  5
15A
330
1E
100
AcDbEntity
  8
0
 62
     3
100
AcDbLine
 10
64.62855700226493
 20
57.12036864794402
 30
0.0
 11
64.62855700226493
 21
54.94632689984399
 31
0.0
  0
LINE
  5
15B
330
1E
100
AcDbEntity
  8
0
 62
     3
100
AcDbLine
 10
64.35197619176491
 20
57.12036864794402
 30
0.0
 11
64.35197619176491
 21
54.94632689984399
 31
0.0
  0
LINE
  5
15C
330
1E
100
AcDbEntity
  8
0
 62
     3
100
AcDbLine
 10
64.01976183626491
 20
57.12036864794402
 30
0.0
 11
64.01976183626491
 21
54.94632689984399
 31
0.0
  0
LINE
  5
15D
330
1E
100
AcDbEntity
  8
0
 62
     3
100
AcDbLine
 10
34.42833117226492
 20
265.7731036345412
 30
0.0
 11
39.42833117226492
 21
265.7731036345412
 31
0.0
  0
LINE
  5
165
330
1E
100
AcDbEntity
  8
0
  6
DASH
 62
     3
100
AcDbLine
 10
73.12980822296492
 20
90.64690510440248
 30
0.0
 11
73.12980822296492
 21
89.64690510440247
 31
0.0
  0
ARC
  5
166
330
1E
100
AcDbEntity
  8
0
  6
DASH
 62
     3
100
AcDbCircle
 10
61.9297044632649
 20
98.1469356220025
 30
0.0
 40
1.0
100
AcDbArc
 50
270.0000179861
 51
0.0
  0
LINE
  5
167
330
1E
100
AcDbEntity
  8
0
  6
CENTER
 62
     3
100
AcDbLine
 10
58.9297044632649
 20
76.14690510440251
 30
0.0
 11
58.9297044632649
 21
212.5806514423024
 31
0.0
  0
ARC
  5
168
330
1E
100
AcDbEntity
  8
0
  6
DASH
 62
     3
100
AcDbCircle
 10
40.9298570511649
 20
106.4469234150025
 30
0.0
 40
2.0
100
AcDbArc
 50
89.99998201389999
 51
179.9999640277999
  0
LINE
  5
16A
330
1E
100
AcDbEntity
  8
0
 62
     3
100
AcDbLine
 10
74.4297044632649
 20
158.8469478290024
 30
0.0
 11
74.4297044632649
 21
159.8469478290024
 31
0.0
  0
ARC
  5
16B
330
1E
100
AcDbEntity
  8
0
  6
DASH
 62
     3
100
AcDbCircle
 10
69.92982653356489
 20
89.64690510440247
 30
0.0
 40
3.1999988556
100
AcDbArc
 50
180.0000359722
 51
0.0
  0
LINE
  5
16C
330
1E
100
AcDbEntity
  8
0
  6
DASH
 62
     3
100
AcDbLine
 10
76.92982653356489
 20
81.14690510440253
 30
0.0
 11
40.92982653356489
 21
81.14690510440253
 31
0.0
  0
ARC
  5
16D
330
1E
100
AcDbEntity
  8
0
  6
DASH
 62
     3
100
AcDbCircle
 10
61.9297044632649
 20
104.9469234150025
 30
0.0
 40
1.0
100
AcDbArc
 50
0.0
 51
89.99998201389999
  0
ARC
  5
16E
330
1E
100
AcDbEntity
  8
0
  6
DASH
 62
     3
100
AcDbCircle
 10
55.92970446326489
 20
104.9469234150025
 30
0.0
 40
1.0
100
AcDbArc
 50
89.99998201389999
 51
179.9999640277999
  0
ARC
  5
16F
330
1E
100
AcDbEntity
  8
0
  6
DASH
 62
     3
100
AcDbCircle
 10
69.92982653356489
 20
90.64690510440248
 30
0.0
 40
3.1999988556
100
AcDbArc
 50
0.0
 51
179.9999640277999
  0
ARC
  5
170
330
1E
100
AcDbEntity
  8
0
  6
DASH
 62
     3
100
AcDbCircle
 10
76.9298570511649
 20
106.4469234150025
 30
0.0
 40
2.0
100
AcDbArc
 50
0.0
 51
89.99998201389999
  0
LINE
  5
171
330
1E
100
AcDbEntity
  8
0
  6
DASH
 62
     3
100
AcDbLine
 10
44.32969835976492
 20
108.4469234150025
 30
0.0
 11
44.32969835976492
 21
109.4469234150025
 31
0.0
  0
LINE
  5
172
330
1E
100
AcDbEntity
  8
0
 62
     3
100
AcDbLine
 10
43.42970446326489
 20
158.8469478290024
 30
0.0
 11
43.42970446326489
 21
159.8469478290024
 31
0.0
  0
LINE
  5
173
330
1E
100
AcDbEntity
  8
0
  6
DASH
 62
     3
100
AcDbLine
 10
55.92970446326489
 20
97.14693562200251
 30
0.0
 11
61.9297044632649
 21
97.14693562200251
 31
0.0
  0
LINE
  5
174
330
1E
100
AcDbEntity
  8
0
  6
DASH
 62
     3
100
AcDbLine
 10
47.92979601596491
 20
85.14690510440251
 30
0.0
 11
47.92979601596491
 21
95.14690510440248
 31
0.0
  0
LINE
  5
175
330
1E
100
AcDbEntity
  8
0
  6
DASH
 62
     3
100
AcDbLine
 10
69.92979601596491
 20
85.14690510440251
 30
0.0
 11
69.92979601596491
 21
95.14690510440248
 31
0.0
  0
LINE
  5
176
330
1E
100
AcDbEntity
  8
0
  6
CENTER
 62
     3
100
AcDbLine
 10
80.92833117226494
 20
229.4044512907411
 30
0.0
 11
80.92833117226494
 21
235.3769244353411
 31
0.0
  0
LINE
  5
177
330
1E
100
AcDbEntity
  8
0
 62
     3
100
AcDbLine
 10
77.5262878555649
 20
232.1537046715411
 30
0.0
 11
77.42835206386491
 21
233.2731164695412
 31
0.0
  0
LINE
  5
178
330
1E
100
AcDbEntity
  8
0
 62
     3
100
AcDbLine
 10
84.33037534926491
 20
232.1536815479411
 30
0.0
 11
84.42831114096492
 21
233.2730933459412
 31
0.0
  0
LINE
  5
179
330
1E
100
AcDbEntity
  8
0
 62
     3
100
AcDbLine
 10
36.92970446326489
 20
109.4469234150025
 30
0.0
 11
80.92970446326489
 21
109.4469234150025
 31
0.0
  0
LINE
  5
17A
330
1E
100
AcDbEntity
  8
0
 62
     3
100
AcDbLine
 10
77.4297044632649
 20
141.3469478290025
 30
0.0
 11
83.9297044632649
 21
141.3469478290025
 31
0.0
  0
LINE
  5
17B
330
1E
100
AcDbEntity
  8
0
 62
     3
100
AcDbLine
 10
84.9297044632649
 20
113.3469173115025
 30
0.0
 11
84.9297044632649
 21
140.3469173115025
 31
0.0
  0
LINE
  5
17C
330
1E
100
AcDbEntity
  8
0
 62
     3
100
AcDbLine
 10
74.42968993746493
 20
144.3469428542025
 30
0.0
 11
77.4296933750649
 21
141.3469396694025
 31
0.0
  0
LINE
  5
17D
330
1E
100
AcDbEntity
  8
0
 62
     3
100
AcDbLine
 10
74.4297044632649
 20
144.3469173115024
 30
0.0
 11
74.4297044632649
 21
152.6469356220025
 31
0.0
  0
LINE
  5
17E
330
1E
100
AcDbEntity
  8
0
 62
     3
100
AcDbLine
 10
43.42970446326489
 20
152.5469295185025
 30
0.0
 11
74.4297044632649
 21
152.5469295185025
 31
0.0
  0
LINE
  5
17F
330
1E
100
AcDbEntity
  8
0
 62
     3
100
AcDbLine
 10
43.32969835976491
 20
116.8469478290024
 30
0.0
 11
74.52971056676492
 21
116.8469478290024
 31
0.0
  0
LINE
  5
180
330
1E
100
AcDbEntity
  8
0
 62
     3
100
AcDbLine
 10
43.32969835976491
 20
120.8469478290024
 30
0.0
 11
74.52971056676492
 21
120.8469478290024
 31
0.0
  0
LINE
  5
181
330
1E
100
AcDbEntity
  8
0
 62
     3
100
AcDbLine
 10
74.52971056676492
 20
116.8469173115024
 30
0.0
 11
74.52971056676492
 21
120.8469173115023
 31
0.0
  0
LINE
  5
182
330
1E
100
AcDbEntity
  8
0
 62
     3
100
AcDbLine
 10
43.32969835976491
 20
116.8469173115024
 30
0.0
 11
43.32969835976491
 21
120.8469173115023
 31
0.0
  0
LINE
  5
183
330
1E
100
AcDbEntity
  8
0
 62
     3
100
AcDbLine
 10
32.92970446326489
 20
113.3469173115025
 30
0.0
 11
32.92970446326489
 21
140.3469173115025
 31
0.0
  0
LINE
  5
184
330
1E
100
AcDbEntity
  8
0
 62
     3
100
AcDbLine
 10
40.42970446326489
 20
141.3469478290025
 30
0.0
 11
33.92973498076489
 21
141.3469478290025
 31
0.0
  0
LINE
  5
185
330
1E
100
AcDbEntity
  8
0
 62
     3
100
AcDbLine
 10
43.42970024546491
 20
144.3469635532025
 30
0.0
 11
40.4296968078649
 21
141.3469603684025
 31
0.0
  0
LINE
  5
186
330
1E
100
AcDbEntity
  8
0
 62
     3
100
AcDbLine
 10
43.42970446326489
 20
144.3469173115024
 30
0.0
 11
43.42970446326489
 21
152.6469356220025
 31
0.0
  0
LINE
  5
187
330
1E
100
AcDbEntity
  8
0
 62
     3
100
AcDbLine
 10
41.82969835976492
 20
122.3469478290023
 30
0.0
 11
76.02971056676492
 21
122.3469478290023
 31
0.0
  0
LINE
  5
188
330
1E
100
AcDbEntity
  8
0
 62
     3
100
AcDbLine
 10
41.82969835976492
 20
115.3469173115025
 30
0.0
 11
41.82969835976492
 21
122.3469173115024
 31
0.0
  0
LINE
  5
189
330
1E
100
AcDbEntity
  8
0
 62
     3
100
AcDbLine
 10
41.82969835976492
 20
115.3469478290024
 30
0.0
 11
76.02971056676492
 21
115.3469478290024
 31
0.0
  0
LINE
  5
18A
330
1E
100
AcDbEntity
  8
0
 62
     3
100
AcDbLine
 10
76.02971056676492
 20
115.3469173115025
 30
0.0
 11
76.02971056676492
 21
122.3469173115024
 31
0.0
  0
LINE
  5
18B
330
1E
100
AcDbEntity
  8
0
 62
     3
100
AcDbLine
 10
41.82970158396488
 20
115.3469413120024
 30
0.0
 11
43.3297139659649
 21
116.8469536940023
 31
0.0
  0
LINE
  5
18C
330
1E
100
AcDbEntity
  8
0
 62
     3
100
AcDbLine
 10
43.3297139659649
 20
120.8469579404024
 30
0.0
 11
41.82972316316489
 21
122.3469487432023
 31
0.0
  0
LINE
  5
18D
330
1E
100
AcDbEntity
  8
0
 62
     3
100
AcDbLine
 10
76.02971199536489
 20
122.3469487432023
 30
0.0
 11
74.52972119256492
 21
120.8469579404024
 31
0.0
  0
LINE
  5
18E
330
1E
100
AcDbEntity
  8
0
 62
     3
100
AcDbLine
 10
74.52972119256492
 20
116.8469536940023
 30
0.0
 11
76.0297335745649
 21
115.3469413120024
 31
0.0
  0
LINE
  5
18F
330
1E
100
AcDbEntity
  8
0
 62
     3
100
AcDbLine
 10
82.97972277376491
 20
200.9469539326024
 30
0.0
 11
82.97972277376491
 21
201.7469417255025
 31
0.0
  0
LINE
  5
190
330
1E
100
AcDbEntity
  8
0
 62
     3
100
AcDbLine
 10
78.8797166702649
 20
201.7469722431024
 30
0.0
 11
79.52968004916491
 21
201.7469722431024
 31
0.0
  0
LINE
  5
191
330
1E
100
AcDbEntity
  8
0
 62
     3
100
AcDbLine
 10
78.8797166702649
 20
200.9469539326024
 30
0.0
 11
79.52968004916491
 21
200.9469539326024
 31
0.0
  0
LINE
  5
192
330
1E
100
AcDbEntity
  8
0
 62
     3
100
AcDbLine
 10
80.52971056676492
 20
199.2969600361023
 30
0.0
 11
80.52971056676492
 21
199.9469539326024
 31
0.0
  0
LINE
  5
193
330
1E
100
AcDbEntity
  8
0
 62
     3
100
AcDbLine
 10
37.02971056676492
 20
152.6469356220025
 30
0.0
 11
80.82972887726494
 21
152.6469356220025
 31
0.0
  0
LINE
  5
194
330
1E
100
AcDbEntity
  8
0
 62
     3
100
AcDbLine
 10
37.02971056676492
 20
205.0469600361024
 30
0.0
 11
80.82972887726494
 21
205.0469600361024
 31
0.0
  0
LINE
  5
195
330
1E
100
AcDbEntity
  8
0
 62
     3
100
AcDbLine
 10
33.22969225616492
 20
156.3469478290024
 30
0.0
 11
33.22969225616492
 21
201.3469478290025
 31
0.0
  0
LINE
  5
196
330
1E
100
AcDbEntity
  8
0
 62
     3
100
AcDbLine
 10
84.62971667026492
 20
156.3469478290024
 30
0.0
 11
84.62971667026492
 21
201.3469478290025
 31
0.0
  0
LINE
  5
197
330
1E
100
AcDbEntity
  8
0
 62
     3
100
AcDbLine
 10
81.32969835976494
 20
199.2969600361023
 30
0.0
 11
81.32969835976494
 21
199.9469539326024
 31
0.0
  0
LINE
  5
198
330
1E
100
AcDbEntity
  8
0
 62
     3
100
AcDbLine
 10
82.32969835976494
 20
201.7469722431024
 30
0.0
 11
82.97972277376491
 21
201.7469722431024
 31
0.0
  0
LINE
  5
199
330
1E
100
AcDbEntity
  8
0
 62
     3
100
AcDbLine
 10
82.32969835976494
 20
200.9469539326024
 30
0.0
 11
82.97972277376491
 21
200.9469539326024
 31
0.0
  0
LINE
  5
19A
330
1E
100
AcDbEntity
  8
0
 62
     3
100
AcDbLine
 10
77.4297044632649
 20
153.6469356220025
 30
0.0
 11
77.4297044632649
 21
156.3469478290024
 31
0.0
  0
LINE
  5
19B
330
1E
100
AcDbEntity
  8
0
 62
     3
100
AcDbLine
 10
80.92970446326489
 20
159.8469478290024
 30
0.0
 11
83.82972887726493
 21
159.8469478290024
 31
0.0
  0
LINE
  5
19C
330
1E
100
AcDbEntity
  8
0
 62
     3
100
AcDbLine
 10
77.4297044632649
 20
204.0469295185025
 30
0.0
 11
77.4297044632649
 21
201.3469478290025
 31
0.0
  0
LINE
  5
19D
330
1E
100
AcDbEntity
  8
0
 62
     3
100
AcDbLine
 10
34.82969835976492
 20
162.8469478290023
 30
0.0
 11
34.82969835976492
 21
194.8469478290024
 31
0.0
  0
LINE
  5
19E
330
1E
100
AcDbEntity
  8
0
 62
     3
100
AcDbLine
 10
80.52971056676492
 20
202.7469417255025
 30
0.0
 11
80.52971056676492
 21
203.3969356220024
 31
0.0
  0
LINE
  5
19F
330
1E
100
AcDbEntity
  8
0
 62
     3
100
AcDbLine
 10
81.32969835976494
 20
202.7469417255025
 30
0.0
 11
81.32969835976494
 21
203.3969356220024
 31
0.0
  0
LINE
  5
1A0
330
1E
100
AcDbEntity
  8
0
 62
     3
100
AcDbLine
 10
80.92970446326489
 20
197.8469478290024
 30
0.0
 11
83.82972887726493
 21
197.8469478290024
 31
0.0
  0
LINE
  5
1A1
330
1E
100
AcDbEntity
  8
0
 62
     3
100
AcDbLine
 10
40.42970446326489
 20
153.6469356220025
 30
0.0
 11
40.42970446326489
 21
156.3469478290024
 31
0.0
  0
LINE
  5
1A2
330
1E
100
AcDbEntity
  8
0
 62
     3
100
AcDbLine
 10
84.92833117226494
 20
237.2731036345411
 30
0.0
 11
84.92833117226494
 21
265.2731036345412
 31
0.0
  0
LINE
  5
1A3
330
1E
100
AcDbEntity
  8
0
 62
     3
100
AcDbLine
 10
36.92970446326489
 20
159.8469478290024
 30
0.0
 11
34.0297105667649
 21
159.8469478290024
 31
0.0
  0
LINE
  5
1A4
330
1E
100
AcDbEntity
  8
0
 62
     3
100
AcDbLine
 10
40.42970446326489
 20
204.0469295185025
 30
0.0
 11
40.42970446326489
 21
201.3469478290025
 31
0.0
  0
LINE
  5
1A5
330
1E
100
AcDbEntity
  8
0
 62
     3
100
AcDbLine
 10
36.92970446326489
 20
197.8469478290024
 30
0.0
 11
34.0297105667649
 21
197.8469478290024
 31
0.0
  0
LINE
  5
1A6
330
1E
100
AcDbEntity
  8
0
 62
     3
100
AcDbLine
 10
80.52971056676492
 20
154.2969600361025
 30
0.0
 11
81.32969835976494
 21
154.2969600361025
 31
0.0
  0
LINE
  5
1A7
330
1E
100
AcDbEntity
  8
0
 62
     3
100
AcDbLine
 10
87.2283494827649
 20
238.2731036345412
 30
0.0
 11
87.2283494827649
 21
263.2731036345412
 31
0.0
  0
LINE
  5
1A8
330
1E
100
AcDbEntity
  8
0
 62
     3
100
AcDbLine
 10
84.92833117226494
 20
237.7731036345412
 30
0.0
 11
86.72834948276491
 21
237.7731036345412
 31
0.0
  0
LINE
  5
1A9
330
1E
100
AcDbEntity
  8
0
 62
     3
100
AcDbLine
 10
84.92833117226494
 20
263.7731036345412
 30
0.0
 11
86.72834948276491
 21
263.7731036345412
 31
0.0
  0
LINE
  5
1AA
330
1E
100
AcDbEntity
  8
0
 62
     3
100
AcDbLine
 10
80.52971056676492
 20
158.3969356220024
 30
0.0
 11
81.32969835976494
 21
158.3969356220024
 31
0.0
  0
LINE
  5
1AB
330
1E
100
AcDbEntity
  8
0
 62
     3
100
AcDbLine
 10
43.42970446326489
 20
158.8469478290024
 30
0.0
 11
74.4297044632649
 21
158.8469478290024
 31
0.0
  0
LINE
  5
1AC
330
1E
100
AcDbEntity
  8
0
 62
     3
100
AcDbLine
 10
63.6353319046649
 20
57.12036864794402
 30
0.0
 11
63.6353319046649
 21
54.94632689984399
 31
0.0
  0
LINE
  5
1AD
330
1E
100
AcDbEntity
  8
0
 62
     3
100
AcDbLine
 10
63.20262316436492
 20
57.12036864794402
 30
0.0
 11
63.20262316436492
 21
54.94632689984399
 31
0.0
  0
LINE
  5
1AE
330
1E
100
AcDbEntity
  8
0
 62
     3
100
AcDbLine
 10
62.7260911819649
 20
57.12036864794402
 30
0.0
 11
62.7260911819649
 21
54.94632689984399
 31
0.0
  0
LINE
  5
1AF
330
1E
100
AcDbEntity
  8
0
 62
     3
100
AcDbLine
 10
62.21058825226492
 20
57.12036864794402
 30
0.0
 11
62.21058825226492
 21
54.94632689984399
 31
0.0
  0
LINE
  5
1B0
330
1E
100
AcDbEntity
  8
0
 62
     3
100
AcDbLine
 10
61.66145495146489
 20
57.12036864794402
 30
0.0
 11
61.66145495146489
 21
54.94632689984399
 31
0.0
  0
LINE
  5
1B1
330
1E
100
AcDbEntity
  8
0
 62
     3
100
AcDbLine
 10
61.08430651396488
 20
57.12036864794402
 30
0.0
 11
61.08430651396488
 21
54.94632689984399
 31
0.0
  0
LINE
  5
1B2
330
1E
100
AcDbEntity
  8
0
 62
     3
100
AcDbLine
 10
60.48506334996492
 20
57.12036864794402
 30
0.0
 11
60.48506334996492
 21
54.94632689984399
 31
0.0
  0
LINE
  5
1B3
330
1E
100
AcDbEntity
  8
0
 62
     3
100
AcDbLine
 10
59.86989001006493
 20
57.12036864794402
 30
0.0
 11
59.86989001006493
 21
54.94632689984399
 31
0.0
  0
LINE
  5
1B4
330
1E
100
AcDbEntity
  8
0
 62
     3
100
AcDbLine
 10
59.24504259796492
 20
57.12036864794402
 30
0.0
 11
59.24504259796492
 21
54.94632689984399
 31
0.0
  0
LINE
  5
1B5
330
1E
100
AcDbEntity
  8
0
 62
     3
100
AcDbLine
 10
52.8578660843649
 20
54.94632689984399
 30
0.0
 11
52.8578660843649
 21
56.99069945844399
 31
0.0
  0
LINE
  5
1B6
330
1E
100
AcDbEntity
  8
0
 62
     3
100
AcDbLine
 10
53.0153062698649
 20
54.94632689984399
 30
0.0
 11
53.0153062698649
 21
57.12033813034401
 31
0.0
  0
LINE
  5
1B7
330
1E
100
AcDbEntity
  8
0
 62
     3
100
AcDbLine
 10
53.2334154007649
 20
54.94632689984399
 30
0.0
 11
53.2334154007649
 21
57.12033813034401
 31
0.0
  0
LINE
  5
1B8
330
1E
100
AcDbEntity
  8
0
 62
     3
100
AcDbLine
 10
53.5099962112649
 20
54.94632689984399
 30
0.0
 11
53.5099962112649
 21
57.12033813034401
 31
0.0
  0
LINE
  5
1B9
330
1E
100
AcDbEntity
  8
0
 62
     3
100
AcDbLine
 10
53.84221056676492
 20
54.94632689984399
 30
0.0
 11
53.84221056676492
 21
57.12033813034401
 31
0.0
  0
LINE
  5
1BA
330
1E
100
AcDbEntity
  8
0
 62
     3
100
AcDbLine
 10
54.22664049836492
 20
54.94632689984399
 30
0.0
 11
54.22664049836492
 21
57.12033813034401
 31
0.0
  0
LINE
  5
1BB
330
1E
100
AcDbEntity
  8
0
 62
     3
100
AcDbLine
 10
54.65934923866489
 20
54.94632689984399
 30
0.0
 11
54.65934923866489
 21
57.12033813034401
 31
0.0
  0
LINE
  5
1BC
330
1E
100
AcDbEntity
  8
0
 62
     3
100
AcDbLine
 10
55.1359117386649
 20
54.94632689984399
 30
0.0
 11
55.1359117386649
 21
57.12033813034401
 31
0.0
  0
LINE
  5
1BD
330
1E
100
AcDbEntity
  8
0
 62
     3
100
AcDbLine
 10
55.65138415076489
 20
54.94632689984399
 30
0.0
 11
55.65138415076489
 21
57.12033813034401
 31
0.0
  0
LINE
  5
1BE
330
1E
100
AcDbEntity
  8
0
 62
     3
100
AcDbLine
 10
56.20051745146489
 20
54.94632689984399
 30
0.0
 11
56.20051745146489
 21
57.12033813034401
 31
0.0
  0
LINE
  5
1BF
330
1E
100
AcDbEntity
  8
0
 62
     3
100
AcDbLine
 10
56.77766588896488
 20
54.94632689984399
 30
0.0
 11
56.77766588896488
 21
57.12033813034401
 31
0.0
  0
LINE
  5
1C0
330
1E
100
AcDbEntity
  8
0
 62
     3
100
AcDbLine
 10
57.37690905306489
 20
54.94632689984399
 30
0.0
 11
57.37690905306489
 21
57.12033813034401
 31
0.0
  0
LINE
  5
1C1
330
1E
100
AcDbEntity
  8
0
 62
     3
100
AcDbLine
 10
57.99211291046493
 20
54.94632689984399
 30
0.0
 11
57.99211291046493
 21
57.12033813034401
 31
0.0
  0
LINE
  5
1C2
330
1E
100
AcDbEntity
  8
0
 62
     3
100
AcDbLine
 10
58.61692980506489
 20
54.94632689984399
 30
0.0
 11
58.61692980506489
 21
57.12033813034401
 31
0.0
  0
LINE
  5
1C3
330
1E
100
AcDbEntity
  8
0
 62
     3
100
AcDbLine
 10
63.03798083046492
 20
58.050635981944
 30
0.0
 11
54.90062121126491
 21
58.050635981944
 31
0.0
  0
LINE
  5
1C4
330
1E
100
AcDbEntity
  8
0
 62
     3
100
AcDbLine
 10
63.43046740266493
 20
57.79148070844399
 30
0.0
 11
54.34779528356489
 21
57.79148070844399
 31
0.0
  0
LINE
  5
1C5
330
1E
100
AcDbEntity
  8
0
 62
     3
100
AcDbLine
 10
52.88099840856489
 20
54.94635741744399
 30
0.0
 11
52.88099840856489
 21
54.34635131394401
 31
0.0
  0
LINE
  5
1C6
330
1E
100
AcDbEntity
  8
0
 62
     3
100
AcDbLine
 10
64.88099840856489
 20
54.94635741744399
 30
0.0
 11
64.88099840856489
 21
54.34635131394401
 31
0.0
  0
LINE
  5
1C7
330
1E
100
AcDbEntity
  8
0
 62
     3
100
AcDbLine
 10
136.1211745579832
 20
183.2474300068025
 30
0.0
 11
136.1211745579832
 21
195.6474544208024
 31
0.0
  0
LINE
  5
1C8
330
1E
100
AcDbEntity
  8
0
 62
     3
100
AcDbLine
 10
134.3218276341831
 20
195.6474544208024
 30
0.0
 11
136.1211745579832
 21
195.6474544208024
 31
0.0
  0
LINE
  5
1C9
330
1E
100
AcDbEntity
  8
0
 62
     3
100
AcDbLine
 10
134.3218276341831
 20
183.2474300068025
 30
0.0
 11
136.1211745579832
 21
183.2474300068025
 31
0.0
  0
LINE
  5
1CA
330
1E
100
AcDbEntity
  8
0
 62
     3
100
AcDbLine
 10
134.0768019993832
 20
195.5205318134024
 30
0.0
 11
136.1212050755833
 21
195.5205318134024
 31
0.0
  0
LINE
  5
1CB
330
1E
100
AcDbEntity
  8
0
 62
     3
100
AcDbLine
 10
133.9471633274831
 20
195.3631221455025
 30
0.0
 11
136.1212050755833
 21
195.3631221455025
 31
0.0
  0
LINE
  5
1CC
330
1E
100
AcDbEntity
  8
0
 62
     3
100
AcDbLine
 10
133.9471633274831
 20
195.1449824970024
 30
0.0
 11
136.1212050755833
 21
195.1449824970024
 31
0.0
  0
LINE
  5
1CD
330
1E
100
AcDbEntity
  8
0
 62
     3
100
AcDbLine
 10
133.9471633274831
 20
194.5361873310025
 30
0.0
 11
136.1212050755833
 21
194.5361873310025
 31
0.0
  0
LINE
  5
1CE
330
1E
100
AcDbEntity
  8
0
 62
     3
100
AcDbLine
 10
133.9471633274831
 20
194.1517573994025
 30
0.0
 11
136.1212050755833
 21
194.1517573994025
 31
0.0
  0
LINE
  5
1CF
330
1E
100
AcDbEntity
  8
0
 62
     3
100
AcDbLine
 10
133.9471633274831
 20
193.7190486591024
 30
0.0
 11
136.1212050755833
 21
193.7190486591024
 31
0.0
  0
LINE
  5
1D0
330
1E
100
AcDbEntity
  8
0
 62
     3
100
AcDbLine
 10
133.9471633274831
 20
193.2425166767025
 30
0.0
 11
136.1212050755833
 21
193.2425166767025
 31
0.0
  0
LINE
  5
1D1
330
1E
100
AcDbEntity
  8
0
 62
     3
100
AcDbLine
 10
133.9471633274831
 20
194.8684016865024
 30
0.0
 11
136.1212050755833
 21
194.8684016865024
 31
0.0
  0
LINE
  5
1D2
330
1E
100
AcDbEntity
  8
0
 62
     3
100
AcDbLine
 10
133.9471633274831
 20
192.7270137470024
 30
0.0
 11
136.1212050755833
 21
192.7270137470024
 31
0.0
  0
LINE
  5
1D3
330
1E
100
AcDbEntity
  8
0
 62
     3
100
AcDbLine
 10
133.9471633274831
 20
191.6007320087023
 30
0.0
 11
136.1212050755833
 21
191.6007320087023
 31
0.0
  0
LINE
  5
1D4
330
1E
100
AcDbEntity
  8
0
 62
     3
100
AcDbLine
 10
133.9471633274831
 20
191.0014888447024
 30
0.0
 11
136.1212050755833
 21
191.0014888447024
 31
0.0
  0
LINE
  5
1D5
330
1E
100
AcDbEntity
  8
0
 62
     3
100
AcDbLine
 10
133.9471633274831
 20
190.3863155048025
 30
0.0
 11
136.1212050755833
 21
190.3863155048025
 31
0.0
  0
LINE
  5
1D6
330
1E
100
AcDbEntity
  8
0
 62
     3
100
AcDbLine
 10
133.9471633274831
 20
189.7614680927024
 30
0.0
 11
136.1212050755833
 21
189.7614680927024
 31
0.0
  0
LINE
  5
1D7
330
1E
100
AcDbEntity
  8
0
 62
     3
100
AcDbLine
 10
133.9471633274831
 20
192.1778804462023
 30
0.0
 11
136.1212050755833
 21
192.1778804462023
 31
0.0
  0
LINE
  5
1D8
330
1E
100
AcDbEntity
  8
0
 62
     3
100
AcDbLine
 10
136.1212050755833
 20
183.3742915790024
 30
0.0
 11
134.0768325169833
 21
183.3742915790024
 31
0.0
  0
LINE
  5
1D9
330
1E
100
AcDbEntity
  8
0
 62
     3
100
AcDbLine
 10
136.1212050755833
 20
183.7498408955023
 30
0.0
 11
133.9471938450832
 21
183.7498408955023
 31
0.0
  0
LINE
  5
1DA
330
1E
100
AcDbEntity
  8
0
 62
     3
100
AcDbLine
 10
136.1212050755833
 20
184.0264217060025
 30
0.0
 11
133.9471938450832
 21
184.0264217060025
 31
0.0
  0
LINE
  5
1DB
330
1E
100
AcDbEntity
  8
0
 62
     3
100
AcDbLine
 10
136.1212050755833
 20
184.3586360615024
 30
0.0
 11
133.9471938450832
 21
184.3586360615024
 31
0.0
  0
LINE
  5
1DC
330
1E
100
AcDbEntity
  8
0
 62
     3
100
AcDbLine
 10
136.1212050755833
 20
184.7430659931024
 30
0.0
 11
133.9471938450832
 21
184.7430659931024
 31
0.0
  0
LINE
  5
1DD
330
1E
100
AcDbEntity
  8
0
 62
     3
100
AcDbLine
 10
136.1212050755833
 20
183.5317317646025
 30
0.0
 11
133.9471938450832
 21
183.5317317646025
 31
0.0
  0
LINE
  5
1DE
330
1E
100
AcDbEntity
  8
0
 62
     3
100
AcDbLine
 10
136.1212050755833
 20
185.1757747333024
 30
0.0
 11
133.9471938450832
 21
185.1757747333024
 31
0.0
  0
LINE
  5
1DF
330
1E
100
AcDbEntity
  8
0
 62
     3
100
AcDbLine
 10
136.1212050755833
 20
186.1678096455023
 30
0.0
 11
133.9471938450832
 21
186.1678096455023
 31
0.0
  0
LINE
  5
1E0
330
1E
100
AcDbEntity
  8
0
 62
     3
100
AcDbLine
 10
136.1212050755833
 20
186.7169429462023
 30
0.0
 11
133.9471938450832
 21
186.7169429462023
 31
0.0
  0
LINE
  5
1E1
330
1E
100
AcDbEntity
  8
0
 62
     3
100
AcDbLine
 10
136.1212050755833
 20
187.2940913837025
 30
0.0
 11
133.9471938450832
 21
187.2940913837025
 31
0.0
  0
LINE
  5
1E2
330
1E
100
AcDbEntity
  8
0
 62
     3
100
AcDbLine
 10
136.1212050755833
 20
187.8933345478023
 30
0.0
 11
133.9471938450832
 21
187.8933345478023
 31
0.0
  0
LINE
  5
1E3
330
1E
100
AcDbEntity
  8
0
 62
     3
100
AcDbLine
 10
136.1212050755833
 20
185.6523372333025
 30
0.0
 11
133.9471938450832
 21
185.6523372333025
 31
0.0
  0
LINE
  5
1E4
330
1E
100
AcDbEntity
  8
0
 62
     3
100
AcDbLine
 10
136.1212050755833
 20
188.5085384052024
 30
0.0
 11
133.9471938450832
 21
188.5085384052024
 31
0.0
  0
LINE
  5
1E5
330
1E
100
AcDbEntity
  8
0
 62
     3
100
AcDbLine
 10
133.0168959935832
 20
193.5544063251025
 30
0.0
 11
133.0168959935832
 21
185.4170467060025
 31
0.0
  0
LINE
  5
1E6
330
1E
100
AcDbEntity
  8
0
 62
     3
100
AcDbLine
 10
133.2760512669832
 20
193.9468928974024
 30
0.0
 11
133.2760512669832
 21
184.8642207783024
 31
0.0
  0
LINE
  5
1E7
330
1E
100
AcDbEntity
  8
0
 62
     3
100
AcDbLine
 10
136.1211745579832
 20
183.3974239033024
 30
0.0
 11
136.7211806614831
 21
183.3974239033024
 31
0.0
  0
LINE
  5
1E8
330
1E
100
AcDbEntity
  8
0
 62
     3
100
AcDbLine
 10
136.1211745579832
 20
195.3974239033025
 30
0.0
 11
136.7211806614831
 21
195.3974239033025
 31
0.0
  0
LINE
  5
1E9
330
1E
100
AcDbEntity
  8
0
 62
     3
100
AcDbLine
 10
136.1212050755833
 20
189.1333552997025
 30
0.0
 11
133.9471938450832
 21
189.1333552997025
 31
0.0
  0
LINE
  5
1EA
330
1E
100
AcDbEntity
  8
0
 62
     3
100
AcDbLine
 10
65.12834337926491
 20
230.1730975310412
 30
0.0
 11
52.72831896516493
 21
230.1730975310412
 31
0.0
  0
LINE
  5
1EB
330
1E
100
AcDbEntity
  8
0
 62
     3
100
AcDbLine
 10
65.12834337926491
 20
228.373750607241
 30
0.0
 11
65.12834337926491
 21
230.1730975310412
 31
0.0
  0
LINE
  5
1EC
330
1E
100
AcDbEntity
  8
0
 62
     3
100
AcDbLine
 10
52.85524157256492
 20
228.128724972441
 30
0.0
 11
52.85524157256492
 21
230.1731280486411
 31
0.0
  0
LINE
  5
1ED
330
1E
100
AcDbEntity
  8
0
 62
     3
100
AcDbLine
 10
53.01265124056491
 20
227.9990863005412
 30
0.0
 11
53.01265124056491
 21
230.1731280486411
 31
0.0
  0
LINE
  5
1EE
330
1E
100
AcDbEntity
  8
0
 62
     3
100
AcDbLine
 10
53.23079088896489
 20
227.9990863005412
 30
0.0
 11
53.23079088896489
 21
230.1731280486411
 31
0.0
  0
LINE
  5
1EF
330
1E
100
AcDbEntity
  8
0
 62
     3
100
AcDbLine
 10
53.50737169956492
 20
227.9990863005412
 30
0.0
 11
53.50737169956492
 21
230.1731280486411
 31
0.0
  0
LINE
  5
1F0
330
1E
100
AcDbEntity
  8
0
 62
     3
100
AcDbLine
 10
52.72831896516493
 20
228.373750607241
 30
0.0
 11
52.72831896516493
 21
230.1730975310412
 31
0.0
  0
LINE
  5
1F1
330
1E
100
AcDbEntity
  8
0
 62
     3
100
AcDbLine
 10
53.8395860550649
 20
227.9990863005412
 30
0.0
 11
53.8395860550649
 21
230.1731280486411
 31
0.0
  0
LINE
  5
1F2
330
1E
100
AcDbEntity
  8
0
 62
     3
100
AcDbLine
 10
54.65672472686492
 20
227.9990863005412
 30
0.0
 11
54.65672472686492
 21
230.1731280486411
 31
0.0
  0
LINE
  5
1F3
330
1E
100
AcDbEntity
  8
0
 62
     3
100
AcDbLine
 10
55.1332567093649
 20
227.9990863005412
 30
0.0
 11
55.1332567093649
 21
230.1731280486411
 31
0.0
  0
LINE
  5
1F4
330
1E
100
AcDbEntity
  8
0
 62
     3
100
AcDbLine
 10
55.64875963896489
 20
227.9990863005412
 30
0.0
 11
55.64875963896489
 21
230.1731280486411
 31
0.0
  0
LINE
  5
1F5
330
1E
100
AcDbEntity
  8
0
 62
     3
100
AcDbLine
 10
56.19789293976491
 20
227.9990863005412
 30
0.0
 11
56.19789293976491
 21
230.1731280486411
 31
0.0
  0
LINE
  5
1F6
330
1E
100
AcDbEntity
  8
0
 62
     3
100
AcDbLine
 10
56.77504137726493
 20
227.9990863005412
 30
0.0
 11
56.77504137726493
 21
230.1731280486411
 31
0.0
  0
LINE
  5
1F7
330
1E
100
AcDbEntity
  8
0
 62
     3
100
AcDbLine
 10
54.22401598666489
 20
227.9990863005412
 30
0.0
 11
54.22401598666489
 21
230.1731280486411
 31
0.0
  0
LINE
  5
1F8
330
1E
100
AcDbEntity
  8
0
 62
     3
100
AcDbLine
 10
57.37428454136491
 20
227.9990863005412
 30
0.0
 11
57.37428454136491
 21
230.1731280486411
 31
0.0
  0
LINE
  5
1F9
330
1E
100
AcDbEntity
  8
0
 62
     3
100
AcDbLine
 10
58.61430529326489
 20
227.9990863005412
 30
0.0
 11
58.61430529326489
 21
230.1731280486411
 31
0.0
  0
LINE
  5
1FA
330
1E
100
AcDbEntity
  8
0
 62
     3
100
AcDbLine
 10
65.0014818069649
 20
230.1731280486411
 30
0.0
 11
65.0014818069649
 21
228.128755490041
 31
0.0
  0
LINE
  5
1FB
330
1E
100
AcDbEntity
  8
0
 62
     3
100
AcDbLine
 10
64.84404162146489
 20
230.1731280486411
 30
0.0
 11
64.84404162146489
 21
227.999116818141
 31
0.0
  0
LINE
  5
1FC
330
1E
100
AcDbEntity
  8
0
 62
     3
100
AcDbLine
 10
64.62593249056491
 20
230.1731280486411
 30
0.0
 11
64.62593249056491
 21
227.999116818141
 31
0.0
  0
LINE
  5
1FD
330
1E
100
AcDbEntity
  8
0
 62
     3
100
AcDbLine
 10
57.98945788116492
 20
227.9990863005412
 30
0.0
 11
57.98945788116492
 21
230.1731280486411
 31
0.0
  0
LINE
  5
1FE
330
1E
100
AcDbEntity
  8
0
 62
     3
100
AcDbLine
 10
64.34935168006489
 20
230.1731280486411
 30
0.0
 11
64.34935168006489
 21
227.999116818141
 31
0.0
  0
LINE
  5
1FF
330
1E
100
AcDbEntity
  8
0
 62
     3
100
AcDbLine
 10
63.63270739296492
 20
230.1731280486411
 30
0.0
 11
63.63270739296492
 21
227.999116818141
 31
0.0
  0
LINE
  5
200
330
1E
100
AcDbEntity
  8
0
 62
     3
100
AcDbLine
 10
63.19999865266493
 20
230.1731280486411
 30
0.0
 11
63.19999865266493
 21
227.999116818141
 31
0.0
  0
LINE
  5
201
330
1E
100
AcDbEntity
  8
0
 62
     3
100
AcDbLine
 10
62.72343615266493
 20
230.1731280486411
 30
0.0
 11
62.72343615266493
 21
227.999116818141
 31
0.0
  0
LINE
  5
202
330
1E
100
AcDbEntity
  8
0
 62
     3
100
AcDbLine
 10
62.2079637405649
 20
230.1731280486411
 30
0.0
 11
62.2079637405649
 21
227.999116818141
 31
0.0
  0
LINE
  5
203
330
1E
100
AcDbEntity
  8
0
 62
     3
100
AcDbLine
 10
64.0171373245649
 20
230.1731280486411
 30
0.0
 11
64.0171373245649
 21
227.999116818141
 31
0.0
  0
LINE
  5
204
330
1E
100
AcDbEntity
  8
0
 62
     3
100
AcDbLine
 10
61.65883043976492
 20
230.1731280486411
 30
0.0
 11
61.65883043976492
 21
227.999116818141
 31
0.0
  0
LINE
  5
205
330
1E
100
AcDbEntity
  8
0
 62
     3
100
AcDbLine
 10
60.4824388382649
 20
230.1731280486411
 30
0.0
 11
60.4824388382649
 21
227.999116818141
 31
0.0
  0
LINE
  5
206
330
1E
100
AcDbEntity
  8
0
 62
     3
100
AcDbLine
 10
59.86723498076489
 20
230.1731280486411
 30
0.0
 11
59.86723498076489
 21
227.999116818141
 31
0.0
  0
LINE
  5
207
330
1E
100
AcDbEntity
  8
0
 62
     3
100
AcDbLine
 10
59.2424180862649
 20
230.1731280486411
 30
0.0
 11
59.2424180862649
 21
227.999116818141
 31
0.0
  0
LINE
  5
208
330
1E
100
AcDbEntity
  8
0
 62
     3
100
AcDbLine
 10
54.82136706086492
 20
227.0687884490411
 30
0.0
 11
62.9587266800649
 21
227.0687884490411
 31
0.0
  0
LINE
  5
209
330
1E
100
AcDbEntity
  8
0
 62
     3
100
AcDbLine
 10
61.08168200226493
 20
230.1731280486411
 30
0.0
 11
61.08168200226493
 21
227.999116818141
 31
0.0
  0
LINE
  5
20A
330
1E
100
AcDbEntity
  8
0
 62
     3
100
AcDbLine
 10
54.42888048866489
 20
227.327974240041
 30
0.0
 11
63.5115526077649
 21
227.327974240041
 31
0.0
  0
LINE
  5
20B
330
1E
100
AcDbEntity
  8
0
 62
     3
100
AcDbLine
 10
64.9783494827649
 20
230.1730975310412
 30
0.0
 11
64.9783494827649
 21
230.7731036345411
 31
0.0
  0
LINE
  5
20C
330
1E
100
AcDbEntity
  8
0
 62
     3
100
AcDbLine
 10
52.97834948276491
 20
230.1730975310412
 30
0.0
 11
52.97834948276491
 21
230.7731036345411
 31
0.0
  0
LINE
  5
20D
330
1E
100
AcDbEntity
  8
0
  6
CENTER
 62
     3
100
AcDbLine
 10
127.3668410618832
 20
189.4474422138024
 30
0.0
 11
140.9716994602833
 21
189.4474422138024
 31
0.0
  0
LINE
  5
20F
330
1E
100
AcDbEntity
  8
0
 62
     3
100
AcDbLine
 10
136.7211806614831
 20
153.6469356220025
 30
0.0
 11
136.7211806614831
 21
155.0090266865024
 31
0.0
  0
LINE
  5
210
330
1E
100
AcDbEntity
  8
0
 62
     3
100
AcDbLine
 10
143.2211806614833
 20
152.6469356220025
 30
0.0
 11
143.2211806614833
 21
205.0469295185024
 31
0.0
  0
LINE
  5
211
330
1E
100
AcDbEntity
  8
0
 62
     3
100
AcDbLine
 10
137.7211806614832
 20
152.6469356220025
 30
0.0
 11
143.2211806614833
 21
152.6469356220025
 31
0.0
  0
LINE
  5
212
330
1E
100
AcDbEntity
  8
0
 62
     3
100
AcDbLine
 10
137.7211806614832
 20
205.0469295185024
 30
0.0
 11
143.2211806614833
 21
205.0469295185024
 31
0.0
  0
LINE
  5
213
330
1E
100
AcDbEntity
  8
0
 62
     3
100
AcDbLine
 10
137.2211806614832
 20
159.8469478290024
 30
0.0
 11
139.2211806614833
 21
159.8469478290024
 31
0.0
  0
LINE
  5
214
330
1E
100
AcDbEntity
  8
0
 62
     3
100
AcDbLine
 10
139.2211806614833
 20
197.6469356220024
 30
0.0
 11
139.2211806614833
 21
204.8469478290024
 31
0.0
  0
LINE
  5
215
330
1E
100
AcDbEntity
  8
0
 62
     3
100
AcDbLine
 10
137.2211806614832
 20
197.8469478290024
 30
0.0
 11
139.2211806614833
 21
197.8469478290024
 31
0.0
  0
LINE
  5
216
330
1E
100
AcDbEntity
  8
0
 62
     3
100
AcDbLine
 10
136.7211806614831
 20
157.6848384540024
 30
0.0
 11
136.7211806614831
 21
200.0090266865024
 31
0.0
  0
LINE
  5
217
330
1E
100
AcDbEntity
  8
0
 62
     3
100
AcDbLine
 10
139.2211806614833
 20
152.6469356220025
 30
0.0
 11
139.2211806614833
 21
159.8469173115024
 31
0.0
  0
LINE
  5
218
330
1E
100
AcDbEntity
  8
0
  6
CENTER
 62
     3
100
AcDbLine
 10
135.3525283177833
 20
156.3469478290024
 30
0.0
 11
141.5262648899833
 21
156.3469478290024
 31
0.0
  0
LINE
  5
219
330
1E
100
AcDbEntity
  8
0
 62
     3
100
AcDbLine
 10
138.1017679466832
 20
152.9448577716024
 30
0.0
 11
139.2211797446833
 21
152.8469219800023
 31
0.0
  0
LINE
  5
21A
330
1E
100
AcDbEntity
  8
0
 62
     3
100
AcDbLine
 10
138.1017856739833
 20
159.7490221718024
 30
0.0
 11
139.2211974719832
 21
159.8469579634024
 31
0.0
  0
LINE
  5
21B
330
1E
100
AcDbEntity
  8
0
 62
     3
100
AcDbLine
 10
136.7211806614831
 20
202.6848689716025
 30
0.0
 11
136.7211806614831
 21
204.0469295185025
 31
0.0
  0
LINE
  5
21C
330
1E
100
AcDbEntity
  8
0
 62
     3
100
AcDbLine
 10
137.7211806614832
 20
109.4469234150025
 30
0.0
 11
171.2211806614833
 21
109.4469234150025
 31
0.0
  0
LINE
  5
21D
330
1E
100
AcDbEntity
  8
0
 62
     3
100
AcDbLine
 10
171.7211806614833
 20
113.8469173115024
 30
0.0
 11
171.7211806614833
 21
123.8469173115025
 31
0.0
  0
LINE
  5
21E
330
1E
100
AcDbEntity
  8
0
 62
     3
100
AcDbLine
 10
171.2211806614833
 20
109.4469234150025
 30
0.0
 11
171.2211806614833
 21
141.3469173115025
 31
0.0
  0
LINE
  5
21F
330
1E
100
AcDbEntity
  8
0
 62
     3
100
AcDbLine
 10
137.7211806614832
 20
141.3469173115025
 30
0.0
 11
171.2211806614833
 21
141.3469173115025
 31
0.0
  0
LINE
  5
220
330
1E
100
AcDbEntity
  8
0
 62
     3
100
AcDbLine
 10
140.2211806614832
 20
141.3469173115025
 30
0.0
 11
140.2211806614832
 21
152.6469356220025
 31
0.0
  0
LINE
  5
221
330
1E
100
AcDbEntity
  8
0
 62
     3
100
AcDbLine
 10
137.7211806614832
 20
152.5468990009025
 30
0.0
 11
138.8211867649832
 21
152.5468990009025
 31
0.0
  0
LINE
  5
222
330
1E
100
AcDbEntity
  8
0
 62
     3
100
AcDbLine
 10
137.7211806614832
 20
144.3469173115024
 30
0.0
 11
140.2211806614832
 21
144.3469173115024
 31
0.0
  0
LINE
  5
223
330
1E
100
AcDbEntity
  8
0
  6
CENTER
 62
     3
100
AcDbLine
 10
169.8179519017833
 20
118.8469173115023
 30
0.0
 11
172.8551833470833
 21
118.8469173115023
 31
0.0
  0
LINE
  5
224
330
1E
100
AcDbEntity
  8
0
 62
     3
100
AcDbLine
 10
171.2211806614833
 20
113.8469173115024
 30
0.0
 11
171.7211806614833
 21
113.8469173115024
 31
0.0
  0
LINE
  5
225
330
1E
100
AcDbEntity
  8
0
 62
     3
100
AcDbLine
 10
171.2211806614833
 20
123.8469173115025
 30
0.0
 11
171.7211806614833
 21
123.8469173115025
 31
0.0
  0
LINE
  5
226
330
1E
100
AcDbEntity
  8
0
 62
     3
100
AcDbLine
 10
138.8211867649832
 20
152.5468990009025
 30
0.0
 11
138.8211867649832
 21
152.6469356220025
 31
0.0
  0
LINE
  5
227
330
1E
100
AcDbEntity
  8
0
 62
     3
100
AcDbLine
 10
171.7211806614833
 20
142.3469173115025
 30
0.0
 11
171.7211806614833
 21
151.3469173115024
 31
0.0
  0
LINE
  5
228
330
1E
100
AcDbEntity
  8
0
 62
     3
100
AcDbLine
 10
171.2211806614833
 20
141.3469173115025
 30
0.0
 11
171.2211806614833
 21
205.3469478290025
 31
0.0
  0
LINE
  5
229
330
1E
100
AcDbEntity
  8
0
  6
CENTER
 62
     3
100
AcDbLine
 10
158.8590895970833
 20
146.8469478290024
 30
0.0
 11
174.2211806614833
 21
146.8469478290024
 31
0.0
  0
LINE
  5
22A
330
1E
100
AcDbEntity
  8
0
 62
     3
100
AcDbLine
 10
171.2211806614833
 20
151.3469478290024
 30
0.0
 11
171.7211806614833
 21
151.3469478290024
 31
0.0
  0
LINE
  5
22B
330
1E
100
AcDbEntity
  8
0
 62
     3
100
AcDbLine
 10
171.2211806614833
 20
142.3469478290025
 30
0.0
 11
171.7211806614833
 21
142.3469478290025
 31
0.0
  0
LINE
  5
22C
330
1E
100
AcDbEntity
  8
0
 62
     3
100
AcDbLine
 10
171.7211806614833
 20
191.8469173115024
 30
0.0
 11
171.7211806614833
 21
196.8469173115024
 31
0.0
  0
LINE
  5
22D
330
1E
100
AcDbEntity
  8
0
 62
     3
100
AcDbLine
 10
140.2211806614832
 20
141.3469478290025
 30
0.0
 11
171.2211806614833
 21
141.3469478290025
 31
0.0
  0
LINE
  5
22E
330
1E
100
AcDbEntity
  8
0
 62
     3
100
AcDbLine
 10
161.7211806614833
 20
141.3469173115025
 30
0.0
 11
161.7211806614833
 21
156.3469173115024
 31
0.0
  0
LINE
  5
22F
330
1E
100
AcDbEntity
  8
0
 62
     3
100
AcDbLine
 10
143.2211806614833
 20
152.3469478290023
 30
0.0
 11
161.7211806614833
 21
152.3469478290023
 31
0.0
  0
LINE
  5
230
330
1E
100
AcDbEntity
  8
0
 62
     3
100
AcDbLine
 10
143.2211806614833
 20
152.3469173115024
 30
0.0
 11
143.2211806614833
 21
205.3469478290025
 31
0.0
  0
LINE
  5
231
330
1E
100
AcDbEntity
  8
0
 62
     3
100
AcDbLine
 10
140.2211806614832
 20
144.4469234150024
 30
0.0
 11
161.7211806614833
 21
144.4469234150024
 31
0.0
  0
LINE
  5
232
330
1E
100
AcDbEntity
  8
0
 62
     3
100
AcDbLine
 10
143.2211806614833
 20
205.3469478290025
 30
0.0
 11
171.2211806614833
 21
205.3469478290025
 31
0.0
  0
LINE
  5
233
330
1E
100
AcDbEntity
  8
0
  6
CENTER
 62
     3
100
AcDbLine
 10
169.0575454075833
 20
194.3469478290024
 30
0.0
 11
174.2211806614833
 21
194.3469478290024
 31
0.0
  0
LINE
  5
234
330
1E
100
AcDbEntity
  8
0
 62
     3
100
AcDbLine
 10
171.2211806614833
 20
196.8469478290024
 30
0.0
 11
171.7211806614833
 21
196.8469478290024
 31
0.0
  0
LINE
  5
235
330
1E
100
AcDbEntity
  8
0
 62
     3
100
AcDbLine
 10
171.2211806614833
 20
191.8469478290024
 30
0.0
 11
171.7211806614833
 21
191.8469478290024
 31
0.0
  0
LINE
  5
236
330
1E
100
AcDbEntity
  8
0
 62
     3
100
AcDbLine
 10
143.7211806614833
 20
205.3469478290025
 30
0.0
 11
143.7211806614833
 21
206.8469478290024
 31
0.0
  0
LINE
  5
237
330
1E
100
AcDbEntity
  8
0
 62
     3
100
AcDbLine
 10
169.7211806614833
 20
205.3469478290025
 30
0.0
 11
169.7211806614833
 21
206.8469478290024
 31
0.0
  0
LINE
  5
238
330
1E
100
AcDbEntity
  8
0
 62
     3
100
AcDbLine
 10
144.2211806614833
 20
207.3469478290024
 30
0.0
 11
169.2211806614833
 21
207.3469478290024
 31
0.0
  0
LINE
  5
239
330
1E
100
AcDbEntity
  8
0
  6
CENTER
 62
     3
100
AcDbLine
 10
156.7211806614833
 20
166.8436824482023
 30
0.0
 11
156.7211806614833
 21
211.8469478290025
 31
0.0
  0
LINE
  5
23A
330
1E
100
AcDbEntity
  8
0
  6
CENTER
 62
     3
100
AcDbLine
 10
140.6401870091831
 20
183.3469478290025
 30
0.0
 11
172.7641494114833
 21
183.3469478290025
 31
0.0
  0
LINE
  5
23B
330
1E
100
AcDbEntity
  8
0
 62
     3
100
AcDbLine
 10
140.2211806614832
 20
141.3469173115025
 30
0.0
 11
140.2211806614832
 21
152.6469356220025
 31
0.0
  0
LINE
  5
23C
330
1E
100
AcDbEntity
  8
0
 62
     3
100
AcDbLine
 10
138.1017498879833
 20
197.9448951068024
 30
0.0
 11
139.2211616859833
 21
197.8469593152025
 31
0.0
  0
LINE
  5
23D
330
1E
100
AcDbEntity
  8
0
 62
     3
100
AcDbLine
 10
138.1017759909832
 20
204.7490264458025
 30
0.0
 11
139.2211877889832
 21
204.8469622374025
 31
0.0
  0
LINE
  5
23E
330
1E
100
AcDbEntity
  8
0
  6
CENTER
 62
     3
100
AcDbLine
 10
135.3525283177833
 20
201.3469478290025
 30
0.0
 11
141.3250014622833
 21
201.3469478290025
 31
0.0
  0
LINE
  5
23F
330
1E
100
AcDbEntity
  8
0
 62
     3
100
AcDbLine
 10
43.42970446326489
 20
202.2469722431025
 30
0.0
 11
74.4297044632649
 21
202.2469722431025
 31
0.0
  0
LINE
  5
240
330
1E
100
AcDbEntity
  8
0
 62
     3
100
AcDbLine
 10
83.02971056676492
 20
162.8469478290023
 30
0.0
 11
83.02971056676492
 21
194.8469478290024
 31
0.0
  0
LINE
  5
241
330
1E
100
AcDbEntity
  8
0
 62
     3
100
AcDbLine
 10
43.42970446326489
 20
202.2469417255025
 30
0.0
 11
43.42970446326489
 21
203.2469417255025
 31
0.0
  0
LINE
  5
242
330
1E
100
AcDbEntity
  8
0
 62
     3
100
AcDbLine
 10
136.7211806614831
 20
110.4469234150025
 30
0.0
 11
136.7211806614831
 21
151.5468990009025
 31
0.0
  0
LINE
  5
243
330
1E
100
AcDbEntity
  8
0
  6
DASH
 62
     3
100
AcDbLine
 10
44.7296007034649
 20
90.64690510440248
 30
0.0
 11
44.7296007034649
 21
89.64690510440247
 31
0.0
  0
LINE
  5
244
330
1E
100
AcDbEntity
  8
0
  6
DASH
 62
     3
100
AcDbLine
 10
78.9298570511649
 20
98.54692951850253
 30
0.0
 11
78.9298570511649
 21
83.14696613960251
 31
0.0
  0
LINE
  5
245
330
1E
100
AcDbEntity
  8
0
  6
DASH
 62
     3
100
AcDbLine
 10
38.9298570511649
 20
98.54738728220251
 30
0.0
 11
38.9298570511649
 21
83.14696613960251
 31
0.0
  0
LINE
  5
246
330
1E
100
AcDbEntity
  8
0
  6
DASH
 62
     3
100
AcDbLine
 10
37.57972887726492
 20
103.9469234150025
 30
0.0
 11
80.2797105667649
 21
103.9469234150025
 31
0.0
  0
LINE
  5
247
330
1E
100
AcDbEntity
  8
0
  6
DASH
 62
     3
100
AcDbLine
 10
80.2797105667649
 20
103.9469234150025
 30
0.0
 11
80.2797105667649
 21
107.4469234150025
 31
0.0
  0
LINE
  5
248
330
1E
100
AcDbEntity
  8
0
  6
DASH
 62
     3
100
AcDbLine
 10
37.57969835976492
 20
103.9469234150025
 30
0.0
 11
37.57969835976492
 21
107.4469234150025
 31
0.0
  0
LINE
  5
249
330
1E
100
AcDbEntity
  8
0
  6
DASH
 62
     3
100
AcDbLine
 10
78.9298570511649
 20
106.4469234150025
 30
0.0
 11
78.9298570511649
 21
100.5469295185025
 31
0.0
  0
LINE
  5
24A
330
1E
100
AcDbEntity
  8
0
  6
DASH
 62
     3
100
AcDbLine
 10
54.9297044632649
 20
98.1469356220025
 30
0.0
 11
54.9297044632649
 21
104.9469234150025
 31
0.0
  0
LINE
  5
24B
330
1E
100
AcDbEntity
  8
0
  6
DASH
 62
     3
100
AcDbLine
 10
38.9298570511649
 20
106.4469234150025
 30
0.0
 11
38.9298570511649
 21
100.5464717548024
 31
0.0
  0
LINE
  5
24C
330
1E
100
AcDbEntity
  8
0
  6
DASH
 62
     3
100
AcDbLine
 10
39.57972887726493
 20
109.4469234150025
 30
0.0
 11
78.27971056676492
 21
109.4469234150025
 31
0.0
  0
LINE
  5
24D
330
1E
100
AcDbEntity
  8
0
  6
DASH
 62
     3
100
AcDbLine
 10
73.52971056676492
 20
108.4469234150025
 30
0.0
 11
76.9298570511649
 21
108.4469234150025
 31
0.0
  0
LINE
  5
24E
330
1E
100
AcDbEntity
  8
0
  6
DASH
 62
     3
100
AcDbLine
 10
40.9298570511649
 20
108.4469234150025
 30
0.0
 11
44.32972887726491
 21
108.4469234150025
 31
0.0
  0
LINE
  5
250
330
1E
100
AcDbEntity
  8
0
  6
CENTER
 62
     3
100
AcDbLine
 10
74.92982653356489
 20
90.14690510440248
 30
0.0
 11
42.92982653356489
 21
90.14690510440248
 31
0.0
  0
ARC
  5
252
330
1E
100
AcDbEntity
  8
0
  6
DASH
 62
     3
100
AcDbCircle
 10
55.92970446326489
 20
98.1469356220025
 30
0.0
 40
1.0
100
AcDbArc
 50
180.0000359722
 51
270.0000179861
  0
ARC
  5
253
330
1E
100
AcDbEntity
  8
0
  6
DASH
 62
     3
100
AcDbCircle
 10
39.42955187536489
 20
102.9068233173024
 30
0.0
 40
0.5
100
AcDbArc
 50
150.5182994189
 51
179.9990351221
  0
ARC
  5
254
330
1E
100
AcDbEntity
  8
0
  6
DASH
 62
     3
100
AcDbCircle
 10
47.92961291046492
 20
90.64690510440248
 30
0.0
 40
3.1999988556
100
AcDbArc
 50
0.0
 51
179.9999640277999
  0
ARC
  5
255
330
1E
100
AcDbEntity
  8
0
  6
DASH
 62
     3
100
AcDbCircle
 10
37.41288927766493
 20
99.54692951850253
 30
0.0
 40
1.816666722299999
100
AcDbArc
 50
326.6015121850998
 51
33.3984878149
  0
LINE
  5
256
330
1E
100
AcDbEntity
  8
0
 62
     3
100
AcDbLine
 10
78.8797166702649
 20
155.9469539326024
 30
0.0
 11
78.8797166702649
 21
156.7469417255025
 31
0.0
  0
LINE
  5
257
330
1E
100
AcDbEntity
  8
0
 62
     3
100
AcDbLine
 10
82.02971056676492
 20
162.8469478290023
 30
0.0
 11
83.02971056676492
 21
162.8469478290023
 31
0.0
  0
LINE
  5
258
330
1E
100
AcDbEntity
  8
0
 62
     3
100
AcDbLine
 10
43.42970446326489
 20
159.8469478290024
 30
0.0
 11
74.4297044632649
 21
159.8469478290024
 31
0.0
  0
LINE
  5
259
330
1E
100
AcDbEntity
  8
0
 62
     3
100
AcDbLine
 10
35.82969835976492
 20
194.8469478290024
 30
0.0
 11
34.82969835976492
 21
194.8469478290024
 31
0.0
  0
LINE
  5
25A
330
1E
100
AcDbEntity
  8
0
 62
     3
100
AcDbLine
 10
35.82969835976492
 20
162.8469478290023
 30
0.0
 11
35.82969835976492
 21
194.8469478290024
 31
0.0
  0
LINE
  5
25B
330
1E
100
AcDbEntity
  8
0
 62
     3
100
AcDbLine
 10
74.4297044632649
 20
202.2469417255025
 30
0.0
 11
74.4297044632649
 21
203.2469417255025
 31
0.0
  0
LINE
  5
25C
330
1E
100
AcDbEntity
  8
0
 62
     3
100
AcDbLine
 10
82.02971056676492
 20
194.8469478290024
 30
0.0
 11
83.02971056676492
 21
194.8469478290024
 31
0.0
  0
LINE
  5
25D
330
1E
100
AcDbEntity
  8
0
 62
     3
100
AcDbLine
 10
40.33036194846491
 20
232.1536945456409
 30
0.0
 11
40.42829774016492
 21
233.2731063435411
 31
0.0
  0
LINE
  5
25E
330
1E
100
AcDbEntity
  8
0
 62
     3
100
AcDbLine
 10
82.97972277376491
 20
155.9469539326024
 30
0.0
 11
82.97972277376491
 21
156.7469417255025
 31
0.0
  0
LINE
  5
25F
330
1E
100
AcDbEntity
  8
0
 62
     3
100
AcDbLine
 10
33.52627179496491
 20
232.1537220753412
 30
0.0
 11
33.42833600336493
 21
233.2731338733409
 31
0.0
  0
LINE
  5
260
330
1E
100
AcDbEntity
  8
0
 62
     3
100
AcDbLine
 10
78.8797166702649
 20
156.7469417255025
 30
0.0
 11
79.52968004916491
 21
156.7469417255025
 31
0.0
  0
LINE
  5
261
330
1E
100
AcDbEntity
  8
0
 62
     3
100
AcDbLine
 10
78.8797166702649
 20
155.9469539326024
 30
0.0
 11
79.52968004916491
 21
155.9469539326024
 31
0.0
  0
LINE
  5
262
330
1E
100
AcDbEntity
  8
0
 62
     3
100
AcDbLine
 10
80.52971056676492
 20
154.2969295185025
 30
0.0
 11
80.52971056676492
 21
154.9469539326024
 31
0.0
  0
LINE
  5
263
330
1E
100
AcDbEntity
  8
0
  6
CENTER
 62
     3
100
AcDbLine
 10
36.92833117226492
 20
229.4044512907411
 30
0.0
 11
36.92833117226492
 21
235.3768939177411
 31
0.0
  0
LINE
  5
264
330
1E
100
AcDbEntity
  8
0
 62
     3
100
AcDbLine
 10
81.32969835976494
 20
154.2969295185025
 30
0.0
 11
81.32969835976494
 21
154.9469539326024
 31
0.0
  0
LINE
  5
265
330
1E
100
AcDbEntity
  8
0
 62
     3
100
AcDbLine
 10
82.32969835976494
 20
156.7469417255025
 30
0.0
 11
82.97972277376491
 21
156.7469417255025
 31
0.0
  0
LINE
  5
266
330
1E
100
AcDbEntity
  8
0
 62
     3
100
AcDbLine
 10
82.32969835976494
 20
155.9469539326024
 30
0.0
 11
82.97972277376491
 21
155.9469539326024
 31
0.0
  0
LINE
  5
267
330
1E
100
AcDbEntity
  8
0
 62
     3
100
AcDbLine
 10
79.59041002966491
 20
230.7731036345411
 30
0.0
 11
38.26625231476493
 21
230.7731036345411
 31
0.0
  0
LINE
  5
268
330
1E
100
AcDbEntity
  8
0
 62
     3
100
AcDbLine
 10
80.52971056676492
 20
157.7469417255024
 30
0.0
 11
80.52971056676492
 21
158.3969356220024
 31
0.0
  0
ARC
  5
269
330
1E
100
AcDbEntity
  8
0
  6
DASH
 62
     3
100
AcDbCircle
 10
47.92961291046492
 20
89.64690510440247
 30
0.0
 40
3.1999988556
100
AcDbArc
 50
180.0000359722
 51
0.0
  0
ARC
  5
26A
330
1E
100
AcDbEntity
  8
0
  6
DASH
 62
     3
100
AcDbCircle
 10
135.7211806614831
 20
117.8968135517024
 30
0.0
 40
1.0
100
AcDbArc
 50
270.0000179861
 51
0.0
  0
ARC
  5
26B
330
1E
100
AcDbEntity
  8
0
  6
DASH
 62
     3
100
AcDbCircle
 10
135.7211806614831
 20
119.9968196552025
 30
0.0
 40
1.0
100
AcDbArc
 50
0.0
 51
89.99998201389999
  0
LINE
  5
26C
330
1E
100
AcDbEntity
  8
0
  6
CENTER
 62
     3
100
AcDbLine
 10
169.7199904759833
 20
90.14690510440248
 30
0.0
 11
159.3080031712833
 21
90.14690510440248
 31
0.0
  0
LINE
  5
26D
330
1E
100
AcDbEntity
  8
0
  6
DASH
 62
     3
100
AcDbLine
 10
108.4211928685833
 20
117.9468318622024
 30
0.0
 11
131.2211806614832
 21
117.9468318622024
 31
0.0
  0
LINE
  5
26E
330
1E
100
AcDbEntity
  8
0
  6
DASH
 62
     3
100
AcDbLine
 10
108.4211928685833
 20
119.9468318622024
 30
0.0
 11
131.2211806614832
 21
119.9468318622024
 31
0.0
  0
LINE
  5
26F
330
1E
100
AcDbEntity
  8
0
  6
DASH
 62
     3
100
AcDbLine
 10
108.4211928685833
 20
119.9468318622024
 30
0.0
 11
108.4211928685833
 21
117.9468318622024
 31
0.0
  0
LINE
  5
270
330
1E
100
AcDbEntity
  8
0
  6
DASH
 62
     3
100
AcDbLine
 10
166.7211806614833
 20
119.9468318622024
 30
0.0
 11
166.7211806614833
 21
117.9468318622024
 31
0.0
  0
LINE
  5
271
330
1E
100
AcDbEntity
  8
0
  6
DASH
 62
     3
100
AcDbLine
 10
131.2211806614832
 20
120.9968196552025
 30
0.0
 11
131.2211806614832
 21
116.8968440693024
 31
0.0
  0
LINE
  5
272
330
1E
100
AcDbEntity
  8
0
  6
DASH
 62
     3
100
AcDbLine
 10
135.7211806614831
 20
120.9968196552025
 30
0.0
 11
131.2211806614832
 21
120.9968196552025
 31
0.0
  0
LINE
  5
273
330
1E
100
AcDbEntity
  8
0
  6
DASH
 62
     3
100
AcDbLine
 10
135.7211806614831
 20
116.8968440693024
 30
0.0
 11
131.2211806614832
 21
116.8968440693024
 31
0.0
  0
LINE
  5
274
330
1E
100
AcDbEntity
  8
0
  6
DASH
 62
     3
100
AcDbLine
 10
136.7211806614831
 20
119.9968196552025
 30
0.0
 11
136.7211806614831
 21
117.8968135517024
 31
0.0
  0
LINE
  5
275
330
1E
100
AcDbEntity
  8
0
  6
DASH
 62
     3
100
AcDbLine
 10
136.7211806614831
 20
117.9468318622024
 30
0.0
 11
166.7211806614833
 21
117.9468318622024
 31
0.0
  0
LINE
  5
276
330
1E
100
AcDbEntity
  8
0
  6
DASH
 62
     3
100
AcDbLine
 10
136.7211806614831
 20
119.9468318622024
 30
0.0
 11
166.7211806614833
 21
119.9468318622024
 31
0.0
  0
LINE
  5
277
330
1E
100
AcDbEntity
  8
0
  6
DASH
 62
     3
100
AcDbLine
 10
165.2211806614833
 20
81.14693562200249
 30
0.0
 11
165.2211806614833
 21
103.9469539326024
 31
0.0
  0
LINE
  5
278
330
1E
100
AcDbEntity
  8
0
  6
DASH
 62
     3
100
AcDbLine
 10
163.2211806614833
 20
81.14693562200249
 30
0.0
 11
163.2211806614833
 21
103.9469539326024
 31
0.0
  0
LINE
  5
279
330
1E
100
AcDbEntity
  8
0
  6
DASH
 62
     3
100
AcDbLine
 10
163.2211806614833
 20
81.14693562200249
 30
0.0
 11
165.2211806614833
 21
81.14693562200249
 31
0.0
  0
LINE
  5
27A
330
1E
100
AcDbEntity
  8
0
  6
DASH
 62
     3
100
AcDbLine
 10
163.2211806614833
 20
139.4469539326024
 30
0.0
 11
165.2211806614833
 21
139.4469539326024
 31
0.0
  0
LINE
  5
27B
330
1E
100
AcDbEntity
  8
0
 62
     3
100
AcDbLine
 10
81.32969835976494
 20
157.7469417255024
 30
0.0
 11
81.32969835976494
 21
158.3969356220024
 31
0.0
  0
LINE
  5
27C
330
1E
100
AcDbEntity
  8
0
  6
DASH
 62
     3
100
AcDbLine
 10
162.1711928685833
 20
103.9469539326024
 30
0.0
 11
166.2711989720833
 21
103.9469539326024
 31
0.0
  0
LINE
  5
27D
330
1E
100
AcDbEntity
  8
0
  6
DASH
 62
     3
100
AcDbLine
 10
162.1711928685833
 20
108.4469539326025
 30
0.0
 11
162.1711928685833
 21
103.9469539326024
 31
0.0
  0
LINE
  5
27E
330
1E
100
AcDbEntity
  8
0
  6
DASH
 62
     3
100
AcDbLine
 10
166.2711989720833
 20
108.4469539326025
 30
0.0
 11
166.2711989720833
 21
103.9469539326024
 31
0.0
  0
LINE
  5
27F
330
1E
100
AcDbEntity
  8
0
  6
DASH
 62
     3
100
AcDbLine
 10
163.1711928685833
 20
109.4469539326025
 30
0.0
 11
165.2711989720833
 21
109.4469539326025
 31
0.0
  0
LINE
  5
280
330
1E
100
AcDbEntity
  8
0
  6
DASH
 62
     3
100
AcDbLine
 10
165.2211806614833
 20
109.4469539326025
 30
0.0
 11
165.2211806614833
 21
139.4469539326024
 31
0.0
  0
LINE
  5
281
330
1E
100
AcDbEntity
  8
0
  6
DASH
 62
     3
100
AcDbLine
 10
163.2211806614833
 20
109.4469539326025
 30
0.0
 11
163.2211806614833
 21
139.4469539326024
 31
0.0
  0
LINE
  5
282
330
1E
100
AcDbEntity
  8
0
  6
DASH
 62
     3
100
AcDbLine
 10
125.8211867649833
 20
119.9468318622024
 30
0.0
 11
125.8211867649833
 21
117.9468318622024
 31
0.0
  0
LINE
  5
283
330
1E
100
AcDbEntity
  8
0
  6
DASH
 62
     3
100
AcDbLine
 10
127.8211867649833
 20
119.9468318622024
 30
0.0
 11
127.8211867649833
 21
117.9468318622024
 31
0.0
  0
LINE
  5
284
330
1E
100
AcDbEntity
  8
0
  6
DASH
 62
     3
100
AcDbLine
 10
135.7211806614831
 20
119.9468318622024
 30
0.0
 11
135.7211806614831
 21
117.9468318622024
 31
0.0
  0
LINE
  5
285
330
1E
100
AcDbEntity
  8
0
  6
DASH
 62
     3
100
AcDbLine
 10
143.7211806614833
 20
119.9468318622024
 30
0.0
 11
143.7211806614833
 21
117.9468318622024
 31
0.0
  0
LINE
  5
286
330
1E
100
AcDbEntity
  8
0
  6
DASH
 62
     3
100
AcDbLine
 10
162.4211928685833
 20
119.9468318622024
 30
0.0
 11
162.4211928685833
 21
117.9468318622024
 31
0.0
  0
LINE
  5
287
330
1E
100
AcDbEntity
  8
0
  6
DASH
 62
     3
100
AcDbLine
 10
164.7211806614833
 20
119.9468318622024
 30
0.0
 11
164.7211806614833
 21
117.9468318622024
 31
0.0
  0
LINE
  5
288
330
1E
100
AcDbEntity
  8
0
  6
DASH
 62
     3
100
AcDbLine
 10
163.2211806614833
 20
98.54696003610252
 30
0.0
 11
165.2211806614833
 21
98.54696003610252
 31
0.0
  0
LINE
  5
289
330
1E
100
AcDbEntity
  8
0
  6
DASH
 62
     3
100
AcDbLine
 10
163.2211806614833
 20
100.5469600361025
 30
0.0
 11
165.2211806614833
 21
100.5469600361025
 31
0.0
  0
LINE
  5
28A
330
1E
100
AcDbEntity
  8
0
  6
DASH
 62
     3
100
AcDbLine
 10
163.2211806614833
 20
108.4469539326025
 30
0.0
 11
165.2211806614833
 21
108.4469539326025
 31
0.0
  0
LINE
  5
28C
330
1E
100
AcDbEntity
  8
0
  6
DASH
 62
     3
100
AcDbLine
 10
55.92970446326489
 20
105.9469234150025
 30
0.0
 11
61.9297044632649
 21
105.9469234150025
 31
0.0
  0
LINE
  5
28D
330
1E
100
AcDbEntity
  8
0
  6
DASH
 62
     3
100
AcDbLine
 10
62.92970446326489
 20
98.1469356220025
 30
0.0
 11
62.92970446326489
 21
104.9469234150025
 31
0.0
  0
ARC
  5
28E
330
1E
100
AcDbEntity
  8
0
 62
     3
100
AcDbCircle
 10
80.92833117226494
 20
239.673097531041
 30
0.0
 40
9.0
100
AcDbArc
 50
254.1191724675999
 51
285.8808635044998
  0
ARC
  5
28F
330
1E
100
AcDbEntity
  8
0
 62
     3
100
AcDbCircle
 10
78.8213060257649
 20
232.267000118941
 30
0.0
 40
1.2999999523
100
AcDbArc
 50
185.0000076522
 51
254.1191724675999
  0
ARC
  5
290
330
1E
100
AcDbEntity
  8
0
 62
     3
100
AcDbCircle
 10
83.03535631866493
 20
232.267000118941
 30
0.0
 40
1.2999999523
100
AcDbArc
 50
285.8808635044998
 51
355.0000009991999
  0
ARC
  5
291
330
1E
100
AcDbEntity
  8
0
 62
     3
100
AcDbCircle
 10
80.92970446326489
 20
113.4469234150025
 30
0.0
 40
4.0
100
AcDbArc
 50
270.0000179861
 51
0.0
  0
ARC
  5
292
330
1E
100
AcDbEntity
  8
0
 62
     3
100
AcDbCircle
 10
83.9297044632649
 20
140.3469173115025
 30
0.0
 40
1.0
100
AcDbArc
 50
0.0
 51
89.99998201389999
  0
ARC
  5
293
330
1E
100
AcDbEntity
  8
0
 62
     3
100
AcDbCircle
 10
36.92970446326489
 20
113.4469234150025
 30
0.0
 40
4.0
100
AcDbArc
 50
180.0000359722
 51
270.0000179861
  0
ARC
  5
294
330
1E
100
AcDbEntity
  8
0
 62
     3
100
AcDbCircle
 10
33.92973498076489
 20
140.3469173115025
 30
0.0
 40
1.0
100
AcDbArc
 50
89.99998201389999
 51
179.9999640277999
  0
ARC
  5
295
330
1E
100
AcDbEntity
  8
0
 62
     3
100
AcDbCircle
 10
80.6297166702649
 20
156.6469356220025
 30
0.0
 40
4.0
100
AcDbArc
 50
270.0000179861
 51
0.0
  0
ARC
  5
296
330
1E
100
AcDbEntity
  8
0
 62
     3
100
AcDbCircle
 10
37.2297227737649
 20
156.6469356220025
 30
0.0
 40
4.0
100
AcDbArc
 50
180.0000359722
 51
270.0000179861
  0
ARC
  5
297
330
1E
100
AcDbEntity
  8
0
 62
     3
100
AcDbCircle
 10
37.2297227737649
 20
201.0469295185024
 30
0.0
 40
4.0
100
AcDbArc
 50
89.99998201389999
 51
179.9999640277999
  0
ARC
  5
298
330
1E
100
AcDbEntity
  8
0
 62
     3
100
AcDbCircle
 10
80.6297166702649
 20
201.0469295185024
 30
0.0
 40
4.0
100
AcDbArc
 50
0.0
 51
89.99998201389999
  0
ARC
  5
299
330
1E
100
AcDbEntity
  8
0
 62
     3
100
AcDbCircle
 10
80.92970446326489
 20
156.3469478290024
 30
0.0
 40
3.5
100
AcDbArc
 50
89.99998201389999
 51
179.9999640277999
  0
ARC
  5
29A
330
1E
100
AcDbEntity
  8
0
 62
     3
100
AcDbCircle
 10
83.6297166702649
 20
160.8469478290023
 30
0.0
 40
1.0
100
AcDbArc
 50
270.0000179861
 51
0.0
  0
ARC
  5
29B
330
1E
100
AcDbEntity
  8
0
 62
     3
100
AcDbCircle
 10
76.4297044632649
 20
153.6469356220025
 30
0.0
 40
1.0
100
AcDbArc
 50
270.0000179861
 51
0.0
  0
ARC
  5
29C
330
1E
100
AcDbEntity
  8
0
 62
     3
100
AcDbCircle
 10
76.4297044632649
 20
204.0469295185025
 30
0.0
 40
1.0
100
AcDbArc
 50
0.0
 51
89.99998201389999
  0
LINE
  5
29D
330
1E
100
AcDbEntity
  8
0
 62
     3
100
AcDbLine
 10
36.5297105667649
 20
154.2969600361025
 30
0.0
 11
37.32969835976492
 21
154.2969600361025
 31
0.0
  0
LINE
  5
29E
330
1E
100
AcDbEntity
  8
0
 62
     3
100
AcDbLine
 10
36.5297105667649
 20
158.3969356220024
 30
0.0
 11
37.32969835976492
 21
158.3969356220024
 31
0.0
  0
LINE
  5
29F
330
1E
100
AcDbEntity
  8
0
 62
     3
100
AcDbLine
 10
34.87971667026491
 20
155.9469539326024
 30
0.0
 11
34.87971667026491
 21
156.7469417255025
 31
0.0
  0
LINE
  5
2A0
330
1E
100
AcDbEntity
  8
0
 62
     3
100
AcDbLine
 10
38.97969225616492
 20
155.9469539326024
 30
0.0
 11
38.97969225616492
 21
156.7469417255025
 31
0.0
  0
LINE
  5
2A1
330
1E
100
AcDbEntity
  8
0
 62
     3
100
AcDbLine
 10
34.87971667026491
 20
156.7469417255025
 30
0.0
 11
35.52971056676492
 21
156.7469417255025
 31
0.0
  0
LINE
  5
2A2
330
1E
100
AcDbEntity
  8
0
 62
     3
100
AcDbLine
 10
34.87971667026491
 20
155.9469539326024
 30
0.0
 11
35.52971056676492
 21
155.9469539326024
 31
0.0
  0
LINE
  5
2A3
330
1E
100
AcDbEntity
  8
0
 62
     3
100
AcDbLine
 10
43.42970446326489
 20
203.2469722431025
 30
0.0
 11
74.4297044632649
 21
203.2469722431025
 31
0.0
  0
LINE
  5
2A4
330
1E
100
AcDbEntity
  8
0
 62
     3
100
AcDbLine
 10
36.5296800491649
 20
154.2969295185025
 30
0.0
 11
36.5296800491649
 21
154.9469539326024
 31
0.0
  0
LINE
  5
2A5
330
1E
100
AcDbEntity
  8
0
 62
     3
100
AcDbLine
 10
37.32969835976492
 20
154.2969295185025
 30
0.0
 11
37.32969835976492
 21
154.9469539326024
 31
0.0
  0
LINE
  5
2A6
330
1E
100
AcDbEntity
  8
0
 62
     3
100
AcDbLine
 10
38.32969835976492
 20
156.7469417255025
 30
0.0
 11
38.97972277376489
 21
156.7469417255025
 31
0.0
  0
LINE
  5
2A7
330
1E
100
AcDbEntity
  8
0
 62
     3
100
AcDbLine
 10
38.32969835976492
 20
155.9469539326024
 30
0.0
 11
38.97972277376489
 21
155.9469539326024
 31
0.0
  0
ARC
  5
2A8
330
1E
100
AcDbEntity
  8
0
 62
     3
100
AcDbCircle
 10
80.92970446326489
 20
201.3469478290025
 30
0.0
 40
3.5
100
AcDbArc
 50
180.0000359722
 51
270.0000179861
  0
ARC
  5
2A9
330
1E
100
AcDbEntity
  8
0
 62
     3
100
AcDbCircle
 10
83.6297166702649
 20
196.8469478290024
 30
0.0
 40
1.0
100
AcDbArc
 50
0.0
 51
89.99998201389999
  0
ARC
  5
2AA
330
1E
100
AcDbEntity
  8
0
 62
     3
100
AcDbCircle
 10
41.42970446326489
 20
153.6469356220025
 30
0.0
 40
1.0
100
AcDbArc
 50
180.0000359722
 51
270.0000179861
  0
ARC
  5
2AB
330
1E
100
AcDbEntity
  8
0
 62
     3
100
AcDbCircle
 10
36.92970446326489
 20
156.3469478290024
 30
0.0
 40
3.5
100
AcDbArc
 50
0.0
 51
89.99998201389999
  0
ARC
  5
2AC
330
1E
100
AcDbEntity
  8
0
 62
     3
100
AcDbCircle
 10
34.22972277376489
 20
160.8469478290023
 30
0.0
 40
1.0
100
AcDbArc
 50
180.0000359722
 51
270.0000179861
  0
ARC
  5
2AD
330
1E
100
AcDbEntity
  8
0
 62
     3
100
AcDbCircle
 10
41.42970446326489
 20
204.0469295185025
 30
0.0
 40
1.0
100
AcDbArc
 50
89.99998201389999
 51
179.9999640277999
  0
ARC
  5
2AE
330
1E
100
AcDbEntity
  8
0
 62
     3
100
AcDbCircle
 10
36.92970446326489
 20
201.3469478290025
 30
0.0
 40
3.5
100
AcDbArc
 50
270.0000179861
 51
0.0
  0
ARC
  5
2AF
330
1E
100
AcDbEntity
  8
0
 62
     3
100
AcDbCircle
 10
34.22972277376489
 20
196.8469478290024
 30
0.0
 40
1.0
100
AcDbArc
 50
89.99998201389999
 51
179.9999640277999
  0
ARC
  5
2B0
330
1E
100
AcDbEntity
  8
0
 62
     3
100
AcDbCircle
 10
80.92970446326489
 20
156.3469478290024
 30
0.0
 40
4.0
100
AcDbArc
 50
270.0000179861
 51
0.0
  0
ARC
  5
2B1
330
1E
100
AcDbEntity
  8
0
 62
     3
100
AcDbCircle
 10
86.73103502966489
 20
21.84635131394401
 30
0.0
 40
0.5
100
AcDbArc
 50
270.0000179861
 51
0.0
  0
ARC
  5
2B2
330
1E
100
AcDbEntity
  8
0
 62
     3
100
AcDbCircle
 10
86.73103502966489
 20
46.846351313944
 30
0.0
 40
0.5
100
AcDbArc
 50
0.0
 51
89.99998201389999
  0
ARC
  5
2B3
330
1E
100
AcDbEntity
  8
0
 62
     3
100
AcDbCircle
 10
71.4297044632649
 20
206.8469478290024
 30
0.0
 40
0.5
100
AcDbArc
 50
0.0
 51
89.99998201389999
  0
ARC
  5
2B4
330
1E
100
AcDbEntity
  8
0
 62
     3
100
AcDbCircle
 10
80.92970446326489
 20
201.3469478290025
 30
0.0
 40
4.0
100
AcDbArc
 50
0.0
 51
89.99998201389999
  0
ARC
  5
2B5
330
1E
100
AcDbEntity
  8
0
 62
     3
100
AcDbCircle
 10
36.92970446326489
 20
156.3469478290024
 30
0.0
 40
4.0
100
AcDbArc
 50
180.0000359722
 51
270.0000179861
  0
ARC
  5
2B6
330
1E
100
AcDbEntity
  8
0
 62
     3
100
AcDbCircle
 10
31.1310289261649
 20
21.84635131394401
 30
0.0
 40
0.5
100
AcDbArc
 50
180.0000359722
 51
270.0000179861
  0
LINE
  5
2B7
330
1E
100
AcDbEntity
  8
0
 62
     3
100
AcDbLine
 10
36.5296800491649
 20
157.7469417255024
 30
0.0
 11
36.5296800491649
 21
158.3969356220024
 31
0.0
  0
LINE
  5
2B8
330
1E
100
AcDbEntity
  8
0
 62
     3
100
AcDbLine
 10
37.32969835976492
 20
157.7469417255024
 30
0.0
 11
37.32969835976492
 21
158.3969356220024
 31
0.0
  0
LINE
  5
2B9
330
1E
100
AcDbEntity
  8
0
 62
     3
100
AcDbLine
 10
36.5297105667649
 20
199.2969600361023
 30
0.0
 11
37.32969835976492
 21
199.2969600361023
 31
0.0
  0
LINE
  5
2BA
330
1E
100
AcDbEntity
  8
0
 62
     3
100
AcDbLine
 10
36.5297105667649
 20
203.3969356220024
 30
0.0
 11
37.32969835976492
 21
203.3969356220024
 31
0.0
  0
ARC
  5
2BB
330
1E
100
AcDbEntity
  8
0
 62
     3
100
AcDbCircle
 10
31.1310289261649
 20
46.846351313944
 30
0.0
 40
0.5
100
AcDbArc
 50
89.99998201389999
 51
179.9999640277999
  0
ARC
  5
2BC
330
1E
100
AcDbEntity
  8
0
 62
     3
100
AcDbCircle
 10
46.42970446326489
 20
206.8469478290024
 30
0.0
 40
0.5
100
AcDbArc
 50
89.99998201389999
 51
179.9999640277999
  0
ARC
  5
2BD
330
1E
100
AcDbEntity
  8
0
 62
     3
100
AcDbCircle
 10
36.92970446326489
 20
201.3469478290025
 30
0.0
 40
4.0
100
AcDbArc
 50
89.99998201389999
 51
179.9999640277999
  0
LINE
  5
2BE
330
1E
100
AcDbEntity
  8
0
 62
     3
100
AcDbLine
 10
35.59044054726492
 20
230.7731036345411
 30
0.0
 11
34.22834948276491
 21
230.7731036345411
 31
0.0
  0
LINE
  5
2BF
330
1E
100
AcDbEntity
  8
0
 62
     3
100
AcDbLine
 10
80.52971056676492
 20
199.2969600361023
 30
0.0
 11
81.32969835976494
 21
199.2969600361023
 31
0.0
  0
LINE
  5
2C0
330
1E
100
AcDbEntity
  8
0
 62
     3
100
AcDbLine
 10
34.87971667026491
 20
200.9469539326024
 30
0.0
 11
34.87971667026491
 21
201.7469417255025
 31
0.0
  0
LINE
  5
2C1
330
1E
100
AcDbEntity
  8
0
 62
     3
100
AcDbLine
 10
80.52971056676492
 20
203.3969356220024
 30
0.0
 11
81.32969835976494
 21
203.3969356220024
 31
0.0
  0
LINE
  5
2C2
330
1E
100
AcDbEntity
  8
0
 62
     3
100
AcDbLine
 10
38.97969225616492
 20
200.9469539326024
 30
0.0
 11
38.97969225616492
 21
201.7469417255025
 31
0.0
  0
LINE
  5
2C3
330
1E
100
AcDbEntity
  8
0
 62
     3
100
AcDbLine
 10
34.87971667026491
 20
201.7469722431024
 30
0.0
 11
35.52971056676492
 21
201.7469722431024
 31
0.0
  0
CIRCLE
  5
2C4
330
1E
100
AcDbEntity
  8
0
 62
     3
100
AcDbCircle
 10
37.92970446326489
 20
146.8469478290024
 30
0.0
 40
2.6999988556
  0
ARC
  5
2C5
330
1E
100
AcDbEntity
  8
0
 62
     3
100
AcDbCircle
 10
33.9297044632649
 20
142.3469478290025
 30
0.0
 40
1.0
100
AcDbArc
 50
180.0000359722
 51
270.0000179861
  0
ARC
  5
2C6
330
1E
100
AcDbEntity
  8
0
 62
     3
100
AcDbCircle
 10
83.9297044632649
 20
142.3469478290025
 30
0.0
 40
1.0
100
AcDbArc
 50
270.0000179861
 51
0.0
  0
CIRCLE
  5
2C7
330
1E
100
AcDbEntity
  8
0
 62
     3
100
AcDbCircle
 10
58.92833117226492
 20
250.7731036345412
 30
0.0
 40
13.0
  0
CIRCLE
  5
2C8
330
1E
100
AcDbEntity
  8
0
 62
     3
100
AcDbCircle
 10
79.9297044632649
 20
146.8469478290024
 30
0.0
 40
2.6999988556
  0
LINE
  5
2C9
330
1E
100
AcDbEntity
  8
0
 62
     3
100
AcDbLine
 10
36.5296800491649
 20
199.2969600361023
 30
0.0
 11
36.5296800491649
 21
199.9469539326024
 31
0.0
  0
LINE
  5
2CA
330
1E
100
AcDbEntity
  8
0
 62
     3
100
AcDbLine
 10
34.87971667026491
 20
200.9469539326024
 30
0.0
 11
35.52971056676492
 21
200.9469539326024
 31
0.0
  0
LINE
  5
2CB
330
1E
100
AcDbEntity
  8
0
 62
     3
100
AcDbLine
 10
74.4297115123649
 20
144.4469623858025
 30
0.0
 11
77.52971290676494
 21
141.3469612528025
 31
0.0
  0
LINE
  5
2CC
330
1E
100
AcDbEntity
  8
0
 62
     3
100
AcDbLine
 10
84.9297044632649
 20
142.3469478290025
 30
0.0
 11
84.9297044632649
 21
201.3469478290025
 31
0.0
  0
LINE
  5
2CD
330
1E
100
AcDbEntity
  8
0
 62
     3
100
AcDbLine
 10
77.52971056676492
 20
141.3469478290025
 30
0.0
 11
83.9297044632649
 21
141.3469478290025
 31
0.0
  0
LINE
  5
2CE
330
1E
100
AcDbEntity
  8
0
 62
     3
100
AcDbLine
 10
35.82969835976492
 20
162.8469478290023
 30
0.0
 11
34.82969835976492
 21
162.8469478290023
 31
0.0
  0
LINE
  5
2CF
330
1E
100
AcDbEntity
  8
0
 62
     3
100
AcDbLine
 10
74.4297044632649
 20
144.4469539326024
 30
0.0
 11
74.4297044632649
 21
152.6469356220025
 31
0.0
  0
LINE
  5
2D0
330
1E
100
AcDbEntity
  8
0
 62
     3
100
AcDbLine
 10
46.42970446326489
 20
207.3469478290024
 30
0.0
 11
71.4297044632649
 21
207.3469478290024
 31
0.0
  0
LINE
  5
2D1
330
1E
100
AcDbEntity
  8
0
 62
     3
100
AcDbLine
 10
84.93101671906492
 20
21.34635131394401
 30
0.0
 11
86.73103502966489
 21
21.34635131394401
 31
0.0
  0
LINE
  5
2D2
330
1E
100
AcDbEntity
  8
0
 62
     3
100
AcDbLine
 10
87.23103502966489
 20
21.84635131394401
 30
0.0
 11
87.23103502966489
 21
46.846351313944
 31
0.0
  0
LINE
  5
2D3
330
1E
100
AcDbEntity
  8
0
 62
     3
100
AcDbLine
 10
74.4297044632649
 20
152.3469478290023
 30
0.0
 11
80.92970446326489
 21
152.3469478290023
 31
0.0
  0
LINE
  5
2D4
330
1E
100
AcDbEntity
  8
0
  6
CENTER
 62
     3
100
AcDbLine
 10
79.9297044632649
 20
143.0961848896025
 30
0.0
 11
79.9297044632649
 21
150.7521907490024
 31
0.0
  0
LINE
  5
2D5
330
1E
100
AcDbEntity
  8
0
  6
CENTER
 62
     3
100
AcDbLine
 10
75.24196032256492
 20
146.8469478290024
 30
0.0
 11
83.97197130896492
 21
146.8469478290024
 31
0.0
  0
LINE
  5
2D6
330
1E
100
AcDbEntity
  8
0
 62
     3
100
AcDbLine
 10
84.93101671906492
 20
47.34635131394401
 30
0.0
 11
86.73103502966489
 21
47.34635131394401
 31
0.0
  0
CIRCLE
  5
2D7
330
1E
100
AcDbEntity
  8
0
 62
     3
100
AcDbCircle
 10
58.92833117226492
 20
250.7731036345412
 30
0.0
 40
8.299999237099999
  0
CIRCLE
  5
2D8
330
1E
100
AcDbEntity
  8
0
 62
     3
100
AcDbCircle
 10
58.92833117226492
 20
250.7731036345412
 30
0.0
 40
10.5
  0
ARC
  5
2D9
330
1E
100
AcDbEntity
  8
0
 62
     3
100
AcDbCircle
 10
86.72834948276491
 20
238.2731036345412
 30
0.0
 40
0.5
100
AcDbArc
 50
270.0000179861
 51
0.0
  0
ARC
  5
2DA
330
1E
100
AcDbEntity
  8
0
 62
     3
100
AcDbCircle
 10
86.72834948276491
 20
263.2731036345412
 30
0.0
 40
0.5
100
AcDbArc
 50
0.0
 51
89.99998201389999
  0
ARC
  5
2DB
330
1E
100
AcDbEntity
  8
0
 62
     3
100
AcDbCircle
 10
31.12834337926492
 20
238.2731036345412
 30
0.0
 40
0.5
100
AcDbArc
 50
180.0000359722
 51
270.0000179861
  0
CIRCLE
  5
2DC
330
1E
100
AcDbEntity
  8
0
 62
     3
100
AcDbCircle
 10
58.92833117226492
 20
250.7731036345412
 30
0.0
 40
9.5
  0
ARC
  5
2DD
330
1E
100
AcDbEntity
  8
0
 62
     3
100
AcDbCircle
 10
31.12831286166491
 20
263.2731036345412
 30
0.0
 40
0.5
100
AcDbArc
 50
89.99998201389999
 51
179.9999640277999
  0
ARC
  5
2DE
330
1E
100
AcDbEntity
  8
0
 62
     3
100
AcDbCircle
 10
83.62834337926491
 20
231.7731036345412
 30
0.0
 40
1.0
100
AcDbArc
 50
270.0000179861
 51
0.0
  0
ARC
  5
2DF
330
1E
100
AcDbEntity
  8
0
 62
     3
100
AcDbCircle
 10
83.62834337926491
 20
234.2731036345412
 30
0.0
 40
1.0
100
AcDbArc
 50
270.0000179861
 51
0.0
  0
ARC
  5
2E0
330
1E
100
AcDbEntity
  8
0
 62
     3
100
AcDbCircle
 10
76.42833117226493
 20
231.7731036345412
 30
0.0
 40
1.0
100
AcDbArc
 50
270.0000179861
 51
0.0
  0
ARC
  5
2E1
330
1E
100
AcDbEntity
  8
0
 62
     3
100
AcDbCircle
 10
41.42833117226492
 20
231.7731036345412
 30
0.0
 40
1.0
100
AcDbArc
 50
179.9999640277999
 51
270.0000006831999
  0
ARC
  5
2E2
330
1E
100
AcDbEntity
  8
0
 62
     3
100
AcDbCircle
 10
34.22834948276491
 20
231.7731036345412
 30
0.0
 40
1.0
100
AcDbArc
 50
179.9999640277999
 51
270.0000006831999
  0
ARC
  5
2E3
330
1E
100
AcDbEntity
  8
0
 62
     3
100
AcDbCircle
 10
34.22834948276491
 20
234.2731036345412
 30
0.0
 40
1.0
100
AcDbArc
 50
179.9999640277999
 51
270.0000006831999
  0
ARC
  5
2E4
330
1E
100
AcDbEntity
  8
0
 62
     3
100
AcDbCircle
 10
39.03535631866492
 20
232.267000118941
 30
0.0
 40
1.2999999523
100
AcDbArc
 50
285.8808635044998
 51
355.0000009991999
  0
ARC
  5
2E5
330
1E
100
AcDbEntity
  8
0
 62
     3
100
AcDbCircle
 10
34.82133654326489
 20
232.267000118941
 30
0.0
 40
1.2999999523
100
AcDbArc
 50
185.0000076522
 51
254.1191724675999
  0
CIRCLE
  5
2E6
330
1E
100
AcDbEntity
  8
0
 62
     3
100
AcDbCircle
 10
80.92970446326489
 20
201.3469478290025
 30
0.0
 40
3.5
  0
ARC
  5
2E7
330
1E
100
AcDbEntity
  8
0
 62
     3
100
AcDbCircle
 10
82.32969835976494
 20
202.7469417255025
 30
0.0
 40
1.0
100
AcDbArc
 50
180.0000359722
 51
270.0000179861
  0
ARC
  5
2E8
330
1E
100
AcDbEntity
  8
0
 62
     3
100
AcDbCircle
 10
79.52968004916491
 20
202.7469417255025
 30
0.0
 40
1.0
100
AcDbArc
 50
270.0000179861
 51
0.0
  0
ARC
  5
2E9
330
1E
100
AcDbEntity
  8
0
 62
     3
100
AcDbCircle
 10
79.52968004916491
 20
199.9469539326024
 30
0.0
 40
1.0
100
AcDbArc
 50
0.0
 51
89.99998201389999
  0
ARC
  5
2EA
330
1E
100
AcDbEntity
  8
0
 62
     3
100
AcDbCircle
 10
36.92833117226492
 20
239.673097531041
 30
0.0
 40
9.0
100
AcDbArc
 50
254.1191724675999
 51
285.8808635044998
  0
LINE
  5
2EB
330
1E
100
AcDbEntity
  8
0
 62
     3
100
AcDbLine
 10
30.62831286166487
 20
238.2731036345412
 30
0.0
 11
30.62831286166487
 21
263.2731036345412
 31
0.0
  0
ARC
  5
2EC
330
1E
100
AcDbEntity
  8
0
 62
     3
100
AcDbCircle
 10
82.32969835976494
 20
199.9469539326024
 30
0.0
 40
1.0
100
AcDbArc
 50
89.99998201389999
 51
179.9999640277999
  0
ARC
  5
2ED
330
1E
100
AcDbEntity
  8
0
 62
     3
100
AcDbCircle
 10
82.32969835976494
 20
157.7469417255024
 30
0.0
 40
1.0
100
AcDbArc
 50
180.0000359722
 51
270.0000179861
  0
ARC
  5
2EE
330
1E
100
AcDbEntity
  8
0
 62
     3
100
AcDbCircle
 10
79.52968004916491
 20
157.7469417255024
 30
0.0
 40
1.0
100
AcDbArc
 50
270.0000179861
 51
0.0
  0
ARC
  5
2EF
330
1E
100
AcDbEntity
  8
0
 62
     3
100
AcDbCircle
 10
79.52968004916491
 20
154.9469539326024
 30
0.0
 40
1.0
100
AcDbArc
 50
0.0
 51
89.99998201389999
  0
ARC
  5
2F0
330
1E
100
AcDbEntity
  8
0
 62
     3
100
AcDbCircle
 10
82.32969835976494
 20
154.9469539326024
 30
0.0
 40
1.0
100
AcDbArc
 50
89.99998201389999
 51
179.9999640277999
  0
CIRCLE
  5
2F1
330
1E
100
AcDbEntity
  8
0
 62
     3
100
AcDbCircle
 10
80.92970446326489
 20
156.3469478290024
 30
0.0
 40
3.5
  0
LINE
  5
2F2
330
1E
100
AcDbEntity
  8
0
 62
     3
100
AcDbLine
 10
71.9297044632649
 20
205.3469478290025
 30
0.0
 11
71.9297044632649
 21
206.8469478290024
 31
0.0
  0
LINE
  5
2F3
330
1E
100
AcDbEntity
  8
0
 62
     3
100
AcDbLine
 10
36.92970446326489
 20
205.3469478290025
 30
0.0
 11
80.92970446326489
 21
205.3469478290025
 31
0.0
  0
LINE
  5
2F4
330
1E
100
AcDbEntity
  8
0
 62
     3
100
AcDbLine
 10
40.32972887726493
 20
141.3469478290025
 30
0.0
 11
33.9297044632649
 21
141.3469478290025
 31
0.0
  0
LINE
  5
2F5
330
1E
100
AcDbEntity
  8
0
 62
     3
100
AcDbLine
 10
32.92970446326489
 20
142.3469478290025
 30
0.0
 11
32.92970446326489
 21
201.3469478290025
 31
0.0
  0
LINE
  5
2F6
330
1E
100
AcDbEntity
  8
0
 62
     3
100
AcDbLine
 10
43.42970446326489
 20
144.4469539326024
 30
0.0
 11
43.42970446326489
 21
152.5469295185025
 31
0.0
  0
LINE
  5
2F7
330
1E
100
AcDbEntity
  8
0
 62
     3
100
AcDbLine
 10
43.42970024966489
 20
144.4469615057023
 30
0.0
 11
40.3296988553649
 21
141.3469603726024
 31
0.0
  0
LINE
  5
2F8
330
1E
100
AcDbEntity
  8
0
  6
CENTER
 62
     3
100
AcDbLine
 10
42.03367785186492
 20
146.8469478290024
 30
0.0
 11
34.14631823276491
 21
146.8469478290024
 31
0.0
  0
LINE
  5
2F9
330
1E
100
AcDbEntity
  8
0
  6
CENTER
 62
     3
100
AcDbLine
 10
37.92970446326489
 20
143.0961848896025
 30
0.0
 11
37.92970446326489
 21
151.0431758564024
 31
0.0
  0
LINE
  5
2FA
330
1E
100
AcDbEntity
  8
0
 62
     3
100
AcDbLine
 10
43.42970446326489
 20
152.3469478290023
 30
0.0
 11
36.92970446326489
 21
152.3469478290023
 31
0.0
  0
LINE
  5
2FB
330
1E
100
AcDbEntity
  8
0
 62
     3
100
AcDbLine
 10
32.92833117226492
 20
237.7731036345412
 30
0.0
 11
31.12834337926492
 21
237.7731036345412
 31
0.0
  0
LINE
  5
2FC
330
1E
100
AcDbEntity
  8
0
 62
     3
100
AcDbLine
 10
32.92833117226492
 20
263.7731036345412
 30
0.0
 11
31.12831286166491
 21
263.7731036345412
 31
0.0
  0
LINE
  5
2FD
330
1E
100
AcDbEntity
  8
0
 62
     3
100
AcDbLine
 10
34.42833117226492
 20
265.2731036345412
 30
0.0
 11
34.42833117226492
 21
265.7731036345412
 31
0.0
  0
LINE
  5
2FE
330
1E
100
AcDbEntity
  8
0
 62
     3
100
AcDbLine
 10
39.42833117226492
 20
265.2731036345412
 30
0.0
 11
39.42833117226492
 21
265.7731036345412
 31
0.0
  0
LINE
  5
2FF
330
1E
100
AcDbEntity
  8
0
 62
     3
100
AcDbLine
 10
78.42833117226494
 20
265.2731036345412
 30
0.0
 11
78.42833117226494
 21
265.7731036345412
 31
0.0
  0
LINE
  5
300
330
1E
100
AcDbEntity
  8
0
 62
     3
100
AcDbLine
 10
83.42833117226494
 20
265.7731036345412
 30
0.0
 11
78.42833117226494
 21
265.7731036345412
 31
0.0
  0
LINE
  5
301
330
1E
100
AcDbEntity
  8
0
 62
     3
100
AcDbLine
 10
83.42833117226494
 20
265.2731036345412
 30
0.0
 11
83.42833117226494
 21
265.7731036345412
 31
0.0
  0
LINE
  5
302
330
1E
100
AcDbEntity
  8
0
 62
     3
100
AcDbLine
 10
32.92833117226492
 20
237.2731036345411
 30
0.0
 11
84.92833117226494
 21
237.2731036345411
 31
0.0
  0
LINE
  5
303
330
1E
100
AcDbEntity
  8
0
 62
     3
100
AcDbLine
 10
32.92833117226492
 20
237.2731036345411
 30
0.0
 11
32.92833117226492
 21
265.2731036345412
 31
0.0
  0
LINE
  5
304
330
1E
100
AcDbEntity
  8
0
 62
     3
100
AcDbLine
 10
32.92833117226492
 20
265.2731036345412
 30
0.0
 11
84.92833117226494
 21
265.2731036345412
 31
0.0
  0
LINE
  5
305
330
1E
100
AcDbEntity
  8
0
 62
     3
100
AcDbLine
 10
83.62834337926491
 20
230.7731036345411
 30
0.0
 11
82.26625231476495
 21
230.7731036345411
 31
0.0
  0
LINE
  5
306
330
1E
100
AcDbEntity
  8
0
 62
     3
100
AcDbLine
 10
84.62834337926492
 20
237.2731036345411
 30
0.0
 11
33.22834948276491
 21
237.2731036345411
 31
0.0
  0
LINE
  5
307
330
1E
100
AcDbEntity
  8
0
 62
     3
100
AcDbLine
 10
30.63102892616488
 20
21.84635131394401
 30
0.0
 11
30.63102892616488
 21
46.846351313944
 31
0.0
  0
LINE
  5
308
330
1E
100
AcDbEntity
  8
0
 62
     3
100
AcDbLine
 10
32.93101671906493
 20
21.34635131394401
 30
0.0
 11
31.1310289261649
 21
21.34635131394401
 31
0.0
  0
LINE
  5
309
330
1E
100
AcDbEntity
  8
0
 62
     3
100
AcDbLine
 10
32.93101671906493
 20
47.34635131394401
 30
0.0
 11
31.1310289261649
 21
47.34635131394401
 31
0.0
  0
LINE
  5
30A
330
1E
100
AcDbEntity
  8
0
 62
     3
100
AcDbLine
 10
45.92970446326489
 20
205.3469478290025
 30
0.0
 11
45.92970446326489
 21
206.8469478290024
 31
0.0
  0
LINE
  5
30B
330
1E
100
AcDbEntity
  8
0
  6
CENTER
 62
     3
100
AcDbLine
 10
74.3726365921649
 20
250.7731036345412
 30
0.0
 11
43.15535143586492
 21
250.7731036345412
 31
0.0
  0
LINE
  5
30C
330
1E
100
AcDbEntity
  8
0
 62
     3
100
AcDbLine
 10
78.8797166702649
 20
200.9469539326024
 30
0.0
 11
78.8797166702649
 21
201.7469417255025
 31
0.0
  0
LINE
  5
30D
330
1E
100
AcDbEntity
  8
0
 62
     3
100
AcDbLine
 10
84.62834337926492
 20
237.2731036345411
 30
0.0
 11
84.62834337926492
 21
231.7731036345412
 31
0.0
  0
LINE
  5
30E
330
1E
100
AcDbEntity
  8
0
 62
     3
100
AcDbLine
 10
77.42833117226493
 20
233.2731036345411
 30
0.0
 11
77.42833117226493
 21
231.7731036345412
 31
0.0
  0
LINE
  5
30F
330
1E
100
AcDbEntity
  8
0
 62
     3
100
AcDbLine
 10
84.42833117226493
 20
233.2731036345411
 30
0.0
 11
77.42833117226493
 21
233.2731036345411
 31
0.0
  0
LINE
  5
310
330
1E
100
AcDbEntity
  8
0
 62
     3
100
AcDbLine
 10
33.22831896516493
 20
237.2731036345411
 30
0.0
 11
33.22831896516493
 21
231.7731036345412
 31
0.0
  0
LINE
  5
311
330
1E
100
AcDbEntity
  8
0
 62
     3
100
AcDbLine
 10
40.42833117226492
 20
233.2731036345411
 30
0.0
 11
40.42833117226492
 21
231.7731036345412
 31
0.0
  0
ARC
  5
312
330
1E
100
AcDbEntity
  8
0
 62
     3
100
AcDbCircle
 10
38.32969835976492
 20
157.7469417255024
 30
0.0
 40
1.0
100
AcDbArc
 50
180.0000359722
 51
270.0000179861
  0
ARC
  5
313
330
1E
100
AcDbEntity
  8
0
 62
     3
100
AcDbCircle
 10
35.52971056676492
 20
157.7469417255024
 30
0.0
 40
1.0
100
AcDbArc
 50
270.0000179861
 51
0.0
  0
ARC
  5
314
330
1E
100
AcDbEntity
  8
0
 62
     3
100
AcDbCircle
 10
35.52971056676492
 20
154.9469539326024
 30
0.0
 40
1.0
100
AcDbArc
 50
0.0
 51
89.99998201389999
  0
ARC
  5
315
330
1E
100
AcDbEntity
  8
0
 62
     3
100
AcDbCircle
 10
38.32969835976492
 20
154.9469539326024
 30
0.0
 40
1.0
100
AcDbArc
 50
89.99998201389999
 51
179.9999640277999
  0
CIRCLE
  5
316
330
1E
100
AcDbEntity
  8
0
 62
     3
100
AcDbCircle
 10
36.92970446326489
 20
156.3469478290024
 30
0.0
 40
3.5
  0
ARC
  5
317
330
1E
100
AcDbEntity
  8
0
 62
     3
100
AcDbCircle
 10
38.32969835976492
 20
202.7469417255025
 30
0.0
 40
1.0
100
AcDbArc
 50
180.0000359722
 51
270.0000179861
  0
ARC
  5
318
330
1E
100
AcDbEntity
  8
0
 62
     3
100
AcDbCircle
 10
35.52971056676492
 20
202.7469417255025
 30
0.0
 40
1.0
100
AcDbArc
 50
270.0000179861
 51
0.0
  0
ARC
  5
319
330
1E
100
AcDbEntity
  8
0
 62
     3
100
AcDbCircle
 10
35.52971056676492
 20
199.9469539326024
 30
0.0
 40
1.0
100
AcDbArc
 50
0.0
 51
89.99998201389999
  0
ARC
  5
31A
330
1E
100
AcDbEntity
  8
0
 62
     3
100
AcDbCircle
 10
38.32969835976492
 20
199.9469539326024
 30
0.0
 40
1.0
100
AcDbArc
 50
89.99998201389999
 51
179.9999640277999
  0
CIRCLE
  5
31B
330
1E
100
AcDbEntity
  8
0
 62
     3
100
AcDbCircle
 10
36.92970446326489
 20
201.3469478290025
 30
0.0
 40
3.5
  0
ARC
  5
31C
330
1E
100
AcDbEntity
  8
0
 62
     3
100
AcDbCircle
 10
83.93101671906492
 20
53.34635131394399
 30
0.0
 40
1.0
100
AcDbArc
 50
0.0
 51
89.99998201389999
  0
ARC
  5
31D
330
1E
100
AcDbEntity
  8
0
 62
     3
100
AcDbCircle
 10
33.93104723666491
 20
53.34635131394399
 30
0.0
 40
1.0
100
AcDbArc
 50
89.99998201389999
 51
179.9999640277999
  0
ARC
  5
31E
330
1E
100
AcDbEntity
  8
0
 62
     3
100
AcDbCircle
 10
86.72972277376493
 20
170.8469478290024
 30
0.0
 40
0.5
100
AcDbArc
 50
270.0000179861
 51
0.0
  0
ARC
  5
31F
330
1E
100
AcDbEntity
  8
0
 62
     3
100
AcDbCircle
 10
86.72972277376493
 20
195.8469478290025
 30
0.0
 40
0.5
100
AcDbArc
 50
0.0
 51
89.99998201389999
  0
ARC
  5
320
330
1E
100
AcDbEntity
  8
0
 62
     3
100
AcDbCircle
 10
31.12971667026491
 20
170.8469478290024
 30
0.0
 40
0.5
100
AcDbArc
 50
180.0000359722
 51
270.0000179861
  0
ARC
  5
321
330
1E
100
AcDbEntity
  8
0
 62
     3
100
AcDbCircle
 10
31.12971667026491
 20
195.8469478290025
 30
0.0
 40
0.5
100
AcDbArc
 50
89.99998201389999
 51
179.9999640277999
  0
CIRCLE
  5
322
330
1E
100
AcDbEntity
  8
0
 62
     3
100
AcDbCircle
 10
58.9297044632649
 20
189.2469417255025
 30
0.0
 40
4.3499984741
  0
CIRCLE
  5
323
330
1E
100
AcDbEntity
  8
0
 62
     3
100
AcDbCircle
 10
58.9297044632649
 20
189.2469417255025
 30
0.0
 40
4.5999984741
  0
CIRCLE
  5
324
330
1E
100
AcDbEntity
  8
0
 62
     3
100
AcDbCircle
 10
58.9297044632649
 20
189.2469417255025
 30
0.0
 40
4.8499984741
  0
ARC
  5
325
330
1E
100
AcDbEntity
  8
0
 62
     3
100
AcDbCircle
 10
64.83101061556491
 20
56.74570434124399
 30
0.0
 40
0.2999999522999999
100
AcDbArc
 50
359.9999273723998
 51
52.53703303910008
  0
ARC
  5
326
330
1E
100
AcDbEntity
  8
0
 62
     3
100
AcDbCircle
 10
53.03102282256492
 20
56.74570434124399
 30
0.0
 40
0.2999999522999999
100
AcDbArc
 50
127.4629685547999
 51
180.0001279524
  0
ARC
  5
327
330
1E
100
AcDbEntity
  8
0
 62
     3
100
AcDbCircle
 10
58.93101671906492
 20
49.04633300334403
 30
0.0
 40
10.0
100
AcDbArc
 50
52.5370876806
 51
127.4628046302
  0
ARC
  5
328
330
1E
100
AcDbEntity
  8
0
 62
     3
100
AcDbCircle
 10
134.3218276341831
 20
195.3474361103025
 30
0.0
 40
0.2999999522999999
100
AcDbArc
 50
89.99992737239997
 51
142.5370321285
  0
ARC
  5
329
330
1E
100
AcDbEntity
  8
0
 62
     3
100
AcDbCircle
 10
134.3218276341831
 20
183.5474483173024
 30
0.0
 40
0.2999999522999999
100
AcDbArc
 50
217.4629678715
 51
270.0001272691
  0
ARC
  5
32A
330
1E
100
AcDbEntity
  8
0
 62
     3
100
AcDbCircle
 10
142.0211989720833
 20
189.4474422138024
 30
0.0
 40
10.0
100
AcDbArc
 50
142.53708677
 51
217.4628412856999
  0
ARC
  5
32B
330
1E
100
AcDbEntity
  8
0
 62
     3
100
AcDbCircle
 10
53.0283372757649
 20
228.373750607241
 30
0.0
 40
0.2999999522999999
100
AcDbArc
 50
179.9999093863
 51
232.5370141424
  0
ARC
  5
32C
330
1E
100
AcDbEntity
  8
0
 62
     3
100
AcDbCircle
 10
64.82832506866492
 20
228.373750607241
 30
0.0
 40
0.2999999522999999
100
AcDbArc
 50
307.4629669609
 51
0.0001279523000353
  0
ARC
  5
32D
330
1E
100
AcDbEntity
  8
0
 62
     3
100
AcDbCircle
 10
58.92833117226492
 20
236.0731219450411
 30
0.0
 40
10.0
100
AcDbArc
 50
232.5370860867
 51
307.4628440175
  0
ARC
  5
32F
330
1E
100
AcDbEntity
  8
0
 62
     3
100
AcDbCircle
 10
137.7211806614832
 20
153.6469356220025
 30
0.0
 40
1.0
100
AcDbArc
 50
180.0000359722
 51
270.0000179861
  0
ARC
  5
330
330
1E
100
AcDbEntity
  8
0
 62
     3
100
AcDbCircle
 10
137.7211806614832
 20
204.0469295185025
 30
0.0
 40
1.0
100
AcDbArc
 50
89.99998201389999
 51
179.9999640277999
  0
ARC
  5
331
330
1E
100
AcDbEntity
  8
0
 62
     3
100
AcDbCircle
 10
137.2211806614832
 20
160.3469173115024
 30
0.0
 40
0.5
100
AcDbArc
 50
180.0000359722
 51
270.0000179861
  0
ARC
  5
332
330
1E
100
AcDbEntity
  8
0
 62
     3
100
AcDbCircle
 10
137.2211806614832
 20
197.3469173115024
 30
0.0
 40
0.5
100
AcDbArc
 50
89.99998201389999
 51
179.9999640277999
  0
ARC
  5
333
330
1E
100
AcDbEntity
  8
0
 62
     3
100
AcDbCircle
 10
145.6211745579831
 20
156.3469173115024
 30
0.0
 40
9.0
100
AcDbArc
 50
164.1191185094
 51
195.8808095462998
  0
ARC
  5
334
330
1E
100
AcDbEntity
  8
0
 62
     3
100
AcDbCircle
 10
138.2150771458833
 20
154.2399226826024
 30
0.0
 40
1.2999999523
100
AcDbArc
 50
195.8808814906
 51
265.0000463061
  0
ARC
  5
335
330
1E
100
AcDbEntity
  8
0
 62
     3
100
AcDbCircle
 10
138.2150771458833
 20
158.4539424580025
 30
0.0
 40
1.2999999523
100
AcDbArc
 50
94.99995369389999
 51
164.1191185094
  0
ARC
  5
336
330
1E
100
AcDbEntity
  8
0
 62
     3
100
AcDbCircle
 10
137.7211806614832
 20
110.4469234150025
 30
0.0
 40
1.0
100
AcDbArc
 50
180.0000359722
 51
270.0000179861
  0
ARC
  5
337
330
1E
100
AcDbEntity
  8
0
 62
     3
100
AcDbCircle
 10
137.7211806614832
 20
140.3469173115025
 30
0.0
 40
1.0
100
AcDbArc
 50
89.99998201389999
 51
179.9999640277999
  0
ARC
  5
338
330
1E
100
AcDbEntity
  8
0
 62
     3
100
AcDbCircle
 10
137.7211806614832
 20
143.3469173115024
 30
0.0
 40
1.0
100
AcDbArc
 50
89.99998201389999
 51
179.9999640277999
  0
ARC
  5
339
330
1E
100
AcDbEntity
  8
0
 62
     3
100
AcDbCircle
 10
137.7211806614832
 20
151.5468990009025
 30
0.0
 40
1.0
100
AcDbArc
 50
89.99998201389999
 51
179.9999640277999
  0
ARC
  5
33A
330
1E
100
AcDbEntity
  8
0
 62
     3
100
AcDbCircle
 10
144.2211806614833
 20
206.8469478290024
 30
0.0
 40
0.5
100
AcDbArc
 50
89.99998201389999
 51
179.9999640277999
  0
ARC
  5
33B
330
1E
100
AcDbEntity
  8
0
 62
     3
100
AcDbCircle
 10
169.2211806614833
 20
206.8469478290024
 30
0.0
 40
0.5
100
AcDbArc
 50
0.0
 51
89.99998201389999
  0
CIRCLE
  5
33C
330
1E
100
AcDbEntity
  8
0
 62
     3
100
AcDbCircle
 10
156.7211806614833
 20
183.3469173115024
 30
0.0
 40
13.0
  0
CIRCLE
  5
33D
330
1E
100
AcDbEntity
  8
0
 62
     3
100
AcDbCircle
 10
156.7211806614833
 20
183.3469173115024
 30
0.0
 40
10.5
  0
CIRCLE
  5
33E
330
1E
100
AcDbEntity
  8
0
 62
     3
100
AcDbCircle
 10
156.7211806614833
 20
183.3469173115024
 30
0.0
 40
9.5
  0
CIRCLE
  5
33F
330
1E
100
AcDbEntity
  8
0
 62
     3
100
AcDbCircle
 10
156.7211806614833
 20
183.3469173115024
 30
0.0
 40
8.299999237099999
  0
ARC
  5
340
330
1E
100
AcDbEntity
  8
0
 62
     3
100
AcDbCircle
 10
138.2150771458833
 20
199.2399226826024
 30
0.0
 40
1.2999999523
100
AcDbArc
 50
195.8808814906
 51
265.0000463061
  0
ARC
  5
341
330
1E
100
AcDbEntity
  8
0
 62
     3
100
AcDbCircle
 10
145.6211745579831
 20
201.3469478290025
 30
0.0
 40
9.0
100
AcDbArc
 50
164.1191185094
 51
195.8808095462998
  0
ARC
  5
342
330
1E
100
AcDbEntity
  8
0
 62
     3
100
AcDbCircle
 10
138.2150771458833
 20
203.4539424580025
 30
0.0
 40
1.2999999523
100
AcDbArc
 50
94.99995369389999
 51
164.1191185094
  0
ARC
  5
343
330
1E
100
AcDbEntity
  8
0
  6
DASH
 62
     3
100
AcDbCircle
 10
78.27971056676492
 20
107.4469234150025
 30
0.0
 40
2.0
100
AcDbArc
 50
0.0
 51
89.99998201389999
  0
ARC
  5
344
330
1E
100
AcDbEntity
  8
0
  6
DASH
 62
     3
100
AcDbCircle
 10
39.57972887726493
 20
107.4469234150025
 30
0.0
 40
2.0
100
AcDbArc
 50
89.99998201389999
 51
179.9999640277999
  0
ARC
  5
345
330
1E
100
AcDbEntity
  8
0
  6
DASH
 62
     3
100
AcDbCircle
 10
76.92976549836493
 20
83.1469051044025
 30
0.0
 40
2.0
100
AcDbArc
 50
270.0000726275999
 51
0.0004551182000068
  0
ARC
  5
346
330
1E
100
AcDbEntity
  8
0
  6
DASH
 62
     3
100
AcDbCircle
 10
80.44651964876491
 20
99.54692951850253
 30
0.0
 40
1.816666722299999
100
AcDbArc
 50
146.6014864581999
 51
213.3984415974
  0
LINE
  5
347
330
1E
100
AcDbEntity
  8
0
  6
DASH
 62
     3
100
AcDbLine
 10
51.12959459996492
 20
89.64690510440247
 30
0.0
 11
51.12959459996492
 21
90.64690510440248
 31
0.0
  0
LINE
  5
348
330
1E
100
AcDbEntity
  8
0
  6
DASH
 62
     3
100
AcDbLine
 10
163.2211806614833
 20
116.4469539326024
 30
0.0
 11
165.2211806614833
 21
116.4469539326024
 31
0.0
  0
LINE
  5
349
330
1E
100
AcDbEntity
  8
0
  6
DASH
 62
     3
100
AcDbLine
 10
163.2211806614833
 20
135.1469661396025
 30
0.0
 11
165.2211806614833
 21
135.1469661396025
 31
0.0
  0
LINE
  5
34A
330
1E
100
AcDbEntity
  8
0
  6
DASH
 62
     3
100
AcDbLine
 10
163.2211806614833
 20
137.4469539326024
 30
0.0
 11
165.2211806614833
 21
137.4469539326024
 31
0.0
  0
LINE
  5
34B
330
1E
100
AcDbEntity
  8
0
  6
CENTER
 62
     3
100
AcDbLine
 10
117.4211928685833
 20
113.4480220478025
 30
0.0
 11
117.4211928685833
 21
123.8600093525024
 31
0.0
  0
ARC
  5
34D
330
1E
100
AcDbEntity
  8
0
  6
DASH
 62
     3
100
AcDbCircle
 10
163.1711928685833
 20
108.4469539326025
 30
0.0
 40
1.0
100
AcDbArc
 50
89.99998201389999
 51
179.9999640277999
  0
ARC
  5
34E
330
1E
100
AcDbEntity
  8
0
  6
DASH
 62
     3
100
AcDbCircle
 10
165.2711989720833
 20
108.4469539326025
 30
0.0
 40
1.0
100
AcDbArc
 50
0.0
 51
89.99998201389999
  0
LINE
  5
34F
330
1E
100
AcDbEntity
  8
0
  6
DASH
 62
     3
100
AcDbLine
 10
66.72981432646489
 20
89.64690510440247
 30
0.0
 11
66.72981432646489
 21
90.64690510440248
 31
0.0
  0
LINE
  5
36C
330
1E
100
AcDbEntity
  8
0
100
AcDbLine
 10
0.0
 20
0.0
 30
0.0
 11
210.0
 21
0.0
 31
0.0
  0
LINE
  5
36D
330
1E
100
AcDbEntity
  8
0
100
AcDbLine
 10
210.0
 20
0.0
 30
0.0
 11
210.0
 21
297.0
 31
0.0
  0
LINE
  5
36E
330
1E
100
AcDbEntity
  8
0
100
AcDbLine
 10
210.0
 20
297.0
 30
0.0
 11
0.0
 21
297.0
 31
0.0
  0
LINE
  5
36F
330
1E
100
AcDbEntity
  8
0
100
AcDbLine
 10
0.0
 20
297.0
 30
0.0
 11
0.0
 21
0.0
 31
0.0
  0
TEXT
  5
370
330
1E
100
AcDbEntity
  8
0
 62
     5
100
AcDbText
 10
145.0
 20
10.0
 30
0.0
 40
5.0
  1
ＭＡ４－Ｅ００００７Ｄ
 41
0.8443967743953098
 72
     5
 11
199.0413935612998
 21
10.0
 31
0.0
100
AcDbText
  0
TEXT
  5
389
330
1E
100
AcDbEntity
  8
0
 62
     7
100
AcDbText
 10
146.0
 20
55.00000295525
 30
0.0
 40
2.999994089499998
  1
HS2B-114NB-*
 11
146.0
 21
56.5
 31
0.0
100
AcDbText
 73
     2
  0
ENDSEC
  0
SECTION
  2
OBJECTS
  0
DICTIONARY
  5
C
330
0
100
AcDbDictionary
281
     1
  3
ACAD_GROUP
350
D
  3
ACAD_LAYOUT
350
19
  3
ACAD_MLINESTYLE
350
16
  3
ACAD_PLOTSETTINGS
350
18
  3
ACAD_PLOTSTYLENAME
350
E
  3
AcDbVariableDictionary
350
38A
  0
DICTIONARY
  5
D
102
{ACAD_REACTORS
330
C
102
}
330
C
100
AcDbDictionary
281
     1
  0
DICTIONARY
  5
19
102
{ACAD_REACTORS
330
C
102
}
330
C
100
AcDbDictionary
281
     1
  3
Model
350
21
  3
ﾚｲｱｳﾄ1
350
1D
  0
DICTIONARY
  5
16
102
{ACAD_REACTORS
330
C
102
}
330
C
100
AcDbDictionary
281
     1
  3
Standard
350
17
  0
DICTIONARY
  5
18
102
{ACAD_REACTORS
330
C
102
}
330
C
100
AcDbDictionary
281
     1
  0
ACDBDICTIONARYWDFLT
  5
E
102
{ACAD_REACTORS
330
C
102
}
330
C
100
AcDbDictionary
281
     1
  3
Normal
350
F
100
AcDbDictionaryWithDefault
340
F
  0
DICTIONARY
  5
38A
102
{ACAD_REACTORS
330
C
102
}
330
C
100
AcDbDictionary
281
     1
  3
DIMASSOC
350
38B
  0
LAYOUT
  5
21
102
{ACAD_REACTORS
330
19
102
}
330
19
100
AcDbPlotSettings
  1

  2
C:\Program Files\AutoCAD 2000i\plotters\DWF Classic.pc3
  4

  6

 40
0.0
 41
0.0
 42
0.0
 43
0.0
 44
0.0
 45
0.0
 46
0.0
 47
0.0
 48
0.0
 49
0.0
140
0.0
141
0.0
142
1.0
143
1.0
 70
  1712
 72
     0
 73
     0
 74
     0
  7

 75
     0
147
1.0
148
0.0
149
0.0
100
AcDbLayout
  1
Model
 70
     1
 71
     0
 10
0.0
 20
0.0
 11
12.0
 21
9.0
 12
0.0
 22
0.0
 32
0.0
 14
0.0
 24
0.0
 34
0.0
 15
0.0
 25
0.0
 35
0.0
146
0.0
 13
0.0
 23
0.0
 33
0.0
 16
1.0
 26
0.0
 36
0.0
 17
0.0
 27
1.0
 37
0.0
 76
     0
330
1E
  0
LAYOUT
  5
1D
102
{ACAD_REACTORS
330
19
102
}
330
19
100
AcDbPlotSettings
  1

  2
C:\Program Files\AutoCAD 2000i\plotters\DWF Classic.pc3
  4

  6

 40
0.0
 41
0.0
 42
0.0
 43
0.0
 44
0.0
 45
0.0
 46
0.0
 47
0.0
 48
0.0
 49
0.0
140
0.0
141
0.0
142
1.0
143
1.0
 70
   688
 72
     0
 73
     0
 74
     5
  7

 75
    16
147
1.0
148
0.0
149
0.0
100
AcDbLayout
  1
ﾚｲｱｳﾄ1
 70
     1
 71
     1
 10
0.0
 20
0.0
 11
12.0
 21
9.0
 12
0.0
 22
0.0
 32
0.0
 14
1.000000000000000E+20
 24
1.000000000000000E+20
 34
1.000000000000000E+20
 15
-1.000000000000000E+20
 25
-1.000000000000000E+20
 35
-1.000000000000000E+20
146
0.0
 13
0.0
 23
0.0
 33
0.0
 16
1.0
 26
0.0
 36
0.0
 17
0.0
 27
1.0
 37
0.0
 76
     0
330
1A
  0
MLINESTYLE
  5
17
102
{ACAD_REACTORS
330
16
102
}
330
16
100
AcDbMlineStyle
  2
STANDARD
 70
     0
  3

 62
   256
 51
90.0
 52
90.0
 71
     2
 49
0.5
 62
   256
  6
BYLAYER
 49
-0.5
 62
   256
  6
BYLAYER
  0
ACDBPLACEHOLDER
  5
F
102
{ACAD_REACTORS
330
E
102
}
330
E
  0
DICTIONARYVAR
  5
38B
102
{ACAD_REACTORS
330
38A
102
}
330
38A
100
DictionaryVariables
280
     0
  1
1
  0
ENDSEC
  0
EOF
