  0
SECTION
  2
HEADER
  9
$ACADVER
  1
AC1015
  9
$ACADMAINTVER
 70
    13
  9
$DWGCODEPAGE
  3
ANSI_932
  9
$INSBASE
 10
0.0
 20
0.0
 30
0.0
  9
$EXTMIN
 10
-0.0102100796354989
 20
-0.0213014132298213
 30
-0.0000000000000058
  9
$EXTMAX
 10
297.03453391647
 20
420.7124198714695
 30
0.0000000000000104
  9
$LIMMIN
 10
-440.0435913086
 20
-3.174999999999998
  9
$LIMMAX
 10
3.174999999999998
 20
522.7301147460997
  9
$ORTHOMODE
 70
     1
  9
$REGENMODE
 70
     1
  9
$FILLMODE
 70
     1
  9
$QTEXTMODE
 70
     0
  9
$MIRRTEXT
 70
     0
  9
$LTSCALE
 40
1.0
  9
$ATTMODE
 70
     1
  9
$TEXTSIZE
 40
2.999994039499997
  9
$TRACEWID
 40
0.05
  9
$TEXTSTYLE
  7
STANDARD
  9
$CLAYER
  8
0
  9
$CELTYPE
  6
ByLayer
  9
$CECOLOR
 62
   256
  9
$CELTSCALE
 40
1.0
  9
$DISPSILH
 70
     0
  9
$DIMSCALE
 40
1.0
  9
$DIMASZ
 40
1.9727878465
  9
$DIMEXO
 40
2.539999961899999
  9
$DIMDLI
 40
0.38
  9
$DIMRND
 40
0.0
  9
$DIMDLE
 40
0.0
  9
$DIMEXE
 40
3.809999942799997
  9
$DIMTP
 40
0.0
  9
$DIMTM
 40
0.0
  9
$DIMTXT
 40
2.999994039499997
  9
$DIMCEN
 40
0.09
  9
$DIMTSZ
 40
0.0
  9
$DIMTOL
 70
     0
  9
$DIMLIM
 70
     0
  9
$DIMTIH
 70
     0
  9
$DIMTOH
 70
     1
  9
$DIMSE1
 70
     0
  9
$DIMSE2
 70
     0
  9
$DIMTAD
 70
     0
  9
$DIMZIN
 70
     0
  9
$DIMBLK
  1

  9
$DIMASO
 70
     1
  9
$DIMSHO
 70
     0
  9
$DIMPOST
  1

  9
$DIMAPOST
  1

  9
$DIMALT
 70
     0
  9
$DIMALTD
 70
     2
  9
$DIMALTF
 40
25.4
  9
$DIMLFAC
 40
1.0
  9
$DIMTOFL
 70
     0
  9
$DIMTVP
 40
0.0
  9
$DIMTIX
 70
     0
  9
$DIMSOXD
 70
     0
  9
$DIMSAH
 70
     0
  9
$DIMBLK1
  1

  9
$DIMBLK2
  1

  9
$DIMSTYLE
  2
Standard
  9
$DIMCLRD
 70
     0
  9
$DIMCLRE
 70
     0
  9
$DIMCLRT
 70
     0
  9
$DIMTFAC
 40
1.0
  9
$DIMGAP
 40
0.09
  9
$DIMJUST
 70
     0
  9
$DIMSD1
 70
     0
  9
$DIMSD2
 70
     0
  9
$DIMTOLJ
 70
     1
  9
$DIMTZIN
 70
     0
  9
$DIMALTZ
 70
     0
  9
$DIMALTTZ
 70
     0
  9
$DIMUPT
 70
     0
  9
$DIMDEC
 70
     4
  9
$DIMTDEC
 70
     4
  9
$DIMALTU
 70
     2
  9
$DIMALTTD
 70
     2
  9
$DIMTXSTY
  7
STANDARD
  9
$DIMAUNIT
 70
     0
  9
$DIMADEC
 70
     0
  9
$DIMALTRND
 40
0.0
  9
$DIMAZIN
 70
     0
  9
$DIMDSEP
 70
    46
  9
$DIMATFIT
 70
     3
  9
$DIMFRAC
 70
     0
  9
$DIMLDRBLK
  1

  9
$DIMLUNIT
 70
     2
  9
$DIMLWD
 70
    -2
  9
$DIMLWE
 70
    -2
  9
$DIMTMOVE
 70
     0
  9
$LUNITS
 70
     2
  9
$LUPREC
 70
     3
  9
$SKETCHINC
 40
0.1
  9
$FILLETRAD
 40
0.0625
  9
$AUNITS
 70
     0
  9
$AUPREC
 70
     0
  9
$MENU
  1
ACAD
  9
$ELEVATION
 40
0.0
  9
$PELEVATION
 40
0.0
  9
$THICKNESS
 40
0.0
  9
$LIMCHECK
 70
     0
  9
$CHAMFERA
 40
0.0
  9
$CHAMFERB
 40
0.0
  9
$CHAMFERC
 40
0.0
  9
$CHAMFERD
 40
0.0
  9
$SKPOLY
 70
     0
  9
$TDCREATE
 40
2452446.465740741
  9
$TDUCREATE
 40
2452446.090740740
  9
$TDUPDATE
 40
2453353.763023900
  9
$TDUUPDATE
 40
2453353.388023900
  9
$TDINDWG
 40
0.0065561690
  9
$TDUSRTIMER
 40
0.0065538194
  9
$USRTIMER
 70
     1
  9
$ANGBASE
 50
0.0
  9
$ANGDIR
 70
     0
  9
$PDMODE
 70
     0
  9
$PDSIZE
 40
0.0
  9
$PLINEWID
 40
0.0
  9
$SPLFRAME
 70
     0
  9
$SPLINETYPE
 70
     6
  9
$SPLINESEGS
 70
     8
  9
$HANDSEED
  5
A2B
  9
$SURFTAB1
 70
     6
  9
$SURFTAB2
 70
     6
  9
$SURFTYPE
 70
     6
  9
$SURFU
 70
     6
  9
$SURFV
 70
     6
  9
$UCSBASE
  2

  9
$UCSNAME
  2

  9
$UCSORG
 10
0.0
 20
0.0
 30
0.0
  9
$UCSXDIR
 10
1.0
 20
0.0
 30
0.0
  9
$UCSYDIR
 10
0.0
 20
1.0
 30
0.0
  9
$UCSORTHOREF
  2

  9
$UCSORTHOVIEW
 70
     0
  9
$UCSORGTOP
 10
0.0
 20
0.0
 30
0.0
  9
$UCSORGBOTTOM
 10
0.0
 20
0.0
 30
0.0
  9
$UCSORGLEFT
 10
0.0
 20
0.0
 30
0.0
  9
$UCSORGRIGHT
 10
0.0
 20
0.0
 30
0.0
  9
$UCSORGFRONT
 10
0.0
 20
0.0
 30
0.0
  9
$UCSORGBACK
 10
0.0
 20
0.0
 30
0.0
  9
$PUCSBASE
  2

  9
$PUCSNAME
  2

  9
$PUCSORG
 10
0.0
 20
0.0
 30
0.0
  9
$PUCSXDIR
 10
1.0
 20
0.0
 30
0.0
  9
$PUCSYDIR
 10
0.0
 20
1.0
 30
0.0
  9
$PUCSORTHOREF
  2

  9
$PUCSORTHOVIEW
 70
     0
  9
$PUCSORGTOP
 10
0.0
 20
0.0
 30
0.0
  9
$PUCSORGBOTTOM
 10
0.0
 20
0.0
 30
0.0
  9
$PUCSORGLEFT
 10
0.0
 20
0.0
 30
0.0
  9
$PUCSORGRIGHT
 10
0.0
 20
0.0
 30
0.0
  9
$PUCSORGFRONT
 10
0.0
 20
0.0
 30
0.0
  9
$PUCSORGBACK
 10
0.0
 20
0.0
 30
0.0
  9
$USERI1
 70
     8
  9
$USERI2
 70
     0
  9
$USERI3
 70
     0
  9
$USERI4
 70
     0
  9
$USERI5
 70
     0
  9
$USERR1
 40
0.0
  9
$USERR2
 40
0.0
  9
$USERR3
 40
0.0
  9
$USERR4
 40
0.0
  9
$USERR5
 40
0.0
  9
$WORLDVIEW
 70
     1
  9
$SHADEDGE
 70
     3
  9
$SHADEDIF
 70
    70
  9
$TILEMODE
 70
     1
  9
$MAXACTVP
 70
    64
  9
$PINSBASE
 10
0.0
 20
0.0
 30
0.0
  9
$PLIMCHECK
 70
     0
  9
$PEXTMIN
 10
1.000000000000000E+20
 20
1.000000000000000E+20
 30
1.000000000000000E+20
  9
$PEXTMAX
 10
-1.000000000000000E+20
 20
-1.000000000000000E+20
 30
-1.000000000000000E+20
  9
$PLIMMIN
 10
0.0
 20
0.0
  9
$PLIMMAX
 10
12.0
 20
9.0
  9
$UNITMODE
 70
     0
  9
$VISRETAIN
 70
     1
  9
$PLINEGEN
 70
     0
  9
$PSLTSCALE
 70
     1
  9
$TREEDEPTH
 70
  3020
  9
$CMLSTYLE
  2
Standard
  9
$CMLJUST
 70
     0
  9
$CMLSCALE
 40
1.0
  9
$PROXYGRAPHICS
 70
     1
  9
$MEASUREMENT
 70
     0
  9
$CELWEIGHT
370
    -1
  9
$ENDCAPS
280
     0
  9
$JOINSTYLE
280
     0
  9
$LWDISPLAY
290
     0
  9
$INSUNITS
 70
     0
  9
$HYPERLINKBASE
  1

  9
$STYLESHEET
  1

  9
$XEDIT
290
     1
  9
$CEPSNTYPE
380
     0
  9
$PSTYLEMODE
290
     1
  9
$FINGERPRINTGUID
  2
{1028E218-C3D8-48B7-923F-5154F765B1AC}
  9
$VERSIONGUID
  2
{9994A68B-8D73-46D4-A3A8-CF438E014FCF}
  9
$EXTNAMES
290
     1
  9
$PSVPSCALE
 40
0.0
  9
$OLESTARTUP
290
     0
  0
ENDSEC
  0
SECTION
  2
CLASSES
  0
CLASS
  1
ACDBDICTIONARYWDFLT
  2
AcDbDictionaryWithDefault
  3
AutoCAD 2000
 90
        0
280
     0
281
     0
  0
CLASS
  1
ACDBPLACEHOLDER
  2
AcDbPlaceHolder
  3
AutoCAD 2000
 90
        0
280
     0
281
     0
  0
CLASS
  1
LAYOUT
  2
AcDbLayout
  3
AutoCAD 2000
 90
        0
280
     0
281
     0
  0
CLASS
  1
DICTIONARYVAR
  2
AcDbDictionaryVar
  3
AutoCAD 2000
 90
        0
280
     0
281
     0
  0
ENDSEC
  0
SECTION
  2
TABLES
  0
TABLE
  2
VPORT
  5
8
330
0
100
AcDbSymbolTable
 70
     2
  0
VPORT
  5
A2A
330
8
100
AcDbSymbolTableRecord
100
AcDbViewportTableRecord
  2
*Active
 70
     0
 10
0.0
 20
0.0
 11
1.0
 21
1.0
 12
148.5121619184172
 22
210.3455592291199
 13
0.0
 23
0.0
 14
1.0
 24
1.0
 15
0.0
 25
0.0
 16
0.0
 26
0.0
 36
1.0
 17
0.0
 27
0.0
 37
0.0
 40
426.3938161898748
 41
2.253932584269663
 42
50.0
 43
0.0
 44
0.0
 50
0.0
 51
0.0
 71
     0
 72
   100
 73
     1
 74
     1
 75
     0
 76
     0
 77
     0
 78
     0
281
     0
 65
     1
110
0.0
120
0.0
130
0.0
111
1.0
121
0.0
131
0.0
112
0.0
122
1.0
132
0.0
 79
     0
146
0.0
  0
ENDTAB
  0
TABLE
  2
LTYPE
  5
5
330
0
100
AcDbSymbolTable
 70
     2
  0
LTYPE
  5
13
330
5
100
AcDbSymbolTableRecord
100
AcDbLinetypeTableRecord
  2
ByBlock
 70
     0
  3

 72
    65
 73
     0
 40
0.0
  0
LTYPE
  5
14
330
5
100
AcDbSymbolTableRecord
100
AcDbLinetypeTableRecord
  2
ByLayer
 70
     0
  3

 72
    65
 73
     0
 40
0.0
  0
LTYPE
  5
15
330
5
100
AcDbSymbolTableRecord
100
AcDbLinetypeTableRecord
  2
Continuous
 70
     0
  3
Solid line
 72
    65
 73
     0
 40
0.0
  0
LTYPE
  5
23
330
5
100
AcDbSymbolTableRecord
100
AcDbLinetypeTableRecord
  2
CENTERLINE
 70
     0
  3
Centerline
 72
    65
 73
     4
 40
25.4
 49
19.05
 74
     0
 49
-1.587499999999999
 74
     0
 49
3.174999999999998
 74
     0
 49
-1.587499999999999
 74
     0
  0
ENDTAB
  0
TABLE
  2
LAYER
  5
2
330
0
100
AcDbSymbolTable
 70
     1
  0
LAYER
  5
10
330
2
100
AcDbSymbolTableRecord
100
AcDbLayerTableRecord
  2
0
 70
     0
 62
     7
  6
Continuous
370
    -3
390
F
  0
ENDTAB
  0
TABLE
  2
STYLE
  5
3
330
0
100
AcDbSymbolTable
 70
     1
  0
STYLE
  5
11
330
3
100
AcDbSymbolTableRecord
100
AcDbTextStyleTableRecord
  2
STANDARD
 70
     0
 40
0.0
 41
1.0
 50
0.0
 71
     0
 42
2.999994039499997
  3
romans.shx
  4
bigfont.shx
  0
ENDTAB
  0
TABLE
  2
VIEW
  5
6
330
0
100
AcDbSymbolTable
 70
     0
  0
ENDTAB
  0
TABLE
  2
UCS
  5
7
330
0
100
AcDbSymbolTable
 70
     0
  0
ENDTAB
  0
TABLE
  2
APPID
  5
9
330
0
100
AcDbSymbolTable
 70
     1
  0
APPID
  5
12
330
9
100
AcDbSymbolTableRecord
100
AcDbRegAppTableRecord
  2
ACAD
 70
     0
  0
ENDTAB
  0
TABLE
  2
DIMSTYLE
  5
A
330
0
100
AcDbSymbolTable
 70
     1
100
AcDbDimStyleTable
 71
     0
  0
DIMSTYLE
105
4EC
330
A
100
AcDbSymbolTableRecord
100
AcDbDimStyleTableRecord
  2
Standard
 70
     0
340
11
  0
ENDTAB
  0
TABLE
  2
BLOCK_RECORD
  5
1
330
0
100
AcDbSymbolTable
 70
     1
  0
BLOCK_RECORD
  5
1E
330
1
100
AcDbSymbolTableRecord
100
AcDbBlockTableRecord
  2
*Model_Space
340
21
  0
BLOCK_RECORD
  5
1A
330
1
100
AcDbSymbolTableRecord
100
AcDbBlockTableRecord
  2
*Paper_Space
340
1D
  0
ENDTAB
  0
ENDSEC
  0
SECTION
  2
BLOCKS
  0
BLOCK
  5
1F
330
1E
100
AcDbEntity
  8
0
100
AcDbBlockBegin
  2
*Model_Space
 70
     0
 10
0.0
 20
0.0
 30
0.0
  3
*Model_Space
  1

  0
ENDBLK
  5
20
330
1E
100
AcDbEntity
  8
0
100
AcDbBlockEnd
  0
BLOCK
  5
1B
330
1A
100
AcDbEntity
 67
     1
  8
0
100
AcDbBlockBegin
  2
*Paper_Space
 70
     0
 10
0.0
 20
0.0
 30
0.0
  3
*Paper_Space
  1

  0
ENDBLK
  5
1C
330
1A
100
AcDbEntity
 67
     1
  8
0
100
AcDbBlockEnd
  0
ENDSEC
  0
SECTION
  2
ENTITIES
  0
TEXT
  5
5FB
330
1E
100
AcDbEntity
  8
0
 62
     5
100
AcDbText
 10
232.0
 20
10.0
 30
0.0
 40
5.0
  1
ＭＡ４-Ｅ０００４２Ｄ
 41
0.8418911273152083
 72
     5
 11
286.0413923629
 21
10.0
 31
0.0
100
AcDbText
  0
ARC
  5
65A
330
1E
100
AcDbEntity
  8
0
 62
     3
100
AcDbCircle
 10
113.4134101389608
 20
279.791322973404
 30
0.0
 40
41.4281616211
100
AcDbArc
 50
0.0
 51
76.5365863295
  0
ARC
  5
65B
330
1E
100
AcDbEntity
  8
0
 62
     3
100
AcDbCircle
 10
113.4134101389608
 20
279.791322973404
 30
0.0
 40
48.4281616211
100
AcDbArc
 50
0.0
 51
79.0563797181
  0
ARC
  5
65C
330
1E
100
AcDbEntity
  8
0
 62
     3
100
AcDbCircle
 10
68.48521800026083
 20
174.489473608104
 30
0.0
 40
16.0
100
AcDbArc
 50
108.2099220393
 51
251.7900060162999
  0
ARC
  5
65D
330
1E
100
AcDbEntity
  8
0
 62
     3
100
AcDbCircle
 10
68.48521800026083
 20
174.489473608104
 30
0.0
 40
16.0
100
AcDbArc
 50
288.2100126529998
 51
71.78998734699995
  0
LINE
  5
65E
330
1E
100
AcDbEntity
  8
0
 62
     3
100
AcDbLine
 10
86.48518748276092
 20
133.389375951904
 30
0.0
 11
86.48518748276092
 21
246.389253881604
 31
0.0
  0
LINE
  5
65F
330
1E
100
AcDbEntity
  8
0
 62
     3
100
AcDbLine
 10
73.48521800026083
 20
156.4894736081041
 30
0.0
 11
73.48521800026083
 21
192.4895041257039
 31
0.0
  0
LINE
  5
660
330
1E
100
AcDbEntity
  8
0
 62
     3
100
AcDbLine
 10
63.48521800026083
 20
156.4894736081041
 30
0.0
 11
63.48521800026083
 21
192.4895041257039
 31
0.0
  0
LINE
  5
661
330
1E
100
AcDbEntity
  8
0
 62
     3
100
AcDbLine
 10
50.48540110576084
 20
133.389375951904
 30
0.0
 11
50.48540110576084
 21
246.389253881604
 31
0.0
  0
LINE
  5
662
330
1E
100
AcDbEntity
  8
0
  6
CENTERLINE
 62
     3
100
AcDbLine
 10
68.48521800026083
 20
124.388948705804
 30
0.0
 11
68.48521800026083
 21
282.6607077390042
 31
0.0
  0
LINE
  5
663
330
1E
100
AcDbEntity
  8
0
 62
     3
100
AcDbLine
 10
50.48534007056089
 20
133.3889181882039
 30
0.0
 11
50.48534007056089
 21
246.3887656003041
 31
0.0
  0
LINE
  5
664
330
1E
100
AcDbEntity
  8
0
  6
CENTERLINE
 62
     3
100
AcDbLine
 10
68.48521800026083
 20
5.891975535417996
 30
0.0
 11
68.48521800026083
 21
123.629463328418
 31
0.0
  0
LINE
  5
665
330
1E
100
AcDbEntity
  8
0
 62
     3
100
AcDbLine
 10
52.48521800026089
 20
74.43103803541801
 30
0.0
 11
52.48521800026089
 21
61.43103803541801
 31
0.0
  0
CIRCLE
  5
666
330
1E
100
AcDbEntity
  8
0
 62
     3
100
AcDbCircle
 10
68.48521800026083
 20
71.23105634601802
 30
0.0
 40
4.0
  0
ARC
  5
667
330
1E
100
AcDbEntity
  8
0
 62
     3
100
AcDbCircle
 10
70.48521800026083
 20
69.231056346018
 30
0.0
 40
3.0
100
AcDbArc
 50
270.0000179861
 51
0.0
  0
ARC
  5
668
330
1E
100
AcDbEntity
  8
0
 62
     3
100
AcDbCircle
 10
66.48521800026083
 20
69.231056346018
 30
0.0
 40
3.0
100
AcDbArc
 50
179.9999640277999
 51
270.0000006831999
  0
LINE
  5
669
330
1E
100
AcDbEntity
  8
0
 62
     3
100
AcDbLine
 10
84.48521800026083
 20
74.43103803541801
 30
0.0
 11
84.48521800026083
 21
61.43103803541801
 31
0.0
  0
ARC
  5
66A
330
1E
100
AcDbEntity
  8
0
 62
     3
100
AcDbCircle
 10
81.89220042216083
 20
57.431038035418
 30
0.0
 40
4.0
100
AcDbArc
 50
89.99998201389999
 51
179.9999640277999
  0
ARC
  5
66B
330
1E
100
AcDbEntity
  8
0
 62
     3
100
AcDbCircle
 10
82.8495978830608
 20
51.670692576518
 30
0.0
 40
3.0
100
AcDbArc
 50
151.555340701
 51
179.9999640277999
  0
ARC
  5
66C
330
1E
100
AcDbEntity
  8
0
 62
     3
100
AcDbCircle
 10
80.84959788306083
 20
46.43103803541802
 30
0.0
 40
1.0
100
AcDbArc
 50
180.0000359722
 51
270.0000179861
  0
LINE
  5
66D
330
1E
100
AcDbEntity
  8
0
 62
     3
100
AcDbLine
 10
77.98506541236088
 20
8.430732859718006
 30
0.0
 11
83.98506541236088
 21
8.430732859718006
 31
0.0
  0
LINE
  5
66E
330
1E
100
AcDbEntity
  8
0
 62
     3
100
AcDbLine
 10
38.48537058816089
 20
8.930732859718006
 30
0.0
 11
98.48521800026084
 21
8.930732859718006
 31
0.0
  0
LINE
  5
66F
330
1E
100
AcDbEntity
  8
0
 62
     3
100
AcDbLine
 10
50.48537058816089
 20
37.930732859718
 30
0.0
 11
86.48521800026083
 21
37.930732859718
 31
0.0
  0
LINE
  5
670
330
1E
100
AcDbEntity
  8
0
 62
     3
100
AcDbLine
 10
50.48521800026088
 20
37.930732859718
 30
0.0
 11
86.48521800026083
 21
37.930732859718
 31
0.0
  0
LINE
  5
671
330
1E
100
AcDbEntity
  8
0
 62
     3
100
AcDbLine
 10
51.48521800026088
 20
43.430732859718
 30
0.0
 11
85.48521800026083
 21
43.430732859718
 31
0.0
  0
LINE
  5
672
330
1E
100
AcDbEntity
  8
0
 62
     3
100
AcDbLine
 10
50.28541941636092
 20
8.430732859718006
 30
0.0
 11
38.68532176006084
 21
8.430732859718006
 31
0.0
  0
LINE
  5
673
330
1E
100
AcDbEntity
  8
0
 62
     3
100
AcDbLine
 10
50.48521800026088
 20
12.430732859718
 30
0.0
 11
39.48521800026087
 21
12.430732859718
 31
0.0
  0
LINE
  5
674
330
1E
100
AcDbEntity
  8
0
 62
     3
100
AcDbLine
 10
38.48537058816089
 20
8.930732859718006
 30
0.0
 11
38.48537058816089
 21
11.430732859718
 31
0.0
  0
LINE
  5
675
330
1E
100
AcDbEntity
  8
0
 62
     3
100
AcDbLine
 10
38.48521800026087
 20
8.930732859718006
 30
0.0
 11
38.48521800026087
 21
11.430732859718
 31
0.0
  0
LINE
  5
676
330
1E
100
AcDbEntity
  8
0
 62
     3
100
AcDbLine
 10
38.68532176006084
 20
8.930732859718006
 30
0.0
 11
38.68532176006084
 21
8.430732859718006
 31
0.0
  0
ARC
  5
677
330
1E
100
AcDbEntity
  8
0
 62
     3
100
AcDbCircle
 10
39.48521800026087
 20
11.430732859718
 30
0.0
 40
1.0
100
AcDbArc
 50
89.99998201389999
 51
179.9999640277999
  0
LINE
  5
678
330
1E
100
AcDbEntity
  8
0
 62
     3
100
AcDbLine
 10
50.48537058816089
 20
8.930732859718006
 30
0.0
 11
50.48537058816089
 21
37.930732859718
 31
0.0
  0
LINE
  5
679
330
1E
100
AcDbEntity
  8
0
 62
     3
100
AcDbLine
 10
58.98537058816089
 20
8.530830515918012
 30
0.0
 11
64.98537058816089
 21
8.530830515918012
 31
0.0
  0
LINE
  5
67A
330
1E
100
AcDbEntity
  8
0
 62
     3
100
AcDbLine
 10
52.9854011057609
 20
8.430732859718006
 30
0.0
 11
58.98537058816089
 21
8.430732859718006
 31
0.0
  0
LINE
  5
67B
330
1E
100
AcDbEntity
  8
0
 62
     3
100
AcDbLine
 10
52.98537058816089
 20
8.430732859718006
 30
0.0
 11
52.98537058816089
 21
8.930732859718006
 31
0.0
  0
LINE
  5
67C
330
1E
100
AcDbEntity
  8
0
 62
     3
100
AcDbLine
 10
50.28541941636092
 20
8.430732859718006
 30
0.0
 11
50.28541941636092
 21
8.930732859718006
 31
0.0
  0
LINE
  5
67D
330
1E
100
AcDbEntity
  8
0
 62
     3
100
AcDbLine
 10
58.98537058816089
 20
8.430732859718006
 30
0.0
 11
58.98537058816089
 21
8.930732859718006
 31
0.0
  0
LINE
  5
67E
330
1E
100
AcDbEntity
  8
0
 62
     3
100
AcDbLine
 10
64.98537058816089
 20
8.930732859718006
 30
0.0
 11
64.98537058816089
 21
8.530830515918012
 31
0.0
  0
LINE
  5
67F
330
1E
100
AcDbEntity
  8
0
 62
     3
100
AcDbLine
 10
71.98506541236088
 20
8.530830515918012
 30
0.0
 11
77.98506541236088
 21
8.530830515918012
 31
0.0
  0
LINE
  5
680
330
1E
100
AcDbEntity
  8
0
 62
     3
100
AcDbLine
 10
71.98506541236088
 20
8.530830515918012
 30
0.0
 11
71.98506541236088
 21
8.930732859718006
 31
0.0
  0
LINE
  5
681
330
1E
100
AcDbEntity
  8
0
 62
     3
100
AcDbLine
 10
77.98506541236088
 20
8.930732859718006
 30
0.0
 11
77.98506541236088
 21
8.430732859718006
 31
0.0
  0
LINE
  5
682
330
1E
100
AcDbEntity
  8
0
 62
     3
100
AcDbLine
 10
52.48521800026089
 20
45.431038035418
 30
0.0
 11
76.39220042216084
 21
45.431038035418
 31
0.0
  0
LINE
  5
683
330
1E
100
AcDbEntity
  8
0
 62
     3
100
AcDbLine
 10
50.48521800026088
 20
37.930732859718
 30
0.0
 11
50.48521800026088
 21
51.43073285971801
 31
0.0
  0
LINE
  5
684
330
1E
100
AcDbEntity
  8
0
 62
     3
100
AcDbLine
 10
52.48521800026089
 20
55.93103803541801
 30
0.0
 11
52.48521800026089
 21
45.431038035418
 31
0.0
  0
ARC
  5
685
330
1E
100
AcDbEntity
  8
0
 62
     3
100
AcDbCircle
 10
51.48521800026088
 20
42.43073285971799
 30
0.0
 40
1.0
100
AcDbArc
 50
89.99998201389999
 51
179.9999640277999
  0
LINE
  5
686
330
1E
100
AcDbEntity
  8
0
 62
     3
100
AcDbLine
 10
54.88530344956092
 20
45.431038035418
 30
0.0
 11
54.88530344956092
 21
43.93073285971801
 31
0.0
  0
ARC
  5
687
330
1E
100
AcDbEntity
  8
0
 62
     3
100
AcDbCircle
 10
54.38530344956092
 20
43.93073285971801
 30
0.0
 40
0.5
100
AcDbArc
 50
270.0000179861
 51
0.0
  0
LINE
  5
688
330
1E
100
AcDbEntity
  8
0
 62
     3
100
AcDbLine
 10
52.68175120346092
 20
61.43103803541801
 30
0.0
 11
52.68175120346092
 21
55.93103803541801
 31
0.0
  0
LINE
  5
689
330
1E
100
AcDbEntity
  8
0
 62
     3
100
AcDbLine
 10
52.08519358626086
 20
56.130745066718
 30
0.0
 11
52.08519358626086
 21
59.73072065261799
 31
0.0
  0
LINE
  5
68A
330
1E
100
AcDbEntity
  8
0
 62
     3
100
AcDbLine
 10
52.48521800026089
 20
55.93103803541801
 30
0.0
 11
52.68175120346092
 21
55.93103803541801
 31
0.0
  0
ARC
  5
68B
330
1E
100
AcDbEntity
  8
0
 62
     3
100
AcDbCircle
 10
52.2852057932609
 20
56.130745066718
 30
0.0
 40
0.1999999285
100
AcDbArc
 50
180.0000359722
 51
270.0000179861
  0
LINE
  5
68C
330
1E
100
AcDbEntity
  8
0
 62
     3
100
AcDbLine
 10
51.48521800026088
 20
52.43073285971799
 30
0.0
 11
52.48521800026089
 21
52.43073285971799
 31
0.0
  0
LINE
  5
68D
330
1E
100
AcDbEntity
  8
0
 62
     3
100
AcDbLine
 10
52.2852057932609
 20
55.93073285971801
 30
0.0
 11
52.68175120346092
 21
55.93073285971801
 31
0.0
  0
ARC
  5
68E
330
1E
100
AcDbEntity
  8
0
 62
     3
100
AcDbCircle
 10
51.48521800026088
 20
51.43073285971801
 30
0.0
 40
1.0
100
AcDbArc
 50
89.99998201389999
 51
179.9999640277999
  0
ARC
  5
68F
330
1E
100
AcDbEntity
  8
0
 62
     3
100
AcDbCircle
 10
52.2852057932609
 20
59.73072065261799
 30
0.0
 40
0.1999999285
100
AcDbArc
 50
89.99998201389999
 51
179.9999640277999
  0
LINE
  5
690
330
1E
100
AcDbEntity
  8
0
 62
     3
100
AcDbLine
 10
52.2852057932609
 20
59.93073285971799
 30
0.0
 11
52.68175120346092
 21
59.93073285971799
 31
0.0
  0
LINE
  5
691
330
1E
100
AcDbEntity
  8
0
 62
     3
100
AcDbLine
 10
52.68175120346092
 20
61.43103803541801
 30
0.0
 11
52.48521800026089
 21
61.43103803541801
 31
0.0
  0
LINE
  5
692
330
1E
100
AcDbEntity
  8
0
 62
     3
100
AcDbLine
 10
79.84959788306081
 20
51.670692576518
 30
0.0
 11
79.84959788306081
 21
46.43103803541802
 31
0.0
  0
ARC
  5
693
330
1E
100
AcDbEntity
  8
0
 62
     3
100
AcDbCircle
 10
76.39220042216084
 20
46.931038035418
 30
0.0
 40
1.5
100
AcDbArc
 50
270.0000179861
 51
0.0
  0
LINE
  5
694
330
1E
100
AcDbEntity
  8
0
 62
     3
100
AcDbLine
 10
70.48521800026083
 20
66.23105634601801
 30
0.0
 11
66.48521800026083
 21
66.23105634601801
 31
0.0
  0
LINE
  5
695
330
1E
100
AcDbEntity
  8
0
 62
     3
100
AcDbLine
 10
77.89220042216084
 20
57.431038035418
 30
0.0
 11
77.89220042216084
 21
46.931038035418
 31
0.0
  0
LINE
  5
696
330
1E
100
AcDbEntity
  8
0
 62
     3
100
AcDbLine
 10
86.48521800026083
 20
8.930732859718006
 30
0.0
 11
86.48521800026083
 21
37.930732859718
 31
0.0
  0
ARC
  5
697
330
1E
100
AcDbEntity
  8
0
 62
     3
100
AcDbCircle
 10
97.48521800026082
 20
11.430732859718
 30
0.0
 40
1.0
100
AcDbArc
 50
0.0
 51
89.99998201389999
  0
LINE
  5
698
330
1E
100
AcDbEntity
  8
0
 62
     3
100
AcDbLine
 10
86.68501658426087
 20
8.430732859718006
 30
0.0
 11
98.28511424056092
 21
8.430732859718006
 31
0.0
  0
LINE
  5
699
330
1E
100
AcDbEntity
  8
0
 62
     3
100
AcDbLine
 10
86.48521800026083
 20
12.430732859718
 30
0.0
 11
97.48521800026082
 21
12.430732859718
 31
0.0
  0
LINE
  5
69A
330
1E
100
AcDbEntity
  8
0
 62
     3
100
AcDbLine
 10
83.98506541236088
 20
8.930732859718006
 30
0.0
 11
83.98506541236088
 21
8.430732859718006
 31
0.0
  0
LINE
  5
69B
330
1E
100
AcDbEntity
  8
0
 62
     3
100
AcDbLine
 10
86.68501658426087
 20
8.430732859718006
 30
0.0
 11
86.68501658426087
 21
8.930732859718006
 31
0.0
  0
LINE
  5
69C
330
1E
100
AcDbEntity
  8
0
 62
     3
100
AcDbLine
 10
98.48506541236089
 20
8.930732859718006
 30
0.0
 11
98.48506541236089
 21
11.430732859718
 31
0.0
  0
LINE
  5
69D
330
1E
100
AcDbEntity
  8
0
 62
     3
100
AcDbLine
 10
98.48521800026084
 20
8.930732859718006
 30
0.0
 11
98.48521800026084
 21
11.430732859718
 31
0.0
  0
LINE
  5
69E
330
1E
100
AcDbEntity
  8
0
 62
     3
100
AcDbLine
 10
98.28511424056092
 20
8.930732859718006
 30
0.0
 11
98.28511424056092
 21
8.430732859718006
 31
0.0
  0
LINE
  5
69F
330
1E
100
AcDbEntity
  8
0
 62
     3
100
AcDbLine
 10
86.48521800026083
 20
37.930732859718
 30
0.0
 11
86.48521800026083
 21
51.43073285971801
 31
0.0
  0
LINE
  5
6A0
330
1E
100
AcDbEntity
  8
0
 62
     3
100
AcDbLine
 10
84.48521800026083
 20
56.931038035418
 30
0.0
 11
84.48521800026083
 21
45.431038035418
 31
0.0
  0
LINE
  5
6A1
330
1E
100
AcDbEntity
  8
0
 62
     3
100
AcDbLine
 10
81.42775340066089
 20
51.92414106281801
 30
0.0
 11
81.42775340066089
 21
46.43103803541802
 31
0.0
  0
LINE
  5
6A2
330
1E
100
AcDbEntity
  8
0
 62
     3
100
AcDbLine
 10
80.84959788306083
 20
45.431038035418
 30
0.0
 11
84.48521800026083
 21
45.431038035418
 31
0.0
  0
LINE
  5
6A3
330
1E
100
AcDbEntity
  8
0
 62
     3
100
AcDbLine
 10
82.08525462136094
 20
45.431038035418
 30
0.0
 11
82.08525462136094
 21
43.93073285971801
 31
0.0
  0
ARC
  5
6A4
330
1E
100
AcDbEntity
  8
0
 62
     3
100
AcDbCircle
 10
82.42775340066089
 20
46.43103803541802
 30
0.0
 40
1.0
100
AcDbArc
 50
180.0000359722
 51
270.0000179861
  0
ARC
  5
6A5
330
1E
100
AcDbEntity
  8
0
 62
     3
100
AcDbCircle
 10
82.58525462136095
 20
43.93073285971801
 30
0.0
 40
0.5
100
AcDbArc
 50
180.0000359722
 51
270.0000179861
  0
ARC
  5
6A6
330
1E
100
AcDbEntity
  8
0
 62
     3
100
AcDbCircle
 10
85.48521800026083
 20
42.43073285971799
 30
0.0
 40
1.0
100
AcDbArc
 50
0.0
 51
89.99998201389999
  0
LINE
  5
6A7
330
1E
100
AcDbEntity
  8
0
 62
     3
100
AcDbLine
 10
82.08525462136094
 20
61.43103803541801
 30
0.0
 11
82.08525462136094
 21
56.53421796711803
 31
0.0
  0
LINE
  5
6A8
330
1E
100
AcDbEntity
  8
0
 62
     3
100
AcDbLine
 10
84.88536448466083
 20
56.130745066718
 30
0.0
 11
84.88536448466083
 21
59.73072065261799
 31
0.0
  0
LINE
  5
6A9
330
1E
100
AcDbEntity
  8
0
 62
     3
100
AcDbLine
 10
84.68538279526091
 20
55.93073285971801
 30
0.0
 11
84.48521800026083
 21
55.93073285971801
 31
0.0
  0
LINE
  5
6AA
330
1E
100
AcDbEntity
  8
0
 62
     3
100
AcDbLine
 10
84.48521800026083
 20
52.43073285971799
 30
0.0
 11
85.48521800026083
 21
52.43073285971799
 31
0.0
  0
LINE
  5
6AB
330
1E
100
AcDbEntity
  8
0
 62
     3
100
AcDbLine
 10
82.88286204326084
 20
56.931038035418
 30
0.0
 11
84.48521800026083
 21
56.931038035418
 31
0.0
  0
ARC
  5
6AC
330
1E
100
AcDbEntity
  8
0
 62
     3
100
AcDbCircle
 10
83.42775340066088
 20
51.92414106281801
 30
0.0
 40
2.0
100
AcDbArc
 50
151.555340701
 51
179.9999640277999
  0
ARC
  5
6AD
330
1E
100
AcDbEntity
  8
0
 62
     3
100
AcDbCircle
 10
84.16319651596085
 20
56.43103803541802
 30
0.0
 40
0.5
100
AcDbArc
 50
89.99998201389999
 51
151.555340701
  0
LINE
  5
6AE
330
1E
100
AcDbEntity
  8
0
 62
     3
100
AcDbLine
 10
83.7235682211608
 20
56.66921880961799
 30
0.0
 11
81.66917988656086
 21
52.87676942871802
 31
0.0
  0
ARC
  5
6AF
330
1E
100
AcDbEntity
  8
0
 62
     3
100
AcDbCircle
 10
82.88286204326084
 20
55.93103803541801
 30
0.0
 40
1.0
100
AcDbArc
 50
89.99998201389999
 51
151.555340701
  0
LINE
  5
6B0
330
1E
100
AcDbEntity
  8
0
 62
     3
100
AcDbLine
 10
82.00358043496089
 20
56.40738679461803
 30
0.0
 11
80.2117668059609
 21
53.09965652111801
 31
0.0
  0
ARC
  5
6B1
330
1E
100
AcDbEntity
  8
0
 62
     3
100
AcDbCircle
 10
85.48521800026083
 20
51.43073285971801
 30
0.0
 40
1.0
100
AcDbArc
 50
0.0
 51
89.99998201389999
  0
ARC
  5
6B2
330
1E
100
AcDbEntity
  8
0
 62
     3
100
AcDbCircle
 10
84.68538279526091
 20
56.130745066718
 30
0.0
 40
0.1999999285
100
AcDbArc
 50
270.0000179861
 51
0.0
  0
LINE
  5
6B3
330
1E
100
AcDbEntity
  8
0
 62
     3
100
AcDbLine
 10
84.68538279526091
 20
59.93073285971799
 30
0.0
 11
82.08525462136094
 21
59.93073285971799
 31
0.0
  0
LINE
  5
6B4
330
1E
100
AcDbEntity
  8
0
 62
     3
100
AcDbLine
 10
84.2887153147609
 20
61.43103803541801
 30
0.0
 11
84.2887153147609
 21
59.93073285971799
 31
0.0
  0
LINE
  5
6B5
330
1E
100
AcDbEntity
  8
0
 62
     3
100
AcDbLine
 10
81.89220042216083
 20
61.43103803541801
 30
0.0
 11
84.48521800026083
 21
61.43103803541801
 31
0.0
  0
ARC
  5
6B6
330
1E
100
AcDbEntity
  8
0
 62
     3
100
AcDbCircle
 10
84.68538279526091
 20
59.73072065261799
 30
0.0
 40
0.1999999285
100
AcDbArc
 50
0.0
 51
89.99998201389999
  0
ARC
  5
6B7
330
1E
100
AcDbEntity
  8
0
 62
     3
100
AcDbCircle
 10
80.98521800026082
 20
154.3894064695042
 30
0.0
 40
2.0
100
AcDbArc
 50
89.99998201389999
 51
179.9998547448
  0
LINE
  5
6B8
330
1E
100
AcDbEntity
  8
0
  6
CENTERLINE
 62
     3
100
AcDbLine
 10
54.58507151596092
 20
174.489473608104
 30
0.0
 11
82.48518748276092
 21
174.489473608104
 31
0.0
  0
LINE
  5
6B9
330
1E
100
AcDbEntity
  8
0
 62
     3
100
AcDbLine
 10
54.48540110576084
 20
129.389375951904
 30
0.0
 11
82.48518748276092
 21
129.389375951904
 31
0.0
  0
ARC
  5
6BA
330
1E
100
AcDbEntity
  8
0
 62
     3
100
AcDbCircle
 10
82.48521800026081
 20
151.3894064695042
 30
0.0
 40
3.5
100
AcDbArc
 50
179.9998547448
 51
269.9998367586999
  0
ARC
  5
6BB
330
1E
100
AcDbEntity
  8
0
 62
     3
100
AcDbCircle
 10
74.48521800026083
 20
74.43103803541801
 30
0.0
 40
10.0
100
AcDbArc
 50
0.0
 51
89.99998201389999
  0
CIRCLE
  5
6BC
330
1E
100
AcDbEntity
  8
0
 62
     3
100
AcDbCircle
 10
82.48521835516092
 20
151.3894068046042
 30
0.0
 40
3.5
  0
LINE
  5
6BD
330
1E
100
AcDbEntity
  8
0
 62
     3
100
AcDbLine
 10
73.48521800026083
 20
69.231056346018
 30
0.0
 11
73.48521800026083
 21
117.231056346018
 31
0.0
  0
LINE
  5
6BE
330
1E
100
AcDbEntity
  8
0
 62
     3
100
AcDbLine
 10
63.48521800026083
 20
69.231056346018
 30
0.0
 11
63.48521800026083
 21
117.231056346018
 31
0.0
  0
LINE
  5
6BF
330
1E
100
AcDbEntity
  8
0
 62
     3
100
AcDbLine
 10
62.48521800026082
 20
84.43103803541793
 30
0.0
 11
63.48521800026083
 21
84.43103803541793
 31
0.0
  0
LINE
  5
6C0
330
1E
100
AcDbEntity
  8
0
  6
CENTERLINE
 62
     3
100
AcDbLine
 10
76.87385935776092
 20
71.23105634601802
 30
0.0
 11
59.87404246316089
 21
71.23105634601802
 31
0.0
  0
ARC
  5
6C1
330
1E
100
AcDbEntity
  8
0
 62
     3
100
AcDbCircle
 10
62.48521800026082
 20
74.43103803541801
 30
0.0
 40
10.0
100
AcDbArc
 50
89.99998201389999
 51
179.9999640277999
  0
CIRCLE
  5
6C2
330
1E
100
AcDbEntity
  8
0
 62
     3
100
AcDbCircle
 10
68.48521800026083
 20
71.23105634601802
 30
0.0
 40
3.5
  0
LINE
  5
6C3
330
1E
100
AcDbEntity
  8
0
 62
     3
100
AcDbLine
 10
62.94186083676095
 20
71.80302138521803
 30
0.0
 11
62.90523182456093
 21
71.22917126971799
 31
0.0
  0
LINE
  5
6C4
330
1E
100
AcDbEntity
  8
0
 62
     3
100
AcDbLine
 10
63.0527060768609
 20
70.08912901671799
 30
0.0
 11
63.23486043236083
 21
69.538002821618
 31
0.0
  0
LINE
  5
6C5
330
1E
100
AcDbEntity
  8
0
 62
     3
100
AcDbLine
 10
62.94234371896084
 20
70.65534606591801
 30
0.0
 11
63.0527060768609
 21
70.08912901671799
 31
0.0
  0
LINE
  5
6C6
330
1E
100
AcDbEntity
  8
0
 62
     3
100
AcDbLine
 10
62.90523182456093
 20
71.22917126971799
 30
0.0
 11
62.94234371896084
 21
70.65534606591801
 31
0.0
  0
LINE
  5
6C7
330
1E
100
AcDbEntity
  8
0
 62
     3
100
AcDbLine
 10
63.05174669396092
 20
72.36931284041801
 30
0.0
 11
62.94186083676095
 21
71.80302138521803
 31
0.0
  0
LINE
  5
6C8
330
1E
100
AcDbEntity
  8
0
 62
     3
100
AcDbLine
 10
63.23343722716095
 20
72.92056195261801
 30
0.0
 11
63.05174669396092
 21
72.36931284041801
 31
0.0
  0
LINE
  5
6C9
330
1E
100
AcDbEntity
  8
0
 62
     3
100
AcDbLine
 10
63.23486043236083
 20
69.538002821618
 30
0.0
 11
63.48639957016097
 21
69.00925075021802
 31
0.0
  0
LINE
  5
6CA
330
1E
100
AcDbEntity
  8
0
 62
     3
100
AcDbLine
 10
63.4845313507608
 20
73.44948382761789
 30
0.0
 11
63.23343722716095
 21
72.92056195261801
 31
0.0
  0
LINE
  5
6CB
330
1E
100
AcDbEntity
  8
0
 62
     3
100
AcDbLine
 10
74.06520417736088
 20
71.232938283118
 30
0.0
 11
74.02809268506087
 21
71.80676350781801
 31
0.0
  0
LINE
  5
6CC
330
1E
100
AcDbEntity
  8
0
 62
     3
100
AcDbLine
 10
74.02857476306087
 20
70.659088188218
 30
0.0
 11
74.06520417736088
 21
71.232938283118
 31
0.0
  0
LINE
  5
6CD
330
1E
100
AcDbEntity
  8
0
 62
     3
100
AcDbLine
 10
73.91868850916091
 20
70.09279679481799
 30
0.0
 11
74.02857476306087
 21
70.659088188218
 31
0.0
  0
LINE
  5
6CE
330
1E
100
AcDbEntity
  8
0
 62
     3
100
AcDbLine
 10
73.73699758966086
 20
69.541547784818
 30
0.0
 11
73.91868850916091
 21
70.09279679481799
 31
0.0
  0
LINE
  5
6CF
330
1E
100
AcDbEntity
  8
0
 62
     3
100
AcDbLine
 10
73.48590309546091
 20
69.01262605111803
 30
0.0
 11
73.73699758966086
 21
69.541547784818
 31
0.0
  0
LINE
  5
6D0
330
1E
100
AcDbEntity
  8
0
 62
     3
100
AcDbLine
 10
73.73557675456095
 20
72.92410691671792
 30
0.0
 11
73.48403798716083
 21
73.45285912961802
 31
0.0
  0
LINE
  5
6D1
330
1E
100
AcDbEntity
  8
0
 62
     3
100
AcDbLine
 10
73.91773072386094
 20
72.37298061901791
 30
0.0
 11
73.73557675456095
 21
72.92410691671792
 31
0.0
  0
LINE
  5
6D2
330
1E
100
AcDbEntity
  8
0
 62
     3
100
AcDbLine
 10
74.02809268506087
 20
71.80676350781801
 30
0.0
 11
73.91773072386094
 21
72.37298061901791
 31
0.0
  0
LINE
  5
6D3
330
1E
100
AcDbEntity
  8
0
 62
     3
100
AcDbLine
 10
73.48521800026083
 20
84.43103803541793
 30
0.0
 11
74.48521800026083
 21
84.43103803541793
 31
0.0
  0
LINE
  5
6D4
330
1E
100
AcDbEntity
  8
0
 62
     3
100
AcDbLine
 10
72.05946726786078
 20
99.23105634601805
 30
0.0
 11
64.73988718976079
 21
99.23105634601805
 31
0.0
  0
LINE
  5
6D5
330
1E
100
AcDbEntity
  8
0
 62
     3
100
AcDbLine
 10
73.48521800026083
 20
117.231056346018
 30
0.0
 11
63.48521800026083
 21
117.231056346018
 31
0.0
  0
LINE
  5
6D6
330
1E
100
AcDbEntity
  8
0
 62
     3
100
AcDbLine
 10
50.48534007056089
 20
160.888735082704
 30
0.0
 11
50.48534007056089
 21
133.388948705804
 31
0.0
  0
ARC
  5
6D7
330
1E
100
AcDbEntity
  8
0
 62
     3
100
AcDbCircle
 10
51.58507151596092
 20
146.889406469504
 30
0.0
 40
1.0
100
AcDbArc
 50
89.99998201389999
 51
179.9999093863
  0
ARC
  5
6D8
330
1E
100
AcDbEntity
  8
0
 62
     3
100
AcDbCircle
 10
54.48521800026089
 20
151.3894064695042
 30
0.0
 40
3.5
100
AcDbArc
 50
270.0001819106
 51
0.000072627600094
  0
ARC
  5
6D9
330
1E
100
AcDbEntity
  8
0
 62
     3
100
AcDbCircle
 10
54.48537058816089
 20
133.389406469504
 30
0.0
 40
4.0
100
AcDbArc
 50
179.9999093863
 51
269.9998914002
  0
LINE
  5
6DA
330
1E
100
AcDbEntity
  8
0
 62
     3
100
AcDbLine
 10
51.58507151596092
 20
147.889375951904
 30
0.0
 11
54.48521800026089
 21
147.889375951904
 31
0.0
  0
CIRCLE
  5
6DB
330
1E
100
AcDbEntity
  8
0
 62
     3
100
AcDbCircle
 10
54.48521835516089
 20
151.3894068046042
 30
0.0
 40
3.5
  0
CIRCLE
  5
6DC
330
1E
100
AcDbEntity
  8
0
 62
     3
100
AcDbCircle
 10
54.48521835516089
 20
151.3894068046042
 30
0.0
 40
1.96875
  0
CIRCLE
  5
6DD
330
1E
100
AcDbEntity
  8
0
 62
     3
100
AcDbCircle
 10
54.48521835516089
 20
151.3894068046042
 30
0.0
 40
0.765625
  0
ARC
  5
6DE
330
1E
100
AcDbEntity
  8
0
 62
     3
100
AcDbCircle
 10
54.48521835516089
 20
149.092531804604
 30
0.0
 40
1.09375
100
AcDbArc
 50
33.63222804419931
 51
146.3677719558004
  0
ARC
  5
6DF
330
1E
100
AcDbEntity
  8
0
 62
     3
100
AcDbCircle
 10
54.48521835516089
 20
153.686281804604
 30
0.0
 40
1.09375
100
AcDbArc
 50
213.6322159776015
 51
326.3677667195011
  0
ARC
  5
6E0
330
1E
100
AcDbEntity
  8
0
 62
     3
100
AcDbCircle
 10
55.58507151596092
 20
161.389223364004
 30
0.0
 40
5.0
100
AcDbArc
 50
179.9999093863
 51
269.9998914002
  0
ARC
  5
6E1
330
1E
100
AcDbEntity
  8
0
 62
     3
100
AcDbCircle
 10
52.4960664004609
 20
152.537844304604
 30
0.0
 40
1.09375
100
AcDbArc
 50
273.6322212898004
 51
26.36777203160133
  0
ARC
  5
6E2
330
1E
100
AcDbEntity
  8
0
 62
     3
100
AcDbCircle
 10
52.4960664004609
 20
150.240969304604
 30
0.0
 40
1.09375
100
AcDbArc
 50
333.6322639406006
 51
86.36777370129999
  0
ARC
  5
6E3
330
1E
100
AcDbEntity
  8
0
 62
     3
100
AcDbCircle
 10
52.56896907996093
 20
151.3894068046042
 30
0.0
 40
0.056875001639
100
AcDbArc
 50
90.0
 51
266.3677787101994
  0
ARC
  5
6E4
330
1E
100
AcDbEntity
  8
0
 62
     3
100
AcDbCircle
 10
53.52709335996093
 20
149.729885701704
 30
0.0
 40
0.056875001639
100
AcDbArc
 50
149.9999880092993
 51
326.3677667195011
  0
ARC
  5
6E5
330
1E
100
AcDbEntity
  8
0
 62
     3
100
AcDbCircle
 10
53.52709335996093
 20
153.0489279075041
 30
0.0
 40
0.056875001639
100
AcDbArc
 50
30.00001199070061
 51
206.3677360593991
  0
ARC
  5
6E6
330
1E
100
AcDbEntity
  8
0
 62
     3
100
AcDbCircle
 10
56.47437030986089
 20
152.537844304604
 30
0.0
 40
1.09375
100
AcDbArc
 50
153.6322279683985
 51
266.3677787101994
  0
LINE
  5
6E7
330
1E
100
AcDbEntity
  8
0
 62
     3
100
AcDbLine
 10
57.98521800026083
 20
154.389375951904
 30
0.0
 11
57.98521800026083
 21
151.3893759519039
 31
0.0
  0
ARC
  5
6E8
330
1E
100
AcDbEntity
  8
0
 62
     3
100
AcDbCircle
 10
56.47437030986089
 20
150.240969304604
 30
0.0
 40
1.09375
100
AcDbArc
 50
93.63222629870001
 51
206.3677360593991
  0
ARC
  5
6E9
330
1E
100
AcDbEntity
  8
0
 62
     3
100
AcDbCircle
 10
55.44334335036086
 20
149.729885701704
 30
0.0
 40
0.056875001639
100
AcDbArc
 50
209.9999760184999
 51
26.36775472879937
  0
ARC
  5
6EA
330
1E
100
AcDbEntity
  8
0
 62
     3
100
AcDbCircle
 10
56.40146763036085
 20
151.3894068046042
 30
0.0
 40
0.056875001639
100
AcDbArc
 50
270.0000359722007
 51
86.36777370129999
  0
ARC
  5
6EB
330
1E
100
AcDbEntity
  8
0
 62
     3
100
AcDbCircle
 10
55.98521800026088
 20
154.3894064695042
 30
0.0
 40
2.0
100
AcDbArc
 50
0.000079457749228
 51
89.99998201389999
  0
ARC
  5
6EC
330
1E
100
AcDbEntity
  8
0
 62
     3
100
AcDbCircle
 10
55.44334335036086
 20
153.0489279075041
 30
0.0
 40
0.056875001639
100
AcDbArc
 50
330.0000239814998
 51
146.3677719558004
  0
LINE
  5
6ED
330
1E
100
AcDbEntity
  8
0
 62
     3
100
AcDbLine
 10
55.58507151596092
 20
156.389375951904
 30
0.0
 11
55.98521800026088
 21
156.389375951904
 31
0.0
  0
POINT
  5
6EE
330
1E
100
AcDbEntity
  8
0
 62
     3
100
AcDbPoint
 10
54.48521835516089
 20
151.3894068046042
 30
0.0
  0
POINT
  5
6EF
330
1E
100
AcDbEntity
  8
0
 62
     3
100
AcDbPoint
 10
54.48521835516089
 20
151.3894068046042
 30
0.0
  0
POINT
  5
6F0
330
1E
100
AcDbEntity
  8
0
 62
     3
100
AcDbPoint
 10
54.48521835516089
 20
152.389406804604
 30
0.0
  0
POINT
  5
6F1
330
1E
100
AcDbEntity
  8
0
 62
     3
100
AcDbPoint
 10
54.48521835516089
 20
152.155031804604
 30
0.0
  0
LINE
  5
6F2
330
1E
100
AcDbEntity
  8
0
 62
     3
100
AcDbLine
 10
71.98521800026083
 20
154.9895041257039
 30
0.0
 11
64.98521800026082
 21
154.9895041257039
 31
0.0
  0
LINE
  5
6F3
330
1E
100
AcDbEntity
  8
0
 62
     3
100
AcDbLine
 10
72.48521800026082
 20
156.189516332704
 30
0.0
 11
64.48521800026083
 21
156.189516332704
 31
0.0
  0
LINE
  5
6F4
330
1E
100
AcDbEntity
  8
0
 62
     3
100
AcDbLine
 10
72.48521800026082
 20
155.489504125704
 30
0.0
 11
64.48521800026083
 21
155.489504125704
 31
0.0
  0
LINE
  5
6F5
330
1E
100
AcDbEntity
  8
0
 62
     3
100
AcDbLine
 10
63.48521800026083
 20
156.4894736081041
 30
0.0
 11
73.48521800026083
 21
156.4894736081041
 31
0.0
  0
LINE
  5
6F6
330
1E
100
AcDbEntity
  8
0
 62
     3
100
AcDbLine
 10
64.48521800026083
 20
155.489504125704
 30
0.0
 11
64.48521800026083
 21
156.4894736081041
 31
0.0
  0
LINE
  5
6F7
330
1E
100
AcDbEntity
  8
0
 62
     3
100
AcDbLine
 10
64.9852384699609
 20
154.9895103837039
 30
0.0
 11
64.48522714956084
 21
155.489521746304
 31
0.0
  0
LINE
  5
6F8
330
1E
100
AcDbEntity
  8
0
 62
     3
100
AcDbLine
 10
72.48521800026082
 20
155.489504125704
 30
0.0
 11
72.48521800026082
 21
156.4894736081041
 31
0.0
  0
LINE
  5
6F9
330
1E
100
AcDbEntity
  8
0
 62
     3
100
AcDbLine
 10
71.98517731526091
 20
154.9895455905041
 30
0.0
 11
72.48517649736095
 21
155.4895448148039
 31
0.0
  0
LINE
  5
6FA
330
1E
100
AcDbEntity
  8
0
 62
     3
100
AcDbLine
 10
78.98518748276092
 20
151.3893759519039
 30
0.0
 11
78.98518748276092
 21
154.389375951904
 31
0.0
  0
ARC
  5
6FB
330
1E
100
AcDbEntity
  8
0
 62
     3
100
AcDbCircle
 10
85.38512034406084
 20
146.889406469504
 30
0.0
 40
1.0
100
AcDbArc
 50
0.000079457749228
 51
89.99998201389999
  0
ARC
  5
6FC
330
1E
100
AcDbEntity
  8
0
 62
     3
100
AcDbCircle
 10
82.48518748276092
 20
133.389406469504
 30
0.0
 40
4.0
100
AcDbArc
 50
270.0001819106
 51
0.000072627600094
  0
ARC
  5
6FD
330
1E
100
AcDbEntity
  8
0
 62
     3
100
AcDbCircle
 10
81.38512034406083
 20
161.389223364004
 30
0.0
 40
5.0
100
AcDbArc
 50
270.0001819106
 51
0.000072627600094
  0
LINE
  5
6FE
330
1E
100
AcDbEntity
  8
0
 62
     3
100
AcDbLine
 10
82.48518748276092
 20
147.889375951904
 30
0.0
 11
85.3850898264609
 21
147.889375951904
 31
0.0
  0
CIRCLE
  5
6FF
330
1E
100
AcDbEntity
  8
0
 62
     3
100
AcDbCircle
 10
82.48521835516092
 20
151.3894068046042
 30
0.0
 40
0.765625
  0
ARC
  5
700
330
1E
100
AcDbEntity
  8
0
 62
     3
100
AcDbCircle
 10
84.47437030986089
 20
152.537844304604
 30
0.0
 40
1.09375
100
AcDbArc
 50
153.6322279683985
 51
266.3677787101994
  0
ARC
  5
701
330
1E
100
AcDbEntity
  8
0
 62
     3
100
AcDbCircle
 10
84.40146763036091
 20
151.3894068046042
 30
0.0
 40
0.056875001639
100
AcDbArc
 50
270.0000359722007
 51
86.36777370129999
  0
POINT
  5
702
330
1E
100
AcDbEntity
  8
0
 62
     3
100
AcDbPoint
 10
82.48521835516092
 20
151.3894068046042
 30
0.0
  0
POINT
  5
703
330
1E
100
AcDbEntity
  8
0
 62
     3
100
AcDbPoint
 10
82.48521835516092
 20
151.3894068046042
 30
0.0
  0
ARC
  5
704
330
1E
100
AcDbEntity
  8
0
 62
     3
100
AcDbCircle
 10
82.48521835516092
 20
149.092531804604
 30
0.0
 40
1.09375
100
AcDbArc
 50
33.63222804419931
 51
146.3677719558004
  0
ARC
  5
705
330
1E
100
AcDbEntity
  8
0
 62
     3
100
AcDbCircle
 10
84.47437030986089
 20
150.240969304604
 30
0.0
 40
1.09375
100
AcDbArc
 50
93.63222629870001
 51
206.3677360593991
  0
ARC
  5
706
330
1E
100
AcDbEntity
  8
0
 62
     3
100
AcDbCircle
 10
81.52709335996087
 20
149.729885701704
 30
0.0
 40
0.056875001639
100
AcDbArc
 50
149.9999880092993
 51
326.3677667195011
  0
ARC
  5
707
330
1E
100
AcDbEntity
  8
0
 62
     3
100
AcDbCircle
 10
83.44334335036093
 20
149.729885701704
 30
0.0
 40
0.056875001639
100
AcDbArc
 50
209.9999760184999
 51
26.36775472879937
  0
POINT
  5
708
330
1E
100
AcDbEntity
  8
0
 62
     3
100
AcDbPoint
 10
82.48521835516092
 20
152.389406804604
 30
0.0
  0
POINT
  5
709
330
1E
100
AcDbEntity
  8
0
 62
     3
100
AcDbPoint
 10
82.48521835516092
 20
152.155031804604
 30
0.0
  0
ARC
  5
70A
330
1E
100
AcDbEntity
  8
0
 62
     3
100
AcDbCircle
 10
82.48521835516092
 20
153.686281804604
 30
0.0
 40
1.09375
100
AcDbArc
 50
213.6322159776015
 51
326.3677667195011
  0
ARC
  5
70B
330
1E
100
AcDbEntity
  8
0
 62
     3
100
AcDbCircle
 10
81.52709335996087
 20
153.0489279075041
 30
0.0
 40
0.056875001639
100
AcDbArc
 50
30.00001199070061
 51
206.3677360593991
  0
ARC
  5
70C
330
1E
100
AcDbEntity
  8
0
 62
     3
100
AcDbCircle
 10
83.44334335036093
 20
153.0489279075041
 30
0.0
 40
0.056875001639
100
AcDbArc
 50
330.0000239814998
 51
146.3677719558004
  0
LINE
  5
70D
330
1E
100
AcDbEntity
  8
0
 62
     3
100
AcDbLine
 10
80.98518748276092
 20
156.389375951904
 30
0.0
 11
81.3850898264609
 21
156.389375951904
 31
0.0
  0
ARC
  5
70E
330
1E
100
AcDbEntity
  8
0
 62
     3
100
AcDbCircle
 10
80.56896907996089
 20
151.3894068046042
 30
0.0
 40
0.056875001639
100
AcDbArc
 50
90.0
 51
266.3677787101994
  0
CIRCLE
  5
70F
330
1E
100
AcDbEntity
  8
0
 62
     3
100
AcDbCircle
 10
82.48521835516092
 20
151.3894068046042
 30
0.0
 40
1.96875
  0
ARC
  5
710
330
1E
100
AcDbEntity
  8
0
 62
     3
100
AcDbCircle
 10
80.49606640046091
 20
152.537844304604
 30
0.0
 40
1.09375
100
AcDbArc
 50
273.6322212898004
 51
26.36777203160133
  0
ARC
  5
711
330
1E
100
AcDbEntity
  8
0
 62
     3
100
AcDbCircle
 10
80.49606640046091
 20
150.240969304604
 30
0.0
 40
1.09375
100
AcDbArc
 50
333.6322639406006
 51
86.36777370129999
  0
LINE
  5
712
330
1E
100
AcDbEntity
  8
0
  6
CENTERLINE
 62
     3
100
AcDbLine
 10
68.48521800026083
 20
420.700249474381
 30
0.0
 11
68.48521800026083
 21
305.4288871696809
 31
0.0
  0
LINE
  5
713
330
1E
100
AcDbEntity
  8
0
 62
     3
100
AcDbLine
 10
63.48521800026083
 20
355.6906059196809
 30
0.0
 11
63.48521800026083
 21
307.6906059196808
 31
0.0
  0
LINE
  5
714
330
1E
100
AcDbEntity
  8
0
 62
     3
100
AcDbLine
 10
73.48521800026083
 20
355.6906059196809
 30
0.0
 11
73.48521800026083
 21
307.6906059196808
 31
0.0
  0
ARC
  5
715
330
1E
100
AcDbEntity
  8
0
 62
     3
100
AcDbCircle
 10
72.73924632056083
 20
268.397432592504
 30
0.0
 40
9.950872421299999
100
AcDbArc
 50
21.6954026343
 51
58.5805654167
  0
ARC
  5
716
330
1E
100
AcDbEntity
  8
0
 62
     3
100
AcDbCircle
 10
82.48518748276092
 20
246.389253881604
 30
0.0
 40
3.5999984741
100
AcDbArc
 50
180.0000359722
 51
270.0000179861
  0
LINE
  5
717
330
1E
100
AcDbEntity
  8
0
 62
     3
100
AcDbLine
 10
81.98521800026083
 20
259.7464010984042
 30
0.0
 11
54.98521800026089
 21
259.7464010984042
 31
0.0
  0
LINE
  5
718
330
1E
100
AcDbEntity
  8
0
 62
     3
100
AcDbLine
 10
54.48537058816089
 20
250.3892538816042
 30
0.0
 11
82.48518748276092
 21
250.3892538816042
 31
0.0
  0
LINE
  5
719
330
1E
100
AcDbEntity
  8
0
 62
     3
100
AcDbLine
 10
55.27092356666088
 20
256.175051000704
 30
0.0
 11
81.69951243386094
 21
256.175051000704
 31
0.0
  0
LINE
  5
71A
330
1E
100
AcDbEntity
  8
0
 62
     3
100
AcDbLine
 10
54.98521800026089
 20
251.389253881604
 30
0.0
 11
81.98521800026083
 21
251.389253881604
 31
0.0
  0
LINE
  5
71B
330
1E
100
AcDbEntity
  8
0
 62
     3
100
AcDbLine
 10
54.98521800026089
 20
252.8892538816041
 30
0.0
 11
81.98521800026083
 21
252.8892538816041
 31
0.0
  0
LINE
  5
71C
330
1E
100
AcDbEntity
  8
0
 62
     3
100
AcDbLine
 10
55.27092356666088
 20
250.3892538816042
 30
0.0
 11
81.69951243386094
 21
250.3892538816042
 31
0.0
  0
LINE
  5
71D
330
1E
100
AcDbEntity
  8
0
 62
     3
100
AcDbLine
 10
54.58507151596092
 20
208.389498022204
 30
0.0
 11
82.48518748276092
 21
208.389498022204
 31
0.0
  0
ARC
  5
71E
330
1E
100
AcDbEntity
  8
0
 62
     3
100
AcDbCircle
 10
113.4134101389608
 20
279.791322973404
 30
0.0
 40
41.4281616211
100
AcDbArc
 50
79.37728932609998
 51
179.9999640277999
  0
ARC
  5
71F
330
1E
100
AcDbEntity
  8
0
 62
     3
100
AcDbCircle
 10
113.4134101389608
 20
279.791322973404
 30
0.0
 40
48.4281616211
100
AcDbArc
 50
81.82020210540001
 51
179.9999640277999
  0
CIRCLE
  5
720
330
1E
100
AcDbEntity
  8
0
 62
     3
100
AcDbCircle
 10
82.48518735516086
 20
246.389253804604
 30
0.0
 40
3.5
  0
LINE
  5
721
330
1E
100
AcDbEntity
  8
0
 62
     3
100
AcDbLine
 10
74.01869578346087
 20
272.0759909421041
 30
0.0
 11
74.01869578346087
 21
259.7464010984042
 31
0.0
  0
LINE
  5
722
330
1E
100
AcDbEntity
  8
0
 62
     3
100
AcDbLine
 10
62.9521064280609
 20
272.0759909421041
 30
0.0
 11
62.9521064280609
 21
259.7464010984042
 31
0.0
  0
LINE
  5
723
330
1E
100
AcDbEntity
  8
0
 62
     3
100
AcDbLine
 10
60.86049265846089
 20
272.0759909421041
 30
0.0
 11
60.86049265846089
 21
259.7464010984042
 31
0.0
  0
LINE
  5
724
330
1E
100
AcDbEntity
  8
0
 62
     3
100
AcDbLine
 10
76.11256785386093
 20
272.0759909421041
 30
0.0
 11
76.11256785386093
 21
259.7464010984042
 31
0.0
  0
LINE
  5
725
330
1E
100
AcDbEntity
  8
0
 62
     3
100
AcDbLine
 10
54.98521800026089
 20
272.0759909421041
 30
0.0
 11
54.98521800026089
 21
259.7464010984042
 31
0.0
  0
LINE
  5
726
330
1E
100
AcDbEntity
  8
0
  6
CENTERLINE
 62
     3
100
AcDbLine
 10
40.21730418196084
 20
228.389253881604
 30
0.0
 11
48.8330573557609
 21
228.389253881604
 31
0.0
  0
CIRCLE
  5
727
330
1E
100
AcDbEntity
  8
0
 62
     3
100
AcDbCircle
 10
44.48521800026088
 20
202.3892538816042
 30
0.0
 40
2.599998474099999
  0
LINE
  5
728
330
1E
100
AcDbEntity
  8
0
  6
CENTERLINE
 62
     3
100
AcDbLine
 10
40.21730418196084
 20
202.3892538816042
 30
0.0
 11
48.8330573557609
 21
202.3892538816042
 31
0.0
  0
CIRCLE
  5
729
330
1E
100
AcDbEntity
  8
0
 62
     3
100
AcDbCircle
 10
44.48524851786088
 20
228.389253881604
 30
0.0
 40
2.599998474099999
  0
LINE
  5
72A
330
1E
100
AcDbEntity
  8
0
 62
     3
100
AcDbLine
 10
50.48524851786083
 20
195.4893515378041
 30
0.0
 11
40.48524851786083
 21
195.4893515378041
 31
0.0
  0
LINE
  5
72B
330
1E
100
AcDbEntity
  8
0
 62
     3
100
AcDbLine
 10
50.48524851786083
 20
208.2749960691042
 30
0.0
 11
38.48524851786089
 21
208.2749960691042
 31
0.0
  0
LINE
  5
72C
330
1E
100
AcDbEntity
  8
0
 62
     3
100
AcDbLine
 10
50.48524851786083
 20
222.5030234128041
 30
0.0
 11
38.48524851786089
 21
222.5030234128041
 31
0.0
  0
LINE
  5
72D
330
1E
100
AcDbEntity
  8
0
 62
     3
100
AcDbLine
 10
50.48524851786083
 20
235.289156225304
 30
0.0
 11
40.48524851786083
 21
235.289156225304
 31
0.0
  0
LINE
  5
72E
330
1E
100
AcDbEntity
  8
0
 62
     3
100
AcDbLine
 10
38.48524851786089
 20
233.289156225304
 30
0.0
 11
38.48524851786089
 21
197.4893515378041
 31
0.0
  0
LINE
  5
72F
330
1E
100
AcDbEntity
  8
0
  6
CENTERLINE
 62
     3
100
AcDbLine
 10
44.48524851786088
 20
232.289644506604
 30
0.0
 11
44.48524851786088
 21
198.5225546628041
 31
0.0
  0
ARC
  5
730
330
1E
100
AcDbEntity
  8
0
 62
     3
100
AcDbCircle
 10
40.48521800026088
 20
197.4893515378041
 30
0.0
 40
2.0
100
AcDbArc
 50
179.9999640277999
 51
269.9999460416999
  0
ARC
  5
731
330
1E
100
AcDbEntity
  8
0
 62
     3
100
AcDbCircle
 10
40.48524851786083
 20
233.289156225304
 30
0.0
 40
2.0
100
AcDbArc
 50
89.99998201389999
 51
179.9999640277999
  0
CIRCLE
  5
732
330
1E
100
AcDbEntity
  8
0
 62
     3
100
AcDbCircle
 10
68.48521800026083
 20
218.088960912804
 30
0.0
 40
6.199998855599999
  0
LINE
  5
733
330
1E
100
AcDbEntity
  8
0
  6
CENTERLINE
 62
     3
100
AcDbLine
 10
60.25767893776083
 20
218.088960912804
 30
0.0
 11
76.80412669166094
 21
218.088960912804
 31
0.0
  0
ARC
  5
734
330
1E
100
AcDbEntity
  8
0
 62
     3
100
AcDbCircle
 10
54.58507151596092
 20
212.3894980222039
 30
0.0
 40
4.0
100
AcDbArc
 50
180.0000359722
 51
270.0000179861
  0
LINE
  5
735
330
1E
100
AcDbEntity
  8
0
 62
     3
100
AcDbLine
 10
64.98521800026082
 20
193.0895102292041
 30
0.0
 11
71.98521800026083
 21
193.0895102292041
 31
0.0
  0
LINE
  5
736
330
1E
100
AcDbEntity
  8
0
 62
     3
100
AcDbLine
 10
64.98521800026082
 20
192.4895041257039
 30
0.0
 11
71.98521800026083
 21
192.4895041257039
 31
0.0
  0
LINE
  5
737
330
1E
100
AcDbEntity
  8
0
  6
CENTERLINE
 62
     3
100
AcDbLine
 10
62.89424509986089
 20
204.489504125704
 30
0.0
 11
73.57191843976079
 21
204.489504125704
 31
0.0
  0
LINE
  5
738
330
1E
100
AcDbEntity
  8
0
 62
     3
100
AcDbLine
 10
63.48521800026083
 20
192.4895041257039
 30
0.0
 11
73.48521800026083
 21
192.4895041257039
 31
0.0
  0
CIRCLE
  5
739
330
1E
100
AcDbEntity
  8
0
 62
     3
100
AcDbCircle
 10
68.48521835516089
 20
204.4895038046041
 30
0.0
 40
3.5
  0
LINE
  5
73A
330
1E
100
AcDbEntity
  8
0
 62
     3
100
AcDbLine
 10
70.18519968976089
 20
194.0895102292041
 30
0.0
 11
66.78523631086091
 21
194.0895102292041
 31
0.0
  0
LINE
  5
73B
330
1E
100
AcDbEntity
  8
0
 62
     3
100
AcDbLine
 10
70.48521800026083
 20
193.7894919187041
 30
0.0
 11
66.48521800026083
 21
193.7894919187041
 31
0.0
  0
LINE
  5
73C
330
1E
100
AcDbEntity
  8
0
 62
     3
100
AcDbLine
 10
70.48521800026083
 20
193.0895102292041
 30
0.0
 11
66.48521800026083
 21
193.0895102292041
 31
0.0
  0
LINE
  5
73D
330
1E
100
AcDbEntity
  8
0
 62
     3
100
AcDbLine
 10
64.98521800026082
 20
192.4895041257039
 30
0.0
 11
64.98521800026082
 21
193.0895102292041
 31
0.0
  0
LINE
  5
73E
330
1E
100
AcDbEntity
  8
0
 62
     3
100
AcDbLine
 10
66.4852201816609
 20
193.7895035133039
 30
0.0
 11
66.78522214396082
 21
194.0895054503041
 31
0.0
  0
LINE
  5
73F
330
1E
100
AcDbEntity
  8
0
 62
     3
100
AcDbLine
 10
66.48521800026083
 20
193.0895102292041
 30
0.0
 11
66.48521800026083
 21
193.7894919187041
 31
0.0
  0
LINE
  5
740
330
1E
100
AcDbEntity
  8
0
 62
     3
100
AcDbLine
 10
70.48518076786081
 20
193.789545463604
 30
0.0
 11
70.18518689786083
 21
194.0895393084042
 31
0.0
  0
LINE
  5
741
330
1E
100
AcDbEntity
  8
0
 62
     3
100
AcDbLine
 10
70.48521800026083
 20
193.0895102292041
 30
0.0
 11
70.48521800026083
 21
193.7894919187041
 31
0.0
  0
ARC
  5
742
330
1E
100
AcDbEntity
  8
0
 62
     3
100
AcDbCircle
 10
66.1883433551609
 20
204.4895038046041
 30
0.0
 40
1.09375
100
AcDbArc
 50
303.6322159776015
 51
56.36776671950119
  0
CIRCLE
  5
743
330
1E
100
AcDbEntity
  8
0
 62
     3
100
AcDbCircle
 10
68.48521835516089
 20
204.4895038046041
 30
0.0
 40
1.96875
  0
ARC
  5
744
330
1E
100
AcDbEntity
  8
0
 62
     3
100
AcDbCircle
 10
67.33678085516089
 20
202.500351849904
 30
0.0
 40
1.09375
100
AcDbArc
 50
3.632221289800478
 51
116.3677720316012
  0
ARC
  5
745
330
1E
100
AcDbEntity
  8
0
 62
     3
100
AcDbCircle
 10
67.33678085516089
 20
206.478655759304
 30
0.0
 40
1.09375
100
AcDbArc
 50
243.6322279683985
 51
356.3677787101992
  0
ARC
  5
746
330
1E
100
AcDbEntity
  8
0
 62
     3
100
AcDbCircle
 10
66.82569725226085
 20
203.5313788094041
 30
0.0
 40
0.056875001639
100
AcDbArc
 50
120.0000119906992
 51
296.3677360593992
  0
ARC
  5
747
330
1E
100
AcDbEntity
  8
0
 62
     3
100
AcDbCircle
 10
66.82569725226085
 20
205.4476287998042
 30
0.0
 40
0.056875001639
100
AcDbArc
 50
60.00002398150137
 51
236.3677719558007
  0
ARC
  5
748
330
1E
100
AcDbEntity
  8
0
 62
     3
100
AcDbCircle
 10
69.6336558551609
 20
202.500351849904
 30
0.0
 40
1.09375
100
AcDbArc
 50
63.6322639406007
 51
176.3677737012999
  0
ARC
  5
749
330
1E
100
AcDbEntity
  8
0
 62
     3
100
AcDbCircle
 10
68.48521835516089
 20
202.5732545294041
 30
0.0
 40
0.056875001639
100
AcDbArc
 50
180.0
 51
356.3677787101992
  0
POINT
  5
74A
330
1E
100
AcDbEntity
  8
0
 62
     3
100
AcDbPoint
 10
68.48521835516089
 20
204.4895038046041
 30
0.0
  0
POINT
  5
74B
330
1E
100
AcDbEntity
  8
0
 62
     3
100
AcDbPoint
 10
67.7195933551609
 20
204.4895038046041
 30
0.0
  0
POINT
  5
74C
330
1E
100
AcDbEntity
  8
0
 62
     3
100
AcDbPoint
 10
68.48521835516089
 20
204.4895038046041
 30
0.0
  0
CIRCLE
  5
74D
330
1E
100
AcDbEntity
  8
0
 62
     3
100
AcDbCircle
 10
68.48521835516089
 20
204.4895038046041
 30
0.0
 40
0.765625
  0
ARC
  5
74E
330
1E
100
AcDbEntity
  8
0
 62
     3
100
AcDbCircle
 10
70.78209335516089
 20
204.4895038046041
 30
0.0
 40
1.09375
100
AcDbArc
 50
123.6322280441993
 51
236.3677719558007
  0
ARC
  5
74F
330
1E
100
AcDbEntity
  8
0
 62
     3
100
AcDbCircle
 10
69.6336558551609
 20
206.478655759304
 30
0.0
 40
1.09375
100
AcDbArc
 50
183.6322262986999
 51
296.3677360593992
  0
ARC
  5
750
330
1E
100
AcDbEntity
  8
0
 62
     3
100
AcDbCircle
 10
70.14473945806094
 20
203.5313788094041
 30
0.0
 40
0.056875001639
100
AcDbArc
 50
239.9999880093008
 51
56.36776671950119
  0
ARC
  5
751
330
1E
100
AcDbEntity
  8
0
 62
     3
100
AcDbCircle
 10
70.14473945806094
 20
205.4476287998042
 30
0.0
 40
0.056875001639
100
AcDbArc
 50
299.9999760184986
 51
116.3677547288006
  0
ARC
  5
752
330
1E
100
AcDbEntity
  8
0
 62
     3
100
AcDbCircle
 10
68.48521835516089
 20
206.405753079804
 30
0.0
 40
0.056875001639
100
AcDbArc
 50
0.0000359722008731
 51
176.3677737012999
  0
POINT
  5
753
330
1E
100
AcDbEntity
  8
0
 62
     3
100
AcDbPoint
 10
67.4852183551609
 20
204.4895038046041
 30
0.0
  0
LINE
  5
754
330
1E
100
AcDbEntity
  8
0
 62
     3
100
AcDbLine
 10
71.98521800026083
 20
192.4895041257039
 30
0.0
 11
71.98521800026083
 21
193.0895102292041
 31
0.0
  0
CIRCLE
  5
755
330
1E
100
AcDbEntity
  8
0
 62
     3
100
AcDbCircle
 10
68.48521800026083
 20
218.088960912804
 30
0.0
 40
4.5999984741
  0
CIRCLE
  5
756
330
1E
100
AcDbEntity
  8
0
 62
     3
100
AcDbCircle
 10
68.48521800026083
 20
218.088960912804
 30
0.0
 40
4.8499984741
  0
CIRCLE
  5
757
330
1E
100
AcDbEntity
  8
0
 62
     3
100
AcDbCircle
 10
68.48521800026083
 20
218.088960912804
 30
0.0
 40
4.3499984741
  0
ARC
  5
758
330
1E
100
AcDbEntity
  8
0
 62
     3
100
AcDbCircle
 10
59.08519358626087
 20
249.389253881604
 30
0.0
 40
1.0
100
AcDbArc
 50
89.99998201389999
 51
179.9999640277999
  0
ARC
  5
759
330
1E
100
AcDbEntity
  8
0
 62
     3
100
AcDbCircle
 10
54.48537058816089
 20
246.389253881604
 30
0.0
 40
4.0
100
AcDbArc
 50
89.99998201389999
 51
179.9999093863
  0
LINE
  5
75A
330
1E
100
AcDbEntity
  8
0
 62
     3
100
AcDbLine
 10
51.48540110576084
 20
242.7892477781039
 30
0.0
 11
54.48521800026089
 21
242.7892477781039
 31
0.0
  0
CIRCLE
  5
75B
330
1E
100
AcDbEntity
  8
0
 62
     3
100
AcDbCircle
 10
54.48518735516092
 20
246.389253804604
 30
0.0
 40
3.5
  0
CIRCLE
  5
75C
330
1E
100
AcDbEntity
  8
0
 62
     3
100
AcDbCircle
 10
54.48518735516092
 20
246.389253804604
 30
0.0
 40
1.96875
  0
CIRCLE
  5
75D
330
1E
100
AcDbEntity
  8
0
 62
     3
100
AcDbCircle
 10
54.48518735516092
 20
246.389253804604
 30
0.0
 40
0.765625
  0
ARC
  5
75E
330
1E
100
AcDbEntity
  8
0
 62
     3
100
AcDbCircle
 10
54.48518735516092
 20
244.092378804604
 30
0.0
 40
1.09375
100
AcDbArc
 50
33.63222804419931
 51
146.3677719558004
  0
ARC
  5
75F
330
1E
100
AcDbEntity
  8
0
 62
     3
100
AcDbCircle
 10
54.48518735516092
 20
248.686128804604
 30
0.0
 40
1.09375
100
AcDbArc
 50
213.6322159776015
 51
326.3677667195011
  0
ARC
  5
760
330
1E
100
AcDbEntity
  8
0
 62
     3
100
AcDbCircle
 10
52.49603540046091
 20
247.5376913046041
 30
0.0
 40
1.09375
100
AcDbArc
 50
273.6322212898004
 51
26.36777203160133
  0
ARC
  5
761
330
1E
100
AcDbEntity
  8
0
 62
     3
100
AcDbCircle
 10
52.49603540046091
 20
245.2408163046041
 30
0.0
 40
1.09375
100
AcDbArc
 50
333.6322639406006
 51
86.36777370129999
  0
ARC
  5
762
330
1E
100
AcDbEntity
  8
0
 62
     3
100
AcDbCircle
 10
53.52706235996084
 20
248.0487749075039
 30
0.0
 40
0.056875001639
100
AcDbArc
 50
30.00001199069921
 51
206.3677360593991
  0
ARC
  5
763
330
1E
100
AcDbEntity
  8
0
 62
     3
100
AcDbCircle
 10
52.56893807996084
 20
246.389253804604
 30
0.0
 40
0.056875001639
100
AcDbArc
 50
90.0
 51
266.3677787101994
  0
ARC
  5
764
330
1E
100
AcDbEntity
  8
0
 62
     3
100
AcDbCircle
 10
53.52706235996084
 20
244.7297327017041
 30
0.0
 40
0.056875001639
100
AcDbArc
 50
149.9999880093007
 51
326.3677667195011
  0
ARC
  5
765
330
1E
100
AcDbEntity
  8
0
 62
     3
100
AcDbCircle
 10
51.48540110576084
 20
241.7892477781039
 30
0.0
 40
1.0
100
AcDbArc
 50
89.99998201389999
 51
179.9999640277999
  0
ARC
  5
766
330
1E
100
AcDbEntity
  8
0
 62
     3
100
AcDbCircle
 10
54.48518748276093
 20
246.389253881604
 30
0.0
 40
3.5999984741
100
AcDbArc
 50
270.0000179861
 51
0.0
  0
LINE
  5
767
330
1E
100
AcDbEntity
  8
0
 62
     3
100
AcDbLine
 10
58.08519358626085
 20
246.389253881604
 30
0.0
 11
58.08519358626085
 21
249.389253881604
 31
0.0
  0
ARC
  5
768
330
1E
100
AcDbEntity
  8
0
 62
     3
100
AcDbCircle
 10
56.47433930986091
 20
245.2408163046041
 30
0.0
 40
1.09375
100
AcDbArc
 50
93.63222629870001
 51
206.3677360593991
  0
ARC
  5
769
330
1E
100
AcDbEntity
  8
0
 62
     3
100
AcDbCircle
 10
56.47433930986091
 20
247.5376913046041
 30
0.0
 40
1.09375
100
AcDbArc
 50
153.6322279683985
 51
266.3677787101994
  0
ARC
  5
76A
330
1E
100
AcDbEntity
  8
0
 62
     3
100
AcDbCircle
 10
55.44331235036088
 20
244.7297327017041
 30
0.0
 40
0.056875001639
100
AcDbArc
 50
209.9999760184986
 51
26.36775472880084
  0
ARC
  5
76B
330
1E
100
AcDbEntity
  8
0
 62
     3
100
AcDbCircle
 10
56.40143663036088
 20
246.389253804604
 30
0.0
 40
0.056875001639
100
AcDbArc
 50
270.0000359722007
 51
86.36777370129999
  0
ARC
  5
76C
330
1E
100
AcDbEntity
  8
0
 62
     3
100
AcDbCircle
 10
55.44331235036088
 20
248.0487749075039
 30
0.0
 40
0.056875001639
100
AcDbArc
 50
330.0000239815013
 51
146.3677719558004
  0
POINT
  5
76D
330
1E
100
AcDbEntity
  8
0
 62
     3
100
AcDbPoint
 10
54.48518735516092
 20
246.389253804604
 30
0.0
  0
POINT
  5
76E
330
1E
100
AcDbEntity
  8
0
 62
     3
100
AcDbPoint
 10
54.48518735516092
 20
247.3892538046041
 30
0.0
  0
POINT
  5
76F
330
1E
100
AcDbEntity
  8
0
 62
     3
100
AcDbPoint
 10
54.48518735516092
 20
247.1548788046041
 30
0.0
  0
POINT
  5
770
330
1E
100
AcDbEntity
  8
0
 62
     3
100
AcDbPoint
 10
54.48518735516092
 20
246.389253804604
 30
0.0
  0
LINE
  5
771
330
1E
100
AcDbEntity
  8
0
 62
     3
100
AcDbLine
 10
55.27092356666088
 20
256.175051000704
 30
0.0
 11
55.27092356666088
 21
252.8892538816041
 31
0.0
  0
LINE
  5
772
330
1E
100
AcDbEntity
  8
0
 62
     3
100
AcDbLine
 10
54.98521800026089
 20
252.8892538816041
 30
0.0
 11
54.98521800026089
 21
251.389253881604
 31
0.0
  0
LINE
  5
773
330
1E
100
AcDbEntity
  8
0
 62
     3
100
AcDbLine
 10
55.27092356666088
 20
251.389253881604
 30
0.0
 11
55.27092356666088
 21
250.3892538816042
 31
0.0
  0
LINE
  5
774
330
1E
100
AcDbEntity
  8
0
 62
     3
100
AcDbLine
 10
58.2274970530609
 20
259.7464010984042
 30
0.0
 11
58.2274970530609
 21
256.175051000704
 31
0.0
  0
LINE
  5
775
330
1E
100
AcDbEntity
  8
0
 62
     3
100
AcDbLine
 10
57.48537058816089
 20
259.7464010984042
 30
0.0
 11
57.48537058816089
 21
256.175051000704
 31
0.0
  0
LINE
  5
776
330
1E
100
AcDbEntity
  8
0
 62
     3
100
AcDbLine
 10
60.85960764876086
 20
256.175051000704
 30
0.0
 11
60.85960764876086
 21
252.8892538816041
 31
0.0
  0
ARC
  5
777
330
1E
100
AcDbEntity
  8
0
 62
     3
100
AcDbCircle
 10
77.88518137916094
 20
249.389253881604
 30
0.0
 40
1.0
100
AcDbArc
 50
0.0
 51
89.99998201389999
  0
LINE
  5
778
330
1E
100
AcDbEntity
  8
0
 62
     3
100
AcDbLine
 10
78.88518137916094
 20
246.389253881604
 30
0.0
 11
78.88518137916094
 21
249.389253881604
 31
0.0
  0
LINE
  5
779
330
1E
100
AcDbEntity
  8
0
 62
     3
100
AcDbLine
 10
62.95189280496083
 20
256.175051000704
 30
0.0
 11
62.95189280496083
 21
252.8892538816041
 31
0.0
  0
LINE
  5
77A
330
1E
100
AcDbEntity
  8
0
 62
     3
100
AcDbLine
 10
74.01854319556083
 20
256.175051000704
 30
0.0
 11
74.01854319556083
 21
252.8892538816041
 31
0.0
  0
LINE
  5
77B
330
1E
100
AcDbEntity
  8
0
 62
     3
100
AcDbLine
 10
78.74306101786078
 20
259.7464010984042
 30
0.0
 11
78.74306101786078
 21
256.175051000704
 31
0.0
  0
LINE
  5
77C
330
1E
100
AcDbEntity
  8
0
 62
     3
100
AcDbLine
 10
79.48537058816089
 20
259.7464010984042
 30
0.0
 11
79.48537058816089
 21
256.175051000704
 31
0.0
  0
LINE
  5
77D
330
1E
100
AcDbEntity
  8
0
 62
     3
100
AcDbLine
 10
76.11088938706098
 20
256.175051000704
 30
0.0
 11
76.11088938706098
 21
252.8892538816041
 31
0.0
  0
LINE
  5
77E
330
1E
100
AcDbEntity
  8
0
 62
     3
100
AcDbLine
 10
77.92689890846087
 20
276.889253881604
 30
0.0
 11
59.04381175026083
 21
276.889253881604
 31
0.0
  0
ARC
  5
77F
330
1E
100
AcDbEntity
  8
0
 62
     3
100
AcDbCircle
 10
64.23118967996083
 20
268.397432592504
 30
0.0
 40
9.950872421299999
100
AcDbArc
 50
121.4193986111
 51
158.3045511482
  0
ARC
  5
780
330
1E
100
AcDbEntity
  8
0
 62
     3
100
AcDbCircle
 10
58.06578440656085
 20
271.309450414804
 30
0.0
 40
3.0797748566
100
AcDbArc
 50
43.9926473874
 51
111.7266498391999
  0
LINE
  5
781
330
1E
100
AcDbEntity
  8
0
 62
     3
100
AcDbLine
 10
62.53898997296095
 20
272.6035483152041
 30
0.0
 11
61.3675117014609
 21
272.6035483152041
 31
0.0
  0
ARC
  5
782
330
1E
100
AcDbEntity
  8
0
 62
     3
100
AcDbCircle
 10
68.48540110576085
 20
264.923525121804
 30
0.0
 40
9.465719222999998
100
AcDbArc
 50
61.0718359353
 51
119.2729706833
  0
LINE
  5
783
330
1E
100
AcDbEntity
  8
0
 62
     3
100
AcDbLine
 10
64.98521800026082
 20
276.889253881604
 30
0.0
 11
64.98521800026082
 21
279.791322973404
 31
0.0
  0
LINE
  5
784
330
1E
100
AcDbEntity
  8
0
 62
     3
100
AcDbLine
 10
75.60319895736097
 20
272.6035483152041
 30
0.0
 11
74.43169016826084
 21
272.6035483152041
 31
0.0
  0
LINE
  5
785
330
1E
100
AcDbEntity
  8
0
 62
     3
100
AcDbLine
 10
71.98521800026083
 20
276.889253881604
 30
0.0
 11
71.98521800026083
 21
279.791322973404
 31
0.0
  0
ARC
  5
786
330
1E
100
AcDbEntity
  8
0
 62
     3
100
AcDbCircle
 10
78.90611643776082
 20
271.311311987004
 30
0.0
 40
3.077932357799997
100
AcDbArc
 50
85.26381956039998
 51
140.1791415438998
  0
LINE
  5
787
330
1E
100
AcDbEntity
  8
0
 62
     3
100
AcDbLine
 10
63.48521800026083
 20
307.6906059196808
 30
0.0
 11
73.48521800026083
 21
307.6906059196808
 31
0.0
  0
LINE
  5
788
330
1E
100
AcDbEntity
  8
0
 62
     3
100
AcDbLine
 10
64.91096873276092
 20
325.6906059196809
 30
0.0
 11
72.23054881086091
 21
325.6906059196809
 31
0.0
  0
LINE
  5
789
330
1E
100
AcDbEntity
  8
0
 62
     3
100
AcDbLine
 10
81.98521800026083
 20
272.0759909421041
 30
0.0
 11
81.98521800026083
 21
259.7464010984042
 31
0.0
  0
LINE
  5
78A
330
1E
100
AcDbEntity
  8
0
 62
     3
100
AcDbLine
 10
86.48518748276092
 20
246.389253881604
 30
0.0
 11
86.48518748276092
 21
213.489504125704
 31
0.0
  0
LINE
  5
78B
330
1E
100
AcDbEntity
  8
0
  6
CENTERLINE
 62
     3
100
AcDbLine
 10
92.48518748276092
 20
232.289644506604
 30
0.0
 11
92.48518748276092
 21
198.5225546628041
 31
0.0
  0
LINE
  5
78C
330
1E
100
AcDbEntity
  8
0
 62
     3
100
AcDbLine
 10
98.48518748276092
 20
233.289156225304
 30
0.0
 11
98.48518748276092
 21
197.4893515378041
 31
0.0
  0
CIRCLE
  5
78D
330
1E
100
AcDbEntity
  8
0
 62
     3
100
AcDbCircle
 10
92.48518748276092
 20
228.389253881604
 30
0.0
 40
2.599998474099999
  0
LINE
  5
78E
330
1E
100
AcDbEntity
  8
0
 62
     3
100
AcDbLine
 10
86.48518748276092
 20
222.5030234128041
 30
0.0
 11
98.48518748276092
 21
222.5030234128041
 31
0.0
  0
ARC
  5
78F
330
1E
100
AcDbEntity
  8
0
 62
     3
100
AcDbCircle
 10
96.48521800026085
 20
197.4893515378041
 30
0.0
 40
2.0
100
AcDbArc
 50
270.0000726275999
 51
0.0
  0
LINE
  5
790
330
1E
100
AcDbEntity
  8
0
 62
     3
100
AcDbLine
 10
86.48518748276092
 20
208.2749960691042
 30
0.0
 11
98.48518748276092
 21
208.2749960691042
 31
0.0
  0
ARC
  5
791
330
1E
100
AcDbEntity
  8
0
 62
     3
100
AcDbCircle
 10
82.48518748276092
 20
212.3894980222039
 30
0.0
 40
4.0
100
AcDbArc
 50
270.0000179861
 51
0.0
  0
LINE
  5
792
330
1E
100
AcDbEntity
  8
0
  6
CENTERLINE
 62
     3
100
AcDbLine
 10
96.75313181866094
 20
202.3892538816042
 30
0.0
 11
88.13737864486098
 21
202.3892538816042
 31
0.0
  0
LINE
  5
793
330
1E
100
AcDbEntity
  8
0
 62
     3
100
AcDbLine
 10
86.48518748276092
 20
195.4893515378041
 30
0.0
 11
96.48518748276092
 21
195.4893515378041
 31
0.0
  0
CIRCLE
  5
794
330
1E
100
AcDbEntity
  8
0
 62
     3
100
AcDbCircle
 10
92.48521800026081
 20
202.3892538816042
 30
0.0
 40
2.599998474099999
  0
LINE
  5
795
330
1E
100
AcDbEntity
  8
0
  6
CENTERLINE
 62
     3
100
AcDbLine
 10
96.75313181866094
 20
228.389253881604
 30
0.0
 11
88.13737864486098
 21
228.389253881604
 31
0.0
  0
ARC
  5
796
330
1E
100
AcDbEntity
  8
0
 62
     3
100
AcDbCircle
 10
96.48518748276092
 20
233.289156225304
 30
0.0
 40
2.0
100
AcDbArc
 50
0.0
 51
89.99998201389999
  0
ARC
  5
797
330
1E
100
AcDbEntity
  8
0
 62
     3
100
AcDbCircle
 10
82.48518748276092
 20
246.389253881604
 30
0.0
 40
4.0
100
AcDbArc
 50
0.0
 51
89.99998201389999
  0
LINE
  5
798
330
1E
100
AcDbEntity
  8
0
 62
     3
100
AcDbLine
 10
86.48518748276092
 20
235.289156225304
 30
0.0
 11
96.48518748276092
 21
235.289156225304
 31
0.0
  0
LINE
  5
799
330
1E
100
AcDbEntity
  8
0
 62
     3
100
AcDbLine
 10
82.48518748276092
 20
242.7892477781039
 30
0.0
 11
85.48518748276093
 21
242.7892477781039
 31
0.0
  0
ARC
  5
79A
330
1E
100
AcDbEntity
  8
0
 62
     3
100
AcDbCircle
 10
84.40143663036087
 20
246.389253804604
 30
0.0
 40
0.056875001639
100
AcDbArc
 50
270.0000359722007
 51
86.36777370129999
  0
POINT
  5
79B
330
1E
100
AcDbEntity
  8
0
 62
     3
100
AcDbPoint
 10
82.48518735516086
 20
246.389253804604
 30
0.0
  0
POINT
  5
79C
330
1E
100
AcDbEntity
  8
0
 62
     3
100
AcDbPoint
 10
82.48518735516086
 20
247.3892538046041
 30
0.0
  0
POINT
  5
79D
330
1E
100
AcDbEntity
  8
0
 62
     3
100
AcDbPoint
 10
82.48518735516086
 20
247.1548788046041
 30
0.0
  0
POINT
  5
79E
330
1E
100
AcDbEntity
  8
0
 62
     3
100
AcDbPoint
 10
82.48518735516086
 20
246.389253804604
 30
0.0
  0
CIRCLE
  5
79F
330
1E
100
AcDbEntity
  8
0
 62
     3
100
AcDbCircle
 10
82.48518735516086
 20
246.389253804604
 30
0.0
 40
0.765625
  0
ARC
  5
7A0
330
1E
100
AcDbEntity
  8
0
 62
     3
100
AcDbCircle
 10
82.48518735516086
 20
244.092378804604
 30
0.0
 40
1.09375
100
AcDbArc
 50
33.63222804419931
 51
146.3677719558004
  0
ARC
  5
7A1
330
1E
100
AcDbEntity
  8
0
 62
     3
100
AcDbCircle
 10
84.47433930986084
 20
245.2408163046041
 30
0.0
 40
1.09375
100
AcDbArc
 50
93.63222629870001
 51
206.3677360593991
  0
ARC
  5
7A2
330
1E
100
AcDbEntity
  8
0
 62
     3
100
AcDbCircle
 10
84.47433930986084
 20
247.5376913046041
 30
0.0
 40
1.09375
100
AcDbArc
 50
153.6322279683985
 51
266.3677787101994
  0
ARC
  5
7A3
330
1E
100
AcDbEntity
  8
0
 62
     3
100
AcDbCircle
 10
82.48518735516086
 20
248.686128804604
 30
0.0
 40
1.09375
100
AcDbArc
 50
213.6322159776015
 51
326.3677667195011
  0
ARC
  5
7A4
330
1E
100
AcDbEntity
  8
0
 62
     3
100
AcDbCircle
 10
81.52706235996083
 20
248.0487749075039
 30
0.0
 40
0.056875001639
100
AcDbArc
 50
30.00001199069921
 51
206.3677360593991
  0
ARC
  5
7A5
330
1E
100
AcDbEntity
  8
0
 62
     3
100
AcDbCircle
 10
81.52706235996083
 20
244.7297327017041
 30
0.0
 40
0.056875001639
100
AcDbArc
 50
149.9999880093007
 51
326.3677667195011
  0
ARC
  5
7A6
330
1E
100
AcDbEntity
  8
0
 62
     3
100
AcDbCircle
 10
83.44331235036086
 20
244.7297327017041
 30
0.0
 40
0.056875001639
100
AcDbArc
 50
209.9999760184986
 51
26.36775472880084
  0
ARC
  5
7A7
330
1E
100
AcDbEntity
  8
0
 62
     3
100
AcDbCircle
 10
83.44331235036086
 20
248.0487749075039
 30
0.0
 40
0.056875001639
100
AcDbArc
 50
330.0000239815013
 51
146.3677719558004
  0
ARC
  5
7A8
330
1E
100
AcDbEntity
  8
0
 62
     3
100
AcDbCircle
 10
80.56893807996084
 20
246.389253804604
 30
0.0
 40
0.056875001639
100
AcDbArc
 50
90.0
 51
266.3677787101994
  0
CIRCLE
  5
7A9
330
1E
100
AcDbEntity
  8
0
 62
     3
100
AcDbCircle
 10
82.48518735516086
 20
246.389253804604
 30
0.0
 40
1.96875
  0
ARC
  5
7AA
330
1E
100
AcDbEntity
  8
0
 62
     3
100
AcDbCircle
 10
80.49603540046087
 20
247.5376913046041
 30
0.0
 40
1.09375
100
AcDbArc
 50
273.6322212898004
 51
26.36777203160133
  0
ARC
  5
7AB
330
1E
100
AcDbEntity
  8
0
 62
     3
100
AcDbCircle
 10
80.49603540046087
 20
245.2408163046041
 30
0.0
 40
1.09375
100
AcDbArc
 50
333.6322639406006
 51
86.36777370129999
  0
ARC
  5
7AC
330
1E
100
AcDbEntity
  8
0
 62
     3
100
AcDbCircle
 10
85.48518748276093
 20
241.7892477781039
 30
0.0
 40
1.0
100
AcDbArc
 50
0.0
 51
89.99998201389999
  0
LINE
  5
7AD
330
1E
100
AcDbEntity
  8
0
 62
     3
100
AcDbLine
 10
81.69951243386094
 20
256.175051000704
 30
0.0
 11
81.69951243386094
 21
252.8892538816041
 31
0.0
  0
LINE
  5
7AE
330
1E
100
AcDbEntity
  8
0
 62
     3
100
AcDbLine
 10
81.98521800026083
 20
252.8892538816041
 30
0.0
 11
81.98521800026083
 21
251.389253881604
 31
0.0
  0
LINE
  5
7AF
330
1E
100
AcDbEntity
  8
0
 62
     3
100
AcDbLine
 10
81.69951243386094
 20
251.389253881604
 30
0.0
 11
81.69951243386094
 21
250.3892538816042
 31
0.0
  0
LINE
  5
7B0
330
1E
100
AcDbEntity
  8
0
 62
     3
100
AcDbLine
 10
120.6562291779607
 20
322.0403695422041
 30
0.0
 11
120.7811469553609
 21
321.7512839109041
 31
0.0
  0
LINE
  5
7B1
330
1E
100
AcDbEntity
  8
0
 62
     3
100
AcDbLine
 10
122.6458237504609
 20
322.474457783404
 30
0.0
 11
122.8393649497609
 21
321.8851988758042
 31
0.0
  0
LINE
  5
7B2
330
1E
100
AcDbEntity
  8
0
 62
     3
100
AcDbLine
 10
121.0015673570608
 20
320.9355235790041
 30
0.0
 11
121.0502349721607
 21
320.5103169551041
 31
0.0
  0
LINE
  5
7B3
330
1E
100
AcDbEntity
  8
0
 62
     3
100
AcDbLine
 10
120.9119980332608
 20
321.350974633404
 30
0.0
 11
121.0015673570608
 21
320.9355235790041
 31
0.0
  0
LINE
  5
7B4
330
1E
100
AcDbEntity
  8
0
 62
     3
100
AcDbLine
 10
120.7811469553609
 20
321.7512839109041
 30
0.0
 11
120.9119980332608
 21
321.350974633404
 31
0.0
  0
LINE
  5
7B5
330
1E
100
AcDbEntity
  8
0
 62
     3
100
AcDbLine
 10
123.0429358518607
 20
320.684635001404
 30
0.0
 11
123.0589327143607
 21
320.0812527032041
 31
0.0
  0
LINE
  5
7B6
330
1E
100
AcDbEntity
  8
0
 62
     3
100
AcDbLine
 10
122.9705582683608
 20
321.2871318033041
 30
0.0
 11
123.0429358518607
 21
320.684635001404
 31
0.0
  0
LINE
  5
7B7
330
1E
100
AcDbEntity
  8
0
 62
     3
100
AcDbLine
 10
122.8393649497609
 20
321.8851988758042
 30
0.0
 11
122.9705582683608
 21
321.2871318033041
 31
0.0
  0
LINE
  5
7B8
330
1E
100
AcDbEntity
  8
0
 62
     3
100
AcDbLine
 10
121.8810454550607
 20
326.4726767237041
 30
0.0
 11
121.7431736832608
 21
326.1933848803038
 31
0.0
  0
LINE
  5
7B9
330
1E
100
AcDbEntity
  8
0
 62
     3
100
AcDbLine
 10
120.5141854862608
 20
322.3206994319042
 30
0.0
 11
120.6562291779607
 21
322.0403695422041
 31
0.0
  0
LINE
  5
7BA
330
1E
100
AcDbEntity
  8
0
 62
     3
100
AcDbLine
 10
120.3615202338607
 20
322.5951615042038
 30
0.0
 11
120.5141854862608
 21
322.3206994319042
 31
0.0
  0
LINE
  5
7BB
330
1E
100
AcDbEntity
  8
0
 62
     3
100
AcDbLine
 10
120.2047377742607
 20
322.8666436836042
 30
0.0
 11
120.3615202338607
 21
322.5951615042038
 31
0.0
  0
LINE
  5
7BC
330
1E
100
AcDbEntity
  8
0
 62
     3
100
AcDbLine
 10
120.0503424607608
 20
323.1380338942041
 30
0.0
 11
120.2047377742607
 21
322.8666436836042
 31
0.0
  0
LINE
  5
7BD
330
1E
100
AcDbEntity
  8
0
 62
     3
100
AcDbLine
 10
119.9048386468609
 20
323.4122200606041
 30
0.0
 11
120.0503424607608
 21
323.1380338942041
 31
0.0
  0
LINE
  5
7BE
330
1E
100
AcDbEntity
  8
0
 62
     3
100
AcDbLine
 10
119.7747306861608
 20
323.6920901070041
 30
0.0
 11
119.9048386468609
 21
323.4122200606041
 31
0.0
  0
LINE
  5
7BF
330
1E
100
AcDbEntity
  8
0
 62
     3
100
AcDbLine
 10
119.6665229319609
 20
323.980531957704
 30
0.0
 11
119.7747306861608
 21
323.6920901070041
 31
0.0
  0
LINE
  5
7C0
330
1E
100
AcDbEntity
  8
0
 62
     3
100
AcDbLine
 10
122.4638740613609
 20
322.8961849285041
 30
0.0
 11
122.6458237504609
 21
322.474457783404
 31
0.0
  0
LINE
  5
7C1
330
1E
100
AcDbEntity
  8
0
 62
     3
100
AcDbLine
 10
122.2769032093607
 20
323.2655942561041
 30
0.0
 11
122.4638740613609
 21
322.8961849285041
 31
0.0
  0
LINE
  5
7C2
330
1E
100
AcDbEntity
  8
0
 62
     3
100
AcDbLine
 10
122.0977350468607
 20
323.5879143048039
 30
0.0
 11
122.2769032093607
 21
323.2655942561041
 31
0.0
  0
LINE
  5
7C3
330
1E
100
AcDbEntity
  8
0
 62
     3
100
AcDbLine
 10
121.9361322344609
 20
323.867779649904
 30
0.0
 11
122.0977350468607
 21
323.5879143048039
 31
0.0
  0
LINE
  5
7C4
330
1E
100
AcDbEntity
  8
0
 62
     3
100
AcDbLine
 10
121.7993327278609
 20
324.1081024719042
 30
0.0
 11
121.9361322344609
 21
323.867779649904
 31
0.0
  0
LINE
  5
7C5
330
1E
100
AcDbEntity
  8
0
 62
     3
100
AcDbLine
 10
121.6920963320607
 20
324.3098335446039
 30
0.0
 11
121.7993327278609
 21
324.1081024719042
 31
0.0
  0
LINE
  5
7C6
330
1E
100
AcDbEntity
  8
0
 62
     3
100
AcDbLine
 10
121.6161389671607
 20
324.472612715704
 30
0.0
 11
121.6920963320607
 21
324.3098335446039
 31
0.0
  0
LINE
  5
7C7
330
1E
100
AcDbEntity
  8
0
 62
     3
100
AcDbLine
 10
121.5692752051608
 20
324.5965950932041
 30
0.0
 11
121.6161389671607
 21
324.472612715704
 31
0.0
  0
LINE
  5
7C8
330
1E
100
AcDbEntity
  8
0
 62
     3
100
AcDbLine
 10
121.5235680451607
 20
324.7879030493042
 30
0.0
 11
121.5692752051608
 21
324.5965950932041
 31
0.0
  0
LINE
  5
7C9
330
1E
100
AcDbEntity
  8
0
 62
     3
100
AcDbLine
 10
121.5012805427609
 20
325.023733630904
 30
0.0
 11
121.5235680451607
 21
324.7879030493042
 31
0.0
  0
LINE
  5
7CA
330
1E
100
AcDbEntity
  8
0
 62
     3
100
AcDbLine
 10
121.5098782317609
 20
325.295503727204
 30
0.0
 11
121.5012805427609
 21
325.023733630904
 31
0.0
  0
LINE
  5
7CB
330
1E
100
AcDbEntity
  8
0
 62
     3
100
AcDbLine
 10
121.5533475340607
 20
325.5905653492038
 30
0.0
 11
121.5098782317609
 21
325.295503727204
 31
0.0
  0
LINE
  5
7CC
330
1E
100
AcDbEntity
  8
0
 62
     3
100
AcDbLine
 10
121.6320542926609
 20
325.8946816920041
 30
0.0
 11
121.5533475340607
 21
325.5905653492038
 31
0.0
  0
LINE
  5
7CD
330
1E
100
AcDbEntity
  8
0
 62
     3
100
AcDbLine
 10
121.7431736832608
 20
326.1933848803038
 30
0.0
 11
121.6320542926609
 21
325.8946816920041
 31
0.0
  0
LINE
  5
7CE
330
1E
100
AcDbEntity
  8
0
 62
     3
100
AcDbLine
 10
119.8510936694608
 20
326.8513363036041
 30
0.0
 11
119.6892176301606
 21
326.378782520004
 31
0.0
  0
LINE
  5
7CF
330
1E
100
AcDbEntity
  8
0
 62
     3
100
AcDbLine
 10
120.0570561198609
 20
327.3031834172042
 30
0.0
 11
119.8510936694608
 21
326.8513363036041
 31
0.0
  0
LINE
  5
7D0
330
1E
100
AcDbEntity
  8
0
 62
     3
100
AcDbLine
 10
120.3035224291609
 20
327.7264633350039
 30
0.0
 11
120.0570561198609
 21
327.3031834172042
 31
0.0
  0
LINE
  5
7D1
330
1E
100
AcDbEntity
  8
0
 62
     3
100
AcDbLine
 10
122.037260703461
 20
326.7195478671039
 30
0.0
 11
121.8810454550607
 21
326.4726767237041
 31
0.0
  0
LINE
  5
7D2
330
1E
100
AcDbEntity
  8
0
 62
     3
100
AcDbLine
 10
122.1905486604607
 20
326.9146123850039
 30
0.0
 11
122.037260703461
 21
326.7195478671039
 31
0.0
  0
LINE
  5
7D3
330
1E
100
AcDbEntity
  8
0
 62
     3
100
AcDbLine
 10
122.3800061888608
 20
327.120109824104
 30
0.0
 11
122.1905486604607
 21
326.9146123850039
 31
0.0
  0
LINE
  5
7D4
330
1E
100
AcDbEntity
  8
0
 62
     3
100
AcDbLine
 10
122.6084726295608
 20
327.3399426460039
 30
0.0
 11
122.3800061888608
 21
327.120109824104
 31
0.0
  0
LINE
  5
7D5
330
1E
100
AcDbEntity
  8
0
 62
     3
100
AcDbLine
 10
119.5039335023609
 20
324.9154864081039
 30
0.0
 11
119.5542286307609
 21
324.4387112032041
 31
0.0
  0
LINE
  5
7D6
330
1E
100
AcDbEntity
  8
0
 62
     3
100
AcDbLine
 10
119.5120549943607
 20
325.4029970464041
 30
0.0
 11
119.5039335023609
 21
324.9154864081039
 31
0.0
  0
LINE
  5
7D7
330
1E
100
AcDbEntity
  8
0
 62
     3
100
AcDbLine
 10
119.5750105543609
 20
325.893382592304
 30
0.0
 11
119.5120549943607
 21
325.4029970464041
 31
0.0
  0
LINE
  5
7D8
330
1E
100
AcDbEntity
  8
0
 62
     3
100
AcDbLine
 10
119.6892176301606
 20
326.378782520004
 30
0.0
 11
119.5750105543609
 21
325.893382592304
 31
0.0
  0
LINE
  5
7D9
330
1E
100
AcDbEntity
  8
0
 62
     3
100
AcDbLine
 10
119.5542286307609
 20
324.4387112032041
 30
0.0
 11
119.6665229319609
 21
323.980531957704
 31
0.0
  0
LINE
  5
7DA
330
1E
100
AcDbEntity
  8
0
 62
     3
100
AcDbLine
 10
83.9850043772609
 20
416.4907768180809
 30
0.0
 11
77.9850043772609
 21
416.4907768180809
 31
0.0
  0
LINE
  5
7DB
330
1E
100
AcDbEntity
  8
0
 62
     3
100
AcDbLine
 10
82.98518748276093
 20
416.390679161881
 30
0.0
 11
71.98500437726079
 21
416.390679161881
 31
0.0
  0
LINE
  5
7DC
330
1E
100
AcDbEntity
  8
0
 62
     3
100
AcDbLine
 10
76.11105690876094
 20
412.282254662181
 30
0.0
 11
81.64450417446095
 21
402.6980430291809
 31
0.0
  0
LINE
  5
7DD
330
1E
100
AcDbEntity
  8
0
 62
     3
100
AcDbLine
 10
83.7962226389609
 20
385.9909294059809
 30
0.0
 11
79.23521800026083
 21
385.9909294059809
 31
0.0
  0
ARC
  5
7DE
330
1E
100
AcDbEntity
  8
0
 62
     3
100
AcDbCircle
 10
80.29768735516086
 20
382.6784296473809
 30
0.0
 40
1.3125
100
AcDbArc
 50
180.0000359722008
 51
270.0000179860988
  0
LINE
  5
7DF
330
1E
100
AcDbEntity
  8
0
 62
     3
100
AcDbLine
 10
76.11080118706095
 20
390.698289917181
 30
0.0
 11
81.64408060606092
 21
400.2822108312809
 31
0.0
  0
LINE
  5
7E0
330
1E
100
AcDbEntity
  8
0
  6
CENTERLINE
 62
     3
100
AcDbLine
 10
83.59416575416094
 20
401.4907768180809
 30
0.0
 11
53.12709422096088
 21
401.4907768180809
 31
0.0
  0
CIRCLE
  5
7E1
330
1E
100
AcDbEntity
  8
0
 62
     3
100
AcDbCircle
 10
68.48521800026083
 20
401.4907768180809
 30
0.0
 40
13.5
  0
LINE
  5
7E2
330
1E
100
AcDbEntity
  8
0
 62
     3
100
AcDbLine
 10
98.48506541236089
 20
415.9907768180808
 30
0.0
 11
38.48537058816089
 21
415.9907768180808
 31
0.0
  0
LINE
  5
7E3
330
1E
100
AcDbEntity
  8
0
 62
     3
100
AcDbLine
 10
86.48506541236088
 20
386.9909294059808
 30
0.0
 11
50.48521800026088
 21
386.9909294059808
 31
0.0
  0
LINE
  5
7E4
330
1E
100
AcDbEntity
  8
0
 62
     3
100
AcDbLine
 10
51.48521800026088
 20
372.4909294059809
 30
0.0
 11
85.48521800026083
 21
372.4909294059809
 31
0.0
  0
ARC
  5
7E5
330
1E
100
AcDbEntity
  8
0
 62
     3
100
AcDbCircle
 10
74.48521800026083
 20
350.4905937126808
 30
0.0
 40
10.0
100
AcDbArc
 50
270.0000179861
 51
0.0
  0
LINE
  5
7E6
330
1E
100
AcDbEntity
  8
0
 62
     3
100
AcDbLine
 10
77.88521189676089
 20
383.9909294059809
 30
0.0
 11
86.48521800026083
 21
383.9909294059809
 31
0.0
  0
LINE
  5
7E7
330
1E
100
AcDbEntity
  8
0
 62
     3
100
AcDbLine
 10
85.98518735516085
 20
383.9909296473809
 30
0.0
 11
78.98518735516086
 21
383.9909296473809
 31
0.0
  0
LINE
  5
7E8
330
1E
100
AcDbEntity
  8
0
 62
     3
100
AcDbLine
 10
50.48521800026088
 20
386.9909294059808
 30
0.0
 11
50.48521800026088
 21
415.9907768180808
 31
0.0
  0
LINE
  5
7E9
330
1E
100
AcDbEntity
  8
0
 62
     3
100
AcDbLine
 10
38.48537058816089
 20
413.4907768180809
 30
0.0
 11
38.48537058816089
 21
415.9907768180808
 31
0.0
  0
LINE
  5
7EA
330
1E
100
AcDbEntity
  8
0
 62
     3
100
AcDbLine
 10
39.48537058816089
 20
412.4907768180809
 30
0.0
 11
50.48537058816089
 21
412.4907768180809
 31
0.0
  0
ARC
  5
7EB
330
1E
100
AcDbEntity
  8
0
 62
     3
100
AcDbCircle
 10
39.48537058816089
 20
413.4907768180809
 30
0.0
 40
1.0
100
AcDbArc
 50
180.0000359722
 51
270.0000179861
  0
ARC
  5
7EC
330
1E
100
AcDbEntity
  8
0
 62
     3
100
AcDbCircle
 10
59.08519358626087
 20
373.4909294059809
 30
0.0
 40
1.0
100
AcDbArc
 50
180.0000359722
 51
270.0000179861
  0
ARC
  5
7ED
330
1E
100
AcDbEntity
  8
0
 62
     3
100
AcDbCircle
 10
77.88521189676089
 20
373.4909294059809
 30
0.0
 40
1.0
100
AcDbArc
 50
270.0000179861
 51
0.0
  0
ARC
  5
7EE
330
1E
100
AcDbEntity
  8
0
 62
     3
100
AcDbCircle
 10
51.48521800026088
 20
373.4909294059809
 30
0.0
 40
1.0
100
AcDbArc
 50
180.0000359722
 51
270.0000179861
  0
ARC
  5
7EF
330
1E
100
AcDbEntity
  8
0
 62
     3
100
AcDbCircle
 10
66.48521800026083
 20
355.6906059196809
 30
0.0
 40
3.0
100
AcDbArc
 50
89.99998201389999
 51
179.9999640277999
  0
LINE
  5
7F0
330
1E
100
AcDbEntity
  8
0
 62
     3
100
AcDbLine
 10
63.48521800026083
 20
340.4906242301809
 30
0.0
 11
62.48521800026082
 21
340.4906242301809
 31
0.0
  0
LINE
  5
7F1
330
1E
100
AcDbEntity
  8
0
  6
CENTERLINE
 62
     3
100
AcDbLine
 10
60.09657664286078
 20
353.6906059196808
 30
0.0
 11
77.09639353736088
 21
353.6906059196808
 31
0.0
  0
ARC
  5
7F2
330
1E
100
AcDbEntity
  8
0
 62
     3
100
AcDbCircle
 10
68.38560862526083
 20
377.7913749626808
 30
0.0
 40
10.0
100
AcDbArc
 50
232.5370860867
 51
307.4627996213
  0
LINE
  5
7F3
330
1E
100
AcDbEntity
  8
0
 62
     3
100
AcDbLine
 10
74.58555979716084
 20
371.8913505485808
 30
0.0
 11
62.18541331276083
 21
371.8913505485808
 31
0.0
  0
LINE
  5
7F4
330
1E
100
AcDbEntity
  8
0
 62
     3
100
AcDbLine
 10
52.48521800026089
 20
350.4905937126808
 30
0.0
 11
52.48521800026089
 21
363.4905937126808
 31
0.0
  0
ARC
  5
7F5
330
1E
100
AcDbEntity
  8
0
 62
     3
100
AcDbCircle
 10
62.48521800026082
 20
350.4905937126808
 30
0.0
 40
10.0
100
AcDbArc
 50
180.0000359722
 51
270.0000179861
  0
ARC
  5
7F6
330
1E
100
AcDbEntity
  8
0
 62
     3
100
AcDbCircle
 10
54.08757395736092
 20
368.9905937126809
 30
0.0
 40
1.0
100
AcDbArc
 50
270.0000179861
 51
331.5553835033
  0
LINE
  5
7F7
330
1E
100
AcDbEntity
  8
0
 62
     3
100
AcDbLine
 10
52.2852057932609
 20
364.9909294059809
 30
0.0
 11
54.88530344956092
 21
364.9909294059809
 31
0.0
  0
LINE
  5
7F8
330
1E
100
AcDbEntity
  8
0
 62
     3
100
AcDbLine
 10
53.24693956076089
 20
368.252452501881
 30
0.0
 11
55.30131335956088
 21
372.0448750493809
 31
0.0
  0
LINE
  5
7F9
330
1E
100
AcDbEntity
  8
0
 62
     3
100
AcDbLine
 10
55.07823557846092
 20
363.4905937126808
 30
0.0
 11
52.48521800026089
 21
363.4905937126808
 31
0.0
  0
LINE
  5
7FA
330
1E
100
AcDbEntity
  8
0
 62
     3
100
AcDbLine
 10
52.08519358626086
 20
368.7909171989808
 30
0.0
 11
52.08519358626086
 21
365.190941612981
 31
0.0
  0
LINE
  5
7FB
330
1E
100
AcDbEntity
  8
0
 62
     3
100
AcDbLine
 10
52.68172068586091
 20
363.4905937126808
 30
0.0
 11
52.68172068586091
 21
364.9909294059809
 31
0.0
  0
ARC
  5
7FC
330
1E
100
AcDbEntity
  8
0
 62
     3
100
AcDbCircle
 10
52.2852057932609
 20
365.190941612981
 30
0.0
 40
0.1999999285
100
AcDbArc
 50
179.9999640277999
 51
270.0000006831999
  0
LINE
  5
7FD
330
1E
100
AcDbEntity
  8
0
 62
     3
100
AcDbLine
 10
52.48521800026089
 20
367.9905937126809
 30
0.0
 11
52.48521800026089
 21
372.4909294059809
 31
0.0
  0
ARC
  5
7FE
330
1E
100
AcDbEntity
  8
0
 62
     3
100
AcDbCircle
 10
52.2852057932609
 20
368.7909171989808
 30
0.0
 40
0.1999999285
100
AcDbArc
 50
89.99998201389999
 51
179.9999640277999
  0
ARC
  5
7FF
330
1E
100
AcDbEntity
  8
0
 62
     3
100
AcDbCircle
 10
52.80723948466085
 20
368.4905937126809
 30
0.0
 40
0.5
100
AcDbArc
 50
270.0000179861
 51
331.5553835033
  0
LINE
  5
800
330
1E
100
AcDbEntity
  8
0
 62
     3
100
AcDbLine
 10
52.2852057932609
 20
368.9909294059809
 30
0.0
 11
52.48521800026089
 21
368.9909294059809
 31
0.0
  0
LINE
  5
801
330
1E
100
AcDbEntity
  8
0
 62
     3
100
AcDbLine
 10
54.08757395736092
 20
367.9905937126809
 30
0.0
 11
52.48521800026089
 21
367.9905937126809
 31
0.0
  0
ARC
  5
802
330
1E
100
AcDbEntity
  8
0
 62
     3
100
AcDbCircle
 10
55.07823557846092
 20
367.4905937126808
 30
0.0
 40
4.0
100
AcDbArc
 50
270.0000179861
 51
0.0
  0
LINE
  5
803
330
1E
100
AcDbEntity
  8
0
 62
     3
100
AcDbLine
 10
54.88530344956092
 20
363.4952629020809
 30
0.0
 11
54.88530344956092
 21
368.3875968864808
 31
0.0
  0
LINE
  5
804
330
1E
100
AcDbEntity
  8
0
 62
     3
100
AcDbLine
 10
54.96698101376086
 20
368.5142554452809
 30
0.0
 11
56.75879464276089
 21
371.821985718781
 31
0.0
  0
ARC
  5
805
330
1E
100
AcDbEntity
  8
0
 62
     3
100
AcDbCircle
 10
53.54268259986088
 20
372.997521202881
 30
0.0
 40
2.0
100
AcDbArc
 50
331.5553835033
 51
345.3275925307
  0
ARC
  5
806
330
1E
100
AcDbEntity
  8
0
 62
     3
100
AcDbCircle
 10
54.12083811746089
 20
373.2509696891809
 30
0.0
 40
3.0
100
AcDbArc
 50
331.5553835033
 51
345.3243550209999
  0
LINE
  5
807
330
1E
100
AcDbEntity
  8
0
 62
     3
100
AcDbLine
 10
59.07823557846086
 20
367.4905937126808
 30
0.0
 11
59.07823557846086
 21
372.4909294059809
 31
0.0
  0
ARC
  5
808
330
1E
100
AcDbEntity
  8
0
 62
     3
100
AcDbCircle
 10
62.48546214096085
 20
370.0920341422809
 30
0.0
 40
0.2999999522999999
100
AcDbArc
 50
179.9999093863
 51
232.5370141424
  0
LINE
  5
809
330
1E
100
AcDbEntity
  8
0
 62
     3
100
AcDbLine
 10
62.38566966046086
 20
371.8914726188808
 30
0.0
 11
62.38566966046086
 21
372.4915092399809
 31
0.0
  0
LINE
  5
80A
330
1E
100
AcDbEntity
  8
0
 62
     3
100
AcDbLine
 10
62.68791575416094
 20
369.7174613883809
 30
0.0
 11
62.68791575416094
 21
371.8914726188808
 31
0.0
  0
LINE
  5
80B
330
1E
100
AcDbEntity
  8
0
 62
     3
100
AcDbLine
 10
62.46989817606095
 20
369.7288139274809
 30
0.0
 11
62.46989817606095
 21
371.8914726188808
 31
0.0
  0
LINE
  5
80C
330
1E
100
AcDbEntity
  8
0
 62
     3
100
AcDbLine
 10
62.31242747296086
 20
369.8471000602809
 30
0.0
 11
62.31242747296086
 21
371.8914726188808
 31
0.0
  0
LINE
  5
80D
330
1E
100
AcDbEntity
  8
0
 62
     3
100
AcDbLine
 10
62.18541331276083
 20
370.0920341422809
 30
0.0
 11
62.18541331276083
 21
371.8913505485808
 31
0.0
  0
LINE
  5
80E
330
1E
100
AcDbEntity
  8
0
 62
     3
100
AcDbLine
 10
73.73699877346087
 20
352.0011003129809
 30
0.0
 11
73.91868930666089
 21
352.5523494252808
 31
0.0
  0
LINE
  5
80F
330
1E
100
AcDbEntity
  8
0
 62
     3
100
AcDbLine
 10
63.05270527676089
 20
352.5486816465809
 30
0.0
 11
63.23485924606085
 21
351.997555348981
 31
0.0
  0
CIRCLE
  5
810
330
1E
100
AcDbEntity
  8
0
 62
     3
100
AcDbCircle
 10
68.48521800026083
 20
353.6906059196808
 30
0.0
 40
3.5
  0
CIRCLE
  5
811
330
1E
100
AcDbEntity
  8
0
 62
     3
100
AcDbCircle
 10
68.48521800026083
 20
353.6906059196808
 30
0.0
 40
1.7000000477
  0
CIRCLE
  5
812
330
1E
100
AcDbEntity
  8
0
 62
     3
100
AcDbCircle
 10
68.48521800026083
 20
353.6906059196808
 30
0.0
 40
2.0
  0
LINE
  5
813
330
1E
100
AcDbEntity
  8
0
 62
     3
100
AcDbLine
 10
63.23485924606085
 20
351.997555348981
 30
0.0
 11
63.48639801346086
 21
351.4688031360811
 31
0.0
  0
LINE
  5
814
330
1E
100
AcDbEntity
  8
0
 62
     3
100
AcDbLine
 10
74.48521800026083
 20
340.4906242301809
 30
0.0
 11
73.48521800026083
 21
340.4906242301809
 31
0.0
  0
LINE
  5
815
330
1E
100
AcDbEntity
  8
0
 62
     3
100
AcDbLine
 10
73.48590464986092
 20
351.472178437981
 30
0.0
 11
73.73699877346087
 21
352.0011003129809
 31
0.0
  0
ARC
  5
816
330
1E
100
AcDbEntity
  8
0
 62
     3
100
AcDbCircle
 10
70.48521800026083
 20
355.6906059196809
 30
0.0
 40
3.0
100
AcDbArc
 50
0.0
 51
89.99998201389999
  0
LINE
  5
817
330
1E
100
AcDbEntity
  8
0
 62
     3
100
AcDbLine
 10
63.88615794166094
 20
369.046349327881
 30
0.0
 11
72.96867747296094
 21
369.046349327881
 31
0.0
  0
LINE
  5
818
330
1E
100
AcDbEntity
  8
0
 62
     3
100
AcDbLine
 10
64.27849192606095
 20
368.7871940543808
 30
0.0
 11
72.41594309796084
 21
368.7871940543808
 31
0.0
  0
LINE
  5
819
330
1E
100
AcDbEntity
  8
0
 62
     3
100
AcDbLine
 10
66.48521800026083
 20
358.690605919681
 30
0.0
 11
70.48521800026083
 21
358.690605919681
 31
0.0
  0
LINE
  5
81A
330
1E
100
AcDbEntity
  8
0
 62
     3
100
AcDbLine
 10
62.94234331556094
 20
353.1148987577809
 30
0.0
 11
63.05270527676089
 21
352.5486816465809
 31
0.0
  0
LINE
  5
81B
330
1E
100
AcDbEntity
  8
0
 62
     3
100
AcDbLine
 10
62.90523182326092
 20
353.688723982481
 30
0.0
 11
62.94234331556094
 21
353.1148987577809
 31
0.0
  0
LINE
  5
81C
330
1E
100
AcDbEntity
  8
0
 62
     3
100
AcDbLine
 10
62.94186123756082
 20
354.262574077481
 30
0.0
 11
62.90523182326092
 21
353.688723982481
 31
0.0
  0
LINE
  5
81D
330
1E
100
AcDbEntity
  8
0
 62
     3
100
AcDbLine
 10
63.0517474914609
 20
354.8288654707808
 30
0.0
 11
62.94186123756082
 21
354.262574077481
 31
0.0
  0
LINE
  5
81E
330
1E
100
AcDbEntity
  8
0
 62
     3
100
AcDbLine
 10
63.23343841096084
 20
355.3801144808808
 30
0.0
 11
63.0517474914609
 21
354.8288654707808
 31
0.0
  0
LINE
  5
81F
330
1E
100
AcDbEntity
  8
0
 62
     3
100
AcDbLine
 10
63.4845329051609
 20
355.909036214581
 30
0.0
 11
63.23343841096084
 21
355.3801144808808
 31
0.0
  0
LINE
  5
820
330
1E
100
AcDbEntity
  8
0
 62
     3
100
AcDbLine
 10
66.83147044166094
 20
369.7174613883809
 30
0.0
 11
66.83147044166094
 21
371.8914726188808
 31
0.0
  0
LINE
  5
821
330
1E
100
AcDbEntity
  8
0
 62
     3
100
AcDbLine
 10
66.23234934796096
 20
369.7174613883809
 30
0.0
 11
66.23234934796096
 21
371.8914726188808
 31
0.0
  0
LINE
  5
822
330
1E
100
AcDbEntity
  8
0
 62
     3
100
AcDbLine
 10
65.65520091046085
 20
369.7174613883809
 30
0.0
 11
65.65520091046085
 21
371.8914726188808
 31
0.0
  0
LINE
  5
823
330
1E
100
AcDbEntity
  8
0
 62
     3
100
AcDbLine
 10
65.10588450416094
 20
369.7174613883809
 30
0.0
 11
65.10588450416094
 21
371.8914726188808
 31
0.0
  0
LINE
  5
824
330
1E
100
AcDbEntity
  8
0
 62
     3
100
AcDbLine
 10
64.59050364486097
 20
369.7174613883809
 30
0.0
 11
64.59050364486097
 21
371.8914726188808
 31
0.0
  0
LINE
  5
825
330
1E
100
AcDbEntity
  8
0
 62
     3
100
AcDbLine
 10
64.11394114486097
 20
369.7174613883809
 30
0.0
 11
64.11394114486097
 21
371.8914726188808
 31
0.0
  0
LINE
  5
826
330
1E
100
AcDbEntity
  8
0
 62
     3
100
AcDbLine
 10
63.68132395736097
 20
369.7174613883809
 30
0.0
 11
63.68132395736097
 21
371.8914726188808
 31
0.0
  0
LINE
  5
827
330
1E
100
AcDbEntity
  8
0
 62
     3
100
AcDbLine
 10
63.29680247296085
 20
369.7174613883809
 30
0.0
 11
63.29680247296085
 21
371.8914726188808
 31
0.0
  0
LINE
  5
828
330
1E
100
AcDbEntity
  8
0
 62
     3
100
AcDbLine
 10
62.96452708236097
 20
369.7174613883809
 30
0.0
 11
62.96452708236097
 21
371.8914726188808
 31
0.0
  0
LINE
  5
829
330
1E
100
AcDbEntity
  8
0
 62
     3
100
AcDbLine
 10
68.69960398666091
 20
371.8915336540809
 30
0.0
 11
68.69960398666091
 21
369.7174613883809
 31
0.0
  0
LINE
  5
82A
330
1E
100
AcDbEntity
  8
0
 62
     3
100
AcDbLine
 10
69.32435984596089
 20
371.8915336540809
 30
0.0
 11
69.32435984596089
 21
369.7174613883809
 31
0.0
  0
LINE
  5
82B
330
1E
100
AcDbEntity
  8
0
 62
     3
100
AcDbLine
 10
69.93959422096089
 20
371.8915336540809
 30
0.0
 11
69.93959422096089
 21
369.7174613883809
 31
0.0
  0
LINE
  5
82C
330
1E
100
AcDbEntity
  8
0
 62
     3
100
AcDbLine
 10
70.53895945536091
 20
371.8915336540809
 30
0.0
 11
70.53895945536091
 21
369.7174613883809
 31
0.0
  0
LINE
  5
82D
330
1E
100
AcDbEntity
  8
0
 62
     3
100
AcDbLine
 10
71.11610789286078
 20
371.8915336540809
 30
0.0
 11
71.11610789286078
 21
369.7174613883809
 31
0.0
  0
LINE
  5
82E
330
1E
100
AcDbEntity
  8
0
 62
     3
100
AcDbLine
 10
68.07146067606082
 20
369.7174613883809
 30
0.0
 11
68.07146067606082
 21
371.8914726188808
 31
0.0
  0
LINE
  5
82F
330
1E
100
AcDbEntity
  8
0
 62
     3
100
AcDbLine
 10
67.44670481666094
 20
369.7174613883809
 30
0.0
 11
67.44670481666094
 21
371.8914726188808
 31
0.0
  0
LINE
  5
830
330
1E
100
AcDbEntity
  8
0
 62
     3
100
AcDbLine
 10
73.73557556826084
 20
355.3836594440809
 30
0.0
 11
73.48403643046082
 21
355.9124115154808
 31
0.0
  0
LINE
  5
831
330
1E
100
AcDbEntity
  8
0
 62
     3
100
AcDbLine
 10
73.91772992376082
 20
354.8325332488808
 30
0.0
 11
73.73557556826084
 21
355.3836594440809
 31
0.0
  0
LINE
  5
832
330
1E
100
AcDbEntity
  8
0
 62
     3
100
AcDbLine
 10
74.02809228166074
 20
354.2663161997808
 30
0.0
 11
73.91772992376082
 21
354.8325332488808
 31
0.0
  0
LINE
  5
833
330
1E
100
AcDbEntity
  8
0
 62
     3
100
AcDbLine
 10
74.06520417596084
 20
353.6924909959809
 30
0.0
 11
74.02809228166074
 21
354.2663161997808
 31
0.0
  0
LINE
  5
834
330
1E
100
AcDbEntity
  8
0
 62
     3
100
AcDbLine
 10
74.02857516386099
 20
353.118640880381
 30
0.0
 11
74.06520417596084
 21
353.6924909959809
 31
0.0
  0
LINE
  5
835
330
1E
100
AcDbEntity
  8
0
 62
     3
100
AcDbLine
 10
73.91868930666089
 20
352.5523494252808
 30
0.0
 11
74.02857516386099
 21
353.118640880381
 31
0.0
  0
LINE
  5
836
330
1E
100
AcDbEntity
  8
0
 62
     3
100
AcDbLine
 10
74.38566966046085
 20
371.8914726188808
 30
0.0
 11
74.38566966046085
 21
372.4915092399809
 31
0.0
  0
LINE
  5
837
330
1E
100
AcDbEntity
  8
0
 62
     3
100
AcDbLine
 10
72.18056101786089
 20
371.8915336540809
 30
0.0
 11
72.18056101786089
 21
369.7174613883809
 31
0.0
  0
LINE
  5
838
330
1E
100
AcDbEntity
  8
0
 62
     3
100
AcDbLine
 10
72.65712351786089
 20
371.8915336540809
 30
0.0
 11
72.65712351786089
 21
369.7174613883809
 31
0.0
  0
LINE
  5
839
330
1E
100
AcDbEntity
  8
0
 62
     3
100
AcDbLine
 10
73.08998484596087
 20
371.8915336540809
 30
0.0
 11
73.08998484596087
 21
369.7174613883809
 31
0.0
  0
LINE
  5
83A
330
1E
100
AcDbEntity
  8
0
 62
     3
100
AcDbLine
 10
73.47426218976079
 20
371.8915336540809
 30
0.0
 11
73.47426218976079
 21
369.7174613883809
 31
0.0
  0
LINE
  5
83B
330
1E
100
AcDbEntity
  8
0
 62
     3
100
AcDbLine
 10
73.80653758036089
 20
371.8915336540809
 30
0.0
 11
73.80653758036089
 21
369.7174613883809
 31
0.0
  0
LINE
  5
83C
330
1E
100
AcDbEntity
  8
0
 62
     3
100
AcDbLine
 10
74.0831489084609
 20
371.8915336540809
 30
0.0
 11
74.0831489084609
 21
369.7174613883809
 31
0.0
  0
LINE
  5
83D
330
1E
100
AcDbEntity
  8
0
 62
     3
100
AcDbLine
 10
74.30116648666092
 20
371.8915336540809
 30
0.0
 11
74.30116648666092
 21
369.7174613883809
 31
0.0
  0
LINE
  5
83E
330
1E
100
AcDbEntity
  8
0
 62
     3
100
AcDbLine
 10
74.45863718976079
 20
371.8915336540809
 30
0.0
 11
74.45863718976079
 21
369.8471000602809
 31
0.0
  0
LINE
  5
83F
330
1E
100
AcDbEntity
  8
0
 62
     3
100
AcDbLine
 10
74.58555979716084
 20
370.091973107181
 30
0.0
 11
74.58555979716084
 21
371.8913505485808
 31
0.0
  0
ARC
  5
840
330
1E
100
AcDbEntity
  8
0
 62
     3
100
AcDbCircle
 10
74.28551096906083
 20
370.0920341422809
 30
0.0
 40
0.2999999522999999
100
AcDbArc
 50
307.4629123194
 51
0.000072627600094
  0
LINE
  5
841
330
1E
100
AcDbEntity
  8
0
 62
     3
100
AcDbLine
 10
71.66518015846087
 20
371.8915336540809
 30
0.0
 11
71.66518015846087
 21
369.7174613883809
 31
0.0
  0
ARC
  5
842
330
1E
100
AcDbEntity
  8
0
 62
     3
100
AcDbCircle
 10
68.48521800026083
 20
401.4907768180809
 30
0.0
 40
13.21429252619997
100
AcDbArc
 50
114.7549371511
 51
125.2440313387
  0
ARC
  5
843
330
1E
100
AcDbEntity
  8
0
 62
     3
100
AcDbCircle
 10
68.48521800026083
 20
401.4907768180809
 30
0.0
 40
13.21429252619997
100
AcDbArc
 50
234.7550943969998
 51
245.2451174904
  0
LINE
  5
844
330
1E
100
AcDbEntity
  8
0
 62
     3
100
AcDbLine
 10
57.18523020736097
 20
386.9909294059808
 30
0.0
 11
79.7852363108609
 21
386.9909294059808
 31
0.0
  0
LINE
  5
845
330
1E
100
AcDbEntity
  8
0
 62
     3
100
AcDbLine
 10
55.32638482216089
 20
400.2822184225808
 30
0.0
 11
60.85983208776088
 21
390.6980067895809
 31
0.0
  0
LINE
  5
846
330
1E
100
AcDbEntity
  8
0
 62
     3
100
AcDbLine
 10
53.17418284406091
 20
385.9909294059809
 30
0.0
 11
57.73521800026083
 21
385.9909294059809
 31
0.0
  0
LINE
  5
847
330
1E
100
AcDbEntity
  8
0
 62
     3
100
AcDbLine
 10
57.98518735516085
 20
383.9909296473809
 30
0.0
 11
50.98518735516091
 21
383.9909296473809
 31
0.0
  0
LINE
  5
848
330
1E
100
AcDbEntity
  8
0
 62
     3
100
AcDbLine
 10
56.67268735516092
 20
381.3659296473808
 30
0.0
 11
52.29768735516085
 21
381.3659296473808
 31
0.0
  0
LINE
  5
849
330
1E
100
AcDbEntity
  8
0
 62
     3
100
AcDbLine
 10
59.08519358626087
 20
383.9909294059809
 30
0.0
 11
50.48521800026088
 21
383.9909294059809
 31
0.0
  0
LINE
  5
84A
330
1E
100
AcDbEntity
  8
0
 62
     3
100
AcDbLine
 10
50.48521800026088
 20
386.9909294059808
 30
0.0
 11
50.48521800026088
 21
373.4909294059809
 31
0.0
  0
LINE
  5
84B
330
1E
100
AcDbEntity
  8
0
 62
     3
100
AcDbLine
 10
50.98518735516091
 20
382.6784296473809
 30
0.0
 11
50.98518735516091
 21
383.9909296473809
 31
0.0
  0
ARC
  5
84C
330
1E
100
AcDbEntity
  8
0
 62
     3
100
AcDbCircle
 10
52.29768735516085
 20
382.6784296473809
 30
0.0
 40
1.3125
100
AcDbArc
 50
180.0000359722008
 51
270.0000179860988
  0
LINE
  5
84D
330
1E
100
AcDbEntity
  8
0
 62
     3
100
AcDbLine
 10
50.48521800026088
 20
385.9909294059809
 30
0.0
 11
50.96754832256085
 21
385.9909294059809
 31
0.0
  0
LINE
  5
84E
330
1E
100
AcDbEntity
  8
0
 62
     3
100
AcDbLine
 10
50.73817820536084
 20
385.9909294059809
 30
0.0
 11
50.73817820536084
 21
386.9909294059808
 31
0.0
  0
LINE
  5
84F
330
1E
100
AcDbEntity
  8
0
 62
     3
100
AcDbLine
 10
53.75383372296091
 20
385.9909294059809
 30
0.0
 11
53.75383372296091
 21
386.9909294059808
 31
0.0
  0
LINE
  5
850
330
1E
100
AcDbEntity
  8
0
 62
     3
100
AcDbLine
 10
50.48521800026088
 20
386.9909294059808
 30
0.0
 11
53.75383372296091
 21
386.9909294059808
 31
0.0
  0
POINT
  5
851
330
1E
100
AcDbEntity
  8
0
 62
     3
100
AcDbPoint
 10
52.51643735516092
 20
384.4284296473809
 30
0.0
  0
POINT
  5
852
330
1E
100
AcDbEntity
  8
0
 62
     3
100
AcDbPoint
 10
50.98518735516091
 20
383.9909296473809
 30
0.0
  0
LINE
  5
853
330
1E
100
AcDbEntity
  8
0
 62
     3
100
AcDbLine
 10
58.08519358626085
 20
373.4909294059809
 30
0.0
 11
58.08519358626085
 21
383.9909294059809
 31
0.0
  0
LINE
  5
854
330
1E
100
AcDbEntity
  8
0
 62
     3
100
AcDbLine
 10
57.98518735516085
 20
382.6784296473809
 30
0.0
 11
57.98518735516085
 21
383.9909296473809
 31
0.0
  0
ARC
  5
855
330
1E
100
AcDbEntity
  8
0
 62
     3
100
AcDbCircle
 10
56.67268735516092
 20
382.6784296473809
 30
0.0
 40
1.3125
100
AcDbArc
 50
270.0000179860988
 51
0.0
  0
LINE
  5
856
330
1E
100
AcDbEntity
  8
0
 62
     3
100
AcDbLine
 10
57.18523020736097
 20
385.9909294059809
 30
0.0
 11
57.18523020736097
 21
386.9909294059808
 31
0.0
  0
POINT
  5
857
330
1E
100
AcDbEntity
  8
0
 62
     3
100
AcDbPoint
 10
55.48518735516092
 20
383.9909296473809
 30
0.0
  0
POINT
  5
858
330
1E
100
AcDbEntity
  8
0
 62
     3
100
AcDbPoint
 10
56.45393735516091
 20
384.4284296473809
 30
0.0
  0
POINT
  5
859
330
1E
100
AcDbEntity
  8
0
 62
     3
100
AcDbPoint
 10
57.98518735516085
 20
383.9909296473809
 30
0.0
  0
POINT
  5
85A
330
1E
100
AcDbEntity
  8
0
 62
     3
100
AcDbPoint
 10
54.48518735516092
 20
383.9909296473809
 30
0.0
  0
POINT
  5
85B
330
1E
100
AcDbEntity
  8
0
 62
     3
100
AcDbPoint
 10
54.48518735516092
 20
383.9909296473809
 30
0.0
  0
POINT
  5
85C
330
1E
100
AcDbEntity
  8
0
 62
     3
100
AcDbPoint
 10
54.48518735516092
 20
383.9909296473809
 30
0.0
  0
LINE
  5
85D
330
1E
100
AcDbEntity
  8
0
 62
     3
100
AcDbLine
 10
55.32619186926092
 20
402.6982899171811
 30
0.0
 11
60.85963913496084
 21
412.2825015501808
 31
0.0
  0
ARC
  5
85E
330
1E
100
AcDbEntity
  8
0
 62
     3
100
AcDbCircle
 10
68.48521800026083
 20
401.4907768180809
 30
0.0
 40
13.21429252619997
100
AcDbArc
 50
174.7560179906999
 51
185.2449482536997
  0
LINE
  5
85F
330
1E
100
AcDbEntity
  8
0
 62
     3
100
AcDbLine
 10
62.95180125226079
 20
389.4907768180809
 30
0.0
 11
74.01839060776092
 21
389.4907768180809
 31
0.0
  0
LINE
  5
860
330
1E
100
AcDbEntity
  8
0
 62
     3
100
AcDbLine
 10
78.88521189676089
 20
373.4909294059809
 30
0.0
 11
78.88521189676089
 21
383.9909294059809
 31
0.0
  0
LINE
  5
861
330
1E
100
AcDbEntity
  8
0
 62
     3
100
AcDbLine
 10
78.98518735516086
 20
382.6784296473809
 30
0.0
 11
78.98518735516086
 21
383.9909296473809
 31
0.0
  0
ARC
  5
862
330
1E
100
AcDbEntity
  8
0
 62
     3
100
AcDbCircle
 10
68.48521800026083
 20
401.4907768180809
 30
0.0
 40
13.21429252619997
100
AcDbArc
 50
294.7549184818
 51
305.245296745
  0
LINE
  5
863
330
1E
100
AcDbEntity
  8
0
 62
     3
100
AcDbLine
 10
79.7852363108609
 20
385.9909294059809
 30
0.0
 11
79.7852363108609
 21
386.9909294059808
 31
0.0
  0
POINT
  5
864
330
1E
100
AcDbEntity
  8
0
 62
     3
100
AcDbPoint
 10
78.98518735516086
 20
383.9909296473809
 30
0.0
  0
CIRCLE
  5
865
330
1E
100
AcDbEntity
  8
0
 62
     3
100
AcDbCircle
 10
68.48521800026083
 20
401.4907768180809
 30
0.0
 40
3.5
  0
LINE
  5
866
330
1E
100
AcDbEntity
  8
0
 62
     3
100
AcDbLine
 10
62.95180125226079
 20
413.4907768180809
 30
0.0
 11
74.01839060776092
 21
413.4907768180809
 31
0.0
  0
ARC
  5
867
330
1E
100
AcDbEntity
  8
0
 62
     3
100
AcDbCircle
 10
68.48521800026083
 20
401.4907768180809
 30
0.0
 40
13.21429252619997
100
AcDbArc
 50
54.7546588588
 51
65.2450268767
  0
LINE
  5
868
330
1E
100
AcDbEntity
  8
0
 62
     3
100
AcDbLine
 10
38.68538279526092
 20
416.4907768180809
 30
0.0
 11
50.2854804514609
 21
416.4907768180809
 31
0.0
  0
LINE
  5
869
330
1E
100
AcDbEntity
  8
0
 62
     3
100
AcDbLine
 10
38.68538279526092
 20
416.4907768180809
 30
0.0
 11
38.68538279526092
 21
415.9907768180808
 31
0.0
  0
LINE
  5
86A
330
1E
100
AcDbEntity
  8
0
 62
     3
100
AcDbLine
 10
64.98537058816089
 20
416.390679161881
 30
0.0
 11
53.98521800026088
 21
416.390679161881
 31
0.0
  0
LINE
  5
86B
330
1E
100
AcDbEntity
  8
0
 62
     3
100
AcDbLine
 10
58.98537058816089
 20
416.4907768180809
 30
0.0
 11
52.98537058816089
 21
416.4907768180809
 31
0.0
  0
LINE
  5
86C
330
1E
100
AcDbEntity
  8
0
 62
     3
100
AcDbLine
 10
53.98503489486092
 20
415.9907768180808
 30
0.0
 11
53.98503489486092
 21
416.390679161881
 31
0.0
  0
LINE
  5
86D
330
1E
100
AcDbEntity
  8
0
 62
     3
100
AcDbLine
 10
52.98537058816089
 20
415.9907768180808
 30
0.0
 11
52.98537058816089
 21
416.4907768180809
 31
0.0
  0
LINE
  5
86E
330
1E
100
AcDbEntity
  8
0
 62
     3
100
AcDbLine
 10
50.28538889876084
 20
416.4907768180809
 30
0.0
 11
50.28538889876084
 21
415.9907768180808
 31
0.0
  0
ARC
  5
86F
330
1E
100
AcDbEntity
  8
0
 62
     3
100
AcDbCircle
 10
50.28358836166091
 20
415.791069786881
 30
0.0
 40
0.1999999285
100
AcDbArc
 50
0.002768047553
 51
90.0054461652
  0
LINE
  5
870
330
1E
100
AcDbEntity
  8
0
 62
     3
100
AcDbLine
 10
58.98537058816089
 20
416.390679161881
 30
0.0
 11
58.98537058816089
 21
416.4907768180809
 31
0.0
  0
LINE
  5
871
330
1E
100
AcDbEntity
  8
0
 62
     3
100
AcDbLine
 10
64.98537058816089
 20
416.390679161881
 30
0.0
 11
64.98537058816089
 21
415.9907768180808
 31
0.0
  0
LINE
  5
872
330
1E
100
AcDbEntity
  8
0
 62
     3
100
AcDbLine
 10
71.98500437726079
 20
415.9907768180808
 30
0.0
 11
71.98500437726079
 21
416.390679161881
 31
0.0
  0
LINE
  5
873
330
1E
100
AcDbEntity
  8
0
 62
     3
100
AcDbLine
 10
77.9850043772609
 20
416.4907768180809
 30
0.0
 11
77.9850043772609
 21
416.390679161881
 31
0.0
  0
LINE
  5
874
330
1E
100
AcDbEntity
  8
0
 62
     3
100
AcDbLine
 10
86.48506541236088
 20
386.9909294059808
 30
0.0
 11
86.48506541236088
 21
415.9907768180808
 31
0.0
  0
LINE
  5
875
330
1E
100
AcDbEntity
  8
0
 62
     3
100
AcDbLine
 10
98.48506541236089
 20
413.4907768180809
 30
0.0
 11
98.48506541236089
 21
415.9907768180808
 31
0.0
  0
ARC
  5
876
330
1E
100
AcDbEntity
  8
0
 62
     3
100
AcDbCircle
 10
85.48521800026083
 20
373.4909294059809
 30
0.0
 40
1.0
100
AcDbArc
 50
270.0000179861
 51
0.0
  0
LINE
  5
877
330
1E
100
AcDbEntity
  8
0
 62
     3
100
AcDbLine
 10
84.48521800026083
 20
350.4905937126808
 30
0.0
 11
84.48521800026083
 21
363.4905937126808
 31
0.0
  0
LINE
  5
878
330
1E
100
AcDbEntity
  8
0
 62
     3
100
AcDbLine
 10
84.68538279526091
 20
364.9909294059809
 30
0.0
 11
84.28868479716085
 21
364.9909294059809
 31
0.0
  0
LINE
  5
879
330
1E
100
AcDbEntity
  8
0
 62
     3
100
AcDbLine
 10
84.68538279526091
 20
368.9909294059809
 30
0.0
 11
84.48521800026083
 21
368.9909294059809
 31
0.0
  0
LINE
  5
87A
330
1E
100
AcDbEntity
  8
0
 62
     3
100
AcDbLine
 10
84.28868479716085
 20
363.4905937126808
 30
0.0
 11
84.28868479716085
 21
368.9905937126809
 31
0.0
  0
LINE
  5
87B
330
1E
100
AcDbEntity
  8
0
 62
     3
100
AcDbLine
 10
84.28868479716085
 20
363.4905937126808
 30
0.0
 11
84.48521800026083
 21
363.4905937126808
 31
0.0
  0
LINE
  5
87C
330
1E
100
AcDbEntity
  8
0
 62
     3
100
AcDbLine
 10
84.48521800026083
 20
368.9905937126809
 30
0.0
 11
84.28868479716085
 21
368.9905937126809
 31
0.0
  0
LINE
  5
87D
330
1E
100
AcDbEntity
  8
0
 62
     3
100
AcDbLine
 10
84.48521800026083
 20
368.9905937126809
 30
0.0
 11
84.48521800026083
 21
372.4909294059809
 31
0.0
  0
LINE
  5
87E
330
1E
100
AcDbEntity
  8
0
 62
     3
100
AcDbLine
 10
84.88536448466083
 20
368.7909171989808
 30
0.0
 11
84.88536448466083
 21
365.190941612981
 31
0.0
  0
ARC
  5
87F
330
1E
100
AcDbEntity
  8
0
 62
     3
100
AcDbCircle
 10
84.68538279526091
 20
365.190941612981
 30
0.0
 40
0.1999999285
100
AcDbArc
 50
270.0000179861
 51
0.0
  0
ARC
  5
880
330
1E
100
AcDbEntity
  8
0
 62
     3
100
AcDbCircle
 10
84.68538279526091
 20
368.7909171989808
 30
0.0
 40
0.1999999285
100
AcDbArc
 50
0.0
 51
89.99998201389999
  0
ARC
  5
881
330
1E
100
AcDbEntity
  8
0
 62
     3
100
AcDbCircle
 10
97.48506541236089
 20
413.4907768180809
 30
0.0
 40
1.0
100
AcDbArc
 50
270.0000179861
 51
0.0
  0
LINE
  5
882
330
1E
100
AcDbEntity
  8
0
 62
     3
100
AcDbLine
 10
86.48521800026083
 20
386.9909294059808
 30
0.0
 11
86.48521800026083
 21
373.4909294059809
 31
0.0
  0
LINE
  5
883
330
1E
100
AcDbEntity
  8
0
 62
     3
100
AcDbLine
 10
85.98518735516085
 20
382.6784296473809
 30
0.0
 11
85.98518735516085
 21
383.9909296473809
 31
0.0
  0
LINE
  5
884
330
1E
100
AcDbEntity
  8
0
 62
     3
100
AcDbLine
 10
84.67268735516086
 20
381.3659296473808
 30
0.0
 11
80.29768735516086
 21
381.3659296473808
 31
0.0
  0
ARC
  5
885
330
1E
100
AcDbEntity
  8
0
 62
     3
100
AcDbCircle
 10
84.67268735516086
 20
382.6784296473809
 30
0.0
 40
1.3125
100
AcDbArc
 50
270.0000179860988
 51
0.0
  0
LINE
  5
886
330
1E
100
AcDbEntity
  8
0
 62
     3
100
AcDbLine
 10
83.2165717600608
 20
386.9909294059808
 30
0.0
 11
86.48521800026083
 21
386.9909294059808
 31
0.0
  0
LINE
  5
887
330
1E
100
AcDbEntity
  8
0
 62
     3
100
AcDbLine
 10
83.2165717600608
 20
385.9909294059809
 30
0.0
 11
83.2165717600608
 21
386.9909294059808
 31
0.0
  0
POINT
  5
888
330
1E
100
AcDbEntity
  8
0
 62
     3
100
AcDbPoint
 10
82.48518735516086
 20
383.9909296473809
 30
0.0
  0
POINT
  5
889
330
1E
100
AcDbEntity
  8
0
 62
     3
100
AcDbPoint
 10
83.48518735516085
 20
383.9909296473809
 30
0.0
  0
POINT
  5
88A
330
1E
100
AcDbEntity
  8
0
 62
     3
100
AcDbPoint
 10
82.48518735516086
 20
383.9909296473809
 30
0.0
  0
POINT
  5
88B
330
1E
100
AcDbEntity
  8
0
 62
     3
100
AcDbPoint
 10
82.48518735516086
 20
383.9909296473809
 30
0.0
  0
POINT
  5
88C
330
1E
100
AcDbEntity
  8
0
 62
     3
100
AcDbPoint
 10
84.45393735516086
 20
384.4284296473809
 30
0.0
  0
POINT
  5
88D
330
1E
100
AcDbEntity
  8
0
 62
     3
100
AcDbPoint
 10
80.51643735516085
 20
384.4284296473809
 30
0.0
  0
LINE
  5
88E
330
1E
100
AcDbEntity
  8
0
 62
     3
100
AcDbLine
 10
86.23225779526094
 20
385.9909294059809
 30
0.0
 11
86.23225779526094
 21
386.9909294059808
 31
0.0
  0
LINE
  5
88F
330
1E
100
AcDbEntity
  8
0
 62
     3
100
AcDbLine
 10
86.48521800026083
 20
385.9909294059809
 30
0.0
 11
86.00288767806091
 21
385.9909294059809
 31
0.0
  0
POINT
  5
890
330
1E
100
AcDbEntity
  8
0
 62
     3
100
AcDbPoint
 10
85.98518735516085
 20
383.9909296473809
 30
0.0
  0
LINE
  5
891
330
1E
100
AcDbEntity
  8
0
 62
     3
100
AcDbLine
 10
97.48506541236089
 20
412.4907768180809
 30
0.0
 11
86.48506541236088
 21
412.4907768180809
 31
0.0
  0
ARC
  5
892
330
1E
100
AcDbEntity
  8
0
 62
     3
100
AcDbCircle
 10
68.48521800026083
 20
401.4907768180809
 30
0.0
 40
13.21429252619997
100
AcDbArc
 50
354.7546708494999
 51
5.245291584400053
  0
LINE
  5
893
330
1E
100
AcDbEntity
  8
0
 62
     3
100
AcDbLine
 10
98.28505320536081
 20
416.4907768180809
 30
0.0
 11
86.6849555491609
 21
416.4907768180809
 31
0.0
  0
LINE
  5
894
330
1E
100
AcDbEntity
  8
0
 62
     3
100
AcDbLine
 10
82.98537058816089
 20
416.390679161881
 30
0.0
 11
82.98537058816089
 21
415.9907768180808
 31
0.0
  0
LINE
  5
895
330
1E
100
AcDbEntity
  8
0
 62
     3
100
AcDbLine
 10
83.9850043772609
 20
416.4907768180809
 30
0.0
 11
83.9850043772609
 21
415.9907768180808
 31
0.0
  0
LINE
  5
896
330
1E
100
AcDbEntity
  8
0
 62
     3
100
AcDbLine
 10
86.6849555491609
 20
415.9907768180808
 30
0.0
 11
86.6849555491609
 21
416.4907768180809
 31
0.0
  0
LINE
  5
897
330
1E
100
AcDbEntity
  8
0
 62
     3
100
AcDbLine
 10
98.28505320536081
 20
416.4907768180809
 30
0.0
 11
98.28505320536081
 21
415.9907768180808
 31
0.0
  0
ARC
  5
898
330
1E
100
AcDbEntity
  8
0
 62
     3
100
AcDbCircle
 10
181.463468975891
 20
174.389986303404
 30
0.0
 40
16.0
100
AcDbArc
 50
89.99998201389999
 51
270.0000006831999
  0
ARC
  5
899
330
1E
100
AcDbEntity
  8
0
 62
     3
100
AcDbCircle
 10
181.463468975891
 20
174.389986303404
 30
0.0
 40
18.0
100
AcDbArc
 50
89.99998201389999
 51
270.0000006831999
  0
LINE
  5
89A
330
1E
100
AcDbEntity
  8
0
  6
CENTERLINE
 62
     3
100
AcDbLine
 10
209.463468975891
 20
196.764284399104
 30
0.0
 11
209.463468975891
 21
154.4709494382041
 31
0.0
  0
LINE
  5
89B
330
1E
100
AcDbEntity
  8
0
 62
     3
100
AcDbLine
 10
235.263487286491
 20
166.4830038816041
 30
0.0
 11
235.263487286491
 21
190.389986303404
 31
0.0
  0
ARC
  5
89C
330
1E
100
AcDbEntity
  8
0
 62
     3
100
AcDbCircle
 10
206.2634567688909
 20
180.389986303404
 30
0.0
 40
10.0
100
AcDbArc
 50
101.0263115608999
 51
179.9999640277999
  0
LINE
  5
89D
330
1E
100
AcDbEntity
  8
0
 62
     3
100
AcDbLine
 10
237.2640366028909
 20
154.1332419187041
 30
0.0
 11
237.2640366028909
 21
209.7054465085041
 31
0.0
  0
LINE
  5
89E
330
1E
100
AcDbEntity
  8
0
 62
     3
100
AcDbLine
 10
242.7640671204909
 20
129.489473608104
 30
0.0
 11
242.7640671204909
 21
250.3893759519042
 31
0.0
  0
LINE
  5
89F
330
1E
100
AcDbEntity
  8
0
 62
     3
100
AcDbLine
 10
271.7634872864912
 20
129.389375951904
 30
0.0
 11
271.7634872864912
 21
250.3893759519042
 31
0.0
  0
LINE
  5
8A0
330
1E
100
AcDbEntity
  8
0
 62
     3
100
AcDbLine
 10
228.702391095091
 20
164.9830038816041
 30
0.0
 11
233.7634872864911
 21
164.9830038816041
 31
0.0
  0
LINE
  5
8A1
330
1E
100
AcDbEntity
  8
0
 62
     3
100
AcDbLine
 10
224.2634872864909
 20
161.4474509031039
 30
0.0
 11
233.7634872864911
 21
161.4474509031039
 31
0.0
  0
LINE
  5
8A2
330
1E
100
AcDbEntity
  8
0
 62
     3
100
AcDbLine
 10
223.263487286491
 20
163.0762961179041
 30
0.0
 11
233.7634872864911
 21
163.0762961179041
 31
0.0
  0
LINE
  5
8A3
330
1E
100
AcDbEntity
  8
0
 62
     3
100
AcDbLine
 10
206.2634567688909
 20
158.3899863034041
 30
0.0
 11
235.263487286491
 21
158.3899863034041
 31
0.0
  0
LINE
  5
8A4
330
1E
100
AcDbEntity
  8
0
  6
CENTERLINE
 62
     3
100
AcDbLine
 10
248.654173321591
 20
174.389986303404
 30
0.0
 11
155.1702560852911
 21
174.389986303404
 31
0.0
  0
LINE
  5
8A5
330
1E
100
AcDbEntity
  8
0
 62
     3
100
AcDbLine
 10
214.463468975891
 20
158.3899863034041
 30
0.0
 11
181.463468975891
 21
158.3899863034041
 31
0.0
  0
LINE
  5
8A6
330
1E
100
AcDbEntity
  8
0
 62
     3
100
AcDbLine
 10
214.463468975891
 20
156.3899863034041
 30
0.0
 11
181.463468975891
 21
156.3899863034041
 31
0.0
  0
ARC
  5
8A7
330
1E
100
AcDbEntity
  8
0
 62
     3
100
AcDbCircle
 10
206.2634567688909
 20
168.389986303404
 30
0.0
 40
10.0
100
AcDbArc
 50
180.0000359722
 51
258.9736884390999
  0
LINE
  5
8A8
330
1E
100
AcDbEntity
  8
0
 62
     3
100
AcDbLine
 10
213.4302360754911
 20
159.0015157390041
 30
0.0
 11
213.222668487691
 21
159.052330133904
 31
0.0
  0
LINE
  5
8A9
330
1E
100
AcDbEntity
  8
0
 62
     3
100
AcDbLine
 10
212.963468714991
 20
154.8900132006039
 30
0.0
 11
213.4634584561909
 21
155.390002983904
 31
0.0
  0
LINE
  5
8AA
330
1E
100
AcDbEntity
  8
0
 62
     3
100
AcDbLine
 10
214.4634994934909
 20
158.3899863034041
 30
0.0
 11
204.463468975891
 21
158.3899863034041
 31
0.0
  0
LINE
  5
8AB
330
1E
100
AcDbEntity
  8
0
 62
     3
100
AcDbLine
 10
213.463468975891
 20
156.090029028104
 30
0.0
 11
205.463468975891
 21
156.090029028104
 31
0.0
  0
LINE
  5
8AC
330
1E
100
AcDbEntity
  8
0
 62
     3
100
AcDbLine
 10
213.463468975891
 20
155.390016821004
 30
0.0
 11
205.463468975891
 21
155.390016821004
 31
0.0
  0
LINE
  5
8AD
330
1E
100
AcDbEntity
  8
0
 62
     3
100
AcDbLine
 10
204.7571743515911
 20
158.948434576104
 30
0.0
 11
204.638274454591
 21
158.8916010505039
 31
0.0
  0
LINE
  5
8AE
330
1E
100
AcDbEntity
  8
0
 62
     3
100
AcDbLine
 10
204.4634631822911
 20
158.390012441704
 30
0.0
 11
204.356819505591
 21
158.574724704804
 31
0.0
  0
LINE
  5
8AF
330
1E
100
AcDbEntity
  8
0
 62
     3
100
AcDbLine
 10
204.3711015715911
 20
158.6455274622039
 30
0.0
 11
204.357832379291
 21
158.5806296140041
 31
0.0
  0
LINE
  5
8B0
330
1E
100
AcDbEntity
  8
0
 62
     3
100
AcDbLine
 10
204.4059737165911
 20
158.7093412546041
 30
0.0
 11
204.3711015715911
 21
158.6455274622039
 31
0.0
  0
LINE
  5
8B1
330
1E
100
AcDbEntity
  8
0
 62
     3
100
AcDbLine
 10
204.4623008797911
 20
158.771800280604
 30
0.0
 11
204.4059737165911
 21
158.7093412546041
 31
0.0
  0
LINE
  5
8B2
330
1E
100
AcDbEntity
  8
0
 62
     3
100
AcDbLine
 10
204.5398441102911
 20
158.832639576604
 30
0.0
 11
204.4623008797911
 21
158.771800280604
 31
0.0
  0
LINE
  5
8B3
330
1E
100
AcDbEntity
  8
0
 62
     3
100
AcDbLine
 10
204.638274454591
 20
158.8916010505039
 30
0.0
 11
204.5398441102911
 21
158.832639576604
 31
0.0
  0
LINE
  5
8B4
330
1E
100
AcDbEntity
  8
0
 62
     3
100
AcDbLine
 10
212.963468975891
 20
154.890016821004
 30
0.0
 11
205.963468975891
 21
154.890016821004
 31
0.0
  0
LINE
  5
8B5
330
1E
100
AcDbEntity
  8
0
 62
     3
100
AcDbLine
 10
205.9634610775911
 20
154.8900219783041
 30
0.0
 11
205.4634713363909
 21
155.390011761604
 31
0.0
  0
LINE
  5
8B6
330
1E
100
AcDbEntity
  8
0
 62
     3
100
AcDbLine
 10
205.463468975891
 20
155.390016821004
 30
0.0
 11
205.463468975891
 21
156.3899863034041
 31
0.0
  0
LINE
  5
8B7
330
1E
100
AcDbEntity
  8
0
 62
     3
100
AcDbLine
 10
209.131080517391
 20
159.404302982204
 30
0.0
 11
208.800115170391
 21
159.4097995979042
 31
0.0
  0
LINE
  5
8B8
330
1E
100
AcDbEntity
  8
0
 62
     3
100
AcDbLine
 10
205.6381537886911
 20
159.192616514804
 30
0.0
 11
205.4261264348911
 21
159.149823798804
 31
0.0
  0
LINE
  5
8B9
330
1E
100
AcDbEntity
  8
0
 62
     3
100
AcDbLine
 10
205.8664090106909
 20
159.2320043158039
 30
0.0
 11
205.6381537886911
 21
159.192616514804
 31
0.0
  0
LINE
  5
8BA
330
1E
100
AcDbEntity
  8
0
 62
     3
100
AcDbLine
 10
206.109923797491
 20
159.267820110904
 30
0.0
 11
205.8664090106909
 21
159.2320043158039
 31
0.0
  0
LINE
  5
8BB
330
1E
100
AcDbEntity
  8
0
 62
     3
100
AcDbLine
 10
206.367665111291
 20
159.2999119624041
 30
0.0
 11
206.109923797491
 21
159.267820110904
 31
0.0
  0
LINE
  5
8BC
330
1E
100
AcDbEntity
  8
0
 62
     3
100
AcDbLine
 10
206.638539562991
 20
159.328143730504
 30
0.0
 11
206.367665111291
 21
159.2999119624041
 31
0.0
  0
LINE
  5
8BD
330
1E
100
AcDbEntity
  8
0
 62
     3
100
AcDbLine
 10
206.921398049791
 20
159.352395650404
 30
0.0
 11
206.638539562991
 21
159.328143730504
 31
0.0
  0
LINE
  5
8BE
330
1E
100
AcDbEntity
  8
0
 62
     3
100
AcDbLine
 10
207.2150406304911
 20
159.372564840804
 30
0.0
 11
206.921398049791
 21
159.352395650404
 31
0.0
  0
LINE
  5
8BF
330
1E
100
AcDbEntity
  8
0
 62
     3
100
AcDbLine
 10
207.518221615591
 20
159.3885657399041
 30
0.0
 11
207.2150406304911
 21
159.372564840804
 31
0.0
  0
LINE
  5
8C0
330
1E
100
AcDbEntity
  8
0
 62
     3
100
AcDbLine
 10
207.829654851691
 20
159.4003304688041
 30
0.0
 11
207.518221615591
 21
159.3885657399041
 31
0.0
  0
LINE
  5
8C1
330
1E
100
AcDbEntity
  8
0
 62
     3
100
AcDbLine
 10
208.1480191777909
 20
159.407809119204
 30
0.0
 11
207.829654851691
 21
159.4003304688041
 31
0.0
  0
LINE
  5
8C2
330
1E
100
AcDbEntity
  8
0
 62
     3
100
AcDbLine
 10
208.471964029891
 20
159.410969965204
 30
0.0
 11
208.1480191777909
 21
159.407809119204
 31
0.0
  0
LINE
  5
8C3
330
1E
100
AcDbEntity
  8
0
 62
     3
100
AcDbLine
 10
208.800115170391
 20
159.4097995979042
 30
0.0
 11
208.471964029891
 21
159.410969965204
 31
0.0
  0
LINE
  5
8C4
330
1E
100
AcDbEntity
  8
0
 62
     3
100
AcDbLine
 10
204.8960394047911
 20
159.0028990543039
 30
0.0
 11
204.7571743515911
 21
158.948434576104
 31
0.0
  0
LINE
  5
8C5
330
1E
100
AcDbEntity
  8
0
 62
     3
100
AcDbLine
 10
205.0542805211911
 20
159.0547634362041
 30
0.0
 11
204.8960394047911
 21
159.0028990543039
 31
0.0
  0
LINE
  5
8C6
330
1E
100
AcDbEntity
  8
0
 62
     3
100
AcDbLine
 10
205.231226410991
 20
159.1038077028041
 30
0.0
 11
205.0542805211911
 21
159.0547634362041
 31
0.0
  0
LINE
  5
8C7
330
1E
100
AcDbEntity
  8
0
 62
     3
100
AcDbLine
 10
205.4261264348911
 20
159.149823798804
 30
0.0
 11
205.231226410991
 21
159.1038077028041
 31
0.0
  0
LINE
  5
8C8
330
1E
100
AcDbEntity
  8
0
 62
     3
100
AcDbLine
 10
210.116101363491
 20
159.3859393450039
 30
0.0
 11
209.790486123091
 21
159.3923825903041
 31
0.0
  0
LINE
  5
8C9
330
1E
100
AcDbEntity
  8
0
 62
     3
100
AcDbLine
 10
210.4389219329909
 20
159.375231277504
 30
0.0
 11
210.116101363491
 21
159.3859393450039
 31
0.0
  0
LINE
  5
8CA
330
1E
100
AcDbEntity
  8
0
 62
     3
100
AcDbLine
 10
210.7575654648909
 20
159.360304241504
 30
0.0
 11
210.4389219329909
 21
159.375231277504
 31
0.0
  0
LINE
  5
8CB
330
1E
100
AcDbEntity
  8
0
 62
     3
100
AcDbLine
 10
211.0706674790909
 20
159.3412221568041
 30
0.0
 11
210.7575654648909
 21
159.360304241504
 31
0.0
  0
LINE
  5
8CC
330
1E
100
AcDbEntity
  8
0
 62
     3
100
AcDbLine
 10
211.3768872252909
 20
159.318066735804
 30
0.0
 11
211.0706674790909
 21
159.3412221568041
 31
0.0
  0
LINE
  5
8CD
330
1E
100
AcDbEntity
  8
0
 62
     3
100
AcDbLine
 10
211.674913424191
 20
159.290937133404
 30
0.0
 11
211.3768872252909
 21
159.318066735804
 31
0.0
  0
LINE
  5
8CE
330
1E
100
AcDbEntity
  8
0
 62
     3
100
AcDbLine
 10
211.9634698820909
 20
159.2599495228039
 30
0.0
 11
211.674913424191
 21
159.290937133404
 31
0.0
  0
LINE
  5
8CF
330
1E
100
AcDbEntity
  8
0
 62
     3
100
AcDbLine
 10
212.241320956691
 20
159.225236597604
 30
0.0
 11
211.9634698820909
 21
159.2599495228039
 31
0.0
  0
LINE
  5
8D0
330
1E
100
AcDbEntity
  8
0
 62
     3
100
AcDbLine
 10
212.507276847391
 20
159.1869470039041
 30
0.0
 11
212.241320956691
 21
159.225236597604
 31
0.0
  0
LINE
  5
8D1
330
1E
100
AcDbEntity
  8
0
 62
     3
100
AcDbLine
 10
212.7601986906911
 20
159.145244703504
 30
0.0
 11
212.507276847391
 21
159.1869470039041
 31
0.0
  0
LINE
  5
8D2
330
1E
100
AcDbEntity
  8
0
 62
     3
100
AcDbLine
 10
212.9990034367909
 20
159.100308271904
 30
0.0
 11
212.7601986906911
 21
159.145244703504
 31
0.0
  0
LINE
  5
8D3
330
1E
100
AcDbEntity
  8
0
 62
     3
100
AcDbLine
 10
213.222668487691
 20
159.052330133904
 30
0.0
 11
212.9990034367909
 21
159.100308271904
 31
0.0
  0
LINE
  5
8D4
330
1E
100
AcDbEntity
  8
0
 62
     3
100
AcDbLine
 10
209.4634560511909
 20
159.394503435804
 30
0.0
 11
209.131080517391
 21
159.404302982204
 31
0.0
  0
LINE
  5
8D5
330
1E
100
AcDbEntity
  8
0
 62
     3
100
AcDbLine
 10
209.790486123091
 20
159.3923825903041
 30
0.0
 11
209.463470545491
 21
159.3945334226041
 31
0.0
  0
LINE
  5
8D6
330
1E
100
AcDbEntity
  8
0
 62
     3
100
AcDbLine
 10
196.263487286491
 20
168.389986303404
 30
0.0
 11
196.263487286491
 21
180.389986303404
 31
0.0
  0
LINE
  5
8D7
330
1E
100
AcDbEntity
  8
0
 62
     3
100
AcDbLine
 10
219.263487286491
 20
166.4474509031039
 30
0.0
 11
219.263487286491
 21
174.389986303404
 31
0.0
  0
LINE
  5
8D8
330
1E
100
AcDbEntity
  8
0
 62
     3
100
AcDbLine
 10
227.9494238100911
 20
165.3249249662041
 30
0.0
 11
224.010510627991
 21
169.8315198691041
 31
0.0
  0
ARC
  5
8D9
330
1E
100
AcDbEntity
  8
0
 62
     3
100
AcDbCircle
 10
224.2634872864909
 20
166.4474509031039
 30
0.0
 40
5.0
100
AcDbArc
 50
180.0000359722
 51
270.0000179861
  0
ARC
  5
8DA
330
1E
100
AcDbEntity
  8
0
 62
     3
100
AcDbCircle
 10
223.263487286491
 20
167.076296117904
 30
0.0
 40
4.0
100
AcDbArc
 50
180.0000359722
 51
270.0000179861
  0
LINE
  5
8DB
330
1E
100
AcDbEntity
  8
0
 62
     3
100
AcDbLine
 10
214.463468975891
 20
156.3899863034041
 30
0.0
 11
214.463468975891
 21
158.3899863034041
 31
0.0
  0
LINE
  5
8DC
330
1E
100
AcDbEntity
  8
0
 62
     3
100
AcDbLine
 10
213.463468975891
 20
155.390016821004
 30
0.0
 11
213.463468975891
 21
156.3899863034041
 31
0.0
  0
LINE
  5
8DD
330
1E
100
AcDbEntity
  8
0
 62
     3
100
AcDbLine
 10
214.0828667886911
 20
158.7744097701041
 30
0.0
 11
213.947832886091
 21
158.834286050504
 31
0.0
  0
LINE
  5
8DE
330
1E
100
AcDbEntity
  8
0
 62
     3
100
AcDbLine
 10
214.1981197284909
 20
158.712887330104
 30
0.0
 11
214.0828667886911
 21
158.7744097701041
 31
0.0
  0
LINE
  5
8DF
330
1E
100
AcDbEntity
  8
0
 62
     3
100
AcDbLine
 10
214.2930981750911
 20
158.649982178804
 30
0.0
 11
214.1981197284909
 21
158.712887330104
 31
0.0
  0
LINE
  5
8E0
330
1E
100
AcDbEntity
  8
0
 62
     3
100
AcDbLine
 10
214.367395416191
 20
158.5859636857041
 30
0.0
 11
214.2930981750911
 21
158.649982178804
 31
0.0
  0
LINE
  5
8E1
330
1E
100
AcDbEntity
  8
0
 62
     3
100
AcDbLine
 10
214.4206932998911
 20
158.521105987804
 30
0.0
 11
214.367395416191
 21
158.5859636857041
 31
0.0
  0
LINE
  5
8E2
330
1E
100
AcDbEntity
  8
0
 62
     3
100
AcDbLine
 10
214.452763596391
 20
158.4556868154042
 30
0.0
 11
214.4206932998911
 21
158.521105987804
 31
0.0
  0
LINE
  5
8E3
330
1E
100
AcDbEntity
  8
0
 62
     3
100
AcDbLine
 10
214.463468975891
 20
158.3899863034041
 30
0.0
 11
214.452763596391
 21
158.4556868154042
 31
0.0
  0
LINE
  5
8E4
330
1E
100
AcDbEntity
  8
0
 62
     3
100
AcDbLine
 10
213.620817364491
 20
158.9480826822039
 30
0.0
 11
213.4302360754911
 21
159.0015157390041
 31
0.0
  0
LINE
  5
8E5
330
1E
100
AcDbEntity
  8
0
 62
     3
100
AcDbLine
 10
213.793596256491
 20
158.8922597720042
 30
0.0
 11
213.620817364491
 21
158.9480826822039
 31
0.0
  0
LINE
  5
8E6
330
1E
100
AcDbEntity
  8
0
 62
     3
100
AcDbLine
 10
213.947832886091
 20
158.834286050504
 30
0.0
 11
213.793596256491
 21
158.8922597720042
 31
0.0
  0
ARC
  5
8E7
330
1E
100
AcDbEntity
  8
0
 62
     3
100
AcDbCircle
 10
228.702391095091
 20
165.9830038816039
 30
0.0
 40
1.0
100
AcDbArc
 50
221.1545485141
 51
270.0000179861
  0
LINE
  5
8E8
330
1E
100
AcDbEntity
  8
0
 62
     3
100
AcDbLine
 10
221.763487286491
 20
176.889986303404
 30
0.0
 11
222.263487286491
 21
176.889986303404
 31
0.0
  0
CIRCLE
  5
8E9
330
1E
100
AcDbEntity
  8
0
 62
     3
100
AcDbCircle
 10
222.763487286491
 20
174.389986303404
 30
0.0
 40
2.0
  0
ARC
  5
8EA
330
1E
100
AcDbEntity
  8
0
 62
     3
100
AcDbCircle
 10
221.763487286491
 20
174.389986303404
 30
0.0
 40
2.5
100
AcDbArc
 50
89.99998201389999
 51
179.9999640277999
  0
ARC
  5
8EB
330
1E
100
AcDbEntity
  8
0
 62
     3
100
AcDbCircle
 10
224.763487286491
 20
171.940492895204
 30
0.0
 40
1.0
100
AcDbArc
 50
135.5846645346
 51
179.9999640277999
  0
LINE
  5
8EC
330
1E
100
AcDbEntity
  8
0
 62
     3
100
AcDbLine
 10
223.763487286491
 20
170.489595678404
 30
0.0
 11
223.763487286491
 21
171.940492895204
 31
0.0
  0
ARC
  5
8ED
330
1E
100
AcDbEntity
  8
0
 62
     3
100
AcDbCircle
 10
224.763487286491
 20
170.489595678404
 30
0.0
 40
1.0
100
AcDbArc
 50
180.0000359722
 51
221.1545485141
  0
ARC
  5
8EE
330
1E
100
AcDbEntity
  8
0
 62
     3
100
AcDbCircle
 10
222.263487286491
 20
174.389986303404
 30
0.0
 40
2.5
100
AcDbArc
 50
315.5846902615
 51
89.99998201389994
  0
LINE
  5
8EF
330
1E
100
AcDbEntity
  8
0
 62
     3
100
AcDbLine
 10
242.7638229797911
 20
129.389375951904
 30
0.0
 11
271.7634872864912
 21
129.389375951904
 31
0.0
  0
LINE
  5
8F0
330
1E
100
AcDbEntity
  8
0
 62
     3
100
AcDbLine
 10
237.2640366028909
 20
130.4894736081039
 30
0.0
 11
237.2640366028909
 21
148.6406576902042
 31
0.0
  0
ARC
  5
8F1
330
1E
100
AcDbEntity
  8
0
 62
     3
100
AcDbCircle
 10
238.2640671204909
 20
146.8893759519039
 30
0.0
 40
1.0
100
AcDbArc
 50
89.99998201389999
 51
179.9999093863
  0
LINE
  5
8F2
330
1E
100
AcDbEntity
  8
0
 62
     3
100
AcDbLine
 10
238.2640671204909
 20
129.489473608104
 30
0.0
 11
242.7640671204909
 21
129.489473608104
 31
0.0
  0
ARC
  5
8F3
330
1E
100
AcDbEntity
  8
0
 62
     3
100
AcDbCircle
 10
238.2640671204909
 20
130.4894736081039
 30
0.0
 40
1.0
100
AcDbArc
 50
179.9999093863
 51
269.9998914002
  0
LINE
  5
8F4
330
1E
100
AcDbEntity
  8
0
 62
     3
100
AcDbLine
 10
238.2640671204909
 20
161.389345434304
 30
0.0
 11
239.7640671204909
 21
161.389345434304
 31
0.0
  0
LINE
  5
8F5
330
1E
100
AcDbEntity
  8
0
 62
     3
100
AcDbLine
 10
238.4515672643909
 20
154.889406804604
 30
0.0
 11
239.7640672643909
 21
154.889406804604
 31
0.0
  0
LINE
  5
8F6
330
1E
100
AcDbEntity
  8
0
 62
     3
100
AcDbLine
 10
238.4515672643909
 20
147.889406804604
 30
0.0
 11
239.7640672643909
 21
147.889406804604
 31
0.0
  0
LINE
  5
8F7
330
1E
100
AcDbEntity
  8
0
 62
     3
100
AcDbLine
 10
238.2640671204909
 20
156.389345434304
 30
0.0
 11
239.7640671204909
 21
156.389345434304
 31
0.0
  0
LINE
  5
8F8
330
1E
100
AcDbEntity
  8
0
 62
     3
100
AcDbLine
 10
238.2640671204909
 20
147.889375951904
 30
0.0
 11
239.7640671204909
 21
147.889375951904
 31
0.0
  0
LINE
  5
8F9
330
1E
100
AcDbEntity
  8
0
 62
     3
100
AcDbLine
 10
237.1390672643911
 20
153.576906804604
 30
0.0
 11
237.1390672643911
 21
149.201906804604
 31
0.0
  0
ARC
  5
8FA
330
1E
100
AcDbEntity
  8
0
 62
     3
100
AcDbCircle
 10
238.4515672643909
 20
149.201906804604
 30
0.0
 40
1.3125
100
AcDbArc
 50
179.9999820138995
 51
269.9999640278006
  0
ARC
  5
8FB
330
1E
100
AcDbEntity
  8
0
 62
     3
100
AcDbCircle
 10
238.2640671204909
 20
157.3893759519039
 30
0.0
 40
1.0
100
AcDbArc
 50
179.9999093863
 51
269.9998914002
  0
ARC
  5
8FC
330
1E
100
AcDbEntity
  8
0
 62
     3
100
AcDbCircle
 10
238.4515672643909
 20
153.576906804604
 30
0.0
 40
1.3125
100
AcDbArc
 50
90.0
 51
179.9999820138995
  0
ARC
  5
8FD
330
1E
100
AcDbEntity
  8
0
 62
     3
100
AcDbCircle
 10
233.7634872864911
 20
161.576296117904
 30
0.0
 40
1.5
100
AcDbArc
 50
0.0
 51
89.99998201389999
  0
ARC
  5
8FE
330
1E
100
AcDbEntity
  8
0
 62
     3
100
AcDbCircle
 10
233.7634872864911
 20
159.947450903104
 30
0.0
 40
1.5
100
AcDbArc
 50
0.0
 51
89.99998201389999
  0
ARC
  5
8FF
330
1E
100
AcDbEntity
  8
0
 62
     3
100
AcDbCircle
 10
233.7634872864911
 20
166.4830038816041
 30
0.0
 40
1.5
100
AcDbArc
 50
270.0000179861
 51
0.0
  0
ARC
  5
900
330
1E
100
AcDbEntity
  8
0
 62
     3
100
AcDbCircle
 10
238.2640671204909
 20
162.3893454343041
 30
0.0
 40
1.0
100
AcDbArc
 50
179.9999093863
 51
269.9998914002
  0
LINE
  5
901
330
1E
100
AcDbEntity
  8
0
 62
     3
100
AcDbLine
 10
235.263487286491
 20
158.3899863034041
 30
0.0
 11
235.263487286491
 21
161.576296117904
 31
0.0
  0
LINE
  5
902
330
1E
100
AcDbEntity
  8
0
 62
     3
100
AcDbLine
 10
237.2640366028909
 20
160.789980199904
 30
0.0
 11
235.263487286491
 21
160.789980199904
 31
0.0
  0
LINE
  5
903
330
1E
100
AcDbEntity
  8
0
 62
     3
100
AcDbLine
 10
239.7640671204909
 20
147.889375951904
 30
0.0
 11
239.7640671204909
 21
161.389345434304
 31
0.0
  0
POINT
  5
904
330
1E
100
AcDbEntity
  8
0
 62
     3
100
AcDbPoint
 10
240.2015672643909
 20
149.420656804604
 30
0.0
  0
POINT
  5
905
330
1E
100
AcDbEntity
  8
0
 62
     3
100
AcDbPoint
 10
240.2015672643909
 20
153.3581568046042
 30
0.0
  0
LINE
  5
906
330
1E
100
AcDbEntity
  8
0
 62
     3
100
AcDbLine
 10
239.7640672643909
 20
154.889406804604
 30
0.0
 11
239.7640672643909
 21
147.889406804604
 31
0.0
  0
POINT
  5
907
330
1E
100
AcDbEntity
  8
0
 62
     3
100
AcDbPoint
 10
239.7640672643909
 20
151.3894068046042
 30
0.0
  0
POINT
  5
908
330
1E
100
AcDbEntity
  8
0
 62
     3
100
AcDbPoint
 10
239.7640672643909
 20
151.3894068046042
 30
0.0
  0
POINT
  5
909
330
1E
100
AcDbEntity
  8
0
 62
     3
100
AcDbPoint
 10
239.7640672643909
 20
147.889406804604
 30
0.0
  0
POINT
  5
90A
330
1E
100
AcDbEntity
  8
0
 62
     3
100
AcDbPoint
 10
239.7640672643909
 20
151.3894068046042
 30
0.0
  0
POINT
  5
90B
330
1E
100
AcDbEntity
  8
0
 62
     3
100
AcDbPoint
 10
239.7640672643909
 20
152.389406804604
 30
0.0
  0
POINT
  5
90C
330
1E
100
AcDbEntity
  8
0
 62
     3
100
AcDbPoint
 10
239.7640672643909
 20
154.889406804604
 30
0.0
  0
LINE
  5
90D
330
1E
100
AcDbEntity
  8
0
 62
     3
100
AcDbLine
 10
237.2640366028909
 20
187.9900229245041
 30
0.0
 11
235.263487286491
 21
187.9900229245041
 31
0.0
  0
LINE
  5
90E
330
1E
100
AcDbEntity
  8
0
 62
     3
100
AcDbLine
 10
272.2634872864912
 20
136.3893759519041
 30
0.0
 11
272.2634872864912
 21
142.3893759519041
 31
0.0
  0
LINE
  5
90F
330
1E
100
AcDbEntity
  8
0
 62
     3
100
AcDbLine
 10
271.7634872864912
 20
136.3893759519041
 30
0.0
 11
272.2634872864912
 21
136.3893759519041
 31
0.0
  0
LINE
  5
910
330
1E
100
AcDbEntity
  8
0
 62
     3
100
AcDbLine
 10
271.7634872864912
 20
142.3893759519041
 30
0.0
 11
272.2634872864912
 21
142.3893759519041
 31
0.0
  0
LINE
  5
911
330
1E
100
AcDbEntity
  8
0
 62
     3
100
AcDbLine
 10
204.463468975891
 20
190.389986303404
 30
0.0
 11
235.263487286491
 21
190.389986303404
 31
0.0
  0
LINE
  5
912
330
1E
100
AcDbEntity
  8
0
 62
     3
100
AcDbLine
 10
206.2634567688909
 20
190.389986303404
 30
0.0
 11
235.263487286491
 21
190.389986303404
 31
0.0
  0
LINE
  5
913
330
1E
100
AcDbEntity
  8
0
 62
     3
100
AcDbLine
 10
229.2634872864911
 20
242.886568334704
 30
0.0
 11
239.7640671204909
 21
242.886568334704
 31
0.0
  0
LINE
  5
914
330
1E
100
AcDbEntity
  8
0
 62
     3
100
AcDbLine
 10
229.2634872864911
 20
250.289278295604
 30
0.0
 11
242.7640671204909
 21
250.289278295604
 31
0.0
  0
LINE
  5
915
330
1E
100
AcDbEntity
  8
0
 62
     3
100
AcDbLine
 10
229.2634872864911
 20
208.3894064695042
 30
0.0
 11
237.2640366028909
 21
208.3894064695042
 31
0.0
  0
LINE
  5
916
330
1E
100
AcDbEntity
  8
0
 62
     3
100
AcDbLine
 10
154.8416022776607
 20
279.791322973404
 30
0.0
 11
154.8416022776607
 21
261.889253881604
 31
0.0
  0
LINE
  5
917
330
1E
100
AcDbEntity
  8
0
 62
     3
100
AcDbLine
 10
161.8416022776609
 20
279.791322973404
 30
0.0
 11
161.8416022776609
 21
261.889253881604
 31
0.0
  0
LINE
  5
918
330
1E
100
AcDbEntity
  8
0
 62
     3
100
AcDbLine
 10
157.2915839670607
 20
261.889253881604
 30
0.0
 11
157.2915839670607
 21
221.990297582704
 31
0.0
  0
LINE
  5
919
330
1E
100
AcDbEntity
  8
0
 62
     3
100
AcDbLine
 10
162.3165778635607
 20
221.990297582704
 30
0.0
 11
162.3165778635607
 21
230.0791952878041
 31
0.0
  0
LINE
  5
91A
330
1E
100
AcDbEntity
  8
0
 62
     3
100
AcDbLine
 10
163.3665961741608
 20
221.990297582704
 30
0.0
 11
163.3665961741608
 21
230.0791952878041
 31
0.0
  0
LINE
  5
91B
330
1E
100
AcDbEntity
  8
0
 62
     3
100
AcDbLine
 10
158.3416022776609
 20
221.990297582704
 30
0.0
 11
158.3416022776609
 21
261.889253881604
 31
0.0
  0
ARC
  5
91C
330
1E
100
AcDbEntity
  8
0
 62
     3
100
AcDbCircle
 10
158.3665961741608
 20
227.148927953804
 30
0.0
 40
8.9499969482
100
AcDbArc
 50
0.0
 51
30.0000008348
  0
ARC
  5
91D
330
1E
100
AcDbEntity
  8
0
 62
     3
100
AcDbCircle
 10
158.3665961741608
 20
227.148927953804
 30
0.0
 40
10.0
100
AcDbArc
 50
0.0
 51
30.0000008348
  0
LINE
  5
91E
330
1E
100
AcDbEntity
  8
0
 62
     3
100
AcDbLine
 10
153.3166083811608
 20
221.990297582704
 30
0.0
 11
153.3166083811608
 21
230.0791952878041
 31
0.0
  0
LINE
  5
91F
330
1E
100
AcDbEntity
  8
0
 62
     3
100
AcDbLine
 10
152.2665900705608
 20
221.990297582704
 30
0.0
 11
152.2665900705608
 21
230.0791952878041
 31
0.0
  0
LINE
  5
920
330
1E
100
AcDbEntity
  8
0
 62
     3
100
AcDbLine
 10
157.2915839670607
 20
221.990297582704
 30
0.0
 11
158.3416022776609
 21
221.990297582704
 31
0.0
  0
LINE
  5
921
330
1E
100
AcDbEntity
  8
0
 62
     3
100
AcDbLine
 10
157.5188483713609
 20
211.889253881604
 30
0.0
 11
158.1249274729608
 21
211.889253881604
 31
0.0
  0
LINE
  5
922
330
1E
100
AcDbEntity
  8
0
 62
     3
100
AcDbLine
 10
157.5188483713609
 20
211.889253881604
 30
0.0
 11
157.5188483713609
 21
221.990297582704
 31
0.0
  0
LINE
  5
923
330
1E
100
AcDbEntity
  8
0
 62
     3
100
AcDbLine
 10
153.0999335764609
 20
211.889253881604
 30
0.0
 11
153.0999335764609
 21
221.990297582704
 31
0.0
  0
LINE
  5
924
330
1E
100
AcDbEntity
  8
0
 62
     3
100
AcDbLine
 10
152.4938544748608
 20
211.889253881604
 30
0.0
 11
152.4938544748608
 21
221.990297582704
 31
0.0
  0
LINE
  5
925
330
1E
100
AcDbEntity
  8
0
 62
     3
100
AcDbLine
 10
152.4938544748608
 20
211.889253881604
 30
0.0
 11
153.0999335764609
 21
211.889253881604
 31
0.0
  0
LINE
  5
926
330
1E
100
AcDbEntity
  8
0
 62
     3
100
AcDbLine
 10
152.2665900705608
 20
221.990297582704
 30
0.0
 11
153.3166083811608
 21
221.990297582704
 31
0.0
  0
LINE
  5
927
330
1E
100
AcDbEntity
  8
0
 62
     3
100
AcDbLine
 10
163.1499213694608
 20
211.889253881604
 30
0.0
 11
163.1499213694608
 21
221.990297582704
 31
0.0
  0
LINE
  5
928
330
1E
100
AcDbEntity
  8
0
 62
     3
100
AcDbLine
 10
162.5438422678608
 20
211.889253881604
 30
0.0
 11
162.5438422678608
 21
221.990297582704
 31
0.0
  0
LINE
  5
929
330
1E
100
AcDbEntity
  8
0
 62
     3
100
AcDbLine
 10
158.1249274729608
 20
211.889253881604
 30
0.0
 11
158.1249274729608
 21
221.990297582704
 31
0.0
  0
LINE
  5
92A
330
1E
100
AcDbEntity
  8
0
 62
     3
100
AcDbLine
 10
162.5438422678608
 20
211.889253881604
 30
0.0
 11
163.1499213694608
 21
211.889253881604
 31
0.0
  0
LINE
  5
92B
330
1E
100
AcDbEntity
  8
0
 62
     3
100
AcDbLine
 10
162.3165778635607
 20
221.990297582704
 30
0.0
 11
163.3665961741608
 21
221.990297582704
 31
0.0
  0
LINE
  5
92C
330
1E
100
AcDbEntity
  8
0
 62
     3
100
AcDbLine
 10
168.1499213694609
 20
211.889253881604
 30
0.0
 11
168.1499213694609
 21
221.990297582704
 31
0.0
  0
LINE
  5
92D
330
1E
100
AcDbEntity
  8
0
 62
     3
100
AcDbLine
 10
167.5438422678609
 20
211.889253881604
 30
0.0
 11
167.5438422678609
 21
221.990297582704
 31
0.0
  0
LINE
  5
92E
330
1E
100
AcDbEntity
  8
0
 62
     3
100
AcDbLine
 10
167.5438422678609
 20
211.889253881604
 30
0.0
 11
168.1499213694609
 21
211.889253881604
 31
0.0
  0
LINE
  5
92F
330
1E
100
AcDbEntity
  8
0
 62
     3
100
AcDbLine
 10
167.3165778635606
 20
221.990297582704
 30
0.0
 11
167.3165778635606
 21
227.148927953804
 31
0.0
  0
LINE
  5
930
330
1E
100
AcDbEntity
  8
0
 62
     3
100
AcDbLine
 10
168.3665961741608
 20
221.990297582704
 30
0.0
 11
168.3665961741608
 21
227.148927953804
 31
0.0
  0
LINE
  5
931
330
1E
100
AcDbEntity
  8
0
 62
     3
100
AcDbLine
 10
167.3165778635606
 20
221.990297582704
 30
0.0
 11
168.3665961741608
 21
221.990297582704
 31
0.0
  0
LINE
  5
932
330
1E
100
AcDbEntity
  8
0
 62
     3
100
AcDbLine
 10
167.0268290973608
 20
232.1489334195041
 30
0.0
 11
163.1210826374608
 21
238.913884608204
 31
0.0
  0
LINE
  5
933
330
1E
100
AcDbEntity
  8
0
 62
     3
100
AcDbLine
 10
156.2415961741606
 20
238.196321752704
 30
0.0
 11
156.2415961741606
 21
261.889253881604
 31
0.0
  0
LINE
  5
934
330
1E
100
AcDbEntity
  8
0
 62
     3
100
AcDbLine
 10
159.3915900705608
 20
238.196321752704
 30
0.0
 11
159.3915900705608
 21
261.889253881604
 31
0.0
  0
LINE
  5
935
330
1E
100
AcDbEntity
  8
0
 62
     3
100
AcDbLine
 10
158.3416022776609
 20
238.196321752704
 30
0.0
 11
158.3416022776609
 21
261.889253881604
 31
0.0
  0
LINE
  5
936
330
1E
100
AcDbEntity
  8
0
 62
     3
100
AcDbLine
 10
160.4416083811609
 20
261.889253881604
 30
0.0
 11
160.4416083811609
 21
248.9138815671041
 31
0.0
  0
ARC
  5
937
330
1E
100
AcDbEntity
  8
0
 62
     3
100
AcDbCircle
 10
164.3915900705609
 20
238.196321752704
 30
0.0
 40
6.050003051799999
100
AcDbArc
 50
179.9999640277999
 51
224.9999823555
  0
LINE
  5
938
330
1E
100
AcDbEntity
  8
0
 62
     3
100
AcDbLine
 10
153.7310242952607
 20
233.6147184801039
 30
0.0
 11
154.7770969191609
 21
234.660791103904
 31
0.0
  0
ARC
  5
939
330
1E
100
AcDbEntity
  8
0
 62
     3
100
AcDbCircle
 10
157.2665900705609
 20
230.0791952878041
 30
0.0
 40
3.949996948199998
100
AcDbArc
 50
135.0000003415999
 51
179.9999640277999
  0
ARC
  5
93A
330
1E
100
AcDbEntity
  8
0
 62
     3
100
AcDbCircle
 10
157.2665900705609
 20
230.0791952878041
 30
0.0
 40
5.0
100
AcDbArc
 50
135.0000003415999
 51
179.9999640277999
  0
ARC
  5
93B
330
1E
100
AcDbEntity
  8
0
 62
     3
100
AcDbCircle
 10
151.2415961741608
 20
238.196321752704
 30
0.0
 40
6.050003051799999
100
AcDbArc
 50
314.9999987477997
 51
0.0
  0
LINE
  5
93C
330
1E
100
AcDbEntity
  8
0
 62
     3
100
AcDbLine
 10
154.4734777711608
 20
232.872265004204
 30
0.0
 11
155.5195503950607
 21
233.9183376280039
 31
0.0
  0
ARC
  5
93D
330
1E
100
AcDbEntity
  8
0
 62
     3
100
AcDbCircle
 10
151.2415961741608
 20
238.196321752704
 30
0.0
 40
5.0
100
AcDbArc
 50
314.9999987477997
 51
0.0
  0
ARC
  5
93E
330
1E
100
AcDbEntity
  8
0
 62
     3
100
AcDbCircle
 10
180.4416083811608
 20
248.9138815671041
 30
0.0
 40
21.0500030518
100
AcDbArc
 50
179.9999640277999
 51
209.9999580325
  0
ARC
  5
93F
330
1E
100
AcDbEntity
  8
0
 62
     3
100
AcDbCircle
 10
180.4416083811608
 20
248.9138815671041
 30
0.0
 40
20.0
100
AcDbArc
 50
179.9999640277999
 51
209.9999580325
  0
ARC
  5
940
330
1E
100
AcDbEntity
  8
0
 62
     3
100
AcDbCircle
 10
158.3665961741608
 20
230.0791952878041
 30
0.0
 40
3.949996948199998
100
AcDbArc
 50
0.0
 51
45.0000012522
  0
LINE
  5
941
330
1E
100
AcDbEntity
  8
0
 62
     3
100
AcDbLine
 10
166.1174997968609
 20
231.6239318936041
 30
0.0
 11
162.2117533368609
 21
238.388883082304
 31
0.0
  0
ARC
  5
942
330
1E
100
AcDbEntity
  8
0
 62
     3
100
AcDbCircle
 10
158.3665961741608
 20
230.0791952878041
 30
0.0
 40
5.0
100
AcDbArc
 50
0.0
 51
45.0000012522
  0
LINE
  5
943
330
1E
100
AcDbEntity
  8
0
 62
     3
100
AcDbLine
 10
161.1596590992608
 20
232.872265004204
 30
0.0
 11
160.1135864754608
 21
233.9183376280039
 31
0.0
  0
LINE
  5
944
330
1E
100
AcDbEntity
  8
0
 62
     3
100
AcDbLine
 10
161.9021125751609
 20
233.6147184801039
 30
0.0
 11
160.8560399513606
 21
234.660791103904
 31
0.0
  0
ARC
  5
945
330
1E
100
AcDbEntity
  8
0
 62
     3
100
AcDbCircle
 10
164.3915900705609
 20
238.196321752704
 30
0.0
 40
5.0
100
AcDbArc
 50
179.9999640277999
 51
224.9999823555
  0
LINE
  5
946
330
1E
100
AcDbEntity
  8
0
 62
     3
100
AcDbLine
 10
154.8416022776607
 20
261.889253881604
 30
0.0
 11
161.8416022776609
 21
261.889253881604
 31
0.0
  0
LINE
  5
947
330
1E
100
AcDbEntity
  8
0
 62
     3
100
AcDbLine
 10
214.463468975891
 20
190.3900168210041
 30
0.0
 11
181.463468975891
 21
190.3900168210041
 31
0.0
  0
LINE
  5
948
330
1E
100
AcDbEntity
  8
0
 62
     3
100
AcDbLine
 10
214.463468975891
 20
192.3900168210041
 30
0.0
 11
181.463468975891
 21
192.3900168210041
 31
0.0
  0
LINE
  5
949
330
1E
100
AcDbEntity
  8
0
 62
     3
100
AcDbLine
 10
228.2634872864909
 20
209.3894064695041
 30
0.0
 11
228.2634872864909
 21
249.2892782956041
 31
0.0
  0
LINE
  5
94A
330
1E
100
AcDbEntity
  8
0
 62
     3
100
AcDbLine
 10
213.222668487691
 20
189.7276625947041
 30
0.0
 11
213.4302360754911
 21
189.778475445904
 31
0.0
  0
LINE
  5
94B
330
1E
100
AcDbEntity
  8
0
 62
     3
100
AcDbLine
 10
204.638274454591
 20
189.888361791104
 30
0.0
 11
204.7571743515911
 21
189.831526404104
 31
0.0
  0
LINE
  5
94C
330
1E
100
AcDbEntity
  8
0
 62
     3
100
AcDbLine
 10
204.4634743249911
 20
190.389964573904
 30
0.0
 11
204.3568306481911
 21
190.2052523107039
 31
0.0
  0
LINE
  5
94D
330
1E
100
AcDbEntity
  8
0
 62
     3
100
AcDbLine
 10
204.5398441102911
 20
189.9473251678039
 30
0.0
 11
204.638274454591
 21
189.888361791104
 31
0.0
  0
LINE
  5
94E
330
1E
100
AcDbEntity
  8
0
 62
     3
100
AcDbLine
 10
204.4623008797911
 20
190.008166400104
 30
0.0
 11
204.5398441102911
 21
189.9473251678039
 31
0.0
  0
LINE
  5
94F
330
1E
100
AcDbEntity
  8
0
 62
     3
100
AcDbLine
 10
204.4059737165911
 20
190.0706273874041
 30
0.0
 11
204.4623008797911
 21
190.008166400104
 31
0.0
  0
LINE
  5
950
330
1E
100
AcDbEntity
  8
0
 62
     3
100
AcDbLine
 10
204.3711015715911
 20
190.1344431580039
 30
0.0
 11
204.4059737165911
 21
190.0706273874041
 31
0.0
  0
LINE
  5
951
330
1E
100
AcDbEntity
  8
0
 62
     3
100
AcDbLine
 10
204.357832379291
 20
190.199342992904
 30
0.0
 11
204.3711015715911
 21
190.1344431580039
 31
0.0
  0
LINE
  5
952
330
1E
100
AcDbEntity
  8
0
 62
     3
100
AcDbLine
 10
208.800115170391
 20
189.370142780004
 30
0.0
 11
209.131080517391
 21
189.375639187304
 31
0.0
  0
LINE
  5
953
330
1E
100
AcDbEntity
  8
0
 62
     3
100
AcDbLine
 10
205.963468975891
 20
192.3900168210041
 30
0.0
 11
212.963468975891
 21
192.3900168210041
 31
0.0
  0
LINE
  5
954
330
1E
100
AcDbEntity
  8
0
 62
     3
100
AcDbLine
 10
211.463468975891
 20
193.690004614004
 30
0.0
 11
207.463468975891
 21
193.690004614004
 31
0.0
  0
LINE
  5
955
330
1E
100
AcDbEntity
  8
0
 62
     3
100
AcDbLine
 10
211.1634811829909
 20
193.9900229245041
 30
0.0
 11
207.7634872864908
 21
193.9900229245041
 31
0.0
  0
LINE
  5
956
330
1E
100
AcDbEntity
  8
0
 62
     3
100
AcDbLine
 10
211.463468975891
 20
192.990022924504
 30
0.0
 11
207.463468975891
 21
192.990022924504
 31
0.0
  0
LINE
  5
957
330
1E
100
AcDbEntity
  8
0
 62
     3
100
AcDbLine
 10
205.963468975891
 20
192.990022924504
 30
0.0
 11
212.963468975891
 21
192.990022924504
 31
0.0
  0
LINE
  5
958
330
1E
100
AcDbEntity
  8
0
 62
     3
100
AcDbLine
 10
205.963468975891
 20
192.3900168210041
 30
0.0
 11
205.963468975891
 21
192.990022924504
 31
0.0
  0
LINE
  5
959
330
1E
100
AcDbEntity
  8
0
 62
     3
100
AcDbLine
 10
208.471964029891
 20
189.3689727494041
 30
0.0
 11
208.800115170391
 21
189.370142780004
 31
0.0
  0
LINE
  5
95A
330
1E
100
AcDbEntity
  8
0
 62
     3
100
AcDbLine
 10
208.1480191777909
 20
189.372134058904
 30
0.0
 11
208.471964029891
 21
189.3689727494041
 31
0.0
  0
LINE
  5
95B
330
1E
100
AcDbEntity
  8
0
 62
     3
100
AcDbLine
 10
207.829654851691
 20
189.379613297604
 30
0.0
 11
208.1480191777909
 21
189.372134058904
 31
0.0
  0
LINE
  5
95C
330
1E
100
AcDbEntity
  8
0
 62
     3
100
AcDbLine
 10
207.518221615591
 20
189.391378737204
 30
0.0
 11
207.829654851691
 21
189.379613297604
 31
0.0
  0
LINE
  5
95D
330
1E
100
AcDbEntity
  8
0
 62
     3
100
AcDbLine
 10
207.2150406304911
 20
189.407380466304
 30
0.0
 11
207.518221615591
 21
189.391378737204
 31
0.0
  0
LINE
  5
95E
330
1E
100
AcDbEntity
  8
0
 62
     3
100
AcDbLine
 10
206.921398049791
 20
189.427550602504
 30
0.0
 11
207.2150406304911
 21
189.407380466304
 31
0.0
  0
LINE
  5
95F
330
1E
100
AcDbEntity
  8
0
 62
     3
100
AcDbLine
 10
206.638539562991
 20
189.451803580104
 30
0.0
 11
206.921398049791
 21
189.427550602504
 31
0.0
  0
LINE
  5
960
330
1E
100
AcDbEntity
  8
0
 62
     3
100
AcDbLine
 10
206.367665111291
 20
189.4800365131039
 30
0.0
 11
206.638539562991
 21
189.451803580104
 31
0.0
  0
LINE
  5
961
330
1E
100
AcDbEntity
  8
0
 62
     3
100
AcDbLine
 10
206.109923797491
 20
189.512129632004
 30
0.0
 11
206.367665111291
 21
189.4800365131039
 31
0.0
  0
LINE
  5
962
330
1E
100
AcDbEntity
  8
0
 62
     3
100
AcDbLine
 10
205.8664090106909
 20
189.547946791304
 30
0.0
 11
206.109923797491
 21
189.512129632004
 31
0.0
  0
LINE
  5
963
330
1E
100
AcDbEntity
  8
0
 62
     3
100
AcDbLine
 10
205.6381537886911
 20
189.5873360478041
 30
0.0
 11
205.8664090106909
 21
189.547946791304
 31
0.0
  0
LINE
  5
964
330
1E
100
AcDbEntity
  8
0
 62
     3
100
AcDbLine
 10
205.4261264348911
 20
189.630130304404
 30
0.0
 11
205.6381537886911
 21
189.5873360478041
 31
0.0
  0
LINE
  5
965
330
1E
100
AcDbEntity
  8
0
 62
     3
100
AcDbLine
 10
207.463475158091
 20
193.690004318304
 30
0.0
 11
207.7634906072911
 21
193.990019742204
 31
0.0
  0
LINE
  5
966
330
1E
100
AcDbEntity
  8
0
 62
     3
100
AcDbLine
 10
207.463468975891
 20
192.990022924504
 30
0.0
 11
207.463468975891
 21
193.690004614004
 31
0.0
  0
LINE
  5
967
330
1E
100
AcDbEntity
  8
0
 62
     3
100
AcDbLine
 10
205.0542805211911
 20
189.7251939767039
 30
0.0
 11
205.231226410991
 21
189.6761480194039
 31
0.0
  0
LINE
  5
968
330
1E
100
AcDbEntity
  8
0
 62
     3
100
AcDbLine
 10
204.8960394047911
 20
189.777060113704
 30
0.0
 11
205.0542805211911
 21
189.7251939767039
 31
0.0
  0
LINE
  5
969
330
1E
100
AcDbEntity
  8
0
 62
     3
100
AcDbLine
 10
204.7571743515911
 20
189.831526404104
 30
0.0
 11
204.8960394047911
 21
189.777060113704
 31
0.0
  0
LINE
  5
96A
330
1E
100
AcDbEntity
  8
0
 62
     3
100
AcDbLine
 10
205.231226410991
 20
189.6761480194039
 30
0.0
 11
205.4261264348911
 21
189.630130304404
 31
0.0
  0
LINE
  5
96B
330
1E
100
AcDbEntity
  8
0
 62
     3
100
AcDbLine
 10
212.963468975891
 20
192.3900168210041
 30
0.0
 11
212.963468975891
 21
192.990022924504
 31
0.0
  0
LINE
  5
96C
330
1E
100
AcDbEntity
  8
0
 62
     3
100
AcDbLine
 10
212.9990034367909
 20
189.6796859142041
 30
0.0
 11
213.222668487691
 21
189.7276625947041
 31
0.0
  0
LINE
  5
96D
330
1E
100
AcDbEntity
  8
0
 62
     3
100
AcDbLine
 10
212.7601986906911
 20
189.6347508477042
 30
0.0
 11
212.9990034367909
 21
189.6796859142041
 31
0.0
  0
LINE
  5
96E
330
1E
100
AcDbEntity
  8
0
 62
     3
100
AcDbLine
 10
212.507276847391
 20
189.5930498142041
 30
0.0
 11
212.7601986906911
 21
189.6347508477042
 31
0.0
  0
LINE
  5
96F
330
1E
100
AcDbEntity
  8
0
 62
     3
100
AcDbLine
 10
212.241320956691
 20
189.554761383704
 30
0.0
 11
212.507276847391
 21
189.5930498142041
 31
0.0
  0
LINE
  5
970
330
1E
100
AcDbEntity
  8
0
 62
     3
100
AcDbLine
 10
211.9634698820909
 20
189.5200495131039
 30
0.0
 11
212.241320956691
 21
189.554761383704
 31
0.0
  0
LINE
  5
971
330
1E
100
AcDbEntity
  8
0
 62
     3
100
AcDbLine
 10
211.674913424191
 20
189.489062843904
 30
0.0
 11
211.9634698820909
 21
189.5200495131039
 31
0.0
  0
LINE
  5
972
330
1E
100
AcDbEntity
  8
0
 62
     3
100
AcDbLine
 10
211.3768872252909
 20
189.461934065704
 30
0.0
 11
211.674913424191
 21
189.489062843904
 31
0.0
  0
LINE
  5
973
330
1E
100
AcDbEntity
  8
0
 62
     3
100
AcDbLine
 10
211.0706674790909
 20
189.4387793481041
 30
0.0
 11
211.3768872252909
 21
189.461934065704
 31
0.0
  0
LINE
  5
974
330
1E
100
AcDbEntity
  8
0
 62
     3
100
AcDbLine
 10
210.7575654648909
 20
189.419697843104
 30
0.0
 11
211.0706674790909
 21
189.4387793481041
 31
0.0
  0
LINE
  5
975
330
1E
100
AcDbEntity
  8
0
 62
     3
100
AcDbLine
 10
210.4389219329909
 20
189.4047712605041
 30
0.0
 11
210.7575654648909
 21
189.419697843104
 31
0.0
  0
LINE
  5
976
330
1E
100
AcDbEntity
  8
0
 62
     3
100
AcDbLine
 10
210.116101363491
 20
189.394063518404
 30
0.0
 11
210.4389219329909
 21
189.4047712605041
 31
0.0
  0
LINE
  5
977
330
1E
100
AcDbEntity
  8
0
 62
     3
100
AcDbLine
 10
209.790486123091
 20
189.387620468804
 30
0.0
 11
210.116101363491
 21
189.394063518404
 31
0.0
  0
LINE
  5
978
330
1E
100
AcDbEntity
  8
0
 62
     3
100
AcDbLine
 10
211.4634546344909
 20
193.6900386990039
 30
0.0
 11
211.163439185291
 21
193.9900541229042
 31
0.0
  0
LINE
  5
979
330
1E
100
AcDbEntity
  8
0
 62
     3
100
AcDbLine
 10
211.463468975891
 20
192.990022924504
 30
0.0
 11
211.463468975891
 21
193.690004614004
 31
0.0
  0
LINE
  5
97A
330
1E
100
AcDbEntity
  8
0
 62
     3
100
AcDbLine
 10
209.131080517391
 20
189.375639187304
 30
0.0
 11
209.4634560511909
 21
189.385438654404
 31
0.0
  0
LINE
  5
97B
330
1E
100
AcDbEntity
  8
0
 62
     3
100
AcDbLine
 10
209.463470545491
 20
189.3854697019041
 30
0.0
 11
209.790486123091
 21
189.387620468804
 31
0.0
  0
ARC
  5
97C
330
1E
100
AcDbEntity
  8
0
 62
     3
100
AcDbCircle
 10
229.2634872864911
 20
209.3894064695041
 30
0.0
 40
1.0
100
AcDbArc
 50
180.0000359722
 51
270.0000179861
  0
LINE
  5
97D
330
1E
100
AcDbEntity
  8
0
 62
     3
100
AcDbLine
 10
214.463468975891
 20
192.3900168210041
 30
0.0
 11
214.463468975891
 21
190.389986303404
 31
0.0
  0
LINE
  5
97E
330
1E
100
AcDbEntity
  8
0
 62
     3
100
AcDbLine
 10
214.452763596391
 20
190.3242877874041
 30
0.0
 11
214.463468975891
 21
190.389986303404
 31
0.0
  0
LINE
  5
97F
330
1E
100
AcDbEntity
  8
0
 62
     3
100
AcDbLine
 10
214.4206932998911
 20
190.2588706025042
 30
0.0
 11
214.452763596391
 21
190.3242877874041
 31
0.0
  0
LINE
  5
980
330
1E
100
AcDbEntity
  8
0
 62
     3
100
AcDbLine
 10
214.367395416191
 20
190.1940148748041
 30
0.0
 11
214.4206932998911
 21
190.2588706025042
 31
0.0
  0
LINE
  5
981
330
1E
100
AcDbEntity
  8
0
 62
     3
100
AcDbLine
 10
214.2930981750911
 20
190.129998326604
 30
0.0
 11
214.367395416191
 21
190.1940148748041
 31
0.0
  0
LINE
  5
982
330
1E
100
AcDbEntity
  8
0
 62
     3
100
AcDbLine
 10
214.1981197284909
 20
190.0670950864039
 30
0.0
 11
214.2930981750911
 21
190.129998326604
 31
0.0
  0
LINE
  5
983
330
1E
100
AcDbEntity
  8
0
 62
     3
100
AcDbLine
 10
214.0828667886911
 20
190.0055745153039
 30
0.0
 11
214.1981197284909
 21
190.0670950864039
 31
0.0
  0
LINE
  5
984
330
1E
100
AcDbEntity
  8
0
 62
     3
100
AcDbLine
 10
213.947832886091
 20
189.945700053904
 30
0.0
 11
214.0828667886911
 21
190.0055745153039
 31
0.0
  0
LINE
  5
985
330
1E
100
AcDbEntity
  8
0
 62
     3
100
AcDbLine
 10
213.620817364491
 20
189.8319068794041
 30
0.0
 11
213.793596256491
 21
189.8877280937039
 31
0.0
  0
LINE
  5
986
330
1E
100
AcDbEntity
  8
0
 62
     3
100
AcDbLine
 10
213.4302360754911
 20
189.778475445904
 30
0.0
 11
213.620817364491
 21
189.8319068794041
 31
0.0
  0
LINE
  5
987
330
1E
100
AcDbEntity
  8
0
 62
     3
100
AcDbLine
 10
213.793596256491
 20
189.8877280937039
 30
0.0
 11
213.947832886091
 21
189.945700053904
 31
0.0
  0
LINE
  5
988
330
1E
100
AcDbEntity
  8
0
 62
     3
100
AcDbLine
 10
227.663877911491
 20
211.988619115904
 30
0.0
 11
227.663877911491
 21
224.3887656003039
 31
0.0
  0
ARC
  5
989
330
1E
100
AcDbEntity
  8
0
 62
     3
100
AcDbCircle
 10
233.563902325591
 20
218.188570287804
 30
0.0
 40
10.0
100
AcDbArc
 50
142.53708677
 51
217.4627866442
  0
LINE
  5
98A
330
1E
100
AcDbEntity
  8
0
 62
     3
100
AcDbLine
 10
224.818876690791
 20
222.6880209714039
 30
0.0
 11
224.818876690791
 21
213.6055014402042
 31
0.0
  0
LINE
  5
98B
330
1E
100
AcDbEntity
  8
0
 62
     3
100
AcDbLine
 10
224.5597214172911
 20
222.2956869870041
 30
0.0
 11
224.5597214172911
 21
214.1582358152041
 31
0.0
  0
LINE
  5
98C
330
1E
100
AcDbEntity
  8
0
 62
     3
100
AcDbLine
 10
227.664061016991
 20
213.099916723404
 30
0.0
 11
225.4900192688909
 21
213.099916723404
 31
0.0
  0
LINE
  5
98D
330
1E
100
AcDbEntity
  8
0
 62
     3
100
AcDbLine
 10
227.664061016991
 20
212.767641332704
 30
0.0
 11
225.4900192688909
 21
212.767641332704
 31
0.0
  0
LINE
  5
98E
330
1E
100
AcDbEntity
  8
0
 62
     3
100
AcDbLine
 10
227.664061016991
 20
212.4910300046039
 30
0.0
 11
225.4900192688909
 21
212.4910300046039
 31
0.0
  0
LINE
  5
98F
330
1E
100
AcDbEntity
  8
0
 62
     3
100
AcDbLine
 10
227.664061016991
 20
212.2730124265042
 30
0.0
 11
225.4900192688909
 21
212.2730124265042
 31
0.0
  0
LINE
  5
990
330
1E
100
AcDbEntity
  8
0
 62
     3
100
AcDbLine
 10
227.664061016991
 20
212.115541723404
 30
0.0
 11
225.619657940791
 21
212.115541723404
 31
0.0
  0
LINE
  5
991
330
1E
100
AcDbEntity
  8
0
 62
     3
100
AcDbLine
 10
225.864530987691
 20
211.988619115904
 30
0.0
 11
227.663877911491
 21
211.988619115904
 31
0.0
  0
LINE
  5
992
330
1E
100
AcDbEntity
  8
0
 62
     3
100
AcDbLine
 10
227.664061016991
 20
217.874574926504
 30
0.0
 11
225.4900192688909
 21
217.874574926504
 31
0.0
  0
LINE
  5
993
330
1E
100
AcDbEntity
  8
0
 62
     3
100
AcDbLine
 10
227.664061016991
 20
217.2498190671041
 30
0.0
 11
225.4900192688909
 21
217.2498190671041
 31
0.0
  0
LINE
  5
994
330
1E
100
AcDbEntity
  8
0
 62
     3
100
AcDbLine
 10
227.664061016991
 20
216.634584692104
 30
0.0
 11
225.4900192688909
 21
216.634584692104
 31
0.0
  0
LINE
  5
995
330
1E
100
AcDbEntity
  8
0
 62
     3
100
AcDbLine
 10
227.664061016991
 20
216.035219457704
 30
0.0
 11
225.4900192688909
 21
216.035219457704
 31
0.0
  0
LINE
  5
996
330
1E
100
AcDbEntity
  8
0
 62
     3
100
AcDbLine
 10
227.664061016991
 20
215.458071020204
 30
0.0
 11
225.4900192688909
 21
215.458071020204
 31
0.0
  0
LINE
  5
997
330
1E
100
AcDbEntity
  8
0
 62
     3
100
AcDbLine
 10
227.664061016991
 20
214.908998754604
 30
0.0
 11
225.4900192688909
 21
214.908998754604
 31
0.0
  0
LINE
  5
998
330
1E
100
AcDbEntity
  8
0
 62
     3
100
AcDbLine
 10
227.664061016991
 20
214.393617895204
 30
0.0
 11
225.4900192688909
 21
214.393617895204
 31
0.0
  0
LINE
  5
999
330
1E
100
AcDbEntity
  8
0
 62
     3
100
AcDbLine
 10
227.664061016991
 20
213.917055395204
 30
0.0
 11
225.4900192688909
 21
213.917055395204
 31
0.0
  0
LINE
  5
99A
330
1E
100
AcDbEntity
  8
0
 62
     3
100
AcDbLine
 10
227.664061016991
 20
213.4841940671041
 30
0.0
 11
225.4900192688909
 21
213.4841940671041
 31
0.0
  0
LINE
  5
99B
330
1E
100
AcDbEntity
  8
0
 62
     3
100
AcDbLine
 10
225.4899887512911
 20
218.502718237004
 30
0.0
 11
227.6640304993911
 21
218.502718237004
 31
0.0
  0
LINE
  5
99C
330
1E
100
AcDbEntity
  8
0
 62
     3
100
AcDbLine
 10
225.4899887512911
 20
219.127474096404
 30
0.0
 11
227.6640304993911
 21
219.127474096404
 31
0.0
  0
ARC
  5
99D
330
1E
100
AcDbEntity
  8
0
 62
     3
100
AcDbCircle
 10
225.864561505191
 20
212.288667944104
 30
0.0
 40
0.2999999522999999
100
AcDbArc
 50
217.46291323
 51
270.0000726275999
  0
LINE
  5
99E
330
1E
100
AcDbEntity
  8
0
 62
     3
100
AcDbLine
 10
227.6640304993911
 20
212.188509252704
 30
0.0
 11
228.264036602891
 21
212.188509252704
 31
0.0
  0
LINE
  5
99F
330
1E
100
AcDbEntity
  8
0
 62
     3
100
AcDbLine
 10
225.4899887512911
 20
219.742708471404
 30
0.0
 11
227.6640304993911
 21
219.742708471404
 31
0.0
  0
LINE
  5
9A0
330
1E
100
AcDbEntity
  8
0
 62
     3
100
AcDbLine
 10
225.4899887512911
 20
220.3418295652042
 30
0.0
 11
227.6640304993911
 21
220.3418295652042
 31
0.0
  0
LINE
  5
9A1
330
1E
100
AcDbEntity
  8
0
 62
     3
100
AcDbLine
 10
225.4899887512911
 20
220.9189780027041
 30
0.0
 11
227.6640304993911
 21
220.9189780027041
 31
0.0
  0
LINE
  5
9A2
330
1E
100
AcDbEntity
  8
0
 62
     3
100
AcDbLine
 10
225.4899887512911
 20
221.468294408904
 30
0.0
 11
227.6640304993911
 21
221.468294408904
 31
0.0
  0
LINE
  5
9A3
330
1E
100
AcDbEntity
  8
0
 62
     3
100
AcDbLine
 10
225.4899887512911
 20
221.9836752683042
 30
0.0
 11
227.6640304993911
 21
221.9836752683042
 31
0.0
  0
LINE
  5
9A4
330
1E
100
AcDbEntity
  8
0
 62
     3
100
AcDbLine
 10
225.4899887512911
 20
222.460237768304
 30
0.0
 11
227.6640304993911
 21
222.460237768304
 31
0.0
  0
LINE
  5
9A5
330
1E
100
AcDbEntity
  8
0
 62
     3
100
AcDbLine
 10
225.4899887512911
 20
222.8928549558041
 30
0.0
 11
227.6640304993911
 21
222.8928549558041
 31
0.0
  0
LINE
  5
9A6
330
1E
100
AcDbEntity
  8
0
 62
     3
100
AcDbLine
 10
225.4899887512911
 20
223.2773764402042
 30
0.0
 11
227.6640304993911
 21
223.2773764402042
 31
0.0
  0
LINE
  5
9A7
330
1E
100
AcDbEntity
  8
0
 62
     3
100
AcDbLine
 10
225.4899887512911
 20
223.6096518308041
 30
0.0
 11
227.6640304993911
 21
223.6096518308041
 31
0.0
  0
LINE
  5
9A8
330
1E
100
AcDbEntity
  8
0
 62
     3
100
AcDbLine
 10
225.4899887512911
 20
223.886263158904
 30
0.0
 11
227.6640304993911
 21
223.886263158904
 31
0.0
  0
LINE
  5
9A9
330
1E
100
AcDbEntity
  8
0
 62
     3
100
AcDbLine
 10
225.5013718079909
 20
224.1042807370041
 30
0.0
 11
227.6640304993911
 21
224.1042807370041
 31
0.0
  0
LINE
  5
9AA
330
1E
100
AcDbEntity
  8
0
 62
     3
100
AcDbLine
 10
225.619657940791
 20
224.2617514402041
 30
0.0
 11
227.6640304993911
 21
224.2617514402041
 31
0.0
  0
LINE
  5
9AB
330
1E
100
AcDbEntity
  8
0
 62
     3
100
AcDbLine
 10
225.864561505191
 20
224.3887656003039
 30
0.0
 11
227.663877911491
 21
224.3887656003039
 31
0.0
  0
ARC
  5
9AC
330
1E
100
AcDbEntity
  8
0
 62
     3
100
AcDbCircle
 10
225.864561505191
 20
224.088716772204
 30
0.0
 40
0.2999999522999999
100
AcDbArc
 50
89.99992737239997
 51
142.5370321285
  0
LINE
  5
9AD
330
1E
100
AcDbEntity
  8
0
 62
     3
100
AcDbLine
 10
227.6640304993911
 20
224.1885092527041
 30
0.0
 11
228.264036602891
 21
224.1885092527041
 31
0.0
  0
ARC
  5
9AE
330
1E
100
AcDbEntity
  8
0
 62
     3
100
AcDbCircle
 10
229.2634872864911
 20
249.2892782956041
 30
0.0
 40
1.0
100
AcDbArc
 50
89.99998201389999
 51
179.9999640277999
  0
ARC
  5
9AF
330
1E
100
AcDbEntity
  8
0
 62
     3
100
AcDbCircle
 10
229.2634872864911
 20
241.886568334704
 30
0.0
 40
1.0
100
AcDbArc
 50
89.99998201389999
 51
179.9999640277999
  0
LINE
  5
9B0
330
1E
100
AcDbEntity
  8
0
 62
     3
100
AcDbLine
 10
246.4718002747911
 20
259.7464621335041
 30
0.0
 11
246.4718002747911
 21
272.2464621335041
 31
0.0
  0
LINE
  5
9B1
330
1E
100
AcDbEntity
  8
0
 62
     3
100
AcDbLine
 10
268.0558762024911
 20
259.7464621335041
 30
0.0
 11
268.0558762024911
 21
272.2464621335041
 31
0.0
  0
LINE
  5
9B2
330
1E
100
AcDbEntity
  8
0
 62
     3
100
AcDbLine
 10
256.055723614591
 20
259.7464621335041
 30
0.0
 11
256.055723614591
 21
272.2464621335041
 31
0.0
  0
LINE
  5
9B3
330
1E
100
AcDbEntity
  8
0
 62
     3
100
AcDbLine
 10
269.2635483215909
 20
259.7464621335041
 30
0.0
 11
269.2635483215909
 21
274.119264867904
 31
0.0
  0
LINE
  5
9B4
330
1E
100
AcDbEntity
  8
0
 62
     3
100
AcDbLine
 10
258.4719833801909
 20
259.7464621335041
 30
0.0
 11
258.4719833801909
 21
272.2464621335041
 31
0.0
  0
LINE
  5
9B5
330
1E
100
AcDbEntity
  8
0
 62
     3
100
AcDbLine
 10
245.2640060852909
 20
259.7464621335041
 30
0.0
 11
245.2640060852909
 21
274.119203832704
 31
0.0
  0
LINE
  5
9B6
330
1E
100
AcDbEntity
  8
0
  6
CENTERLINE
 62
     3
100
AcDbLine
 10
257.263822979791
 20
246.9350607663041
 30
0.0
 11
257.263822979791
 21
284.6997702390041
 31
0.0
  0
LINE
  5
9B7
330
1E
100
AcDbEntity
  8
0
 62
     3
100
AcDbLine
 10
245.2639755676909
 20
259.7465231687042
 30
0.0
 11
269.2635483215909
 21
259.7465231687042
 31
0.0
  0
LINE
  5
9B8
330
1E
100
AcDbEntity
  8
0
 62
     3
100
AcDbLine
 10
245.2637924622909
 20
256.175173071004
 30
0.0
 11
269.2638229797909
 21
256.175173071004
 31
0.0
  0
CIRCLE
  5
9B9
330
1E
100
AcDbEntity
  8
0
 62
     3
100
AcDbCircle
 10
257.263822979791
 20
215.3893759519041
 30
0.0
 40
12.5999984741
  0
CIRCLE
  5
9BA
330
1E
100
AcDbEntity
  8
0
 62
     3
100
AcDbCircle
 10
257.263822979791
 20
215.3893759519041
 30
0.0
 40
11.7999992371
  0
LINE
  5
9BB
330
1E
100
AcDbEntity
  8
0
  6
CENTERLINE
 62
     3
100
AcDbLine
 10
239.963804669291
 20
215.3893759519041
 30
0.0
 11
276.5129990051911
 21
215.3893759519041
 31
0.0
  0
CIRCLE
  5
9BC
330
1E
100
AcDbEntity
  8
0
 62
     3
100
AcDbCircle
 10
257.263822979791
 20
215.3893759519041
 30
0.0
 40
13.0999984741
  0
LINE
  5
9BD
330
1E
100
AcDbEntity
  8
0
 62
     3
100
AcDbLine
 10
242.7640671204909
 20
250.3893759519042
 30
0.0
 11
271.7634872864912
 21
250.3893759519042
 31
0.0
  0
LINE
  5
9BE
330
1E
100
AcDbEntity
  8
0
 62
     3
100
AcDbLine
 10
243.7638229797911
 20
252.8893759519041
 30
0.0
 11
270.7638229797911
 21
252.8893759519041
 31
0.0
  0
LINE
  5
9BF
330
1E
100
AcDbEntity
  8
0
 62
     3
100
AcDbLine
 10
243.7638229797911
 20
251.389375951904
 30
0.0
 11
270.7638229797911
 21
251.389375951904
 31
0.0
  0
LINE
  5
9C0
330
1E
100
AcDbEntity
  8
0
 62
     3
100
AcDbLine
 10
244.049528546291
 20
250.3893759519042
 30
0.0
 11
270.478117413391
 21
250.3893759519042
 31
0.0
  0
LINE
  5
9C1
330
1E
100
AcDbEntity
  8
0
  6
CENTERLINE
 62
     3
100
AcDbLine
 10
257.263822979791
 20
192.921846655004
 30
0.0
 11
257.263822979791
 21
236.364717748804
 31
0.0
  0
ARC
  5
9C2
330
1E
100
AcDbEntity
  8
0
 62
     3
100
AcDbCircle
 10
235.951536264391
 20
202.3020038046041
 30
0.0
 40
1.3125
100
AcDbArc
 50
179.9999820139011
 51
269.9999640278006
  0
ARC
  5
9C3
330
1E
100
AcDbEntity
  8
0
 62
     3
100
AcDbCircle
 10
235.951536264391
 20
206.677003804604
 30
0.0
 40
1.3125
100
AcDbArc
 50
90.0
 51
179.9999820139011
  0
LINE
  5
9C4
330
1E
100
AcDbEntity
  8
0
 62
     3
100
AcDbLine
 10
234.6390362643909
 20
206.677003804604
 30
0.0
 11
234.6390362643909
 21
202.3020038046041
 31
0.0
  0
LINE
  5
9C5
330
1E
100
AcDbEntity
  8
0
 62
     3
100
AcDbLine
 10
237.264036264391
 20
207.9895038046041
 30
0.0
 11
237.264036264391
 21
200.9895038046041
 31
0.0
  0
POINT
  5
9C6
330
1E
100
AcDbEntity
  8
0
 62
     3
100
AcDbPoint
 10
237.701536264391
 20
202.5207538046041
 30
0.0
  0
POINT
  5
9C7
330
1E
100
AcDbEntity
  8
0
 62
     3
100
AcDbPoint
 10
237.264036264391
 20
200.9895038046041
 30
0.0
  0
LINE
  5
9C8
330
1E
100
AcDbEntity
  8
0
 62
     3
100
AcDbLine
 10
235.951536264391
 20
200.9895038046041
 30
0.0
 11
237.264036264391
 21
200.9895038046041
 31
0.0
  0
POINT
  5
9C9
330
1E
100
AcDbEntity
  8
0
 62
     3
100
AcDbPoint
 10
237.264036264391
 20
204.4895038046041
 30
0.0
  0
POINT
  5
9CA
330
1E
100
AcDbEntity
  8
0
 62
     3
100
AcDbPoint
 10
237.264036264391
 20
205.4895038046041
 30
0.0
  0
POINT
  5
9CB
330
1E
100
AcDbEntity
  8
0
 62
     3
100
AcDbPoint
 10
237.264036264391
 20
204.4895038046041
 30
0.0
  0
POINT
  5
9CC
330
1E
100
AcDbEntity
  8
0
 62
     3
100
AcDbPoint
 10
237.701536264391
 20
206.4582538046041
 30
0.0
  0
POINT
  5
9CD
330
1E
100
AcDbEntity
  8
0
 62
     3
100
AcDbPoint
 10
237.264036264391
 20
207.9895038046041
 30
0.0
  0
POINT
  5
9CE
330
1E
100
AcDbEntity
  8
0
 62
     3
100
AcDbPoint
 10
237.264036264391
 20
204.4895038046041
 30
0.0
  0
LINE
  5
9CF
330
1E
100
AcDbEntity
  8
0
 62
     3
100
AcDbLine
 10
235.951536264391
 20
207.9895038046041
 30
0.0
 11
237.264036264391
 21
207.9895038046041
 31
0.0
  0
ARC
  5
9D0
330
1E
100
AcDbEntity
  8
0
 62
     3
100
AcDbCircle
 10
238.4516582643909
 20
248.576753804604
 30
0.0
 40
1.3125
100
AcDbArc
 50
90.0
 51
179.9999820139011
  0
LINE
  5
9D1
330
1E
100
AcDbEntity
  8
0
 62
     3
100
AcDbLine
 10
239.7640671204909
 20
242.889375951904
 30
0.0
 11
239.7640671204909
 21
250.289278295604
 31
0.0
  0
LINE
  5
9D2
330
1E
100
AcDbEntity
  8
0
 62
     3
100
AcDbLine
 10
238.4516582643909
 20
249.8892538046041
 30
0.0
 11
239.7641582643911
 21
249.8892538046041
 31
0.0
  0
LINE
  5
9D3
330
1E
100
AcDbEntity
  8
0
 62
     3
100
AcDbLine
 10
238.4516582643909
 20
242.8892538046039
 30
0.0
 11
239.7641582643911
 21
242.8892538046039
 31
0.0
  0
ARC
  5
9D4
330
1E
100
AcDbEntity
  8
0
 62
     3
100
AcDbCircle
 10
238.4516582643909
 20
244.201753804604
 30
0.0
 40
1.3125
100
AcDbArc
 50
179.9999820139011
 51
269.9999640278006
  0
LINE
  5
9D5
330
1E
100
AcDbEntity
  8
0
 62
     3
100
AcDbLine
 10
237.1391582643909
 20
248.576753804604
 30
0.0
 11
237.1391582643909
 21
244.201753804604
 31
0.0
  0
POINT
  5
9D6
330
1E
100
AcDbEntity
  8
0
 62
     3
100
AcDbPoint
 10
240.2016582643911
 20
248.3580038046039
 30
0.0
  0
POINT
  5
9D7
330
1E
100
AcDbEntity
  8
0
 62
     3
100
AcDbPoint
 10
240.2016582643911
 20
244.4205038046041
 30
0.0
  0
LINE
  5
9D8
330
1E
100
AcDbEntity
  8
0
 62
     3
100
AcDbLine
 10
239.7641582643911
 20
249.8892538046041
 30
0.0
 11
239.7641582643911
 21
242.8892538046039
 31
0.0
  0
LINE
  5
9D9
330
1E
100
AcDbEntity
  8
0
 62
     3
100
AcDbLine
 10
239.7641586731911
 20
249.886568334704
 30
0.0
 11
239.7641586731911
 21
241.777864721404
 31
0.0
  0
LINE
  5
9DA
330
1E
100
AcDbEntity
  8
0
 62
     3
100
AcDbLine
 10
239.7641586731911
 20
249.8866293699039
 30
0.0
 11
239.7641586731911
 21
242.8866293699039
 31
0.0
  0
POINT
  5
9DB
330
1E
100
AcDbEntity
  8
0
 62
     3
100
AcDbPoint
 10
239.7641582643911
 20
242.8892538046039
 30
0.0
  0
POINT
  5
9DC
330
1E
100
AcDbEntity
  8
0
 62
     3
100
AcDbPoint
 10
239.7641582643911
 20
246.389253804604
 30
0.0
  0
POINT
  5
9DD
330
1E
100
AcDbEntity
  8
0
 62
     3
100
AcDbPoint
 10
239.7641582643911
 20
247.3892538046041
 30
0.0
  0
POINT
  5
9DE
330
1E
100
AcDbEntity
  8
0
 62
     3
100
AcDbPoint
 10
239.7641582643911
 20
246.389253804604
 30
0.0
  0
POINT
  5
9DF
330
1E
100
AcDbEntity
  8
0
 62
     3
100
AcDbPoint
 10
239.7641582643911
 20
249.8892538046041
 30
0.0
  0
POINT
  5
9E0
330
1E
100
AcDbEntity
  8
0
 62
     3
100
AcDbPoint
 10
239.7641582643911
 20
246.389253804604
 30
0.0
  0
LINE
  5
9E1
330
1E
100
AcDbEntity
  8
0
 62
     3
100
AcDbLine
 10
245.2637924622909
 20
256.175173071004
 30
0.0
 11
245.2637924622909
 21
252.8893759519041
 31
0.0
  0
LINE
  5
9E2
330
1E
100
AcDbEntity
  8
0
 62
     3
100
AcDbLine
 10
246.2636093567911
 20
259.7464621335041
 30
0.0
 11
246.2636093567911
 21
256.175173071004
 31
0.0
  0
LINE
  5
9E3
330
1E
100
AcDbEntity
  8
0
 62
     3
100
AcDbLine
 10
247.0057358215909
 20
259.7464621335041
 30
0.0
 11
247.0057358215909
 21
256.175173071004
 31
0.0
  0
LINE
  5
9E4
330
1E
100
AcDbEntity
  8
0
 62
     3
100
AcDbLine
 10
244.049528546291
 20
251.389375951904
 30
0.0
 11
244.049528546291
 21
250.3893759519042
 31
0.0
  0
LINE
  5
9E5
330
1E
100
AcDbEntity
  8
0
 62
     3
100
AcDbLine
 10
243.7638229797911
 20
252.8893759519041
 30
0.0
 11
243.7638229797911
 21
251.389375951904
 31
0.0
  0
LINE
  5
9E6
330
1E
100
AcDbEntity
  8
0
 62
     3
100
AcDbLine
 10
256.055265850891
 20
256.175173071004
 30
0.0
 11
256.055265850891
 21
252.8893759519041
 31
0.0
  0
LINE
  5
9E7
330
1E
100
AcDbEntity
  8
0
 62
     3
100
AcDbLine
 10
258.4715256165911
 20
256.175173071004
 30
0.0
 11
258.4715256165911
 21
252.8893759519041
 31
0.0
  0
LINE
  5
9E8
330
1E
100
AcDbEntity
  8
0
 62
     3
100
AcDbLine
 10
272.2634872864912
 20
222.589327123804
 30
0.0
 11
272.2634872864912
 21
234.1891806394041
 31
0.0
  0
LINE
  5
9E9
330
1E
100
AcDbEntity
  8
0
 62
     3
100
AcDbLine
 10
268.2634872864912
 20
222.503389623804
 30
0.0
 11
268.2634872864912
 21
234.2892782956041
 31
0.0
  0
LINE
  5
9EA
330
1E
100
AcDbEntity
  8
0
 62
     3
100
AcDbLine
 10
272.2634872864912
 20
196.5895712644041
 30
0.0
 11
272.2634872864912
 21
208.189424780004
 31
0.0
  0
LINE
  5
9EB
330
1E
100
AcDbEntity
  8
0
 62
     3
100
AcDbLine
 10
268.2634872864912
 20
196.4894736081039
 30
0.0
 11
268.2634872864912
 21
208.275362280004
 31
0.0
  0
LINE
  5
9EC
330
1E
100
AcDbEntity
  8
0
 62
     3
100
AcDbLine
 10
269.263487286491
 20
195.4894736081041
 30
0.0
 11
271.7634872864912
 21
195.4894736081041
 31
0.0
  0
ARC
  5
9ED
330
1E
100
AcDbEntity
  8
0
 62
     3
100
AcDbCircle
 10
269.263487286491
 20
196.4894736081039
 30
0.0
 40
1.0
100
AcDbArc
 50
179.9999093863
 51
269.9998914002
  0
LINE
  5
9EE
330
1E
100
AcDbEntity
  8
0
 62
     3
100
AcDbLine
 10
272.1633896301911
 20
191.889375951904
 30
0.0
 11
272.1633896301911
 21
196.5895712644041
 31
0.0
  0
LINE
  5
9EF
330
1E
100
AcDbEntity
  8
0
 62
     3
100
AcDbLine
 10
271.7634872864912
 20
191.889375951904
 30
0.0
 11
272.1633896301911
 21
191.889375951904
 31
0.0
  0
LINE
  5
9F0
330
1E
100
AcDbEntity
  8
0
 62
     3
100
AcDbLine
 10
271.7634872864912
 20
196.5895712644041
 30
0.0
 11
272.2634872864912
 21
196.5895712644041
 31
0.0
  0
LINE
  5
9F1
330
1E
100
AcDbEntity
  8
0
 62
     3
100
AcDbLine
 10
271.7634872864912
 20
208.189424780004
 30
0.0
 11
272.2634872864912
 21
208.189424780004
 31
0.0
  0
LINE
  5
9F2
330
1E
100
AcDbEntity
  8
0
 62
     3
100
AcDbLine
 10
271.7634872864912
 20
222.589327123804
 30
0.0
 11
272.2634872864912
 21
222.589327123804
 31
0.0
  0
LINE
  5
9F3
330
1E
100
AcDbEntity
  8
0
 62
     3
100
AcDbLine
 10
269.263487286491
 20
235.2892782956039
 30
0.0
 11
271.7634872864912
 21
235.2892782956039
 31
0.0
  0
ARC
  5
9F4
330
1E
100
AcDbEntity
  8
0
 62
     3
100
AcDbCircle
 10
269.263487286491
 20
234.2892782956041
 30
0.0
 40
1.0
100
AcDbArc
 50
89.99998201389999
 51
179.9999093863
  0
LINE
  5
9F5
330
1E
100
AcDbEntity
  8
0
 62
     3
100
AcDbLine
 10
271.7634872864912
 20
234.1891806394041
 30
0.0
 11
272.2634872864912
 21
234.1891806394041
 31
0.0
  0
LINE
  5
9F6
330
1E
100
AcDbEntity
  8
0
 62
     3
100
AcDbLine
 10
271.7634872864912
 20
238.889375951904
 30
0.0
 11
272.1633896301911
 21
238.889375951904
 31
0.0
  0
LINE
  5
9F7
330
1E
100
AcDbEntity
  8
0
 62
     3
100
AcDbLine
 10
272.1633896301911
 20
234.1891806394041
 30
0.0
 11
272.1633896301911
 21
238.889375951904
 31
0.0
  0
LINE
  5
9F8
330
1E
100
AcDbEntity
  8
0
 62
     3
100
AcDbLine
 10
269.2638229797909
 20
256.175173071004
 30
0.0
 11
269.2638229797909
 21
252.8893759519041
 31
0.0
  0
LINE
  5
9F9
330
1E
100
AcDbEntity
  8
0
 62
     3
100
AcDbLine
 10
267.5215439270909
 20
256.175173071004
 30
0.0
 11
267.5215439270909
 21
259.7464316159041
 31
0.0
  0
LINE
  5
9FA
330
1E
100
AcDbEntity
  8
0
 62
     3
100
AcDbLine
 10
268.263670391991
 20
256.175173071004
 30
0.0
 11
268.263670391991
 21
259.7464316159041
 31
0.0
  0
LINE
  5
9FB
330
1E
100
AcDbEntity
  8
0
 62
     3
100
AcDbLine
 10
270.478117413391
 20
251.389375951904
 30
0.0
 11
270.478117413391
 21
250.3893759519042
 31
0.0
  0
LINE
  5
9FC
330
1E
100
AcDbEntity
  8
0
 62
     3
100
AcDbLine
 10
270.7638229797911
 20
252.8893759519041
 30
0.0
 11
270.7638229797911
 21
251.389375951904
 31
0.0
  0
ARC
  5
9FD
330
1E
100
AcDbEntity
  8
0
 62
     3
100
AcDbCircle
 10
263.263945050191
 20
267.9599631101041
 30
0.0
 40
6.429449081399997
100
AcDbArc
 50
48.49268678619999
 51
131.2365661088998
  0
LINE
  5
9FE
330
1E
100
AcDbEntity
  8
0
 62
     3
100
AcDbLine
 10
247.8222336243911
 20
276.8893759519041
 30
0.0
 11
266.7053207825911
 21
276.8893759519041
 31
0.0
  0
ARC
  5
9FF
330
1E
100
AcDbEntity
  8
0
 62
     3
100
AcDbCircle
 10
251.263426251291
 20
267.9599631101041
 30
0.0
 40
6.429449081399997
100
AcDbArc
 50
48.7632715604
 51
131.5071508830999
  0
ARC
  5
A00
330
1E
100
AcDbEntity
  8
0
 62
     3
100
AcDbCircle
 10
257.263822979791
 20
265.6036703855042
 30
0.0
 40
14.7142925262
100
AcDbArc
 50
129.9156621649999
 51
144.6388725813999
  0
LINE
  5
A01
330
1E
100
AcDbEntity
  8
0
 62
     3
100
AcDbLine
 10
256.598956258191
 20
287.3452924526041
 30
0.0
 11
257.1709421948911
 21
287.096011905404
 31
0.0
  0
LINE
  5
A02
330
1E
100
AcDbEntity
  8
0
 62
     3
100
AcDbLine
 10
258.0364059876909
 20
272.603670385504
 30
0.0
 11
256.475126690791
 21
272.603670385504
 31
0.0
  0
LINE
  5
A03
330
1E
100
AcDbEntity
  8
0
 62
     3
100
AcDbLine
 10
253.7638229797911
 20
276.8893759519041
 30
0.0
 11
253.7638229797911
 21
288.3081686765041
 31
0.0
  0
LINE
  5
A04
330
1E
100
AcDbEntity
  8
0
 62
     3
100
AcDbLine
 10
256.033588031591
 20
287.5875666163041
 30
0.0
 11
256.598956258191
 21
287.3452924526041
 31
0.0
  0
LINE
  5
A05
330
1E
100
AcDbEntity
  8
0
 62
     3
100
AcDbLine
 10
255.4711349713911
 20
287.8139113730039
 30
0.0
 11
256.033588031591
 21
287.5875666163041
 31
0.0
  0
LINE
  5
A06
330
1E
100
AcDbEntity
  8
0
 62
     3
100
AcDbLine
 10
254.9078945336911
 20
288.0154036994042
 30
0.0
 11
255.4711349713911
 21
287.8139113730039
 31
0.0
  0
LINE
  5
A07
330
1E
100
AcDbEntity
  8
0
 62
     3
100
AcDbLine
 10
254.3401641745909
 20
288.1831205717039
 30
0.0
 11
254.9078945336911
 21
288.0154036994042
 31
0.0
  0
LINE
  5
A08
330
1E
100
AcDbEntity
  8
0
 62
     3
100
AcDbLine
 10
253.7642413502909
 20
288.3081389667042
 30
0.0
 11
254.3401641745909
 21
288.1831205717039
 31
0.0
  0
LINE
  5
A09
330
1E
100
AcDbEntity
  8
0
 62
     3
100
AcDbLine
 10
260.7638229797909
 20
276.8893759519041
 30
0.0
 11
260.7638229797909
 21
286.0107748777041
 31
0.0
  0
LINE
  5
A0A
330
1E
100
AcDbEntity
  8
0
 62
     3
100
AcDbLine
 10
260.2808499193911
 20
286.067653037704
 30
0.0
 11
260.764317985491
 21
286.0107671254041
 31
0.0
  0
LINE
  5
A0B
330
1E
100
AcDbEntity
  8
0
 62
     3
100
AcDbLine
 10
259.794147316091
 20
286.162804105404
 30
0.0
 11
260.2808499193911
 21
286.067653037704
 31
0.0
  0
LINE
  5
A0C
330
1E
100
AcDbEntity
  8
0
 62
     3
100
AcDbLine
 10
259.3077046846912
 20
286.289647879804
 30
0.0
 11
259.794147316091
 21
286.162804105404
 31
0.0
  0
LINE
  5
A0D
330
1E
100
AcDbEntity
  8
0
 62
     3
100
AcDbLine
 10
258.8250165343911
 20
286.4416119125042
 30
0.0
 11
259.3077046846912
 21
286.289647879804
 31
0.0
  0
LINE
  5
A0E
330
1E
100
AcDbEntity
  8
0
 62
     3
100
AcDbLine
 10
258.3495773743911
 20
286.6121237546041
 30
0.0
 11
258.8250165343911
 21
286.4416119125042
 31
0.0
  0
LINE
  5
A0F
330
1E
100
AcDbEntity
  8
0
 62
     3
100
AcDbLine
 10
257.7532483856909
 20
286.8486479983041
 30
0.0
 11
258.3495773743911
 21
286.6121237546041
 31
0.0
  0
LINE
  5
A10
330
1E
100
AcDbEntity
  8
0
 62
     3
100
AcDbLine
 10
257.1709421948911
 20
287.096011905404
 30
0.0
 11
257.7532483856909
 21
286.8486479983041
 31
0.0
  0
ARC
  5
A11
330
1E
100
AcDbEntity
  8
0
 62
     3
100
AcDbCircle
 10
257.263822979791
 20
265.6036703855042
 30
0.0
 40
14.7142925262
100
AcDbArc
 50
35.3614568616
 51
50.0843940704
  0
LWPOLYLINE
  5
A18
330
1E
100
AcDbEntity
  8
0
100
AcDbPolyline
 90
        4
 70
     1
 43
0.0
 10
0.0
 20
0.0
 10
297.0
 20
0.0
 10
297.0
 20
420.0
 10
0.0
 20
420.0
  0
TEXT
  5
A26
330
1E
100
AcDbEntity
  8
0
 62
     7
100
AcDbText
 10
233.0
 20
50.0000029552499
 30
0.0
 40
2.999994089499998
  1
HS1P-341-*
 11
233.0
 21
51.49999999999989
 31
0.0
100
AcDbText
 73
     2
  0
TEXT
  5
A27
330
1E
100
AcDbEntity
  8
0
 62
     7
100
AcDbText
 10
233.0
 20
55.00000295525
 30
0.0
 40
2.999994089499998
  1
HS1P-241-*
 11
233.0
 21
56.5
 31
0.0
100
AcDbText
 73
     2
  0
ENDSEC
  0
SECTION
  2
OBJECTS
  0
DICTIONARY
  5
C
330
0
100
AcDbDictionary
281
     1
  3
ACAD_GROUP
350
D
  3
ACAD_LAYOUT
350
19
  3
ACAD_MLINESTYLE
350
16
  3
ACAD_PLOTSETTINGS
350
18
  3
ACAD_PLOTSTYLENAME
350
E
  3
AcDbVariableDictionary
350
A28
  0
DICTIONARY
  5
D
102
{ACAD_REACTORS
330
C
102
}
330
C
100
AcDbDictionary
281
     1
  0
DICTIONARY
  5
19
102
{ACAD_REACTORS
330
C
102
}
330
C
100
AcDbDictionary
281
     1
  3
Model
350
21
  3
ﾚｲｱｳﾄ1
350
1D
  0
DICTIONARY
  5
16
102
{ACAD_REACTORS
330
C
102
}
330
C
100
AcDbDictionary
281
     1
  3
Standard
350
17
  0
DICTIONARY
  5
18
102
{ACAD_REACTORS
330
C
102
}
330
C
100
AcDbDictionary
281
     1
  0
ACDBDICTIONARYWDFLT
  5
E
102
{ACAD_REACTORS
330
C
102
}
330
C
100
AcDbDictionary
281
     1
  3
Normal
350
F
100
AcDbDictionaryWithDefault
340
F
  0
DICTIONARY
  5
A28
102
{ACAD_REACTORS
330
C
102
}
330
C
100
AcDbDictionary
281
     1
  3
DIMASSOC
350
A29
  0
LAYOUT
  5
21
102
{ACAD_REACTORS
330
19
102
}
330
19
100
AcDbPlotSettings
  1

  2
C:\Program Files\AutoCAD 2000i\plotters\DWF Classic.pc3
  4

  6

 40
0.0
 41
0.0
 42
0.0
 43
0.0
 44
0.0
 45
0.0
 46
0.0
 47
0.0
 48
0.0
 49
0.0
140
0.0
141
0.0
142
1.0
143
1.0
 70
  1712
 72
     0
 73
     0
 74
     0
  7

 75
     0
147
1.0
148
0.0
149
0.0
100
AcDbLayout
  1
Model
 70
     1
 71
     0
 10
0.0
 20
0.0
 11
12.0
 21
9.0
 12
0.0
 22
0.0
 32
0.0
 14
0.0
 24
0.0
 34
0.0
 15
0.0
 25
0.0
 35
0.0
146
0.0
 13
0.0
 23
0.0
 33
0.0
 16
1.0
 26
0.0
 36
0.0
 17
0.0
 27
1.0
 37
0.0
 76
     0
330
1E
  0
LAYOUT
  5
1D
102
{ACAD_REACTORS
330
19
102
}
330
19
100
AcDbPlotSettings
  1

  2
C:\Program Files\AutoCAD 2000i\plotters\DWF Classic.pc3
  4

  6

 40
0.0
 41
0.0
 42
0.0
 43
0.0
 44
0.0
 45
0.0
 46
0.0
 47
0.0
 48
0.0
 49
0.0
140
0.0
141
0.0
142
1.0
143
1.0
 70
   688
 72
     0
 73
     0
 74
     5
  7

 75
    16
147
1.0
148
0.0
149
0.0
100
AcDbLayout
  1
ﾚｲｱｳﾄ1
 70
     1
 71
     1
 10
0.0
 20
0.0
 11
12.0
 21
9.0
 12
0.0
 22
0.0
 32
0.0
 14
1.000000000000000E+20
 24
1.000000000000000E+20
 34
1.000000000000000E+20
 15
-1.000000000000000E+20
 25
-1.000000000000000E+20
 35
-1.000000000000000E+20
146
0.0
 13
0.0
 23
0.0
 33
0.0
 16
1.0
 26
0.0
 36
0.0
 17
0.0
 27
1.0
 37
0.0
 76
     0
330
1A
  0
MLINESTYLE
  5
17
102
{ACAD_REACTORS
330
16
102
}
330
16
100
AcDbMlineStyle
  2
STANDARD
 70
     0
  3

 62
   256
 51
90.0
 52
90.0
 71
     2
 49
0.5
 62
   256
  6
BYLAYER
 49
-0.5
 62
   256
  6
BYLAYER
  0
ACDBPLACEHOLDER
  5
F
102
{ACAD_REACTORS
330
E
102
}
330
E
  0
DICTIONARYVAR
  5
A29
102
{ACAD_REACTORS
330
A28
102
}
330
A28
100
DictionaryVariables
280
     0
  1
1
  0
ENDSEC
  0
EOF
