  0
SECTION
  2
HEADER
  9
$ACADVER
  1
AC1015
  9
$ACADMAINTVER
 70
    13
  9
$DWGCODEPAGE
  3
ANSI_932
  9
$INSBASE
 10
0.0
 20
0.0
 30
0.0
  9
$EXTMIN
 10
-0.0248650355242717
 20
-0.0153609376080795
 30
-0.0000000000000058
  9
$EXTMAX
 10
210.0017492254103
 20
297.0254037102697
 30
0.0000000000000104
  9
$LIMMIN
 10
-299.0098693847997
 20
-5.632094669299999
  9
$LIMMAX
 10
3.174999999999998
 20
335.8319213866999
  9
$ORTHOMODE
 70
     0
  9
$REGENMODE
 70
     1
  9
$FILLMODE
 70
     1
  9
$QTEXTMODE
 70
     0
  9
$MIRRTEXT
 70
     0
  9
$LTSCALE
 40
1.0
  9
$ATTMODE
 70
     1
  9
$TEXTSIZE
 40
2.999994039499997
  9
$TRACEWID
 40
0.05
  9
$TEXTSTYLE
  7
STANDARD
  9
$CLAYER
  8
0
  9
$CELTYPE
  6
ByLayer
  9
$CECOLOR
 62
   256
  9
$CELTSCALE
 40
1.0
  9
$DISPSILH
 70
     0
  9
$DIMSCALE
 40
1.0
  9
$DIMASZ
 40
1.9727878465
  9
$DIMEXO
 40
2.539999961899999
  9
$DIMDLI
 40
0.38
  9
$DIMRND
 40
0.0
  9
$DIMDLE
 40
0.0
  9
$DIMEXE
 40
3.809999942799997
  9
$DIMTP
 40
0.0
  9
$DIMTM
 40
0.0
  9
$DIMTXT
 40
2.999994039499997
  9
$DIMCEN
 40
0.09
  9
$DIMTSZ
 40
0.0
  9
$DIMTOL
 70
     0
  9
$DIMLIM
 70
     0
  9
$DIMTIH
 70
     0
  9
$DIMTOH
 70
     1
  9
$DIMSE1
 70
     0
  9
$DIMSE2
 70
     0
  9
$DIMTAD
 70
     0
  9
$DIMZIN
 70
     0
  9
$DIMBLK
  1

  9
$DIMASO
 70
     1
  9
$DIMSHO
 70
     0
  9
$DIMPOST
  1

  9
$DIMAPOST
  1

  9
$DIMALT
 70
     0
  9
$DIMALTD
 70
     2
  9
$DIMALTF
 40
25.4
  9
$DIMLFAC
 40
1.0
  9
$DIMTOFL
 70
     0
  9
$DIMTVP
 40
0.0
  9
$DIMTIX
 70
     0
  9
$DIMSOXD
 70
     0
  9
$DIMSAH
 70
     0
  9
$DIMBLK1
  1

  9
$DIMBLK2
  1

  9
$DIMSTYLE
  2
Standard
  9
$DIMCLRD
 70
     0
  9
$DIMCLRE
 70
     0
  9
$DIMCLRT
 70
     0
  9
$DIMTFAC
 40
1.0
  9
$DIMGAP
 40
0.09
  9
$DIMJUST
 70
     0
  9
$DIMSD1
 70
     0
  9
$DIMSD2
 70
     0
  9
$DIMTOLJ
 70
     1
  9
$DIMTZIN
 70
     0
  9
$DIMALTZ
 70
     0
  9
$DIMALTTZ
 70
     0
  9
$DIMUPT
 70
     0
  9
$DIMDEC
 70
     4
  9
$DIMTDEC
 70
     4
  9
$DIMALTU
 70
     2
  9
$DIMALTTD
 70
     2
  9
$DIMTXSTY
  7
STANDARD
  9
$DIMAUNIT
 70
     0
  9
$DIMADEC
 70
     0
  9
$DIMALTRND
 40
0.0
  9
$DIMAZIN
 70
     0
  9
$DIMDSEP
 70
    46
  9
$DIMATFIT
 70
     3
  9
$DIMFRAC
 70
     0
  9
$DIMLDRBLK
  1

  9
$DIMLUNIT
 70
     2
  9
$DIMLWD
 70
    -2
  9
$DIMLWE
 70
    -2
  9
$DIMTMOVE
 70
     0
  9
$LUNITS
 70
     2
  9
$LUPREC
 70
     3
  9
$SKETCHINC
 40
0.1
  9
$FILLETRAD
 40
0.0625
  9
$AUNITS
 70
     0
  9
$AUPREC
 70
     0
  9
$MENU
  1
ACAD
  9
$ELEVATION
 40
0.0
  9
$PELEVATION
 40
0.0
  9
$THICKNESS
 40
0.0
  9
$LIMCHECK
 70
     0
  9
$CHAMFERA
 40
0.0
  9
$CHAMFERB
 40
0.0
  9
$CHAMFERC
 40
0.0
  9
$CHAMFERD
 40
0.0
  9
$SKPOLY
 70
     0
  9
$TDCREATE
 40
2452723.525856481
  9
$TDUCREATE
 40
2452723.150856481
  9
$TDUPDATE
 40
2453353.759713715
  9
$TDUUPDATE
 40
2453353.384713715
  9
$TDINDWG
 40
0.0055929861
  9
$TDUSRTIMER
 40
0.0055926157
  9
$USRTIMER
 70
     1
  9
$ANGBASE
 50
0.0
  9
$ANGDIR
 70
     0
  9
$PDMODE
 70
     0
  9
$PDSIZE
 40
0.0
  9
$PLINEWID
 40
0.0
  9
$SPLFRAME
 70
     0
  9
$SPLINETYPE
 70
     6
  9
$SPLINESEGS
 70
     8
  9
$HANDSEED
  5
7C4
  9
$SURFTAB1
 70
     6
  9
$SURFTAB2
 70
     6
  9
$SURFTYPE
 70
     6
  9
$SURFU
 70
     6
  9
$SURFV
 70
     6
  9
$UCSBASE
  2

  9
$UCSNAME
  2

  9
$UCSORG
 10
0.0
 20
0.0
 30
0.0
  9
$UCSXDIR
 10
1.0
 20
0.0
 30
0.0
  9
$UCSYDIR
 10
0.0
 20
1.0
 30
0.0
  9
$UCSORTHOREF
  2

  9
$UCSORTHOVIEW
 70
     0
  9
$UCSORGTOP
 10
0.0
 20
0.0
 30
0.0
  9
$UCSORGBOTTOM
 10
0.0
 20
0.0
 30
0.0
  9
$UCSORGLEFT
 10
0.0
 20
0.0
 30
0.0
  9
$UCSORGRIGHT
 10
0.0
 20
0.0
 30
0.0
  9
$UCSORGFRONT
 10
0.0
 20
0.0
 30
0.0
  9
$UCSORGBACK
 10
0.0
 20
0.0
 30
0.0
  9
$PUCSBASE
  2

  9
$PUCSNAME
  2

  9
$PUCSORG
 10
0.0
 20
0.0
 30
0.0
  9
$PUCSXDIR
 10
1.0
 20
0.0
 30
0.0
  9
$PUCSYDIR
 10
0.0
 20
1.0
 30
0.0
  9
$PUCSORTHOREF
  2

  9
$PUCSORTHOVIEW
 70
     0
  9
$PUCSORGTOP
 10
0.0
 20
0.0
 30
0.0
  9
$PUCSORGBOTTOM
 10
0.0
 20
0.0
 30
0.0
  9
$PUCSORGLEFT
 10
0.0
 20
0.0
 30
0.0
  9
$PUCSORGRIGHT
 10
0.0
 20
0.0
 30
0.0
  9
$PUCSORGFRONT
 10
0.0
 20
0.0
 30
0.0
  9
$PUCSORGBACK
 10
0.0
 20
0.0
 30
0.0
  9
$USERI1
 70
     8
  9
$USERI2
 70
     0
  9
$USERI3
 70
     0
  9
$USERI4
 70
     0
  9
$USERI5
 70
     0
  9
$USERR1
 40
0.0
  9
$USERR2
 40
0.0
  9
$USERR3
 40
0.0
  9
$USERR4
 40
0.0
  9
$USERR5
 40
0.0
  9
$WORLDVIEW
 70
     1
  9
$SHADEDGE
 70
     3
  9
$SHADEDIF
 70
    70
  9
$TILEMODE
 70
     1
  9
$MAXACTVP
 70
    64
  9
$PINSBASE
 10
0.0
 20
0.0
 30
0.0
  9
$PLIMCHECK
 70
     0
  9
$PEXTMIN
 10
1.000000000000000E+20
 20
1.000000000000000E+20
 30
1.000000000000000E+20
  9
$PEXTMAX
 10
-1.000000000000000E+20
 20
-1.000000000000000E+20
 30
-1.000000000000000E+20
  9
$PLIMMIN
 10
0.0
 20
0.0
  9
$PLIMMAX
 10
12.0
 20
9.0
  9
$UNITMODE
 70
     0
  9
$VISRETAIN
 70
     1
  9
$PLINEGEN
 70
     0
  9
$PSLTSCALE
 70
     1
  9
$TREEDEPTH
 70
  3020
  9
$CMLSTYLE
  2
Standard
  9
$CMLJUST
 70
     0
  9
$CMLSCALE
 40
1.0
  9
$PROXYGRAPHICS
 70
     1
  9
$MEASUREMENT
 70
     0
  9
$CELWEIGHT
370
    -1
  9
$ENDCAPS
280
     0
  9
$JOINSTYLE
280
     0
  9
$LWDISPLAY
290
     0
  9
$INSUNITS
 70
     0
  9
$HYPERLINKBASE
  1

  9
$STYLESHEET
  1

  9
$XEDIT
290
     1
  9
$CEPSNTYPE
380
     0
  9
$PSTYLEMODE
290
     1
  9
$FINGERPRINTGUID
  2
{B26B21B7-3567-4E18-9B18-5F9F3F30D59E}
  9
$VERSIONGUID
  2
{D2BA8281-52FE-4757-9A71-3EE9375D72D4}
  9
$EXTNAMES
290
     1
  9
$PSVPSCALE
 40
0.0
  9
$OLESTARTUP
290
     0
  0
ENDSEC
  0
SECTION
  2
CLASSES
  0
CLASS
  1
ACDBDICTIONARYWDFLT
  2
AcDbDictionaryWithDefault
  3
AutoCAD 2000
 90
        0
280
     0
281
     0
  0
CLASS
  1
ACDBPLACEHOLDER
  2
AcDbPlaceHolder
  3
AutoCAD 2000
 90
        0
280
     0
281
     0
  0
CLASS
  1
LAYOUT
  2
AcDbLayout
  3
AutoCAD 2000
 90
        0
280
     0
281
     0
  0
CLASS
  1
DICTIONARYVAR
  2
AcDbDictionaryVar
  3
AutoCAD 2000
 90
        0
280
     0
281
     0
  0
ENDSEC
  0
SECTION
  2
TABLES
  0
TABLE
  2
VPORT
  5
8
330
0
100
AcDbSymbolTable
 70
     3
  0
VPORT
  5
7C3
330
8
100
AcDbSymbolTableRecord
100
AcDbViewportTableRecord
  2
*Active
 70
     0
 10
0.0
 20
0.0
 11
1.0
 21
1.0
 12
104.988442094943
 22
148.5050213863308
 13
0.0
 23
0.0
 14
1.0
 24
1.0
 15
0.0
 25
0.0
 16
0.0
 26
0.0
 36
1.0
 17
0.0
 27
0.0
 37
0.0
 40
301.0368287462797
 41
2.253932584269663
 42
50.0
 43
0.0
 44
0.0
 50
0.0
 51
0.0
 71
     0
 72
   100
 73
     1
 74
     1
 75
     0
 76
     0
 77
     0
 78
     0
281
     0
 65
     1
110
0.0
120
0.0
130
0.0
111
1.0
121
0.0
131
0.0
112
0.0
122
1.0
132
0.0
 79
     0
146
0.0
  0
ENDTAB
  0
TABLE
  2
LTYPE
  5
5
330
0
100
AcDbSymbolTable
 70
     3
  0
LTYPE
  5
13
330
5
100
AcDbSymbolTableRecord
100
AcDbLinetypeTableRecord
  2
ByBlock
 70
     0
  3

 72
    65
 73
     0
 40
0.0
  0
LTYPE
  5
14
330
5
100
AcDbSymbolTableRecord
100
AcDbLinetypeTableRecord
  2
ByLayer
 70
     0
  3

 72
    65
 73
     0
 40
0.0
  0
LTYPE
  5
15
330
5
100
AcDbSymbolTableRecord
100
AcDbLinetypeTableRecord
  2
Continuous
 70
     0
  3
Solid line
 72
    65
 73
     0
 40
0.0
  0
LTYPE
  5
24
330
5
100
AcDbSymbolTableRecord
100
AcDbLinetypeTableRecord
  2
DASH
 70
     0
  3
Dash
 72
    65
 73
     2
 40
1.9999960661
 49
0.9999980329999999
 74
     0
 49
-0.9999980329999999
 74
     0
  0
LTYPE
  5
25
330
5
100
AcDbSymbolTableRecord
100
AcDbLinetypeTableRecord
  2
CENTER
 70
     0
  3
Center
 72
    65
 73
     4
 40
9.100006759199999
 49
6.5000119209
 74
     0
 49
-0.7999984026000001
 74
     0
 49
0.9999980329999999
 74
     0
 49
-0.7999984026000001
 74
     0
  0
ENDTAB
  0
TABLE
  2
LAYER
  5
2
330
0
100
AcDbSymbolTable
 70
     1
  0
LAYER
  5
10
330
2
100
AcDbSymbolTableRecord
100
AcDbLayerTableRecord
  2
0
 70
     0
 62
     7
  6
Continuous
370
    -3
390
F
  0
ENDTAB
  0
TABLE
  2
STYLE
  5
3
330
0
100
AcDbSymbolTable
 70
     1
  0
STYLE
  5
11
330
3
100
AcDbSymbolTableRecord
100
AcDbTextStyleTableRecord
  2
STANDARD
 70
     0
 40
0.0
 41
1.0
 50
0.0
 71
     0
 42
2.999994039499997
  3
romans.shx
  4
bigfont.shx
  0
ENDTAB
  0
TABLE
  2
VIEW
  5
6
330
0
100
AcDbSymbolTable
 70
     0
  0
ENDTAB
  0
TABLE
  2
UCS
  5
7
330
0
100
AcDbSymbolTable
 70
     0
  0
ENDTAB
  0
TABLE
  2
APPID
  5
9
330
0
100
AcDbSymbolTable
 70
     1
  0
APPID
  5
12
330
9
100
AcDbSymbolTableRecord
100
AcDbRegAppTableRecord
  2
ACAD
 70
     0
  0
ENDTAB
  0
TABLE
  2
DIMSTYLE
  5
A
330
0
100
AcDbSymbolTable
 70
     1
100
AcDbDimStyleTable
 71
     0
  0
DIMSTYLE
105
480
330
A
100
AcDbSymbolTableRecord
100
AcDbDimStyleTableRecord
  2
Standard
 70
     0
340
11
  0
ENDTAB
  0
TABLE
  2
BLOCK_RECORD
  5
1
330
0
100
AcDbSymbolTable
 70
     1
  0
BLOCK_RECORD
  5
1E
330
1
100
AcDbSymbolTableRecord
100
AcDbBlockTableRecord
  2
*Model_Space
340
21
  0
BLOCK_RECORD
  5
1A
330
1
100
AcDbSymbolTableRecord
100
AcDbBlockTableRecord
  2
*Paper_Space
340
1D
  0
ENDTAB
  0
ENDSEC
  0
SECTION
  2
BLOCKS
  0
BLOCK
  5
1F
330
1E
100
AcDbEntity
  8
0
100
AcDbBlockBegin
  2
*Model_Space
 70
     0
 10
0.0
 20
0.0
 30
0.0
  3
*Model_Space
  1

  0
ENDBLK
  5
20
330
1E
100
AcDbEntity
  8
0
100
AcDbBlockEnd
  0
BLOCK
  5
1B
330
1A
100
AcDbEntity
 67
     1
  8
0
100
AcDbBlockBegin
  2
*Paper_Space
 70
     0
 10
0.0
 20
0.0
 30
0.0
  3
*Paper_Space
  1

  0
ENDBLK
  5
1C
330
1A
100
AcDbEntity
 67
     1
  8
0
100
AcDbBlockEnd
  0
ENDSEC
  0
SECTION
  2
ENTITIES
  0
LINE
  5
488
330
1E
100
AcDbEntity
  8
0
100
AcDbLine
 10
0.0
 20
0.0
 30
0.0
 11
210.0
 21
0.0
 31
0.0
  0
LINE
  5
489
330
1E
100
AcDbEntity
  8
0
100
AcDbLine
 10
210.0
 20
0.0
 30
0.0
 11
210.0
 21
297.0
 31
0.0
  0
LINE
  5
48A
330
1E
100
AcDbEntity
  8
0
100
AcDbLine
 10
210.0
 20
297.0
 30
0.0
 11
0.0
 21
297.0
 31
0.0
  0
LINE
  5
48B
330
1E
100
AcDbEntity
  8
0
100
AcDbLine
 10
0.0
 20
297.0
 30
0.0
 11
0.0
 21
0.0
 31
0.0
  0
TEXT
  5
48C
330
1E
100
AcDbEntity
  8
0
 62
     5
100
AcDbText
 10
145.0
 20
10.0
 30
0.0
 40
5.0
  1
ＭＡ４－Ｅ００００５Ｅ
 41
0.848817699915704
 72
     5
 11
199.0413935612998
 21
10.0
 31
0.0
100
AcDbText
  0
LINE
  5
492
330
1E
100
AcDbEntity
  8
0
 62
     3
100
AcDbLine
 10
149.7442405032894
 20
130.2643214685154
 30
0.0
 11
149.7442405032894
 21
218.5643397790155
 31
0.0
  0
LINE
  5
493
330
1E
100
AcDbEntity
  8
0
 62
     3
100
AcDbLine
 10
177.7442405032894
 20
97.96454729861558
 30
0.0
 11
177.7442405032894
 21
218.5643397790155
 31
0.0
  0
LINE
  5
494
330
1E
100
AcDbEntity
  8
0
 62
     3
100
AcDbLine
 10
173.7442405032894
 20
130.5644008142154
 30
0.0
 11
173.7442405032894
 21
154.9652797204155
 31
0.0
  0
LINE
  5
495
330
1E
100
AcDbEntity
  8
0
 62
     3
100
AcDbLine
 10
178.2442405032892
 20
130.7643519861154
 30
0.0
 11
178.2442405032892
 21
151.7643519861153
 31
0.0
  0
LINE
  5
496
330
1E
100
AcDbEntity
  8
0
 62
     3
100
AcDbLine
 10
149.7442099856894
 20
145.3649074060155
 30
0.0
 11
149.7442099856894
 21
218.8649074060155
 31
0.0
  0
LINE
  5
497
330
1E
100
AcDbEntity
  8
0
 62
     3
100
AcDbLine
 10
143.2442099856894
 20
146.3649074060155
 30
0.0
 11
143.2442099856894
 21
157.0698634607155
 31
0.0
  0
LINE
  5
498
330
1E
100
AcDbEntity
  8
0
 62
     3
100
AcDbLine
 10
75.55340578902025
 20
146.2643519861154
 30
0.0
 11
75.55340578902025
 21
149.2643519861154
 31
0.0
  0
CIRCLE
  5
499
330
1E
100
AcDbEntity
  8
0
 62
     3
100
AcDbCircle
 10
80.70330813282026
 20
147.2644130212153
 30
0.0
 40
2.6999988556
  0
CIRCLE
  5
49A
330
1E
100
AcDbEntity
  8
0
 62
     3
100
AcDbCircle
 10
38.70343020312025
 20
147.2644130212153
 30
0.0
 40
2.6999988556
  0
LINE
  5
49B
330
1E
100
AcDbEntity
  8
0
  6
CENTER
 62
     3
100
AcDbLine
 10
59.70343020312026
 20
227.7643519861154
 30
0.0
 11
59.70343020312026
 21
64.46436419311556
 31
0.0
  0
LINE
  5
49C
330
1E
100
AcDbEntity
  8
0
 62
     3
100
AcDbLine
 10
85.70330813282026
 20
101.7643519861155
 30
0.0
 11
85.70330813282026
 21
214.7643519861154
 31
0.0
  0
LINE
  5
49D
330
1E
100
AcDbEntity
  8
0
 62
     3
100
AcDbLine
 10
75.70330813282026
 20
149.2655726892154
 30
0.0
 11
75.70330813282026
 21
133.2643519861153
 31
0.0
  0
LINE
  5
49E
330
1E
100
AcDbEntity
  8
0
  6
CENTER
 62
     3
100
AcDbLine
 10
80.70330813282026
 20
152.0570765954155
 30
0.0
 11
80.70330813282026
 21
131.4992152673154
 31
0.0
  0
LINE
  5
49F
330
1E
100
AcDbEntity
  8
0
 62
     3
100
AcDbLine
 10
43.70343020312026
 20
133.2643519861153
 30
0.0
 11
43.70343020312026
 21
149.2655726892154
 31
0.0
  0
LINE
  5
4A0
330
1E
100
AcDbEntity
  8
0
  6
CENTER
 62
     3
100
AcDbLine
 10
38.70343020312025
 20
131.4992152673154
 30
0.0
 11
38.70343020312025
 21
151.0729457361154
 31
0.0
  0
LINE
  5
4A1
330
1E
100
AcDbEntity
  8
0
 62
     3
100
AcDbLine
 10
43.75338747852025
 20
149.2643519861154
 30
0.0
 11
43.75338747852025
 21
146.2643519861154
 31
0.0
  0
LINE
  5
4A2
330
1E
100
AcDbEntity
  8
0
 62
     3
100
AcDbLine
 10
33.7033691679203
 20
214.7648097497155
 30
0.0
 11
33.7033691679203
 21
101.7648097497154
 31
0.0
  0
LINE
  5
4A3
330
1E
100
AcDbEntity
  8
0
  6
DASH
 62
     3
100
AcDbLine
 10
143.2442405032894
 20
106.2642604333154
 30
0.0
 11
173.2442405032894
 21
106.2642604333154
 31
0.0
  0
LINE
  5
4A4
330
1E
100
AcDbEntity
  8
0
  6
DASH
 62
     3
100
AcDbLine
 10
143.2442405032894
 20
108.2642604333154
 30
0.0
 11
173.2442405032894
 21
108.2642604333154
 31
0.0
  0
LINE
  5
4A5
330
1E
100
AcDbEntity
  8
0
 62
     3
100
AcDbLine
 10
149.7442405032894
 20
130.2643519861154
 30
0.0
 11
173.4442527102895
 21
130.2643519861154
 31
0.0
  0
LINE
  5
4A6
330
1E
100
AcDbEntity
  8
0
 62
     3
100
AcDbLine
 10
149.7442405032894
 20
133.2645961267155
 30
0.0
 11
173.7442405032894
 21
133.2645961267155
 31
0.0
  0
LINE
  5
4A7
330
1E
100
AcDbEntity
  8
0
 62
     3
100
AcDbLine
 10
144.2442405032894
 20
97.76432146851554
 30
0.0
 11
168.7442405032894
 21
97.76432146851554
 31
0.0
  0
LINE
  5
4A8
330
1E
100
AcDbEntity
  8
0
 62
     3
100
AcDbLine
 10
143.2442405032894
 20
130.2643214685154
 30
0.0
 11
168.7442405032894
 21
130.2643214685154
 31
0.0
  0
ARC
  5
4A9
330
1E
100
AcDbEntity
  8
0
 62
     3
100
AcDbCircle
 10
80.70330813282026
 20
137.2644130212154
 30
0.0
 40
2.6999988556
100
AcDbArc
 50
0.0
 51
179.9999640277999
  0
LINE
  5
4AA
330
1E
100
AcDbEntity
  8
0
  6
CENTER
 62
     3
100
AcDbLine
 10
77.44964602342027
 20
147.2643519861154
 30
0.0
 11
84.38201907032027
 21
147.2643519861154
 31
0.0
  0
ARC
  5
4AB
330
1E
100
AcDbEntity
  8
0
 62
     3
100
AcDbCircle
 10
82.00027468552031
 20
125.2644130212154
 30
0.0
 40
1.09375
100
AcDbArc
 50
123.6322332804999
 51
236.3677840224
  0
ARC
  5
4AC
330
1E
100
AcDbEntity
  8
0
 62
     3
100
AcDbCircle
 10
80.85183718552029
 20
123.2752610666155
 30
0.0
 40
1.09375
100
AcDbArc
 50
63.63222796839999
 51
176.3677787102
  0
ARC
  5
4AD
330
1E
100
AcDbEntity
  8
0
 62
     3
100
AcDbCircle
 10
80.85183718552029
 20
127.2535649759155
 30
0.0
 40
1.09375
100
AcDbArc
 50
183.6322212897999
 51
296.3677720315999
  0
CIRCLE
  5
4AE
330
1E
100
AcDbEntity
  8
0
 62
     3
100
AcDbCircle
 10
79.70339968552031
 20
125.2644130212154
 30
0.0
 40
1.96875
  0
ARC
  5
4AF
330
1E
100
AcDbEntity
  8
0
 62
     3
100
AcDbCircle
 10
80.70330813282026
 20
135.2644130212155
 30
0.0
 40
2.6999988556
100
AcDbArc
 50
180.0000906136999
 51
0.0
  0
LINE
  5
4B0
330
1E
100
AcDbEntity
  8
0
 62
     3
100
AcDbLine
 10
78.70330813282027
 20
130.2643519861154
 30
0.0
 11
84.70330813282027
 21
130.2643519861154
 31
0.0
  0
LINE
  5
4B1
330
1E
100
AcDbEntity
  8
0
 62
     3
100
AcDbLine
 10
78.70343020312026
 20
130.2643519861154
 30
0.0
 11
84.70343020312027
 21
130.2643519861154
 31
0.0
  0
LINE
  5
4B2
330
1E
100
AcDbEntity
  8
0
  6
CENTER
 62
     3
100
AcDbLine
 10
77.25018313282027
 20
135.2643519861153
 30
0.0
 11
84.16253664842027
 21
135.2643519861153
 31
0.0
  0
LINE
  5
4B3
330
1E
100
AcDbEntity
  8
0
  6
CENTER
 62
     3
100
AcDbLine
 10
77.16033938282027
 20
137.2643519861153
 30
0.0
 11
84.25238039842026
 21
137.2643519861153
 31
0.0
  0
CIRCLE
  5
4B4
330
1E
100
AcDbEntity
  8
0
 62
     3
100
AcDbCircle
 10
79.70339968552031
 20
125.2644130212154
 30
0.0
 40
3.5
  0
ARC
  5
4B5
330
1E
100
AcDbEntity
  8
0
  6
DASH
 62
     3
100
AcDbCircle
 10
79.05343630662025
 20
95.76438250361556
 30
0.0
 40
2.0
100
AcDbArc
 50
0.0
 51
89.99998201389999
  0
LINE
  5
4B6
330
1E
100
AcDbEntity
  8
0
 62
     3
100
AcDbLine
 10
37.70343020312024
 20
97.76435198611558
 30
0.0
 11
81.70330813282026
 21
97.76435198611558
 31
0.0
  0
LINE
  5
4B7
330
1E
100
AcDbEntity
  8
0
 62
     3
100
AcDbLine
 10
37.70343020312024
 20
97.76438250361557
 30
0.0
 11
81.70343020312026
 21
97.76438250361557
 31
0.0
  0
LINE
  5
4B8
330
1E
100
AcDbEntity
  8
0
 62
     3
100
AcDbLine
 10
78.45449831832032
 20
11.52615599748141
 30
0.0
 11
85.2044983183203
 21
11.52615599748141
 31
0.0
  0
LINE
  5
4B9
330
1E
100
AcDbEntity
  8
0
 62
     3
100
AcDbLine
 10
75.10494997852032
 20
21.02688841938142
 30
0.0
 11
85.70361330852028
 21
21.02688841938142
 31
0.0
  0
LINE
  5
4BA
330
1E
100
AcDbEntity
  8
0
  6
CENTER
 62
     3
100
AcDbLine
 10
25.00608828412026
 20
26.52566771628142
 30
0.0
 11
94.40345766892034
 21
26.52566771628142
 31
0.0
  0
LINE
  5
4BB
330
1E
100
AcDbEntity
  8
0
 62
     3
100
AcDbLine
 10
33.70483401172025
 20
12.02591185688143
 30
0.0
 11
85.50283816212033
 21
12.02591185688143
 31
0.0
  0
LINE
  5
4BC
330
1E
100
AcDbEntity
  8
0
 62
     3
100
AcDbLine
 10
34.70446780072029
 20
46.5257897865814
 30
0.0
 11
84.70446780072029
 21
46.5257897865814
 31
0.0
  0
LINE
  5
4BD
330
1E
100
AcDbEntity
  8
0
 62
     3
100
AcDbLine
 10
33.70446780072029
 20
21.02578978658141
 30
0.0
 11
85.7044678007203
 21
21.02578978658141
 31
0.0
  0
LINE
  5
4BE
330
1E
100
AcDbEntity
  8
0
  6
CENTER
 62
     3
100
AcDbLine
 10
59.70477297652024
 20
6.293489981881434
 30
0.0
 11
59.70477297652024
 21
54.84713988428143
 31
0.0
  0
ARC
  5
4BF
330
1E
100
AcDbEntity
  8
0
 62
     3
100
AcDbCircle
 10
34.70471194142027
 20
45.52582030418142
 30
0.0
 40
1.0
100
AcDbArc
 50
89.99998201389999
 51
179.9999640277999
  0
LINE
  5
4C0
330
1E
100
AcDbEntity
  8
0
 62
     3
100
AcDbLine
 10
33.7050476347203
 20
21.02582030418142
 30
0.0
 11
44.30441286912025
 21
21.02582030418142
 31
0.0
  0
LINE
  5
4C1
330
1E
100
AcDbEntity
  8
0
 62
     3
100
AcDbLine
 10
29.70623782032026
 20
14.02563719868143
 30
0.0
 11
29.70623782032026
 21
39.02539305808142
 31
0.0
  0
LINE
  5
4C2
330
1E
100
AcDbEntity
  8
0
 62
     3
100
AcDbLine
 10
30.70623782032027
 20
13.72583251118143
 30
0.0
 11
30.70623782032027
 21
39.32544188618141
 31
0.0
  0
LINE
  5
4C3
330
1E
100
AcDbEntity
  8
0
 62
     3
100
AcDbLine
 10
32.70623782032027
 20
13.72583251118143
 30
0.0
 11
32.70623782032027
 21
39.32544188618141
 31
0.0
  0
LINE
  5
4C4
330
1E
100
AcDbEntity
  8
0
 62
     3
100
AcDbLine
 10
28.3061371123203
 20
13.52563719868143
 30
0.0
 11
28.3061371123203
 21
39.52563719868141
 31
0.0
  0
LINE
  5
4C5
330
1E
100
AcDbEntity
  8
0
 62
     3
100
AcDbLine
 10
29.20603945602028
 20
13.52563719868143
 30
0.0
 11
29.20603945602028
 21
39.52563719868141
 31
0.0
  0
LINE
  5
4C6
330
1E
100
AcDbEntity
  8
0
 62
     3
100
AcDbLine
 10
28.00608828412027
 20
13.82562499168142
 30
0.0
 11
28.00608828412027
 21
39.22561888818142
 31
0.0
  0
LINE
  5
4C7
330
1E
100
AcDbEntity
  8
0
 62
     3
100
AcDbLine
 10
29.70603945602027
 20
13.62564330218143
 30
0.0
 11
29.70603945602027
 21
39.42563109518141
 31
0.0
  0
LINE
  5
4C8
330
1E
100
AcDbEntity
  8
0
 62
     3
100
AcDbLine
 10
29.20603945602028
 20
13.62564330218143
 30
0.0
 11
29.20603945602028
 21
39.42563109518141
 31
0.0
  0
LINE
  5
4C9
330
1E
100
AcDbEntity
  8
0
 62
     3
100
AcDbLine
 10
33.70446780072029
 20
45.52578978658138
 30
0.0
 11
33.70446780072029
 21
21.02578978658141
 31
0.0
  0
LINE
  5
4CA
330
1E
100
AcDbEntity
  8
0
 62
     3
100
AcDbLine
 10
33.70480349412025
 20
12.02591185688143
 30
0.0
 11
33.70480349412025
 21
21.02566771628139
 31
0.0
  0
LINE
  5
4CB
330
1E
100
AcDbEntity
  8
0
 62
     3
100
AcDbLine
 10
28.30608889682025
 20
13.52553239498144
 30
0.0
 11
28.00604703772028
 21
13.82556454218144
 31
0.0
  0
LINE
  5
4CC
330
1E
100
AcDbEntity
  8
0
 62
     3
100
AcDbLine
 10
30.20626833782028
 20
13.52563719868143
 30
0.0
 11
30.50631716602026
 21
13.52563719868143
 31
0.0
  0
ARC
  5
4CD
330
1E
100
AcDbEntity
  8
0
 62
     3
100
AcDbCircle
 10
30.5048828398203
 20
13.72552733538142
 30
0.0
 40
0.1999999285
100
AcDbArc
 50
270.0001272691
 51
359.9999088201
  0
LINE
  5
4CE
330
1E
100
AcDbEntity
  8
0
 62
     3
100
AcDbLine
 10
29.20603945602028
 20
13.52563719868143
 30
0.0
 11
28.3061371123203
 21
13.52563719868143
 31
0.0
  0
LINE
  5
4CF
330
1E
100
AcDbEntity
  8
0
 62
     3
100
AcDbLine
 10
29.70603945602027
 20
13.62564330218143
 30
0.0
 11
29.20603945602028
 21
13.62564330218143
 31
0.0
  0
ARC
  5
4D0
330
1E
100
AcDbEntity
  8
0
 62
     3
100
AcDbCircle
 10
30.20507815232031
 20
14.02533202288142
 30
0.0
 40
0.5
100
AcDbArc
 50
179.9997454617998
 51
269.9997274757
  0
ARC
  5
4D1
330
1E
100
AcDbEntity
  8
0
 62
     3
100
AcDbCircle
 10
32.90502932422025
 20
13.72552733538142
 30
0.0
 40
0.1999999285
100
AcDbArc
 50
179.9997454617998
 51
269.9997274757
  0
LINE
  5
4D2
330
1E
100
AcDbEntity
  8
0
 62
     3
100
AcDbLine
 10
32.90646365032028
 20
13.52563719868143
 30
0.0
 11
33.70626833782028
 21
13.52563719868143
 31
0.0
  0
ARC
  5
4D3
330
1E
100
AcDbEntity
  8
0
 62
     3
100
AcDbCircle
 10
31.00488283982031
 20
14.62542967918142
 30
0.0
 40
0.2999999522999999
100
AcDbArc
 50
89.99992737239997
 51
179.9996908202999
  0
LINE
  5
4D4
330
1E
100
AcDbEntity
  8
0
 62
     3
100
AcDbLine
 10
31.00631716602026
 20
14.92578368308142
 30
0.0
 11
32.40646365032028
 21
14.92578368308142
 31
0.0
  0
ARC
  5
4D5
330
1E
100
AcDbEntity
  8
0
 62
     3
100
AcDbCircle
 10
32.40502932422026
 20
14.62542967918142
 30
0.0
 40
0.2999999522999999
100
AcDbArc
 50
0.000090047481457
 51
89.99992737239997
  0
LINE
  5
4D6
330
1E
100
AcDbEntity
  8
0
 62
     3
100
AcDbLine
 10
28.00572659362029
 20
39.22513018328141
 30
0.0
 11
28.30576845262026
 21
39.52516233048143
 31
0.0
  0
ARC
  5
4D7
330
1E
100
AcDbEntity
  8
0
 62
     3
100
AcDbCircle
 10
31.00488283982031
 20
38.42499022608143
 30
0.0
 40
0.2999999522999999
100
AcDbArc
 50
179.9997454617998
 51
269.9997274757
  0
LINE
  5
4D8
330
1E
100
AcDbEntity
  8
0
 62
     3
100
AcDbLine
 10
30.20626833782028
 20
39.52539305808142
 30
0.0
 11
30.50631716602026
 21
39.52539305808142
 31
0.0
  0
ARC
  5
4D9
330
1E
100
AcDbEntity
  8
0
 62
     3
100
AcDbCircle
 10
30.5048828398203
 20
39.32489256978142
 30
0.0
 40
0.1999999285
100
AcDbArc
 50
0.000090047481457
 51
89.99992737239997
  0
LINE
  5
4DA
330
1E
100
AcDbEntity
  8
0
 62
     3
100
AcDbLine
 10
28.3061371123203
 20
39.52563719868141
 30
0.0
 11
29.20603945602028
 21
39.52563719868141
 31
0.0
  0
LINE
  5
4DB
330
1E
100
AcDbEntity
  8
0
 62
     3
100
AcDbLine
 10
29.70603945602027
 20
39.42563109518141
 30
0.0
 11
29.20603945602028
 21
39.42563109518141
 31
0.0
  0
ARC
  5
4DC
330
1E
100
AcDbEntity
  8
0
 62
     3
100
AcDbCircle
 10
30.20507815232031
 20
39.02484374168142
 30
0.0
 40
0.5
100
AcDbArc
 50
89.99992737239997
 51
179.9996908202999
  0
LINE
  5
4DD
330
1E
100
AcDbEntity
  8
0
 62
     3
100
AcDbLine
 10
31.00631716602026
 20
38.12549071428142
 30
0.0
 11
32.40646365032028
 21
38.12549071428142
 31
0.0
  0
ARC
  5
4DE
330
1E
100
AcDbEntity
  8
0
 62
     3
100
AcDbCircle
 10
32.90502932422025
 20
39.32489256978142
 30
0.0
 40
0.1999999285
100
AcDbArc
 50
89.99992737239997
 51
179.9996908202999
  0
ARC
  5
4DF
330
1E
100
AcDbEntity
  8
0
 62
     3
100
AcDbCircle
 10
32.40502932422026
 20
38.42499022608143
 30
0.0
 40
0.2999999522999999
100
AcDbArc
 50
270.0001272691
 51
359.9999088201
  0
LINE
  5
4E0
330
1E
100
AcDbEntity
  8
0
 62
     3
100
AcDbLine
 10
32.90646365032028
 20
39.52539305808142
 30
0.0
 11
33.70626833782028
 21
39.52539305808142
 31
0.0
  0
LINE
  5
4E1
330
1E
100
AcDbEntity
  8
0
 62
     3
100
AcDbLine
 10
64.20425417772026
 20
49.97085814598142
 30
0.0
 11
55.12155154102032
 21
49.97085814598142
 31
0.0
  0
LINE
  5
4E2
330
1E
100
AcDbEntity
  8
0
 62
     3
100
AcDbLine
 10
63.81173708782029
 20
50.23001341938144
 30
0.0
 11
55.67437746872024
 21
50.23001341938144
 31
0.0
  0
ARC
  5
4E3
330
1E
100
AcDbEntity
  8
0
 62
     3
100
AcDbCircle
 10
59.70477297652024
 20
41.22574095848142
 30
0.0
 40
10.0
100
AcDbArc
 50
52.53713890699999
 51
127.4628046302
  0
LINE
  5
4E4
330
1E
100
AcDbEntity
  8
0
 62
     3
100
AcDbLine
 10
44.30441286912025
 20
17.02582030418142
 30
0.0
 11
75.10488894332032
 21
17.02582030418142
 31
0.0
  0
LINE
  5
4E5
330
1E
100
AcDbEntity
  8
0
 62
     3
100
AcDbLine
 10
43.30541994922024
 20
16.02582030418141
 30
0.0
 11
76.10415652142029
 21
16.02582030418141
 31
0.0
  0
LINE
  5
4E6
330
1E
100
AcDbEntity
  8
0
 62
     3
100
AcDbLine
 10
43.10424807422026
 20
22.02578978658141
 30
0.0
 11
76.3042297636203
 21
22.02578978658141
 31
0.0
  0
LINE
  5
4E7
330
1E
100
AcDbEntity
  8
0
 62
     3
100
AcDbLine
 10
53.50476076952025
 20
47.12570433738142
 30
0.0
 11
65.90475466602033
 21
47.12570433738142
 31
0.0
  0
LINE
  5
4E8
330
1E
100
AcDbEntity
  8
0
 62
     3
100
AcDbLine
 10
34.20501711712029
 20
11.5264001381814
 30
0.0
 11
40.95501711712029
 21
11.5264001381814
 31
0.0
  0
LINE
  5
4E9
330
1E
100
AcDbEntity
  8
0
 62
     3
100
AcDbLine
 10
36.45480349412025
 20
12.02640013818143
 30
0.0
 11
36.45480349412025
 21
11.52664427878141
 31
0.0
  0
LINE
  5
4EA
330
1E
100
AcDbEntity
  8
0
 62
     3
100
AcDbLine
 10
34.2047729765203
 20
12.02612547998143
 30
0.0
 11
34.2047729765203
 21
11.52612547998143
 31
0.0
  0
LINE
  5
4EB
330
1E
100
AcDbEntity
  8
0
 62
     3
100
AcDbLine
 10
40.95480349412023
 20
12.02640013818143
 30
0.0
 11
40.95480349412023
 21
11.52664427878141
 31
0.0
  0
LINE
  5
4EC
330
1E
100
AcDbEntity
  8
0
 62
     3
100
AcDbLine
 10
43.10454643992028
 20
22.02563466238142
 30
0.0
 11
44.10454750152029
 21
21.02563360078141
 31
0.0
  0
LINE
  5
4ED
330
1E
100
AcDbEntity
  8
0
 62
     3
100
AcDbLine
 10
43.10424807422026
 20
22.02578978658141
 30
0.0
 11
43.10424807422026
 21
21.02578978658141
 31
0.0
  0
LINE
  5
4EE
330
1E
100
AcDbEntity
  8
0
 62
     3
100
AcDbLine
 10
44.30444338672026
 20
17.02688841938142
 30
0.0
 11
44.30444338672026
 21
21.02713255998142
 31
0.0
  0
LINE
  5
4EF
330
1E
100
AcDbEntity
  8
0
 62
     3
100
AcDbLine
 10
43.30517580852029
 20
21.02725463038142
 30
0.0
 11
43.30517580852029
 21
16.02725463038142
 31
0.0
  0
LINE
  5
4F0
330
1E
100
AcDbEntity
  8
0
 62
     3
100
AcDbLine
 10
44.30423281542029
 20
17.02671104988141
 30
0.0
 11
43.30484801552027
 21
16.0266547854814
 31
0.0
  0
LINE
  5
4F1
330
1E
100
AcDbEntity
  8
0
 62
     3
100
AcDbLine
 10
47.2047729765203
 20
11.52615599748141
 30
0.0
 11
52.20477297652024
 21
11.52615599748141
 31
0.0
  0
LINE
  5
4F2
330
1E
100
AcDbEntity
  8
0
 62
     3
100
AcDbLine
 10
47.20480349412025
 20
12.02640013818143
 30
0.0
 11
47.20480349412025
 21
11.5264001381814
 31
0.0
  0
LINE
  5
4F3
330
1E
100
AcDbEntity
  8
0
 62
     3
100
AcDbLine
 10
52.20480349412025
 20
12.02615599748142
 30
0.0
 11
52.20480349412025
 21
11.52615599748141
 31
0.0
  0
LINE
  5
4F4
330
1E
100
AcDbEntity
  8
0
 62
     3
100
AcDbLine
 10
46.20431521282029
 20
17.02615599748142
 30
0.0
 11
46.20431521282029
 21
21.02569823388142
 31
0.0
  0
LINE
  5
4F5
330
1E
100
AcDbEntity
  8
0
 62
     3
100
AcDbLine
 10
54.00720217572029
 20
47.12570433738142
 30
0.0
 11
54.00720217572029
 21
49.29974608538143
 31
0.0
  0
LINE
  5
4F6
330
1E
100
AcDbEntity
  8
0
 62
     3
100
AcDbLine
 10
54.28378298632033
 20
47.12570433738142
 30
0.0
 11
54.28378298632033
 21
49.29974608538143
 31
0.0
  0
LINE
  5
4F7
330
1E
100
AcDbEntity
  8
0
 62
     3
100
AcDbLine
 10
54.61599734172029
 20
47.12570433738142
 30
0.0
 11
54.61599734172029
 21
49.29974608538143
 31
0.0
  0
LINE
  5
4F8
330
1E
100
AcDbEntity
  8
0
 62
     3
100
AcDbLine
 10
55.00042727342026
 20
47.12570433738142
 30
0.0
 11
55.00042727342026
 21
49.29974608538143
 31
0.0
  0
LINE
  5
4F9
330
1E
100
AcDbEntity
  8
0
 62
     3
100
AcDbLine
 10
53.78906252732031
 20
47.12570433738142
 30
0.0
 11
53.78906252732031
 21
49.29974608538143
 31
0.0
  0
LINE
  5
4FA
330
1E
100
AcDbEntity
  8
0
 62
     3
100
AcDbLine
 10
55.43313601362029
 20
47.12570433738142
 30
0.0
 11
55.43313601362029
 21
49.29974608538143
 31
0.0
  0
LINE
  5
4FB
330
1E
100
AcDbEntity
  8
0
 62
     3
100
AcDbLine
 10
56.42517092572029
 20
47.12570433738142
 30
0.0
 11
56.42517092572029
 21
49.29974608538143
 31
0.0
  0
LINE
  5
4FC
330
1E
100
AcDbEntity
  8
0
 62
     3
100
AcDbLine
 10
56.97430422652026
 20
47.12570433738142
 30
0.0
 11
56.97430422652026
 21
49.29974608538143
 31
0.0
  0
LINE
  5
4FD
330
1E
100
AcDbEntity
  8
0
 62
     3
100
AcDbLine
 10
55.90966799602028
 20
47.12570433738142
 30
0.0
 11
55.90966799602028
 21
49.29974608538143
 31
0.0
  0
LINE
  5
4FE
330
1E
100
AcDbEntity
  8
0
 62
     3
100
AcDbLine
 10
53.50476076952025
 20
48.9250512611814
 30
0.0
 11
53.50476076952025
 21
47.12570433738142
 31
0.0
  0
LINE
  5
4FF
330
1E
100
AcDbEntity
  8
0
 62
     3
100
AcDbLine
 10
53.63165285932024
 20
47.12570433738142
 30
0.0
 11
53.63165285932024
 21
49.17010741358144
 31
0.0
  0
LINE
  5
500
330
1E
100
AcDbEntity
  8
0
 62
     3
100
AcDbLine
 10
53.70480349412026
 20
47.12570433738142
 30
0.0
 11
53.70480349412026
 21
46.52575926898143
 31
0.0
  0
ARC
  5
501
330
1E
100
AcDbEntity
  8
0
 62
     3
100
AcDbCircle
 10
53.80484011522026
 20
48.92511229638142
 30
0.0
 40
0.2999999522999999
100
AcDbArc
 50
127.4629685547999
 51
180.0000733108
  0
LINE
  5
502
330
1E
100
AcDbEntity
  8
0
 62
     3
100
AcDbLine
 10
67.20477297652024
 20
11.52591185688143
 30
0.0
 11
72.20477297652023
 21
11.52591185688143
 31
0.0
  0
LINE
  5
503
330
1E
100
AcDbEntity
  8
0
 62
     3
100
AcDbLine
 10
67.20477297652024
 20
11.52591185688143
 30
0.0
 11
67.20477297652024
 21
12.02591185688143
 31
0.0
  0
LINE
  5
504
330
1E
100
AcDbEntity
  8
0
 62
     3
100
AcDbLine
 10
72.20477297652023
 20
11.52615599748141
 30
0.0
 11
72.20477297652023
 21
12.02615599748142
 31
0.0
  0
LINE
  5
505
330
1E
100
AcDbEntity
  8
0
 62
     3
100
AcDbLine
 10
78.45477297652023
 20
11.5264001381814
 30
0.0
 11
78.45477297652023
 21
12.02615599748142
 31
0.0
  0
LINE
  5
506
330
1E
100
AcDbEntity
  8
0
 62
     3
100
AcDbLine
 10
76.10382697992026
 20
16.02654127758142
 30
0.0
 11
75.10444218002027
 21
17.02659754198143
 31
0.0
  0
LINE
  5
507
330
1E
100
AcDbEntity
  8
0
 62
     3
100
AcDbLine
 10
75.10513308392029
 20
21.02688841938142
 30
0.0
 11
75.10513308392029
 21
17.02664427878142
 31
0.0
  0
LINE
  5
508
330
1E
100
AcDbEntity
  8
0
 62
     3
100
AcDbLine
 10
73.20523074022027
 20
21.02569823388142
 30
0.0
 11
73.20523074022027
 21
17.02640013818141
 31
0.0
  0
LINE
  5
509
330
1E
100
AcDbEntity
  8
0
 62
     3
100
AcDbLine
 10
76.3042297636203
 20
22.02578978658141
 30
0.0
 11
76.3042297636203
 21
21.02578978658141
 31
0.0
  0
LINE
  5
50A
330
1E
100
AcDbEntity
  8
0
 62
     3
100
AcDbLine
 10
75.30446892332027
 20
21.02577288018142
 30
0.0
 11
76.30434422262027
 21
22.02577022898143
 31
0.0
  0
LINE
  5
50B
330
1E
100
AcDbEntity
  8
0
 62
     3
100
AcDbLine
 10
76.10421755662025
 20
16.02688841938142
 30
0.0
 11
76.10421755662025
 21
21.02688841938142
 31
0.0
  0
LINE
  5
50C
330
1E
100
AcDbEntity
  8
0
 62
     3
100
AcDbLine
 10
62.98437502732031
 20
49.29974608538143
 30
0.0
 11
62.98437502732031
 21
47.12573485498142
 31
0.0
  0
LINE
  5
50D
330
1E
100
AcDbEntity
  8
0
 62
     3
100
AcDbLine
 10
61.85809328902024
 20
49.29974608538143
 30
0.0
 11
61.85809328902024
 21
47.12573485498142
 31
0.0
  0
LINE
  5
50E
330
1E
100
AcDbEntity
  8
0
 62
     3
100
AcDbLine
 10
61.25881960742032
 20
49.29974608538143
 30
0.0
 11
61.25881960742032
 21
47.12573485498142
 31
0.0
  0
LINE
  5
50F
330
1E
100
AcDbEntity
  8
0
 62
     3
100
AcDbLine
 10
60.6436462675203
 20
49.29974608538143
 30
0.0
 11
60.6436462675203
 21
47.12573485498142
 31
0.0
  0
LINE
  5
510
330
1E
100
AcDbEntity
  8
0
 62
     3
100
AcDbLine
 10
60.01879885542024
 20
49.29974608538143
 30
0.0
 11
60.01879885542024
 21
47.12573485498142
 31
0.0
  0
LINE
  5
511
330
1E
100
AcDbEntity
  8
0
 62
     3
100
AcDbLine
 10
62.43524172652024
 20
49.29974608538143
 30
0.0
 11
62.43524172652024
 21
47.12573485498142
 31
0.0
  0
LINE
  5
512
330
1E
100
AcDbEntity
  8
0
 62
     3
100
AcDbLine
 10
57.55145266402024
 20
47.12570433738142
 30
0.0
 11
57.55145266402024
 21
49.29974608538143
 31
0.0
  0
LINE
  5
513
330
1E
100
AcDbEntity
  8
0
 62
     3
100
AcDbLine
 10
58.15069582812026
 20
47.12570433738142
 30
0.0
 11
58.15069582812026
 21
49.29974608538143
 31
0.0
  0
LINE
  5
514
330
1E
100
AcDbEntity
  8
0
 62
     3
100
AcDbLine
 10
58.76586916792025
 20
47.12570433738142
 30
0.0
 11
58.76586916792025
 21
49.29974608538143
 31
0.0
  0
LINE
  5
515
330
1E
100
AcDbEntity
  8
0
 62
     3
100
AcDbLine
 10
59.39071658002028
 20
47.12570433738142
 30
0.0
 11
59.39071658002028
 21
49.29974608538143
 31
0.0
  0
LINE
  5
516
330
1E
100
AcDbEntity
  8
0
 62
     3
100
AcDbLine
 10
65.90475466602033
 20
48.9250512611814
 30
0.0
 11
65.90475466602033
 21
47.12570433738142
 31
0.0
  0
LINE
  5
517
330
1E
100
AcDbEntity
  8
0
 62
     3
100
AcDbLine
 10
65.7778625761203
 20
49.17010741358144
 30
0.0
 11
65.7778625761203
 21
47.12573485498142
 31
0.0
  0
LINE
  5
518
330
1E
100
AcDbEntity
  8
0
 62
     3
100
AcDbLine
 10
65.62045290822033
 20
49.29974608538143
 30
0.0
 11
65.62045290822033
 21
47.12573485498142
 31
0.0
  0
LINE
  5
519
330
1E
100
AcDbEntity
  8
0
 62
     3
100
AcDbLine
 10
65.4023132597203
 20
49.29974608538143
 30
0.0
 11
65.4023132597203
 21
47.12573485498142
 31
0.0
  0
LINE
  5
51A
330
1E
100
AcDbEntity
  8
0
 62
     3
100
AcDbLine
 10
64.79351809372025
 20
49.29974608538143
 30
0.0
 11
64.79351809372025
 21
47.12573485498142
 31
0.0
  0
LINE
  5
51B
330
1E
100
AcDbEntity
  8
0
 62
     3
100
AcDbLine
 10
64.40908816212033
 20
49.29974608538143
 30
0.0
 11
64.40908816212033
 21
47.12573485498142
 31
0.0
  0
LINE
  5
51C
330
1E
100
AcDbEntity
  8
0
 62
     3
100
AcDbLine
 10
63.97637942182024
 20
49.29974608538143
 30
0.0
 11
63.97637942182024
 21
47.12573485498142
 31
0.0
  0
LINE
  5
51D
330
1E
100
AcDbEntity
  8
0
 62
     3
100
AcDbLine
 10
63.4998474394203
 20
49.29974608538143
 30
0.0
 11
63.4998474394203
 21
47.12573485498142
 31
0.0
  0
LINE
  5
51E
330
1E
100
AcDbEntity
  8
0
 62
     3
100
AcDbLine
 10
65.12573244922028
 20
49.29974608538143
 30
0.0
 11
65.12573244922028
 21
47.12573485498142
 31
0.0
  0
LINE
  5
51F
330
1E
100
AcDbEntity
  8
0
 62
     3
100
AcDbLine
 10
65.70480349412026
 20
47.12570433738142
 30
0.0
 11
65.70480349412026
 21
46.52575926898143
 31
0.0
  0
ARC
  5
520
330
1E
100
AcDbEntity
  8
0
 62
     3
100
AcDbCircle
 10
65.60479739062026
 20
48.9250512611814
 30
0.0
 40
0.2999999522999999
100
AcDbArc
 50
359.9999093862999
 51
52.53701254850006
  0
ARC
  5
521
330
1E
100
AcDbEntity
  8
0
 62
     3
100
AcDbCircle
 10
34.70355227342025
 20
129.2643825036155
 30
0.0
 40
1.0
100
AcDbArc
 50
89.99998201389999
 51
179.9999640277999
  0
ARC
  5
522
330
1E
100
AcDbEntity
  8
0
 62
     3
100
AcDbCircle
 10
37.70343020312024
 20
101.7644130212154
 30
0.0
 40
4.0
100
AcDbArc
 50
179.9999640277999
 51
269.9999460416999
  0
ARC
  5
523
330
1E
100
AcDbEntity
  8
0
 62
     3
100
AcDbCircle
 10
37.70343020312024
 20
101.7644435388155
 30
0.0
 40
4.0
100
AcDbArc
 50
179.9999093863
 51
269.9998367586999
  0
ARC
  5
524
330
1E
100
AcDbEntity
  8
0
  6
DASH
 62
     3
100
AcDbCircle
 10
77.70358279102032
 20
94.76438250361557
 30
0.0
 40
2.0
100
AcDbArc
 50
0.0
 51
89.99998201389999
  0
ARC
  5
525
330
1E
100
AcDbEntity
  8
0
  6
DASH
 62
     3
100
AcDbCircle
 10
40.35345461712029
 20
95.76438250361556
 30
0.0
 40
2.0
100
AcDbArc
 50
89.99998201389999
 51
179.9999640277999
  0
ARC
  5
526
330
1E
100
AcDbEntity
  8
0
  6
DASH
 62
     3
100
AcDbCircle
 10
41.70358279102027
 20
94.76438250361557
 30
0.0
 40
2.0
100
AcDbArc
 50
89.99998201389999
 51
179.9999640277999
  0
LINE
  5
527
330
1E
100
AcDbEntity
  8
0
  6
DASH
 62
     3
100
AcDbLine
 10
56.70343020312026
 20
85.46436419311556
 30
0.0
 11
62.70343020312026
 21
85.46436419311556
 31
0.0
  0
LINE
  5
528
330
1E
100
AcDbEntity
  8
0
  6
DASH
 62
     3
100
AcDbLine
 10
56.70343020312026
 20
94.26438250361554
 30
0.0
 11
62.70343020312026
 21
94.26438250361554
 31
0.0
  0
LINE
  5
529
330
1E
100
AcDbEntity
  8
0
  6
CENTER
 62
     3
100
AcDbLine
 10
75.70355227342027
 20
78.46436419311554
 30
0.0
 11
43.70355227342026
 21
78.46436419311554
 31
0.0
  0
LINE
  5
52A
330
1E
100
AcDbEntity
  8
0
  6
DASH
 62
     3
100
AcDbLine
 10
77.70355227342027
 20
69.46436419311556
 30
0.0
 11
41.70355227342025
 21
69.46436419311556
 31
0.0
  0
LINE
  5
52B
330
1E
100
AcDbEntity
  8
0
  6
DASH
 62
     3
100
AcDbLine
 10
38.35345461712029
 20
92.26438250361557
 30
0.0
 11
81.05343630662025
 21
92.26438250361557
 31
0.0
  0
ARC
  5
52C
330
1E
100
AcDbEntity
  8
0
  6
DASH
 62
     3
100
AcDbCircle
 10
41.7035217558203
 20
71.46436419311554
 30
0.0
 40
2.0
100
AcDbArc
 50
179.9995268956999
 51
270.0000006831999
  0
ARC
  5
52D
330
1E
100
AcDbEntity
  8
0
  6
DASH
 62
     3
100
AcDbCircle
 10
48.70333865032029
 20
77.96436419311556
 30
0.0
 40
3.1999988556
100
AcDbArc
 50
180.0000359722
 51
0.0
  0
ARC
  5
52E
330
1E
100
AcDbEntity
  8
0
  6
DASH
 62
     3
100
AcDbCircle
 10
48.70333865032029
 20
78.96436419311554
 30
0.0
 40
3.1999988556
100
AcDbArc
 50
0.0
 51
179.9999640277999
  0
LINE
  5
52F
330
1E
100
AcDbEntity
  8
0
  6
DASH
 62
     3
100
AcDbLine
 10
39.70358279102025
 20
86.86484637081557
 30
0.0
 11
39.70358279102025
 21
71.46442522821556
 31
0.0
  0
LINE
  5
530
330
1E
100
AcDbEntity
  8
0
  6
DASH
 62
     3
100
AcDbLine
 10
45.50332644332029
 20
78.96436419311554
 30
0.0
 11
45.50332644332029
 21
77.96436419311556
 31
0.0
  0
ARC
  5
531
330
1E
100
AcDbEntity
  8
0
  6
DASH
 62
     3
100
AcDbCircle
 10
38.18661501752021
 20
87.86438860711555
 30
0.0
 40
1.816666722299999
100
AcDbArc
 50
326.6015121850998
 51
33.3984878149
  0
LINE
  5
532
330
1E
100
AcDbEntity
  8
0
  6
DASH
 62
     3
100
AcDbLine
 10
39.70358279102025
 20
94.76438250361557
 30
0.0
 11
39.70358279102025
 21
88.86390032591554
 31
0.0
  0
ARC
  5
533
330
1E
100
AcDbEntity
  8
0
  6
DASH
 62
     3
100
AcDbCircle
 10
40.20327761522024
 20
93.50455584351555
 30
0.0
 40
0.5
100
AcDbArc
 50
179.9990897636
 51
209.4804265233999
  0
ARC
  5
534
330
1E
100
AcDbEntity
  8
0
  6
DASH
 62
     3
100
AcDbCircle
 10
40.20327761522024
 20
91.22425188841557
 30
0.0
 40
0.5
100
AcDbArc
 50
150.5182994189
 51
179.9990351221
  0
LINE
  5
535
330
1E
100
AcDbEntity
  8
0
  6
DASH
 62
     3
100
AcDbLine
 10
38.35342409962027
 20
92.26438250361557
 30
0.0
 11
38.35342409962027
 21
95.76438250361556
 31
0.0
  0
LINE
  5
536
330
1E
100
AcDbEntity
  8
0
  6
CENTER
 62
     3
100
AcDbLine
 10
48.70352175582031
 20
73.46436419311554
 30
0.0
 11
48.70352175582031
 21
83.46436419311556
 31
0.0
  0
LINE
  5
537
330
1E
100
AcDbEntity
  8
0
  6
DASH
 62
     3
100
AcDbLine
 10
51.90332033982031
 20
77.96436419311556
 30
0.0
 11
51.90332033982031
 21
78.96436419311554
 31
0.0
  0
LINE
  5
538
330
1E
100
AcDbEntity
  8
0
  6
DASH
 62
     3
100
AcDbLine
 10
55.70343020312026
 20
86.46436419311553
 30
0.0
 11
55.70343020312026
 21
93.26438250361556
 31
0.0
  0
ARC
  5
539
330
1E
100
AcDbEntity
  8
0
  6
DASH
 62
     3
100
AcDbCircle
 10
56.70343020312026
 20
86.46436419311553
 30
0.0
 40
1.0
100
AcDbArc
 50
180.0000359722
 51
270.0000179861
  0
ARC
  5
53A
330
1E
100
AcDbEntity
  8
0
  6
DASH
 62
     3
100
AcDbCircle
 10
56.70343020312026
 20
93.26438250361556
 30
0.0
 40
1.0
100
AcDbArc
 50
89.99998201389999
 51
179.9999640277999
  0
ARC
  5
53B
330
1E
100
AcDbEntity
  8
0
  6
DASH
 62
     3
100
AcDbCircle
 10
77.70352175582029
 20
71.46436419311554
 30
0.0
 40
2.0
100
AcDbArc
 50
270.0000726275999
 51
0.0004551182000068
  0
ARC
  5
53C
330
1E
100
AcDbEntity
  8
0
  6
DASH
 62
     3
100
AcDbCircle
 10
70.70355227342027
 20
77.96436419311556
 30
0.0
 40
3.1999988556
100
AcDbArc
 50
180.0000359722
 51
0.0
  0
ARC
  5
53D
330
1E
100
AcDbEntity
  8
0
  6
DASH
 62
     3
100
AcDbCircle
 10
70.70355227342027
 20
78.96436419311554
 30
0.0
 40
3.1999988556
100
AcDbArc
 50
0.0
 51
179.9999640277999
  0
LINE
  5
53E
330
1E
100
AcDbEntity
  8
0
  6
DASH
 62
     3
100
AcDbLine
 10
67.50354006642027
 20
77.96436419311556
 30
0.0
 11
67.50354006642027
 21
78.96436419311554
 31
0.0
  0
ARC
  5
53F
330
1E
100
AcDbEntity
  8
0
  6
DASH
 62
     3
100
AcDbCircle
 10
62.70343020312026
 20
93.26438250361556
 30
0.0
 40
1.0
100
AcDbArc
 50
0.0
 51
89.99998201389999
  0
ARC
  5
540
330
1E
100
AcDbEntity
  8
0
  6
DASH
 62
     3
100
AcDbCircle
 10
62.70343020312026
 20
86.46436419311553
 30
0.0
 40
1.0
100
AcDbArc
 50
270.0000179861
 51
0.0
  0
LINE
  5
541
330
1E
100
AcDbEntity
  8
0
  6
DASH
 62
     3
100
AcDbLine
 10
63.70343020312026
 20
86.46436419311553
 30
0.0
 11
63.70343020312026
 21
93.26438250361556
 31
0.0
  0
LINE
  5
542
330
1E
100
AcDbEntity
  8
0
  6
DASH
 62
     3
100
AcDbLine
 10
79.70358279102033
 20
86.86438860711556
 30
0.0
 11
79.70358279102033
 21
71.46442522821556
 31
0.0
  0
LINE
  5
543
330
1E
100
AcDbEntity
  8
0
  6
CENTER
 62
     3
100
AcDbLine
 10
70.70352175582029
 20
73.46436419311554
 30
0.0
 11
70.70352175582029
 21
83.46436419311556
 31
0.0
  0
LINE
  5
544
330
1E
100
AcDbEntity
  8
0
  6
DASH
 62
     3
100
AcDbLine
 10
73.9035339628203
 20
78.96436419311554
 30
0.0
 11
73.9035339628203
 21
77.96436419311556
 31
0.0
  0
LINE
  5
545
330
1E
100
AcDbEntity
  8
0
  6
DASH
 62
     3
100
AcDbLine
 10
79.70358279102033
 20
94.76438250361557
 30
0.0
 11
79.70358279102033
 21
88.86438860711555
 31
0.0
  0
ARC
  5
546
330
1E
100
AcDbEntity
  8
0
  6
DASH
 62
     3
100
AcDbCircle
 10
81.2202453886203
 20
87.86438860711555
 30
0.0
 40
1.816666722299999
100
AcDbArc
 50
146.6014864581999
 51
213.3984415974
  0
LINE
  5
547
330
1E
100
AcDbEntity
  8
0
  6
DASH
 62
     3
100
AcDbLine
 10
81.05343630662025
 20
92.26438250361557
 30
0.0
 11
81.05343630662025
 21
95.76438250361556
 31
0.0
  0
LINE
  5
548
330
1E
100
AcDbEntity
  8
0
  6
DASH
 62
     3
100
AcDbLine
 10
40.35345461712029
 20
97.76438250361557
 30
0.0
 11
79.05343630662025
 21
97.76438250361557
 31
0.0
  0
LINE
  5
549
330
1E
100
AcDbEntity
  8
0
 62
     3
100
AcDbLine
 10
44.70343020312026
 20
145.2643214685155
 30
0.0
 11
74.70343020312026
 21
145.2643214685155
 31
0.0
  0
LINE
  5
54A
330
1E
100
AcDbEntity
  8
0
 62
     3
100
AcDbLine
 10
44.10339358202025
 20
105.2643825036154
 30
0.0
 11
75.30340578902023
 21
105.2643825036154
 31
0.0
  0
LINE
  5
54B
330
1E
100
AcDbEntity
  8
0
 62
     3
100
AcDbLine
 10
44.10339358202025
 20
109.2643825036153
 30
0.0
 11
75.30340578902023
 21
109.2643825036153
 31
0.0
  0
LINE
  5
54C
330
1E
100
AcDbEntity
  8
0
 62
     3
100
AcDbLine
 10
43.10339358202025
 20
104.2643825036154
 30
0.0
 11
76.30340578902025
 21
104.2643825036154
 31
0.0
  0
LINE
  5
54D
330
1E
100
AcDbEntity
  8
0
 62
     3
100
AcDbLine
 10
43.10339358202025
 20
110.2643825036153
 30
0.0
 11
76.30340578902025
 21
110.2643825036153
 31
0.0
  0
LINE
  5
54E
330
1E
100
AcDbEntity
  8
0
 62
     3
100
AcDbLine
 10
44.75338747852027
 20
145.2643519861154
 30
0.0
 11
74.65338137502026
 21
145.2643519861154
 31
0.0
  0
CIRCLE
  5
54F
330
1E
100
AcDbEntity
  8
0
 62
     3
100
AcDbCircle
 10
39.70343020312025
 20
125.2644130212154
 30
0.0
 40
3.5
  0
LINE
  5
550
330
1E
100
AcDbEntity
  8
0
 62
     3
100
AcDbLine
 10
44.10339358202025
 20
109.2643825036153
 30
0.0
 11
44.10339358202025
 21
105.2643825036154
 31
0.0
  0
LINE
  5
551
330
1E
100
AcDbEntity
  8
0
 62
     3
100
AcDbLine
 10
43.10339358202025
 20
110.2643825036153
 30
0.0
 11
43.10339358202025
 21
104.2643825036154
 31
0.0
  0
LINE
  5
552
330
1E
100
AcDbEntity
  8
0
  6
DASH
 62
     3
100
AcDbLine
 10
41.70358279102027
 20
96.76438250361556
 30
0.0
 11
45.10345461712028
 21
96.76438250361556
 31
0.0
  0
LINE
  5
553
330
1E
100
AcDbEntity
  8
0
  6
DASH
 62
     3
100
AcDbLine
 10
45.10342409962027
 20
96.76438250361556
 30
0.0
 11
45.10342409962027
 21
97.76438250361557
 31
0.0
  0
LINE
  5
554
330
1E
100
AcDbEntity
  8
0
 62
     3
100
AcDbLine
 10
43.10344320402026
 20
104.2643063888154
 30
0.0
 11
44.10344426562028
 21
105.2643074504155
 31
0.0
  0
LINE
  5
555
330
1E
100
AcDbEntity
  8
0
 62
     3
100
AcDbLine
 10
43.1034647832203
 20
110.2642911791155
 30
0.0
 11
44.10346584482026
 21
109.2642901175155
 31
0.0
  0
LINE
  5
556
330
1E
100
AcDbEntity
  8
0
 62
     3
100
AcDbLine
 10
43.70343020312026
 20
133.2643214685155
 30
0.0
 11
43.70343020312026
 21
144.2643214685155
 31
0.0
  0
LINE
  5
557
330
1E
100
AcDbEntity
  8
0
 62
     3
100
AcDbLine
 10
36.00341799602029
 20
135.2643519861153
 30
0.0
 11
36.00341799602029
 21
137.2643519861153
 31
0.0
  0
LINE
  5
558
330
1E
100
AcDbEntity
  8
0
 62
     3
100
AcDbLine
 10
41.40344241012028
 20
135.2643519861153
 30
0.0
 11
41.40344241012028
 21
137.2643519861153
 31
0.0
  0
ARC
  5
559
330
1E
100
AcDbEntity
  8
0
 62
     3
100
AcDbCircle
 10
38.70343020312025
 20
135.2643825036155
 30
0.0
 40
2.6999988556
100
AcDbArc
 50
179.9999640277999
 51
359.9998734141
  0
ARC
  5
55A
330
1E
100
AcDbEntity
  8
0
 62
     3
100
AcDbCircle
 10
40.85186770312025
 20
123.2752610666155
 30
0.0
 40
1.09375
100
AcDbArc
 50
63.63222796839999
 51
176.3677787102
  0
ARC
  5
55B
330
1E
100
AcDbEntity
  8
0
 62
     3
100
AcDbCircle
 10
40.85186770312025
 20
127.2535649759155
 30
0.0
 40
1.09375
100
AcDbArc
 50
183.6322212897999
 51
296.3677720315999
  0
CIRCLE
  5
55C
330
1E
100
AcDbEntity
  8
0
 62
     3
100
AcDbCircle
 10
39.70343020312025
 20
125.2644130212154
 30
0.0
 40
0.765625
  0
ARC
  5
55D
330
1E
100
AcDbEntity
  8
0
 62
     3
100
AcDbCircle
 10
38.55499270312025
 20
123.2752610666155
 30
0.0
 40
1.09375
100
AcDbArc
 50
3.6322262987
 51
116.3677360594
  0
ARC
  5
55E
330
1E
100
AcDbEntity
  8
0
 62
     3
100
AcDbCircle
 10
38.55499270312025
 20
127.2535649759155
 30
0.0
 40
1.09375
100
AcDbArc
 50
243.6322639406
 51
356.3677737013
  0
CIRCLE
  5
55F
330
1E
100
AcDbEntity
  8
0
 62
     3
100
AcDbCircle
 10
39.70343020312025
 20
125.2644130212154
 30
0.0
 40
1.96875
  0
LINE
  5
560
330
1E
100
AcDbEntity
  8
0
 62
     3
100
AcDbLine
 10
34.7035217558203
 20
130.2643519861154
 30
0.0
 11
40.70339968552031
 21
130.2643519861154
 31
0.0
  0
LINE
  5
561
330
1E
100
AcDbEntity
  8
0
 62
     3
100
AcDbLine
 10
34.70343020312026
 20
130.2643519861154
 30
0.0
 11
40.70343020312026
 21
130.2643519861154
 31
0.0
  0
LINE
  5
562
330
1E
100
AcDbEntity
  8
0
  6
CENTER
 62
     3
100
AcDbLine
 10
35.24414065232031
 20
135.2643519861153
 30
0.0
 11
42.15664675582028
 21
135.2643519861153
 31
0.0
  0
ARC
  5
563
330
1E
100
AcDbEntity
  8
0
 62
     3
100
AcDbCircle
 10
39.70343020312025
 20
127.1806622964155
 30
0.0
 40
0.056875001639
100
AcDbArc
 50
3.6322262987
 51
179.9999640277999
  0
ARC
  5
564
330
1E
100
AcDbEntity
  8
0
 62
     3
100
AcDbCircle
 10
39.70343020312025
 20
123.3481637460154
 30
0.0
 40
0.056875001639
100
AcDbArc
 50
183.6322212897999
 51
0.0
  0
ARC
  5
565
330
1E
100
AcDbEntity
  8
0
 62
     3
100
AcDbCircle
 10
38.04390910022027
 20
126.2225380164154
 30
0.0
 40
0.056875001639
100
AcDbArc
 50
63.6322452712
 51
240.0000239815
  0
ARC
  5
566
330
1E
100
AcDbEntity
  8
0
 62
     3
100
AcDbCircle
 10
38.04390910022027
 20
124.3062880260154
 30
0.0
 40
0.056875001639
100
AcDbArc
 50
123.6322332804999
 51
300.0000119906998
  0
ARC
  5
567
330
1E
100
AcDbEntity
  8
0
 62
     3
100
AcDbCircle
 10
37.40655520312024
 20
125.2644130212154
 30
0.0
 40
1.09375
100
AcDbArc
 50
303.6322280441998
 51
56.36777195580005
  0
ARC
  5
568
330
1E
100
AcDbEntity
  8
0
 62
     3
100
AcDbCircle
 10
41.36295130602031
 20
126.2225380164154
 30
0.0
 40
0.056875001639
100
AcDbArc
 50
303.6322280441998
 51
119.9999760184999
  0
ARC
  5
569
330
1E
100
AcDbEntity
  8
0
 62
     3
100
AcDbCircle
 10
41.36295130602031
 20
124.3062880260154
 30
0.0
 40
0.056875001639
100
AcDbArc
 50
243.6322639406
 51
59.99998800929999
  0
ARC
  5
56A
330
1E
100
AcDbEntity
  8
0
 62
     3
100
AcDbCircle
 10
42.00030520312025
 20
125.2644130212154
 30
0.0
 40
1.09375
100
AcDbArc
 50
123.6322332804999
 51
236.3677840224
  0
LINE
  5
56B
330
1E
100
AcDbEntity
  8
0
 62
     3
100
AcDbLine
 10
40.70267243722025
 20
130.2655424245155
 30
0.0
 11
43.70269711692026
 21
133.2655671042155
 31
0.0
  0
LINE
  5
56C
330
1E
100
AcDbEntity
  8
0
 62
     3
100
AcDbLine
 10
40.70342770872031
 20
130.2642692525155
 30
0.0
 11
43.70343080922025
 21
133.2642723530154
 31
0.0
  0
ARC
  5
56D
330
1E
100
AcDbEntity
  8
0
 62
     3
100
AcDbCircle
 10
38.70343020312025
 20
137.2643825036155
 30
0.0
 40
2.6999988556
100
AcDbArc
 50
0.0
 51
179.9999093863
  0
LINE
  5
56E
330
1E
100
AcDbEntity
  8
0
  6
CENTER
 62
     3
100
AcDbLine
 10
35.15435793752025
 20
137.2643519861153
 30
0.0
 11
42.24639895312026
 21
137.2643519861153
 31
0.0
  0
LINE
  5
56F
330
1E
100
AcDbEntity
  8
0
  6
CENTER
 62
     3
100
AcDbLine
 10
35.02468874802031
 20
147.2643519861154
 30
0.0
 11
41.9571533476203
 21
147.2643519861154
 31
0.0
  0
ARC
  5
570
330
1E
100
AcDbEntity
  8
0
 62
     3
100
AcDbCircle
 10
44.70343020312026
 20
144.2643825036155
 30
0.0
 40
1.0
100
AcDbArc
 50
89.99998201389999
 51
179.9999093863
  0
ARC
  5
571
330
1E
100
AcDbEntity
  8
0
 62
     3
100
AcDbCircle
 10
44.75341799602029
 20
146.2644130212154
 30
0.0
 40
1.0
100
AcDbArc
 50
179.9999640277999
 51
269.9999460416999
  0
LINE
  5
572
330
1E
100
AcDbEntity
  8
0
 62
     3
100
AcDbLine
 10
75.30340578902023
 20
109.2643825036153
 30
0.0
 11
75.30340578902023
 21
105.2643825036154
 31
0.0
  0
LINE
  5
573
330
1E
100
AcDbEntity
  8
0
 62
     3
100
AcDbLine
 10
76.30340578902025
 20
110.2643825036153
 30
0.0
 11
76.30340578902025
 21
104.2643825036154
 31
0.0
  0
LINE
  5
574
330
1E
100
AcDbEntity
  8
0
  6
DASH
 62
     3
100
AcDbLine
 10
74.30343630662027
 20
96.76438250361556
 30
0.0
 11
77.70358279102032
 21
96.76438250361556
 31
0.0
  0
LINE
  5
575
330
1E
100
AcDbEntity
  8
0
 62
     3
100
AcDbLine
 10
75.30342991302029
 20
105.2642858712155
 30
0.0
 11
76.30343097462031
 21
104.2642848096155
 31
0.0
  0
LINE
  5
576
330
1E
100
AcDbEntity
  8
0
 62
     3
100
AcDbLine
 10
75.30342991302029
 20
109.2642901175155
 30
0.0
 11
76.30343097462031
 21
110.2642911791155
 31
0.0
  0
LINE
  5
577
330
1E
100
AcDbEntity
  8
0
 62
     3
100
AcDbLine
 10
78.00335696092027
 20
137.2643519861153
 30
0.0
 11
78.00335696092027
 21
135.2643519861153
 31
0.0
  0
LINE
  5
578
330
1E
100
AcDbEntity
  8
0
 62
     3
100
AcDbLine
 10
75.70343020312026
 20
144.2643214685155
 30
0.0
 11
75.70343020312026
 21
133.2643214685155
 31
0.0
  0
ARC
  5
579
330
1E
100
AcDbEntity
  8
0
 62
     3
100
AcDbCircle
 10
78.55496218552031
 20
123.2752610666155
 30
0.0
 40
1.09375
100
AcDbArc
 50
3.6322262987
 51
116.3677360594
  0
ARC
  5
57A
330
1E
100
AcDbEntity
  8
0
 62
     3
100
AcDbCircle
 10
78.55496218552031
 20
127.2535649759155
 30
0.0
 40
1.09375
100
AcDbArc
 50
243.6322639406
 51
356.3677737013
  0
ARC
  5
57B
330
1E
100
AcDbEntity
  8
0
 62
     3
100
AcDbCircle
 10
77.40652468552031
 20
125.2644130212154
 30
0.0
 40
1.09375
100
AcDbArc
 50
303.6322280441998
 51
56.36777195580005
  0
ARC
  5
57C
330
1E
100
AcDbEntity
  8
0
 62
     3
100
AcDbCircle
 10
78.04387858262026
 20
126.2225380164154
 30
0.0
 40
0.056875001639
100
AcDbArc
 50
63.6322452712
 51
240.0000239815
  0
ARC
  5
57D
330
1E
100
AcDbEntity
  8
0
 62
     3
100
AcDbCircle
 10
78.04387858262026
 20
124.3062880260154
 30
0.0
 40
0.056875001639
100
AcDbArc
 50
123.6322332804999
 51
300.0000119906998
  0
ARC
  5
57E
330
1E
100
AcDbEntity
  8
0
 62
     3
100
AcDbCircle
 10
79.70339968552031
 20
127.1806622964155
 30
0.0
 40
0.056875001639
100
AcDbArc
 50
3.6322262987
 51
179.9999640277999
  0
ARC
  5
57F
330
1E
100
AcDbEntity
  8
0
 62
     3
100
AcDbCircle
 10
79.70339968552031
 20
123.3481637460154
 30
0.0
 40
0.056875001639
100
AcDbArc
 50
183.6322212897999
 51
0.0
  0
CIRCLE
  5
580
330
1E
100
AcDbEntity
  8
0
 62
     3
100
AcDbCircle
 10
79.70339968552031
 20
125.2644130212154
 30
0.0
 40
0.765625
  0
LINE
  5
581
330
1E
100
AcDbEntity
  8
0
 62
     3
100
AcDbLine
 10
75.70236432582027
 20
133.2655456093154
 30
0.0
 11
78.70238908982031
 21
130.2655208453155
 31
0.0
  0
LINE
  5
582
330
1E
100
AcDbEntity
  8
0
 62
     3
100
AcDbLine
 10
75.70335696842028
 20
133.2642940165154
 30
0.0
 11
78.70336015322033
 21
130.2642908317155
 31
0.0
  0
ARC
  5
583
330
1E
100
AcDbEntity
  8
0
 62
     3
100
AcDbCircle
 10
74.70339968552031
 20
144.2643825036155
 30
0.0
 40
1.0
100
AcDbArc
 50
0.000090613658866
 51
89.99998201389999
  0
ARC
  5
584
330
1E
100
AcDbEntity
  8
0
 62
     3
100
AcDbCircle
 10
74.55340578902023
 20
146.2644130212154
 30
0.0
 40
1.0
100
AcDbArc
 50
270.0000179861
 51
0.0
  0
LINE
  5
585
330
1E
100
AcDbEntity
  8
0
 62
     3
100
AcDbLine
 10
90.20350649702029
 20
13.62564330218143
 30
0.0
 11
90.20350649702029
 21
39.42563109518141
 31
0.0
  0
LINE
  5
586
330
1E
100
AcDbEntity
  8
0
 62
     3
100
AcDbLine
 10
89.70350649702025
 20
13.62564330218143
 30
0.0
 11
89.70350649702025
 21
39.42563109518141
 31
0.0
  0
LINE
  5
587
330
1E
100
AcDbEntity
  8
0
 62
     3
100
AcDbLine
 10
91.40345766892034
 20
13.82562499168142
 30
0.0
 11
91.40345766892034
 21
39.22561888818142
 31
0.0
  0
LINE
  5
588
330
1E
100
AcDbEntity
  8
0
 62
     3
100
AcDbLine
 10
90.20350649702029
 20
13.52563719868143
 30
0.0
 11
90.20350649702029
 21
39.52563719868141
 31
0.0
  0
LINE
  5
589
330
1E
100
AcDbEntity
  8
0
 62
     3
100
AcDbLine
 10
91.10340884082027
 20
13.52563719868143
 30
0.0
 11
91.10340884082027
 21
39.52563719868141
 31
0.0
  0
LINE
  5
58A
330
1E
100
AcDbEntity
  8
0
 62
     3
100
AcDbLine
 10
89.70330813282027
 20
39.02542357568142
 30
0.0
 11
89.70330813282027
 21
14.02566771628142
 31
0.0
  0
LINE
  5
58B
330
1E
100
AcDbEntity
  8
0
 62
     3
100
AcDbLine
 10
88.70330813282027
 20
39.3254724037814
 30
0.0
 11
88.70330813282027
 21
13.72586302878141
 31
0.0
  0
LINE
  5
58C
330
1E
100
AcDbEntity
  8
0
 62
     3
100
AcDbLine
 10
86.70330813282026
 20
39.3254724037814
 30
0.0
 11
86.70330813282026
 21
13.72586302878141
 31
0.0
  0
LINE
  5
58D
330
1E
100
AcDbEntity
  8
0
 62
     3
100
AcDbLine
 10
85.7044678007203
 20
45.52578978658138
 30
0.0
 11
85.7044678007203
 21
21.02578978658141
 31
0.0
  0
LINE
  5
58E
330
1E
100
AcDbEntity
  8
0
 62
     3
100
AcDbLine
 10
85.70330813282026
 20
12.22635130998142
 30
0.0
 11
85.70330813282026
 21
21.02685790178142
 31
0.0
  0
LINE
  5
58F
330
1E
100
AcDbEntity
  8
0
 62
     3
100
AcDbLine
 10
82.95477297652025
 20
11.5264001381814
 30
0.0
 11
82.95477297652025
 21
12.02615599748142
 31
0.0
  0
ARC
  5
590
330
1E
100
AcDbEntity
  8
0
 62
     3
100
AcDbCircle
 10
86.50454714642028
 20
13.72552733538142
 30
0.0
 40
0.1999999285
100
AcDbArc
 50
270.0002365520999
 51
0.0001998966999928
  0
ARC
  5
591
330
1E
100
AcDbEntity
  8
0
 62
     3
100
AcDbCircle
 10
85.50283816212033
 20
12.22625975728141
 30
0.0
 40
0.1999999285
100
AcDbArc
 50
269.9307325471
 51
0.0004184626999315
  0
LINE
  5
592
330
1E
100
AcDbEntity
  8
0
 62
     3
100
AcDbLine
 10
85.20477297652025
 20
11.52615599748141
 30
0.0
 11
85.20477297652025
 21
12.02615599748142
 31
0.0
  0
LINE
  5
593
330
1E
100
AcDbEntity
  8
0
 62
     3
100
AcDbLine
 10
85.70327761522028
 20
13.52566771628141
 30
0.0
 11
86.50308230272026
 21
13.52566771628141
 31
0.0
  0
LINE
  5
594
330
1E
100
AcDbEntity
  8
0
 62
     3
100
AcDbLine
 10
89.70350649702025
 20
13.62564330218143
 30
0.0
 11
90.20350649702029
 21
13.62564330218143
 31
0.0
  0
ARC
  5
595
330
1E
100
AcDbEntity
  8
0
 62
     3
100
AcDbCircle
 10
89.20449831832028
 20
14.02533202288142
 30
0.0
 40
0.5
100
AcDbArc
 50
270.0002365520999
 51
0.0001998966999928
  0
ARC
  5
596
330
1E
100
AcDbEntity
  8
0
 62
     3
100
AcDbCircle
 10
88.90469363082031
 20
13.72552733538142
 30
0.0
 40
0.1999999285
100
AcDbArc
 50
180.0000906136999
 51
269.9999087031
  0
LINE
  5
597
330
1E
100
AcDbEntity
  8
0
 62
     3
100
AcDbLine
 10
88.9032287871203
 20
13.52566771628141
 30
0.0
 11
89.20327761522026
 21
13.52566771628141
 31
0.0
  0
LINE
  5
598
330
1E
100
AcDbEntity
  8
0
 62
     3
100
AcDbLine
 10
90.20350649702029
 20
13.52563719868143
 30
0.0
 11
91.10340884082027
 21
13.52563719868143
 31
0.0
  0
LINE
  5
599
330
1E
100
AcDbEntity
  8
0
 62
     3
100
AcDbLine
 10
91.10345705632028
 20
13.52553239498144
 30
0.0
 11
91.4034989153203
 21
13.82556454218144
 31
0.0
  0
LINE
  5
59A
330
1E
100
AcDbEntity
  8
0
 62
     3
100
AcDbLine
 10
87.00311282032027
 20
14.92581420068143
 30
0.0
 11
88.4032593046203
 21
14.92581420068143
 31
0.0
  0
ARC
  5
59B
330
1E
100
AcDbEntity
  8
0
 62
     3
100
AcDbCircle
 10
87.00454714642029
 20
14.62542967918142
 30
0.0
 40
0.2999999522999999
100
AcDbArc
 50
90.00003665540001
 51
179.9999093863
  0
ARC
  5
59C
330
1E
100
AcDbEntity
  8
0
 62
     3
100
AcDbCircle
 10
88.40469363082029
 20
14.62542967918142
 30
0.0
 40
0.2999999522999999
100
AcDbArc
 50
0.00025453819895
 51
90.00003665540001
  0
LINE
  5
59D
330
1E
100
AcDbEntity
  8
0
 62
     3
100
AcDbLine
 10
87.00308230272026
 20
38.12552123188142
 30
0.0
 11
88.40322878712033
 21
38.12552123188142
 31
0.0
  0
ARC
  5
59E
330
1E
100
AcDbEntity
  8
0
 62
     3
100
AcDbCircle
 10
86.50454714642028
 20
39.32489256978142
 30
0.0
 40
0.1999999285
100
AcDbArc
 50
0.00025453819895
 51
90.00003665540001
  0
ARC
  5
59F
330
1E
100
AcDbEntity
  8
0
 62
     3
100
AcDbCircle
 10
87.00454714642029
 20
38.42499022608143
 30
0.0
 40
0.2999999522999999
100
AcDbArc
 50
180.0000906136999
 51
269.9999087031
  0
LINE
  5
5A0
330
1E
100
AcDbEntity
  8
0
 62
     3
100
AcDbLine
 10
85.70327761522028
 20
39.52542357568143
 30
0.0
 11
86.50308230272026
 21
39.52542357568143
 31
0.0
  0
LINE
  5
5A1
330
1E
100
AcDbEntity
  8
0
 62
     3
100
AcDbLine
 10
89.70350649702025
 20
39.42563109518141
 30
0.0
 11
90.20350649702029
 21
39.42563109518141
 31
0.0
  0
ARC
  5
5A2
330
1E
100
AcDbEntity
  8
0
 62
     3
100
AcDbCircle
 10
89.20449831832028
 20
39.02484374168142
 30
0.0
 40
0.5
100
AcDbArc
 50
0.00025453819895
 51
90.00003665540001
  0
ARC
  5
5A3
330
1E
100
AcDbEntity
  8
0
 62
     3
100
AcDbCircle
 10
88.90469363082031
 20
39.32489256978142
 30
0.0
 40
0.1999999285
100
AcDbArc
 50
90.00003665540001
 51
179.9999093863
  0
ARC
  5
5A4
330
1E
100
AcDbEntity
  8
0
 62
     3
100
AcDbCircle
 10
88.40469363082029
 20
38.42499022608143
 30
0.0
 40
0.2999999522999999
100
AcDbArc
 50
270.0002365520999
 51
0.0001998966999928
  0
LINE
  5
5A5
330
1E
100
AcDbEntity
  8
0
 62
     3
100
AcDbLine
 10
88.9032287871203
 20
39.52542357568143
 30
0.0
 11
89.20327761522026
 21
39.52542357568143
 31
0.0
  0
LINE
  5
5A6
330
1E
100
AcDbEntity
  8
0
 62
     3
100
AcDbLine
 10
91.10340884082027
 20
39.52563719868141
 30
0.0
 11
90.20350649702029
 21
39.52563719868141
 31
0.0
  0
LINE
  5
5A7
330
1E
100
AcDbEntity
  8
0
 62
     3
100
AcDbLine
 10
91.40381935942032
 20
39.22513018328141
 30
0.0
 11
91.10377750042028
 21
39.52516233048143
 31
0.0
  0
ARC
  5
5A8
330
1E
100
AcDbEntity
  8
0
 62
     3
100
AcDbCircle
 10
84.70471194142026
 20
45.52582030418142
 30
0.0
 40
1.0
100
AcDbArc
 50
0.0
 51
89.99998201389999
  0
LINE
  5
5A9
330
1E
100
AcDbEntity
  8
0
 62
     3
100
AcDbLine
 10
85.70343020312026
 20
129.2643519861154
 30
0.0
 11
85.70343020312026
 21
101.7643825036155
 31
0.0
  0
ARC
  5
5AA
330
1E
100
AcDbEntity
  8
0
 62
     3
100
AcDbCircle
 10
81.70330813282026
 20
101.7644130212154
 30
0.0
 40
4.0
100
AcDbArc
 50
270.0000179861
 51
0.0
  0
ARC
  5
5AB
330
1E
100
AcDbEntity
  8
0
 62
     3
100
AcDbCircle
 10
81.70343020312026
 20
101.7644435388155
 30
0.0
 40
4.0
100
AcDbArc
 50
270.0001272691
 51
0.0000906137000634
  0
LINE
  5
5AC
330
1E
100
AcDbEntity
  8
0
 62
     3
100
AcDbLine
 10
83.40325930462029
 20
137.2643519861153
 30
0.0
 11
83.40325930462029
 21
135.2643519861153
 31
0.0
  0
ARC
  5
5AD
330
1E
100
AcDbEntity
  8
0
 62
     3
100
AcDbCircle
 10
81.36292078842023
 20
126.2225380164154
 30
0.0
 40
0.056875001639
100
AcDbArc
 50
303.6322280441998
 51
119.9999760184999
  0
ARC
  5
5AE
330
1E
100
AcDbEntity
  8
0
 62
     3
100
AcDbCircle
 10
81.36292078842023
 20
124.3062880260154
 30
0.0
 40
0.056875001639
100
AcDbArc
 50
243.6322639406
 51
59.99998800929999
  0
ARC
  5
5AF
330
1E
100
AcDbEntity
  8
0
 62
     3
100
AcDbCircle
 10
84.70330813282027
 20
129.2644130212154
 30
0.0
 40
1.0
100
AcDbArc
 50
0.0
 51
89.99998201389999
  0
ARC
  5
5B0
330
1E
100
AcDbEntity
  8
0
 62
     3
100
AcDbCircle
 10
84.7033996855203
 20
129.2643825036155
 30
0.0
 40
1.0
100
AcDbArc
 50
0.0
 51
89.99998201389999
  0
LINE
  5
5B1
330
1E
100
AcDbEntity
  8
0
  6
DASH
 62
     3
100
AcDbLine
 10
114.9442527102894
 20
106.2642604333154
 30
0.0
 11
137.7442405032894
 21
106.2642604333154
 31
0.0
  0
LINE
  5
5B2
330
1E
100
AcDbEntity
  8
0
  6
DASH
 62
     3
100
AcDbLine
 10
114.9442527102894
 20
108.2642604333154
 30
0.0
 11
137.7442405032894
 21
108.2642604333154
 31
0.0
  0
LINE
  5
5B3
330
1E
100
AcDbEntity
  8
0
  6
DASH
 62
     3
100
AcDbLine
 10
114.9442527102894
 20
108.2642604333154
 30
0.0
 11
114.9442527102894
 21
106.2642604333154
 31
0.0
  0
LINE
  5
5B4
330
1E
100
AcDbEntity
  8
0
  6
CENTER
 62
     3
100
AcDbLine
 10
123.9442527102895
 20
101.7654506189154
 30
0.0
 11
123.9442527102895
 21
112.1774379236154
 31
0.0
  0
LINE
  5
5B5
330
1E
100
AcDbEntity
  8
0
 62
     3
100
AcDbLine
 10
143.2442405032894
 20
98.76432146851556
 30
0.0
 11
143.2442405032894
 21
145.2643214685155
 31
0.0
  0
LINE
  5
5B6
330
1E
100
AcDbEntity
  8
0
  6
DASH
 62
     3
100
AcDbLine
 10
142.2442405032894
 20
109.3142482263155
 30
0.0
 11
137.7442405032894
 21
109.3142482263155
 31
0.0
  0
LINE
  5
5B7
330
1E
100
AcDbEntity
  8
0
  6
DASH
 62
     3
100
AcDbLine
 10
142.2442405032894
 20
105.2142726404154
 30
0.0
 11
137.7442405032894
 21
105.2142726404154
 31
0.0
  0
LINE
  5
5B8
330
1E
100
AcDbEntity
  8
0
  6
DASH
 62
     3
100
AcDbLine
 10
137.7442405032894
 20
109.3142482263155
 30
0.0
 11
137.7442405032894
 21
105.2142726404154
 31
0.0
  0
LINE
  5
5B9
330
1E
100
AcDbEntity
  8
0
  6
DASH
 62
     3
100
AcDbLine
 10
132.3442466067894
 20
108.2642604333154
 30
0.0
 11
132.3442466067894
 21
106.2642604333154
 31
0.0
  0
LINE
  5
5BA
330
1E
100
AcDbEntity
  8
0
  6
DASH
 62
     3
100
AcDbLine
 10
134.3442466067894
 20
108.2642604333154
 30
0.0
 11
134.3442466067894
 21
106.2642604333154
 31
0.0
  0
ARC
  5
5BB
330
1E
100
AcDbEntity
  8
0
  6
DASH
 62
     3
100
AcDbCircle
 10
142.2442405032894
 20
108.3142482263155
 30
0.0
 40
1.0
100
AcDbArc
 50
0.0
 51
89.99998201389999
  0
ARC
  5
5BC
330
1E
100
AcDbEntity
  8
0
 62
     3
100
AcDbCircle
 10
144.2447898196894
 20
98.76438250361557
 30
0.0
 40
1.0
100
AcDbArc
 50
179.9999640277999
 51
269.9999460416999
  0
LINE
  5
5BD
330
1E
100
AcDbEntity
  8
0
  6
DASH
 62
     3
100
AcDbLine
 10
142.2442405032894
 20
108.2642604333154
 30
0.0
 11
142.2442405032894
 21
106.2642604333154
 31
0.0
  0
ARC
  5
5BE
330
1E
100
AcDbEntity
  8
0
  6
DASH
 62
     3
100
AcDbCircle
 10
142.2442405032894
 20
106.2142421228153
 30
0.0
 40
1.0
100
AcDbArc
 50
270.0000179861
 51
0.0
  0
LINE
  5
5BF
330
1E
100
AcDbEntity
  8
0
  6
DASH
 62
     3
100
AcDbLine
 10
143.2442405032894
 20
108.3142482263155
 30
0.0
 11
143.2442405032894
 21
106.2142421228153
 31
0.0
  0
LINE
  5
5C0
330
1E
100
AcDbEntity
  8
0
  6
DASH
 62
     3
100
AcDbLine
 10
150.2442405032894
 20
108.2642604333154
 30
0.0
 11
150.2442405032894
 21
106.2642604333154
 31
0.0
  0
LINE
  5
5C1
330
1E
100
AcDbEntity
  8
0
 62
     3
100
AcDbLine
 10
149.7442405032894
 20
130.2643214685154
 30
0.0
 11
149.7442405032894
 21
145.2643214685155
 31
0.0
  0
LINE
  5
5C2
330
1E
100
AcDbEntity
  8
0
 62
     3
100
AcDbLine
 10
143.2442405032894
 20
133.2643214685155
 30
0.0
 11
149.7442405032894
 21
133.2643214685155
 31
0.0
  0
LINE
  5
5C3
330
1E
100
AcDbEntity
  8
0
 62
     3
100
AcDbLine
 10
143.2442405032894
 20
145.2643214685155
 30
0.0
 11
149.7442405032894
 21
145.2643214685155
 31
0.0
  0
LINE
  5
5C4
330
1E
100
AcDbEntity
  8
0
 62
     3
100
AcDbLine
 10
144.2442099856894
 20
145.3649074060155
 30
0.0
 11
149.7442099856894
 21
145.3649074060155
 31
0.0
  0
ARC
  5
5C5
330
1E
100
AcDbEntity
  8
0
 62
     3
100
AcDbCircle
 10
144.2442405032894
 20
146.3649074060155
 30
0.0
 40
1.0
100
AcDbArc
 50
179.9999640277999
 51
269.9999460416999
  0
LINE
  5
5C6
330
1E
100
AcDbEntity
  8
0
  6
DASH
 62
     3
100
AcDbLine
 10
168.6942527102895
 20
96.76438250361556
 30
0.0
 11
168.6942527102895
 21
92.26438250361557
 31
0.0
  0
LINE
  5
5C7
330
1E
100
AcDbEntity
  8
0
  6
DASH
 62
     3
100
AcDbLine
 10
172.7942588137894
 20
96.76438250361556
 30
0.0
 11
172.7942588137894
 21
92.26438250361557
 31
0.0
  0
LINE
  5
5C8
330
1E
100
AcDbEntity
  8
0
  6
CENTER
 62
     3
100
AcDbLine
 10
176.2430503176894
 20
78.46433367551556
 30
0.0
 11
165.8310935305895
 21
78.46433367551556
 31
0.0
  0
LINE
  5
5C9
330
1E
100
AcDbEntity
  8
0
  6
DASH
 62
     3
100
AcDbLine
 10
171.7442405032894
 20
69.46436419311556
 30
0.0
 11
171.7442405032894
 21
92.26438250361557
 31
0.0
  0
LINE
  5
5CA
330
1E
100
AcDbEntity
  8
0
  6
DASH
 62
     3
100
AcDbLine
 10
169.7442405032894
 20
69.46436419311556
 30
0.0
 11
169.7442405032894
 21
92.26438250361557
 31
0.0
  0
LINE
  5
5CB
330
1E
100
AcDbEntity
  8
0
  6
DASH
 62
     3
100
AcDbLine
 10
169.7442405032894
 20
69.46436419311556
 30
0.0
 11
171.7442405032894
 21
69.46436419311556
 31
0.0
  0
LINE
  5
5CC
330
1E
100
AcDbEntity
  8
0
  6
DASH
 62
     3
100
AcDbLine
 10
169.7442405032894
 20
86.86438860711556
 30
0.0
 11
171.7442405032894
 21
86.86438860711556
 31
0.0
  0
LINE
  5
5CD
330
1E
100
AcDbEntity
  8
0
  6
DASH
 62
     3
100
AcDbLine
 10
169.7442405032894
 20
88.86438860711555
 30
0.0
 11
171.7442405032894
 21
88.86438860711555
 31
0.0
  0
LINE
  5
5CE
330
1E
100
AcDbEntity
  8
0
  6
DASH
 62
     3
100
AcDbLine
 10
168.6942527102895
 20
92.26438250361557
 30
0.0
 11
172.7942588137894
 21
92.26438250361557
 31
0.0
  0
LINE
  5
5CF
330
1E
100
AcDbEntity
  8
0
 62
     3
100
AcDbLine
 10
168.9442527102895
 20
97.76435198611558
 30
0.0
 11
177.5442588137894
 21
97.76435198611558
 31
0.0
  0
LINE
  5
5D0
330
1E
100
AcDbEntity
  8
0
  6
DASH
 62
     3
100
AcDbLine
 10
171.7442405032894
 20
97.76438250361557
 30
0.0
 11
171.7442405032894
 21
127.7643825036155
 31
0.0
  0
LINE
  5
5D1
330
1E
100
AcDbEntity
  8
0
  6
DASH
 62
     3
100
AcDbLine
 10
169.7442405032894
 20
97.76438250361557
 30
0.0
 11
169.7442405032894
 21
127.7643825036155
 31
0.0
  0
LINE
  5
5D2
330
1E
100
AcDbEntity
  8
0
 62
     3
100
AcDbLine
 10
168.7442405032894
 20
97.76432146851554
 30
0.0
 11
168.7442405032894
 21
130.2643214685154
 31
0.0
  0
ARC
  5
5D3
330
1E
100
AcDbEntity
  8
0
  6
DASH
 62
     3
100
AcDbCircle
 10
169.6942527102895
 20
96.76438250361556
 30
0.0
 40
1.0
100
AcDbArc
 50
89.99998201389999
 51
179.9999640277999
  0
LINE
  5
5D4
330
1E
100
AcDbEntity
  8
0
  6
DASH
 62
     3
100
AcDbLine
 10
169.6942527102895
 20
97.76438250361557
 30
0.0
 11
171.7942588137894
 21
97.76438250361557
 31
0.0
  0
LINE
  5
5D5
330
1E
100
AcDbEntity
  8
0
  6
DASH
 62
     3
100
AcDbLine
 10
169.7442405032894
 20
96.76438250361556
 30
0.0
 11
171.7442405032894
 21
96.76438250361556
 31
0.0
  0
ARC
  5
5D6
330
1E
100
AcDbEntity
  8
0
  6
DASH
 62
     3
100
AcDbCircle
 10
171.7942588137894
 20
96.76438250361556
 30
0.0
 40
1.0
100
AcDbArc
 50
0.0
 51
89.99998201389999
  0
LINE
  5
5D7
330
1E
100
AcDbEntity
  8
0
  6
DASH
 62
     3
100
AcDbLine
 10
169.7442405032894
 20
104.7643825036155
 30
0.0
 11
171.7442405032894
 21
104.7643825036155
 31
0.0
  0
LINE
  5
5D8
330
1E
100
AcDbEntity
  8
0
  6
DASH
 62
     3
100
AcDbLine
 10
171.2442405032894
 20
108.2642604333154
 30
0.0
 11
171.2442405032894
 21
106.2642604333154
 31
0.0
  0
LINE
  5
5D9
330
1E
100
AcDbEntity
  8
0
  6
DASH
 62
     3
100
AcDbLine
 10
168.9442527102895
 20
108.2642604333154
 30
0.0
 11
168.9442527102895
 21
106.2642604333154
 31
0.0
  0
LINE
  5
5DA
330
1E
100
AcDbEntity
  8
0
  6
DASH
 62
     3
100
AcDbLine
 10
173.2442405032894
 20
108.2642604333154
 30
0.0
 11
173.2442405032894
 21
106.2642604333154
 31
0.0
  0
LINE
  5
5DB
330
1E
100
AcDbEntity
  8
0
  6
DASH
 62
     3
100
AcDbLine
 10
169.7442405032894
 20
127.7643825036155
 30
0.0
 11
171.7442405032894
 21
127.7643825036155
 31
0.0
  0
LINE
  5
5DC
330
1E
100
AcDbEntity
  8
0
  6
DASH
 62
     3
100
AcDbLine
 10
169.7442405032894
 20
123.4643947107155
 30
0.0
 11
171.7442405032894
 21
123.4643947107155
 31
0.0
  0
LINE
  5
5DD
330
1E
100
AcDbEntity
  8
0
  6
DASH
 62
     3
100
AcDbLine
 10
169.7442405032894
 20
125.7643825036155
 30
0.0
 11
171.7442405032894
 21
125.7643825036155
 31
0.0
  0
ARC
  5
5DE
330
1E
100
AcDbEntity
  8
0
 62
     3
100
AcDbCircle
 10
173.4442832278894
 20
130.5644008142154
 30
0.0
 40
0.2999999522999999
100
AcDbArc
 50
270.0000179861
 51
0.0
  0
LINE
  5
5DF
330
1E
100
AcDbEntity
  8
0
 62
     3
100
AcDbLine
 10
178.2442405032892
 20
104.2643519861154
 30
0.0
 11
178.2442405032892
 21
109.2643519861155
 31
0.0
  0
ARC
  5
5E0
330
1E
100
AcDbEntity
  8
0
 62
     3
100
AcDbCircle
 10
177.5442588137894
 20
97.96454729861558
 30
0.0
 40
0.1999999285
100
AcDbArc
 50
270.0000179861
 51
0.0
  0
LINE
  5
5E1
330
1E
100
AcDbEntity
  8
0
 62
     3
100
AcDbLine
 10
177.7442405032894
 20
104.2643519861154
 30
0.0
 11
178.2442405032892
 21
104.2643519861154
 31
0.0
  0
LINE
  5
5E2
330
1E
100
AcDbEntity
  8
0
 62
     3
100
AcDbLine
 10
177.7442405032894
 20
109.2643519861155
 30
0.0
 11
178.2442405032892
 21
109.2643519861155
 31
0.0
  0
LINE
  5
5E3
330
1E
100
AcDbEntity
  8
0
 62
     3
100
AcDbLine
 10
177.7442405032894
 20
130.7643519861154
 30
0.0
 11
178.2442405032892
 21
130.7643519861154
 31
0.0
  0
LINE
  5
5E4
330
1E
100
AcDbEntity
  8
0
 62
     3
100
AcDbLine
 10
150.7443015383894
 20
222.7644740564155
 30
0.0
 11
175.7442710207894
 21
222.7644740564155
 31
0.0
  0
LINE
  5
5E5
330
1E
100
AcDbEntity
  8
0
 62
     3
100
AcDbLine
 10
149.9442527102895
 20
218.7643519861155
 30
0.0
 11
177.5442588137894
 21
218.7643519861155
 31
0.0
  0
LINE
  5
5E6
330
1E
100
AcDbEntity
  8
0
 62
     3
100
AcDbLine
 10
150.4443137453893
 20
221.7644740564153
 30
0.0
 11
176.0442893313894
 21
221.7644740564153
 31
0.0
  0
LINE
  5
5E7
330
1E
100
AcDbEntity
  8
0
 62
     3
100
AcDbLine
 10
150.4443137453893
 20
219.7644740564153
 30
0.0
 11
176.0442893313894
 21
219.7644740564153
 31
0.0
  0
CIRCLE
  5
5E8
330
1E
100
AcDbEntity
  8
0
 62
     3
100
AcDbCircle
 10
163.2442405032894
 20
183.7643519861154
 30
0.0
 40
12.5
  0
CIRCLE
  5
5E9
330
1E
100
AcDbEntity
  8
0
 62
     3
100
AcDbCircle
 10
163.2442405032894
 20
183.7643519861154
 30
0.0
 40
13.0
  0
CIRCLE
  5
5EA
330
1E
100
AcDbEntity
  8
0
 62
     3
100
AcDbCircle
 10
163.2442405032894
 20
183.7643519861154
 30
0.0
 40
13.0
  0
LINE
  5
5EB
330
1E
100
AcDbEntity
  8
0
  6
CENTER
 62
     3
100
AcDbLine
 10
147.0655600832894
 20
183.7643519861154
 30
0.0
 11
181.1159751223894
 21
183.7643519861154
 31
0.0
  0
LINE
  5
5EC
330
1E
100
AcDbEntity
  8
0
 62
     3
100
AcDbLine
 10
149.7442405032894
 20
149.2650844079155
 30
0.0
 11
173.7442405032894
 21
149.2650844079155
 31
0.0
  0
LINE
  5
5ED
330
1E
100
AcDbEntity
  8
0
 62
     3
100
AcDbLine
 10
149.7442405032894
 20
155.2650844079155
 30
0.0
 11
173.4442527102895
 21
155.2650844079155
 31
0.0
  0
LINE
  5
5EE
330
1E
100
AcDbEntity
  8
0
 62
     3
100
AcDbLine
 10
78.45159914842025
 20
280.7753992579417
 30
0.0
 11
85.20159914842023
 21
280.7753992579417
 31
0.0
  0
LINE
  5
5EF
330
1E
100
AcDbEntity
  8
0
 62
     3
100
AcDbLine
 10
83.84164431442028
 20
245.6511927149417
 30
0.0
 11
79.46664431442029
 21
245.6511927149417
 31
0.0
  0
LINE
  5
5F0
330
1E
100
AcDbEntity
  8
0
 62
     3
100
AcDbLine
 10
85.1541443144203
 20
248.2761927149415
 30
0.0
 11
78.15414431442031
 21
248.2761927149415
 31
0.0
  0
LINE
  5
5F1
330
1E
100
AcDbEntity
  8
0
 62
     3
100
AcDbLine
 10
85.55230715622025
 20
248.2762232325415
 30
0.0
 11
78.1523132597203
 21
248.2762232325415
 31
0.0
  0
LINE
  5
5F2
330
1E
100
AcDbEntity
  8
0
 62
     3
100
AcDbLine
 10
78.15606692182022
 20
248.2761927149415
 30
0.0
 11
85.15594485152025
 21
248.2761927149415
 31
0.0
  0
CIRCLE
  5
5F3
330
1E
100
AcDbEntity
  8
0
 62
     3
100
AcDbCircle
 10
81.6534118925203
 20
214.7644130212155
 30
0.0
 40
0.765625
  0
ARC
  5
5F4
330
1E
100
AcDbEntity
  8
0
 62
     3
100
AcDbCircle
 10
81.6534118925203
 20
214.7644130212155
 30
0.0
 40
3.5
100
AcDbArc
 50
180.0000906136999
 51
269.9999633446
  0
ARC
  5
5F5
330
1E
100
AcDbEntity
  8
0
 62
     3
100
AcDbCircle
 10
80.5049743925203
 20
212.7752610666155
 30
0.0
 40
1.09375
100
AcDbArc
 50
3.6322262987
 51
116.3677360594
  0
ARC
  5
5F6
330
1E
100
AcDbEntity
  8
0
 62
     3
100
AcDbCircle
 10
80.5049743925203
 20
216.7535649759154
 30
0.0
 40
1.09375
100
AcDbArc
 50
243.6322639406
 51
356.3677737013
  0
CIRCLE
  5
5F7
330
1E
100
AcDbEntity
  8
0
 62
     3
100
AcDbCircle
 10
81.6534118925203
 20
214.7644130212155
 30
0.0
 40
1.96875
  0
CIRCLE
  5
5F8
330
1E
100
AcDbEntity
  8
0
 62
     3
100
AcDbCircle
 10
81.6534118925203
 20
214.7644130212155
 30
0.0
 40
3.5
  0
CIRCLE
  5
5F9
330
1E
100
AcDbEntity
  8
0
 62
     3
100
AcDbCircle
 10
81.6534118925203
 20
159.7644130212153
 30
0.0
 40
0.765625
  0
ARC
  5
5FA
330
1E
100
AcDbEntity
  8
0
 62
     3
100
AcDbCircle
 10
80.5049743925203
 20
157.7752610666155
 30
0.0
 40
1.09375
100
AcDbArc
 50
3.6322262987
 51
116.3677360594
  0
ARC
  5
5FB
330
1E
100
AcDbEntity
  8
0
 62
     3
100
AcDbCircle
 10
80.5049743925203
 20
161.7535649759155
 30
0.0
 40
1.09375
100
AcDbArc
 50
243.6322639406
 51
356.3677737013
  0
CIRCLE
  5
5FC
330
1E
100
AcDbEntity
  8
0
 62
     3
100
AcDbCircle
 10
81.6534118925203
 20
159.7644130212153
 30
0.0
 40
1.96875
  0
ARC
  5
5FD
330
1E
100
AcDbEntity
  8
0
 62
     3
100
AcDbCircle
 10
81.6534118925203
 20
159.7644130212153
 30
0.0
 40
3.5
100
AcDbArc
 50
89.99998201389999
 51
179.9999640277999
  0
CIRCLE
  5
5FE
330
1E
100
AcDbEntity
  8
0
 62
     3
100
AcDbCircle
 10
81.6534118925203
 20
159.7644130212153
 30
0.0
 40
3.5
  0
LINE
  5
5FF
330
1E
100
AcDbEntity
  8
0
 62
     3
100
AcDbLine
 10
75.70189228122029
 20
149.2657810840155
 30
0.0
 11
81.70187707152029
 21
155.2657658743154
 31
0.0
  0
LINE
  5
600
330
1E
100
AcDbEntity
  8
0
 62
     3
100
AcDbLine
 10
75.55275852622031
 20
149.2648100206155
 30
0.0
 11
81.55231173292026
 21
155.2643632272155
 31
0.0
  0
LINE
  5
601
330
1E
100
AcDbEntity
  8
0
  6
CENTER
 62
     3
100
AcDbLine
 10
94.40065005172028
 20
265.7755213282415
 30
0.0
 11
25.00370791302032
 21
265.7755213282415
 31
0.0
  0
LINE
  5
602
330
1E
100
AcDbEntity
  8
0
  6
CENTER
 62
     3
100
AcDbLine
 10
25.0034027373203
 20
183.7648097497155
 30
0.0
 11
94.40345766892034
 21
183.7648097497155
 31
0.0
  0
LINE
  5
603
330
1E
100
AcDbEntity
  8
0
 62
     3
100
AcDbLine
 10
37.70343020312024
 20
218.7643519861155
 30
0.0
 11
81.70330813282026
 21
218.7643519861155
 31
0.0
  0
LINE
  5
604
330
1E
100
AcDbEntity
  8
0
 62
     3
100
AcDbLine
 10
85.70056155072029
 20
252.2760096095418
 30
0.0
 11
33.70220950002027
 21
252.2760096095418
 31
0.0
  0
LINE
  5
605
330
1E
100
AcDbEntity
  8
0
 62
     3
100
AcDbLine
 10
85.50012209762025
 20
280.2754908106416
 30
0.0
 11
33.9021911894203
 21
280.2754908106416
 31
0.0
  0
LINE
  5
606
330
1E
100
AcDbEntity
  8
0
 62
     3
100
AcDbLine
 10
37.75338747852027
 20
218.7643519861155
 30
0.0
 11
81.55340578902025
 21
218.7643519861155
 31
0.0
  0
LINE
  5
607
330
1E
100
AcDbEntity
  8
0
 62
     3
100
AcDbLine
 10
85.55230715622025
 20
252.2762232325415
 30
0.0
 11
33.75238039842026
 21
252.2762232325415
 31
0.0
  0
LINE
  5
608
330
1E
100
AcDbEntity
  8
0
  6
CENTER
 62
     3
100
AcDbLine
 10
59.70217898242032
 20
238.2362452052418
 30
0.0
 11
59.70217898242032
 21
285.7757349513418
 31
0.0
  0
ARC
  5
609
330
1E
100
AcDbEntity
  8
0
 62
     3
100
AcDbCircle
 10
34.85345461712029
 20
210.2643825036154
 30
0.0
 40
1.0
100
AcDbArc
 50
89.99998201389999
 51
179.9999640277999
  0
ARC
  5
60A
330
1E
100
AcDbEntity
  8
0
 62
     3
100
AcDbCircle
 10
37.70343020312024
 20
214.7643825036154
 30
0.0
 40
4.0
100
AcDbArc
 50
89.99998201389999
 51
179.9999640277999
  0
ARC
  5
60B
330
1E
100
AcDbEntity
  8
0
 62
     3
100
AcDbCircle
 10
37.75338747852027
 20
214.7644130212155
 30
0.0
 40
4.0
100
AcDbArc
 50
89.99998201389999
 51
179.9999640277999
  0
ARC
  5
60C
330
1E
100
AcDbEntity
  8
0
 62
     3
100
AcDbCircle
 10
34.85345461712029
 20
164.2643825036155
 30
0.0
 40
1.0
100
AcDbArc
 50
179.9999640277999
 51
269.9998914002
  0
ARC
  5
60D
330
1E
100
AcDbEntity
  8
0
 62
     3
100
AcDbCircle
 10
34.70355227342025
 20
156.2643825036155
 30
0.0
 40
1.0
100
AcDbArc
 50
179.9999640277999
 51
269.9999460416999
  0
LINE
  5
60E
330
1E
100
AcDbEntity
  8
0
 62
     3
100
AcDbLine
 10
33.75338747852026
 20
214.7643519861154
 30
0.0
 11
33.75338747852026
 21
156.2643519861154
 31
0.0
  0
LINE
  5
60F
330
1E
100
AcDbEntity
  8
0
 62
     3
100
AcDbLine
 10
29.70355227342023
 20
171.2643214685155
 30
0.0
 11
29.70355227342023
 21
196.2643214685155
 31
0.0
  0
LINE
  5
610
330
1E
100
AcDbEntity
  8
0
 62
     3
100
AcDbLine
 10
30.70355227342024
 20
170.9645167810155
 30
0.0
 11
30.70355227342024
 21
196.5643397790153
 31
0.0
  0
LINE
  5
611
330
1E
100
AcDbEntity
  8
0
 62
     3
100
AcDbLine
 10
32.70355227342025
 20
170.9645167810155
 30
0.0
 11
32.70355227342025
 21
196.5643397790153
 31
0.0
  0
LINE
  5
612
330
1E
100
AcDbEntity
  8
0
 62
     3
100
AcDbLine
 10
28.30345156542028
 20
170.7648097497155
 30
0.0
 11
28.30345156542028
 21
196.7648097497155
 31
0.0
  0
LINE
  5
613
330
1E
100
AcDbEntity
  8
0
 62
     3
100
AcDbLine
 10
29.20335390912026
 20
170.7648097497155
 30
0.0
 11
29.20335390912026
 21
196.7648097497155
 31
0.0
  0
LINE
  5
614
330
1E
100
AcDbEntity
  8
0
 62
     3
100
AcDbLine
 10
28.0034027373203
 20
171.0647975427155
 30
0.0
 11
28.0034027373203
 21
196.4647914392155
 31
0.0
  0
LINE
  5
615
330
1E
100
AcDbEntity
  8
0
 62
     3
100
AcDbLine
 10
29.70335390912026
 20
170.8648158532155
 30
0.0
 11
29.70335390912026
 21
196.6648036462155
 31
0.0
  0
LINE
  5
616
330
1E
100
AcDbEntity
  8
0
 62
     3
100
AcDbLine
 10
29.20335390912026
 20
170.8648158532155
 30
0.0
 11
29.20335390912026
 21
196.6648036462155
 31
0.0
  0
LINE
  5
617
330
1E
100
AcDbEntity
  8
0
 62
     3
100
AcDbLine
 10
28.3034033499203
 20
170.7647049460154
 30
0.0
 11
28.00336149092027
 21
171.0647370932155
 31
0.0
  0
ARC
  5
618
330
1E
100
AcDbEntity
  8
0
 62
     3
100
AcDbCircle
 10
31.00360110152029
 20
171.8644801599155
 30
0.0
 40
0.2999999522999999
100
AcDbArc
 50
89.99998201389999
 51
179.9999640277999
  0
LINE
  5
619
330
1E
100
AcDbEntity
  8
0
 62
     3
100
AcDbLine
 10
30.20358279102026
 20
170.7643214685155
 30
0.0
 11
30.50363161912025
 21
170.7643214685155
 31
0.0
  0
ARC
  5
61A
330
1E
100
AcDbEntity
  8
0
 62
     3
100
AcDbCircle
 10
30.5036011015203
 20
170.9645778161155
 30
0.0
 40
0.1999999285
100
AcDbArc
 50
270.0000726275999
 51
0.0
  0
LINE
  5
61B
330
1E
100
AcDbEntity
  8
0
 62
     3
100
AcDbLine
 10
29.20335390912026
 20
170.7648097497155
 30
0.0
 11
28.30345156542028
 21
170.7648097497155
 31
0.0
  0
LINE
  5
61C
330
1E
100
AcDbEntity
  8
0
 62
     3
100
AcDbLine
 10
29.70335390912026
 20
170.8648158532155
 30
0.0
 11
29.20335390912026
 21
170.8648158532155
 31
0.0
  0
ARC
  5
61D
330
1E
100
AcDbEntity
  8
0
 62
     3
100
AcDbCircle
 10
30.20355227342024
 20
171.2643825036155
 30
0.0
 40
0.5
100
AcDbArc
 50
179.9999640277999
 51
269.9998914002
  0
LINE
  5
61E
330
1E
100
AcDbEntity
  8
0
 62
     3
100
AcDbLine
 10
31.00363161912024
 20
172.1644679529154
 30
0.0
 11
32.40353396282028
 21
172.1644679529154
 31
0.0
  0
ARC
  5
61F
330
1E
100
AcDbEntity
  8
0
 62
     3
100
AcDbCircle
 10
32.90350344532027
 20
170.9645778161155
 30
0.0
 40
0.1999999285
100
AcDbArc
 50
179.9999640277999
 51
269.9998914002
  0
ARC
  5
620
330
1E
100
AcDbEntity
  8
0
 62
     3
100
AcDbCircle
 10
32.40350344532027
 20
171.8644801599155
 30
0.0
 40
0.2999999522999999
100
AcDbArc
 50
0.0
 51
89.99998201389999
  0
LINE
  5
621
330
1E
100
AcDbEntity
  8
0
 62
     3
100
AcDbLine
 10
32.90353396282028
 20
170.7643214685155
 30
0.0
 11
33.70358279102026
 21
170.7643214685155
 31
0.0
  0
LINE
  5
622
330
1E
100
AcDbEntity
  8
0
 62
     3
100
AcDbLine
 10
28.00304104682027
 20
196.4643027343154
 30
0.0
 11
28.3030829058203
 21
196.7643348815155
 31
0.0
  0
ARC
  5
623
330
1E
100
AcDbEntity
  8
0
 62
     3
100
AcDbCircle
 10
31.00360110152029
 20
195.6643764001155
 30
0.0
 40
0.2999999522999999
100
AcDbArc
 50
179.9999640277999
 51
269.9998914002
  0
LINE
  5
624
330
1E
100
AcDbEntity
  8
0
 62
     3
100
AcDbLine
 10
31.00360110152029
 20
195.3643275720154
 30
0.0
 11
32.40350344532027
 21
195.3643275720154
 31
0.0
  0
ARC
  5
625
330
1E
100
AcDbEntity
  8
0
 62
     3
100
AcDbCircle
 10
32.40350344532027
 20
195.6643764001155
 30
0.0
 40
0.2999999522999999
100
AcDbArc
 50
270.0000726275999
 51
0.0
  0
LINE
  5
626
330
1E
100
AcDbEntity
  8
0
 62
     3
100
AcDbLine
 10
30.20355227342024
 20
196.7643214685153
 30
0.0
 11
30.5036011015203
 21
196.7643214685153
 31
0.0
  0
ARC
  5
627
330
1E
100
AcDbEntity
  8
0
 62
     3
100
AcDbCircle
 10
30.5036011015203
 20
196.5643702966154
 30
0.0
 40
0.1999999285
100
AcDbArc
 50
0.0
 51
89.99998201389999
  0
LINE
  5
628
330
1E
100
AcDbEntity
  8
0
 62
     3
100
AcDbLine
 10
28.30345156542028
 20
196.7648097497155
 30
0.0
 11
29.20335390912026
 21
196.7648097497155
 31
0.0
  0
LINE
  5
629
330
1E
100
AcDbEntity
  8
0
 62
     3
100
AcDbLine
 10
29.70335390912026
 20
196.6648036462155
 30
0.0
 11
29.20335390912026
 21
196.6648036462155
 31
0.0
  0
ARC
  5
62A
330
1E
100
AcDbEntity
  8
0
 62
     3
100
AcDbCircle
 10
30.20355227342024
 20
196.2643825036155
 30
0.0
 40
0.5
100
AcDbArc
 50
89.99998201389999
 51
179.9999640277999
  0
ARC
  5
62B
330
1E
100
AcDbEntity
  8
0
 62
     3
100
AcDbCircle
 10
32.90350344532027
 20
196.5643702966154
 30
0.0
 40
0.1999999285
100
AcDbArc
 50
89.99998201389999
 51
179.9999640277999
  0
LINE
  5
62C
330
1E
100
AcDbEntity
  8
0
 62
     3
100
AcDbLine
 10
32.90350344532027
 20
196.7643214685153
 30
0.0
 11
33.70355227342026
 21
196.7643214685153
 31
0.0
  0
CIRCLE
  5
62D
330
1E
100
AcDbEntity
  8
0
 62
     3
100
AcDbCircle
 10
59.70343020312026
 20
186.4643641931154
 30
0.0
 40
4.5999984741
  0
CIRCLE
  5
62E
330
1E
100
AcDbEntity
  8
0
 62
     3
100
AcDbCircle
 10
59.70343020312026
 20
186.4643641931154
 30
0.0
 40
4.8499984741
  0
CIRCLE
  5
62F
330
1E
100
AcDbEntity
  8
0
 62
     3
100
AcDbCircle
 10
59.70343020312026
 20
186.4643641931154
 30
0.0
 40
4.3499984741
  0
LINE
  5
630
330
1E
100
AcDbEntity
  8
0
  6
CENTER
 62
     3
100
AcDbLine
 10
50.89508059372031
 20
186.4643641931154
 30
0.0
 11
69.31405642382031
 21
186.4643641931154
 31
0.0
  0
CIRCLE
  5
631
330
1E
100
AcDbEntity
  8
0
 62
     3
100
AcDbCircle
 10
59.70343020312026
 20
186.4643641931154
 30
0.0
 40
6.199998855599999
  0
CIRCLE
  5
632
330
1E
100
AcDbEntity
  8
0
 62
     3
100
AcDbCircle
 10
37.65341189252024
 20
159.7644130212153
 30
0.0
 40
3.5
  0
ARC
  5
633
330
1E
100
AcDbEntity
  8
0
 62
     3
100
AcDbCircle
 10
37.65341189252024
 20
159.7644130212153
 30
0.0
 40
3.5
100
AcDbArc
 50
0.0
 51
89.99998201389999
  0
LINE
  5
634
330
1E
100
AcDbEntity
  8
0
 62
     3
100
AcDbLine
 10
37.70297136102027
 20
155.2659573896155
 30
0.0
 11
43.70302088892031
 21
149.2659078617155
 31
0.0
  0
LINE
  5
635
330
1E
100
AcDbEntity
  8
0
 62
     3
100
AcDbLine
 10
37.75327244382026
 20
155.2642957923154
 30
0.0
 11
43.75304144222025
 21
149.2645267938154
 31
0.0
  0
LINE
  5
636
330
1E
100
AcDbEntity
  8
0
 62
     3
100
AcDbLine
 10
34.70343020312026
 20
155.2643519861154
 30
0.0
 11
37.70343020312024
 21
155.2643519861154
 31
0.0
  0
LINE
  5
637
330
1E
100
AcDbEntity
  8
0
 62
     3
100
AcDbLine
 10
34.75338747852026
 20
155.2643519861154
 30
0.0
 11
37.75973513472028
 21
155.2643519861154
 31
0.0
  0
ARC
  5
638
330
1E
100
AcDbEntity
  8
0
 62
     3
100
AcDbCircle
 10
36.50497439252024
 20
157.7752610666155
 30
0.0
 40
1.09375
100
AcDbArc
 50
3.6322262987
 51
116.3677360594
  0
ARC
  5
639
330
1E
100
AcDbEntity
  8
0
 62
     3
100
AcDbCircle
 10
36.50497439252024
 20
161.7535649759155
 30
0.0
 40
1.09375
100
AcDbArc
 50
243.6322639406
 51
356.3677737013
  0
CIRCLE
  5
63A
330
1E
100
AcDbEntity
  8
0
 62
     3
100
AcDbCircle
 10
37.65341189252024
 20
159.7644130212153
 30
0.0
 40
1.96875
  0
ARC
  5
63B
330
1E
100
AcDbEntity
  8
0
 62
     3
100
AcDbCircle
 10
35.35653689252024
 20
159.7644130212153
 30
0.0
 40
1.09375
100
AcDbArc
 50
303.6322280441998
 51
56.36777195580005
  0
ARC
  5
63C
330
1E
100
AcDbEntity
  8
0
 62
     3
100
AcDbCircle
 10
35.99389078962031
 20
160.7225380164155
 30
0.0
 40
0.056875001639
100
AcDbArc
 50
63.6322452712
 51
240.0000239815
  0
ARC
  5
63D
330
1E
100
AcDbEntity
  8
0
 62
     3
100
AcDbCircle
 10
35.99389078962031
 20
158.8062880260155
 30
0.0
 40
0.056875001639
100
AcDbArc
 50
123.6322332804999
 51
300.0000119906998
  0
ARC
  5
63E
330
1E
100
AcDbEntity
  8
0
 62
     3
100
AcDbCircle
 10
39.31293299542027
 20
160.7225380164155
 30
0.0
 40
0.056875001639
100
AcDbArc
 50
303.6322280441998
 51
119.9999760184999
  0
ARC
  5
63F
330
1E
100
AcDbEntity
  8
0
 62
     3
100
AcDbCircle
 10
39.31293299542027
 20
158.8062880260155
 30
0.0
 40
0.056875001639
100
AcDbArc
 50
243.6322639406
 51
59.99998800929999
  0
ARC
  5
640
330
1E
100
AcDbEntity
  8
0
 62
     3
100
AcDbCircle
 10
37.65341189252024
 20
161.6806622964155
 30
0.0
 40
0.056875001639
100
AcDbArc
 50
3.6322262987
 51
179.9999640277999
  0
ARC
  5
641
330
1E
100
AcDbEntity
  8
0
 62
     3
100
AcDbCircle
 10
37.65341189252024
 20
157.8481637460155
 30
0.0
 40
0.056875001639
100
AcDbArc
 50
183.6322212897999
 51
0.0
  0
CIRCLE
  5
642
330
1E
100
AcDbEntity
  8
0
 62
     3
100
AcDbCircle
 10
37.65341189252024
 20
159.7644130212153
 30
0.0
 40
0.765625
  0
ARC
  5
643
330
1E
100
AcDbEntity
  8
0
 62
     3
100
AcDbCircle
 10
38.80184939252021
 20
157.7752610666155
 30
0.0
 40
1.09375
100
AcDbArc
 50
63.63222796839999
 51
176.3677787102
  0
ARC
  5
644
330
1E
100
AcDbEntity
  8
0
 62
     3
100
AcDbCircle
 10
39.95028689252022
 20
159.7644130212153
 30
0.0
 40
1.09375
100
AcDbArc
 50
123.6322332804999
 51
236.3677840224
  0
ARC
  5
645
330
1E
100
AcDbEntity
  8
0
 62
     3
100
AcDbCircle
 10
38.80184939252021
 20
161.7535649759155
 30
0.0
 40
1.09375
100
AcDbArc
 50
183.6322212897999
 51
296.3677720315999
  0
LINE
  5
646
330
1E
100
AcDbEntity
  8
0
 62
     3
100
AcDbLine
 10
41.15341189252021
 20
159.7643519861154
 30
0.0
 11
41.15341189252021
 21
151.7642299157154
 31
0.0
  0
LINE
  5
647
330
1E
100
AcDbEntity
  8
0
 62
     3
100
AcDbLine
 10
34.75338747852026
 20
163.2643519861153
 30
0.0
 11
37.65341189252024
 21
163.2643519861153
 31
0.0
  0
LINE
  5
648
330
1E
100
AcDbEntity
  8
0
 62
     3
100
AcDbLine
 10
78.1534118925203
 20
159.7643519861154
 30
0.0
 11
78.1534118925203
 21
151.8656398279154
 31
0.0
  0
ARC
  5
649
330
1E
100
AcDbEntity
  8
0
 62
     3
100
AcDbCircle
 10
79.99389078962031
 20
160.7225380164155
 30
0.0
 40
0.056875001639
100
AcDbArc
 50
63.6322452712
 51
240.0000239815
  0
ARC
  5
64A
330
1E
100
AcDbEntity
  8
0
 62
     3
100
AcDbCircle
 10
79.99389078962031
 20
158.8062880260155
 30
0.0
 40
0.056875001639
100
AcDbArc
 50
123.6322332804999
 51
300.0000119906998
  0
ARC
  5
64B
330
1E
100
AcDbEntity
  8
0
 62
     3
100
AcDbCircle
 10
79.35653689252029
 20
159.7644130212153
 30
0.0
 40
1.09375
100
AcDbArc
 50
303.6322280441998
 51
56.36777195580005
  0
LINE
  5
64C
330
1E
100
AcDbEntity
  8
0
 62
     3
100
AcDbLine
 10
47.20339968552031
 20
222.7644740564155
 30
0.0
 11
72.20330813282027
 21
222.7644740564155
 31
0.0
  0
LINE
  5
64D
330
1E
100
AcDbEntity
  8
0
 62
     3
100
AcDbLine
 10
46.90338137502027
 20
221.7644740564153
 30
0.0
 11
72.50335696092027
 21
221.7644740564153
 31
0.0
  0
LINE
  5
64E
330
1E
100
AcDbEntity
  8
0
 62
     3
100
AcDbLine
 10
46.90338137502027
 20
219.7644740564153
 30
0.0
 11
72.50335696092027
 21
219.7644740564153
 31
0.0
  0
ARC
  5
64F
330
1E
100
AcDbEntity
  8
0
 62
     3
100
AcDbCircle
 10
38.80184939252021
 20
216.7535649759154
 30
0.0
 40
1.09375
100
AcDbArc
 50
183.6322212897999
 51
296.3677720315999
  0
ARC
  5
650
330
1E
100
AcDbEntity
  8
0
 62
     3
100
AcDbCircle
 10
36.50497439252024
 20
216.7535649759154
 30
0.0
 40
1.09375
100
AcDbArc
 50
243.6322639406
 51
356.3677737013
  0
CIRCLE
  5
651
330
1E
100
AcDbEntity
  8
0
 62
     3
100
AcDbCircle
 10
37.65341189252024
 20
214.7644130212155
 30
0.0
 40
1.96875
  0
CIRCLE
  5
652
330
1E
100
AcDbEntity
  8
0
 62
     3
100
AcDbCircle
 10
37.65341189252024
 20
214.7644130212155
 30
0.0
 40
3.5
  0
LINE
  5
653
330
1E
100
AcDbEntity
  8
0
 62
     3
100
AcDbLine
 10
41.15341189252021
 20
217.7643519861154
 30
0.0
 11
41.15341189252021
 21
214.7643519861154
 31
0.0
  0
ARC
  5
654
330
1E
100
AcDbEntity
  8
0
 62
     3
100
AcDbCircle
 10
37.65341189252024
 20
214.7644130212155
 30
0.0
 40
3.5
100
AcDbArc
 50
270.0000726275999
 51
0.0
  0
ARC
  5
655
330
1E
100
AcDbEntity
  8
0
 62
     3
100
AcDbCircle
 10
36.50497439252024
 20
212.7752610666155
 30
0.0
 40
1.09375
100
AcDbArc
 50
3.6322262987
 51
116.3677360594
  0
LINE
  5
656
330
1E
100
AcDbEntity
  8
0
 62
     3
100
AcDbLine
 10
34.75338747852026
 20
211.2643519861154
 30
0.0
 11
37.65341189252024
 21
211.2643519861154
 31
0.0
  0
ARC
  5
657
330
1E
100
AcDbEntity
  8
0
 62
     3
100
AcDbCircle
 10
35.35653689252024
 20
214.7644130212155
 30
0.0
 40
1.09375
100
AcDbArc
 50
303.6322280441998
 51
56.36777195580005
  0
ARC
  5
658
330
1E
100
AcDbEntity
  8
0
 62
     3
100
AcDbCircle
 10
35.99389078962031
 20
215.7225380164153
 30
0.0
 40
0.056875001639
100
AcDbArc
 50
63.6322452712
 51
240.0000239815
  0
ARC
  5
659
330
1E
100
AcDbEntity
  8
0
 62
     3
100
AcDbCircle
 10
35.99389078962031
 20
213.8062880260156
 30
0.0
 40
0.056875001639
100
AcDbArc
 50
123.6322332804999
 51
300.0000119906998
  0
ARC
  5
65A
330
1E
100
AcDbEntity
  8
0
 62
     3
100
AcDbCircle
 10
39.31293299542027
 20
215.7225380164153
 30
0.0
 40
0.056875001639
100
AcDbArc
 50
303.6322280441998
 51
119.9999760184999
  0
ARC
  5
65B
330
1E
100
AcDbEntity
  8
0
 62
     3
100
AcDbCircle
 10
39.31293299542027
 20
213.8062880260156
 30
0.0
 40
0.056875001639
100
AcDbArc
 50
243.6322639406
 51
59.99998800929999
  0
ARC
  5
65C
330
1E
100
AcDbEntity
  8
0
 62
     3
100
AcDbCircle
 10
37.65341189252024
 20
212.8481637460155
 30
0.0
 40
0.056875001639
100
AcDbArc
 50
183.6322212897999
 51
0.0
  0
CIRCLE
  5
65D
330
1E
100
AcDbEntity
  8
0
 62
     3
100
AcDbCircle
 10
37.65341189252024
 20
214.7644130212155
 30
0.0
 40
0.765625
  0
ARC
  5
65E
330
1E
100
AcDbEntity
  8
0
 62
     3
100
AcDbCircle
 10
38.80184939252021
 20
212.7752610666155
 30
0.0
 40
1.09375
100
AcDbArc
 50
63.63222796839999
 51
176.3677787102
  0
ARC
  5
65F
330
1E
100
AcDbEntity
  8
0
 62
     3
100
AcDbCircle
 10
39.95028689252022
 20
214.7644130212155
 30
0.0
 40
1.09375
100
AcDbArc
 50
123.6322332804999
 51
236.3677840224
  0
ARC
  5
660
330
1E
100
AcDbEntity
  8
0
 62
     3
100
AcDbCircle
 10
37.65341189252024
 20
216.6806622964153
 30
0.0
 40
0.056875001639
100
AcDbArc
 50
3.6322262987
 51
179.9999640277999
  0
ARC
  5
661
330
1E
100
AcDbEntity
  8
0
 62
     3
100
AcDbCircle
 10
42.15341189252024
 20
217.7644130212155
 30
0.0
 40
1.0
100
AcDbArc
 50
89.99998201389999
 51
179.9999640277999
  0
ARC
  5
662
330
1E
100
AcDbEntity
  8
0
 62
     3
100
AcDbCircle
 10
47.20339968552031
 20
222.2644130212156
 30
0.0
 40
0.5
100
AcDbArc
 50
89.99998201389999
 51
179.9999640277999
  0
ARC
  5
663
330
1E
100
AcDbEntity
  8
0
 62
     3
100
AcDbCircle
 10
47.8034057890203
 20
220.0644008142154
 30
0.0
 40
0.2999999522999999
100
AcDbArc
 50
270.0000726275999
 51
0.0000906137000634
  0
ARC
  5
664
330
1E
100
AcDbEntity
  8
0
 62
     3
100
AcDbCircle
 10
47.8034057890203
 20
221.4644252282155
 30
0.0
 40
0.2999999522999999
100
AcDbArc
 50
0.000090613658866
 51
89.99998201389999
  0
LINE
  5
665
330
1E
100
AcDbEntity
  8
0
 62
     3
100
AcDbLine
 10
48.10339358202025
 20
220.0644618493154
 30
0.0
 11
48.10339358202025
 21
221.4644557458155
 31
0.0
  0
ARC
  5
666
330
1E
100
AcDbEntity
  8
0
 62
     3
100
AcDbCircle
 10
46.90341189252023
 20
221.9644252282154
 30
0.0
 40
0.1999999285
100
AcDbArc
 50
179.9999640277999
 51
269.9998914002
  0
ARC
  5
667
330
1E
100
AcDbEntity
  8
0
 62
     3
100
AcDbCircle
 10
46.90341189252023
 20
219.5644008142155
 30
0.0
 40
0.1999999285
100
AcDbArc
 50
89.99998201389999
 51
179.9999640277999
  0
LINE
  5
668
330
1E
100
AcDbEntity
  8
0
 62
     3
100
AcDbLine
 10
46.70339968552029
 20
221.9644557458155
 30
0.0
 11
46.70339968552029
 21
222.2644740564153
 31
0.0
  0
LINE
  5
669
330
1E
100
AcDbEntity
  8
0
 62
     3
100
AcDbLine
 10
46.70339968552029
 20
218.7644740564155
 30
0.0
 11
46.70339968552029
 21
219.5644618493154
 31
0.0
  0
LINE
  5
66A
330
1E
100
AcDbEntity
  8
0
 62
     3
100
AcDbLine
 10
78.1534118925203
 20
214.7643519861154
 30
0.0
 11
78.1534118925203
 21
217.7643519861154
 31
0.0
  0
ARC
  5
66B
330
1E
100
AcDbEntity
  8
0
 62
     3
100
AcDbCircle
 10
79.99389078962031
 20
215.7225380164153
 30
0.0
 40
0.056875001639
100
AcDbArc
 50
63.6322452712
 51
240.0000239815
  0
ARC
  5
66C
330
1E
100
AcDbEntity
  8
0
 62
     3
100
AcDbCircle
 10
79.99389078962031
 20
213.8062880260156
 30
0.0
 40
0.056875001639
100
AcDbArc
 50
123.6322332804999
 51
300.0000119906998
  0
ARC
  5
66D
330
1E
100
AcDbEntity
  8
0
 62
     3
100
AcDbCircle
 10
79.35653689252029
 20
214.7644130212155
 30
0.0
 40
1.09375
100
AcDbArc
 50
303.6322280441998
 51
56.36777195580005
  0
ARC
  5
66E
330
1E
100
AcDbEntity
  8
0
 62
     3
100
AcDbCircle
 10
72.20330813282027
 20
222.2644130212156
 30
0.0
 40
0.5
100
AcDbArc
 50
0.000090613658866
 51
89.99998201389999
  0
LINE
  5
66F
330
1E
100
AcDbEntity
  8
0
 62
     3
100
AcDbLine
 10
71.30316164842025
 20
220.0644618493154
 30
0.0
 11
71.30316164842025
 21
221.4644557458155
 31
0.0
  0
ARC
  5
670
330
1E
100
AcDbEntity
  8
0
 62
     3
100
AcDbCircle
 10
71.60321047652025
 20
220.0644008142154
 30
0.0
 40
0.2999999522999999
100
AcDbArc
 50
179.9999640277999
 51
269.9998914002
  0
ARC
  5
671
330
1E
100
AcDbEntity
  8
0
 62
     3
100
AcDbCircle
 10
71.60321047652025
 20
221.4643947107155
 30
0.0
 40
0.2999999522999999
100
AcDbArc
 50
89.99998201389999
 51
179.9999640277999
  0
ARC
  5
672
330
1E
100
AcDbEntity
  8
0
 62
     3
100
AcDbCircle
 10
72.50335696092027
 20
221.9643947107154
 30
0.0
 40
0.1999999285
100
AcDbArc
 50
270.0000726275999
 51
0.0000906137000634
  0
ARC
  5
673
330
1E
100
AcDbEntity
  8
0
 62
     3
100
AcDbCircle
 10
72.50335696092027
 20
219.5644008142155
 30
0.0
 40
0.1999999285
100
AcDbArc
 50
0.000090613658866
 51
89.99998201389999
  0
LINE
  5
674
330
1E
100
AcDbEntity
  8
0
 62
     3
100
AcDbLine
 10
72.70330813282027
 20
221.9644557458155
 30
0.0
 11
72.70330813282027
 21
222.2644740564153
 31
0.0
  0
LINE
  5
675
330
1E
100
AcDbEntity
  8
0
 62
     3
100
AcDbLine
 10
72.70330813282027
 20
218.7644740564155
 30
0.0
 11
72.70330813282027
 21
219.5644618493154
 31
0.0
  0
ARC
  5
676
330
1E
100
AcDbEntity
  8
0
 62
     3
100
AcDbCircle
 10
77.15341189252029
 20
217.7644130212155
 30
0.0
 40
1.0
100
AcDbArc
 50
0.0
 51
89.99998201389999
  0
ARC
  5
677
330
1E
100
AcDbEntity
  8
0
 62
     3
100
AcDbCircle
 10
34.7523498808203
 20
246.7762842677418
 30
0.0
 40
1.0
100
AcDbArc
 50
180.0000906136999
 51
270.0000179861
  0
ARC
  5
678
330
1E
100
AcDbEntity
  8
0
 62
     3
100
AcDbCircle
 10
35.46670534962027
 20
246.9636927149415
 30
0.0
 40
1.3125
100
AcDbArc
 50
180.0000359722
 51
270.0000179861
  0
LINE
  5
679
330
1E
100
AcDbEntity
  8
0
 62
     3
100
AcDbLine
 10
41.15234377732031
 20
248.2762232325415
 30
0.0
 11
33.75238039842026
 21
248.2762232325415
 31
0.0
  0
LINE
  5
67A
330
1E
100
AcDbEntity
  8
0
 62
     3
100
AcDbLine
 10
29.70385744922026
 20
253.2755823634415
 30
0.0
 11
29.70385744922026
 21
278.2755823634415
 31
0.0
  0
LINE
  5
67B
330
1E
100
AcDbEntity
  8
0
 62
     3
100
AcDbLine
 10
30.70385744922026
 20
252.9755335352417
 30
0.0
 11
30.70385744922026
 21
278.5753870509418
 31
0.0
  0
LINE
  5
67C
330
1E
100
AcDbEntity
  8
0
 62
     3
100
AcDbLine
 10
32.70382693162025
 20
252.9755335352417
 30
0.0
 11
32.70382693162025
 21
278.5753870509418
 31
0.0
  0
LINE
  5
67D
330
1E
100
AcDbEntity
  8
0
 62
     3
100
AcDbLine
 10
29.20365908492026
 20
252.8755274317417
 30
0.0
 11
29.20365908492026
 21
278.6755152247418
 31
0.0
  0
LINE
  5
67E
330
1E
100
AcDbEntity
  8
0
 62
     3
100
AcDbLine
 10
29.70365908492027
 20
252.8755274317417
 30
0.0
 11
29.70365908492027
 21
278.6755152247418
 31
0.0
  0
LINE
  5
67F
330
1E
100
AcDbEntity
  8
0
 62
     3
100
AcDbLine
 10
28.00370791302032
 20
253.0755091212418
 30
0.0
 11
28.00370791302032
 21
278.4755030177417
 31
0.0
  0
LINE
  5
680
330
1E
100
AcDbEntity
  8
0
 62
     3
100
AcDbLine
 10
29.20365908492026
 20
252.7755213282417
 30
0.0
 11
29.20365908492026
 21
278.7755213282415
 31
0.0
  0
LINE
  5
681
330
1E
100
AcDbEntity
  8
0
 62
     3
100
AcDbLine
 10
28.30375674122029
 20
252.7755213282417
 30
0.0
 11
28.30375674122029
 21
278.7755213282415
 31
0.0
  0
LINE
  5
682
330
1E
100
AcDbEntity
  8
0
 62
     3
100
AcDbLine
 10
33.70224001752024
 20
252.2759790919418
 30
0.0
 11
33.70224001752024
 21
280.0755091212418
 31
0.0
  0
ARC
  5
683
330
1E
100
AcDbEntity
  8
0
 62
     3
100
AcDbCircle
 10
32.40280154102026
 20
253.8760157130417
 30
0.0
 40
0.2999999522999999
100
AcDbArc
 50
0.000095150582007
 51
89.99998201389999
  0
ARC
  5
684
330
1E
100
AcDbEntity
  8
0
 62
     3
100
AcDbCircle
 10
31.00265505662024
 20
253.8760157130417
 30
0.0
 40
0.2999999522999999
100
AcDbArc
 50
90.00009129690003
 51
180.0000733108
  0
LINE
  5
685
330
1E
100
AcDbEntity
  8
0
 62
     3
100
AcDbLine
 10
28.30370852572031
 20
252.7754165245418
 30
0.0
 11
28.00366666672028
 21
253.0754486717418
 31
0.0
  0
LINE
  5
686
330
1E
100
AcDbEntity
  8
0
 62
     3
100
AcDbLine
 10
33.75238039842026
 20
252.2762232325415
 30
0.0
 11
33.75238039842026
 21
246.7762232325418
 31
0.0
  0
LINE
  5
687
330
1E
100
AcDbEntity
  8
0
 62
     3
100
AcDbLine
 10
30.5038757597203
 20
252.7755823634417
 30
0.0
 11
30.20382693162025
 21
252.7755823634417
 31
0.0
  0
ARC
  5
688
330
1E
100
AcDbEntity
  8
0
 62
     3
100
AcDbCircle
 10
30.50265505662025
 20
252.9761133692415
 30
0.0
 40
0.1999999285
100
AcDbArc
 50
270.0000726275999
 51
359.9999139233
  0
LINE
  5
689
330
1E
100
AcDbEntity
  8
0
 62
     3
100
AcDbLine
 10
29.70365908492027
 20
252.8755274317417
 30
0.0
 11
29.20365908492026
 21
252.8755274317417
 31
0.0
  0
LINE
  5
68A
330
1E
100
AcDbEntity
  8
0
 62
     3
100
AcDbLine
 10
29.20365908492026
 20
252.7755213282417
 30
0.0
 11
28.30375674122029
 21
252.7755213282417
 31
0.0
  0
ARC
  5
68B
330
1E
100
AcDbEntity
  8
0
 62
     3
100
AcDbCircle
 10
30.20285036912024
 20
253.2761621973417
 30
0.0
 40
0.5
100
AcDbArc
 50
180.0001998966999
 51
270.0000179861
  0
ARC
  5
68C
330
1E
100
AcDbEntity
  8
0
 62
     3
100
AcDbCircle
 10
32.90280154102026
 20
252.9761133692415
 30
0.0
 40
0.1999999285
100
AcDbArc
 50
180.0001998966999
 51
270.0000179861
  0
LINE
  5
68D
330
1E
100
AcDbEntity
  8
0
 62
     3
100
AcDbLine
 10
33.7037964140203
 20
252.7755823634417
 30
0.0
 11
32.9039917265203
 21
252.7755823634417
 31
0.0
  0
LINE
  5
68E
330
1E
100
AcDbEntity
  8
0
 62
     3
100
AcDbLine
 10
32.4039917265203
 20
254.1754847071417
 30
0.0
 11
31.0038757597203
 21
254.1754847071417
 31
0.0
  0
LINE
  5
68F
330
1E
100
AcDbEntity
  8
0
 62
     3
100
AcDbLine
 10
28.00334622252028
 20
278.4750143128416
 30
0.0
 11
28.30338808152026
 21
278.7750464600417
 31
0.0
  0
ARC
  5
690
330
1E
100
AcDbEntity
  8
0
 62
     3
100
AcDbCircle
 10
31.00265505662024
 20
277.6758204005417
 30
0.0
 40
0.2999999522999999
100
AcDbArc
 50
180.0001998966999
 51
270.0000179861
  0
LINE
  5
691
330
1E
100
AcDbEntity
  8
0
 62
     3
100
AcDbLine
 10
30.5038757597203
 20
278.7755518458416
 30
0.0
 11
30.20382693162025
 21
278.7755518458416
 31
0.0
  0
ARC
  5
692
330
1E
100
AcDbEntity
  8
0
 62
     3
100
AcDbCircle
 10
30.50265505662025
 20
278.5757227442416
 30
0.0
 40
0.1999999285
100
AcDbArc
 50
0.000095150582007
 51
89.99998201389999
  0
LINE
  5
693
330
1E
100
AcDbEntity
  8
0
 62
     3
100
AcDbLine
 10
29.70365908492027
 20
278.6755152247418
 30
0.0
 11
29.20365908492026
 21
278.6755152247418
 31
0.0
  0
LINE
  5
694
330
1E
100
AcDbEntity
  8
0
 62
     3
100
AcDbLine
 10
28.30375674122029
 20
278.7755213282415
 30
0.0
 11
29.20365908492026
 21
278.7755213282415
 31
0.0
  0
ARC
  5
695
330
1E
100
AcDbEntity
  8
0
 62
     3
100
AcDbCircle
 10
30.20285036912024
 20
278.2759180567416
 30
0.0
 40
0.5
100
AcDbArc
 50
90.00009129690003
 51
180.0000733108
  0
ARC
  5
696
330
1E
100
AcDbEntity
  8
0
 62
     3
100
AcDbCircle
 10
33.90213015422029
 20
280.0757837794416
 30
0.0
 40
0.1999999285
100
AcDbArc
 50
90.00020058000002
 51
179.9966308954999
  0
LINE
  5
697
330
1E
100
AcDbEntity
  8
0
 62
     3
100
AcDbLine
 10
32.4039917265203
 20
277.3754053614416
 30
0.0
 11
31.0038757597203
 21
277.3754053614416
 31
0.0
  0
ARC
  5
698
330
1E
100
AcDbEntity
  8
0
 62
     3
100
AcDbCircle
 10
32.90280154102026
 20
278.5757227442416
 30
0.0
 40
0.1999999285
100
AcDbArc
 50
90.00009129690003
 51
180.0000733108
  0
ARC
  5
699
330
1E
100
AcDbEntity
  8
0
 62
     3
100
AcDbCircle
 10
32.40280154102026
 20
277.6758204005417
 30
0.0
 40
0.2999999522999999
100
AcDbArc
 50
270.0000726275999
 51
359.9999139233
  0
LINE
  5
69A
330
1E
100
AcDbEntity
  8
0
 62
     3
100
AcDbLine
 10
33.7037964140203
 20
278.7755518458416
 30
0.0
 11
32.9039917265203
 21
278.7755518458416
 31
0.0
  0
LINE
  5
69B
330
1E
100
AcDbEntity
  8
0
 62
     3
100
AcDbLine
 10
55.59521487102029
 20
242.0718775294417
 30
0.0
 11
63.73257449022026
 21
242.0718775294417
 31
0.0
  0
LINE
  5
69C
330
1E
100
AcDbEntity
  8
0
 62
     3
100
AcDbLine
 10
55.20269778122024
 20
242.3310328028417
 30
0.0
 11
64.28540041792024
 21
242.3310328028417
 31
0.0
  0
LINE
  5
69D
330
1E
100
AcDbEntity
  8
0
 62
     3
100
AcDbLine
 10
65.90219118942029
 20
245.1761866114416
 30
0.0
 11
53.50219729292025
 21
245.1761866114416
 31
0.0
  0
CIRCLE
  5
69E
330
1E
100
AcDbEntity
  8
0
 62
     3
100
AcDbCircle
 10
59.70217898242032
 20
265.7757654688416
 30
0.0
 40
9.0
  0
CIRCLE
  5
69F
330
1E
100
AcDbEntity
  8
0
 62
     3
100
AcDbCircle
 10
59.70217898242032
 20
265.7757654688416
 30
0.0
 40
10.0
  0
CIRCLE
  5
6A0
330
1E
100
AcDbEntity
  8
0
 62
     3
100
AcDbCircle
 10
59.70217898242032
 20
265.7757654688416
 30
0.0
 40
12.9997711182
  0
ARC
  5
6A1
330
1E
100
AcDbEntity
  8
0
 62
     3
100
AcDbCircle
 10
59.70220950002027
 20
251.0761805079416
 30
0.0
 40
10.0
100
AcDbArc
 50
232.5371407281999
 51
307.4628440175
  0
LINE
  5
6A2
330
1E
100
AcDbEntity
  8
0
 62
     3
100
AcDbLine
 10
78.81317141402025
 20
245.7762232325416
 30
0.0
 11
40.43505862102029
 21
245.7762232325416
 31
0.0
  0
LINE
  5
6A3
330
1E
100
AcDbEntity
  8
0
 62
     3
100
AcDbLine
 10
39.84170534962027
 20
245.6511927149417
 30
0.0
 11
35.46670534962027
 21
245.6511927149417
 31
0.0
  0
LINE
  5
6A4
330
1E
100
AcDbEntity
  8
0
 62
     3
100
AcDbLine
 10
41.15420534962026
 20
248.2761927149415
 30
0.0
 11
34.15420534962027
 21
248.2761927149415
 31
0.0
  0
LINE
  5
6A5
330
1E
100
AcDbEntity
  8
0
 62
     3
100
AcDbLine
 10
34.15606692182024
 20
248.2761927149415
 30
0.0
 11
41.15594485152029
 21
248.2761927149415
 31
0.0
  0
LINE
  5
6A6
330
1E
100
AcDbEntity
  8
0
 62
     3
100
AcDbLine
 10
34.15420534962027
 20
246.9636927149415
 30
0.0
 11
34.15420534962027
 21
248.2761927149415
 31
0.0
  0
LINE
  5
6A7
330
1E
100
AcDbEntity
  8
0
 62
     3
100
AcDbLine
 10
34.89694216602027
 20
245.7762232325416
 30
0.0
 11
34.75238039842025
 21
245.7762232325416
 31
0.0
  0
LINE
  5
6A8
330
1E
100
AcDbEntity
  8
0
 62
     3
100
AcDbLine
 10
41.15420534962026
 20
246.9636927149415
 30
0.0
 11
41.15420534962026
 21
248.2761927149415
 31
0.0
  0
LINE
  5
6A9
330
1E
100
AcDbEntity
  8
0
 62
     3
100
AcDbLine
 10
41.15234377732031
 20
248.2762232325415
 30
0.0
 11
41.15234377732031
 21
246.7762232325418
 31
0.0
  0
ARC
  5
6AA
330
1E
100
AcDbEntity
  8
0
 62
     3
100
AcDbCircle
 10
39.84170534962027
 20
246.9636927149415
 30
0.0
 40
1.3125
100
AcDbArc
 50
270.0000179861
 51
0.0
  0
ARC
  5
6AB
330
1E
100
AcDbEntity
  8
0
 62
     3
100
AcDbCircle
 10
42.15234377732031
 20
246.7762842677418
 30
0.0
 40
1.0
100
AcDbArc
 50
180.0000906136999
 51
270.0000179861
  0
LINE
  5
6AC
330
1E
100
AcDbEntity
  8
0
 62
     3
100
AcDbLine
 10
53.7864990507203
 20
243.0021448634418
 30
0.0
 11
53.7864990507203
 21
245.1761560938417
 31
0.0
  0
LINE
  5
6AD
330
1E
100
AcDbEntity
  8
0
 62
     3
100
AcDbLine
 10
54.00463869922027
 20
243.0021448634418
 30
0.0
 11
54.00463869922027
 21
245.1761560938417
 31
0.0
  0
LINE
  5
6AE
330
1E
100
AcDbEntity
  8
0
 62
     3
100
AcDbLine
 10
54.28121950972029
 20
243.0021448634418
 30
0.0
 11
54.28121950972029
 21
245.1761560938417
 31
0.0
  0
LINE
  5
6AF
330
1E
100
AcDbEntity
  8
0
 62
     3
100
AcDbLine
 10
53.70480349412026
 20
245.7761927149415
 30
0.0
 11
53.70480349412026
 21
245.1761866114416
 31
0.0
  0
LINE
  5
6B0
330
1E
100
AcDbEntity
  8
0
 62
     3
100
AcDbLine
 10
53.50219729292025
 20
243.3768396876418
 30
0.0
 11
53.50219729292025
 21
245.1761866114416
 31
0.0
  0
LINE
  5
6B1
330
1E
100
AcDbEntity
  8
0
 62
     3
100
AcDbLine
 10
53.62908938282028
 20
243.1317835352416
 30
0.0
 11
53.62908938282028
 21
245.1761560938417
 31
0.0
  0
ARC
  5
6B2
330
1E
100
AcDbEntity
  8
0
 62
     3
100
AcDbCircle
 10
53.80218508592026
 20
243.3768396876418
 30
0.0
 40
0.2999999522999999
100
AcDbArc
 50
179.9999093863
 51
232.5370141424
  0
LINE
  5
6B3
330
1E
100
AcDbEntity
  8
0
 62
     3
100
AcDbLine
 10
56.97171023242032
 20
243.0021448634418
 30
0.0
 11
56.97171023242032
 21
245.1761560938417
 31
0.0
  0
LINE
  5
6B4
330
1E
100
AcDbEntity
  8
0
 62
     3
100
AcDbLine
 10
54.61343386522026
 20
243.0021448634418
 30
0.0
 11
54.61343386522026
 21
245.1761560938417
 31
0.0
  0
LINE
  5
6B5
330
1E
100
AcDbEntity
  8
0
 62
     3
100
AcDbLine
 10
54.99786379682024
 20
243.0021448634418
 30
0.0
 11
54.99786379682024
 21
245.1761560938417
 31
0.0
  0
LINE
  5
6B6
330
1E
100
AcDbEntity
  8
0
 62
     3
100
AcDbLine
 10
55.43057253712032
 20
243.0021448634418
 30
0.0
 11
55.43057253712032
 21
245.1761560938417
 31
0.0
  0
LINE
  5
6B7
330
1E
100
AcDbEntity
  8
0
 62
     3
100
AcDbLine
 10
55.90710451952025
 20
243.0021448634418
 30
0.0
 11
55.90710451952025
 21
245.1761560938417
 31
0.0
  0
LINE
  5
6B8
330
1E
100
AcDbEntity
  8
0
 62
     3
100
AcDbLine
 10
56.42257693162026
 20
243.0021448634418
 30
0.0
 11
56.42257693162026
 21
245.1761560938417
 31
0.0
  0
LINE
  5
6B9
330
1E
100
AcDbEntity
  8
0
 62
     3
100
AcDbLine
 10
52.77444460742032
 20
276.7757654688417
 30
0.0
 11
40.70214846482031
 21
276.7757654688417
 31
0.0
  0
LINE
  5
6BA
330
1E
100
AcDbEntity
  8
0
 62
     3
100
AcDbLine
 10
34.20202639452027
 20
280.2756433985416
 30
0.0
 11
34.20202639452027
 21
280.7751551173418
 31
0.0
  0
LINE
  5
6BB
330
1E
100
AcDbEntity
  8
0
 62
     3
100
AcDbLine
 10
40.95199587692031
 20
280.2751551173418
 30
0.0
 11
40.95199587692031
 21
280.7749109766417
 31
0.0
  0
LINE
  5
6BC
330
1E
100
AcDbEntity
  8
0
 62
     3
100
AcDbLine
 10
39.20199587692029
 20
280.2749109766417
 30
0.0
 11
39.20199587692029
 21
280.7751551173418
 31
0.0
  0
ARC
  5
6BD
330
1E
100
AcDbEntity
  8
0
 62
     3
100
AcDbCircle
 10
40.70217898242026
 20
277.7757654688417
 30
0.0
 40
1.0
100
AcDbArc
 50
180.0000906136999
 51
270.0000179861
  0
LINE
  5
6BE
330
1E
100
AcDbEntity
  8
0
 62
     3
100
AcDbLine
 10
39.70217898242026
 20
280.2757654688416
 30
0.0
 11
39.70217898242026
 21
277.7757654688417
 31
0.0
  0
LINE
  5
6BF
330
1E
100
AcDbEntity
  8
0
 62
     3
100
AcDbLine
 10
34.20224001752024
 20
280.7751551173418
 30
0.0
 11
40.95220950002027
 21
280.7751551173418
 31
0.0
  0
LINE
  5
6C0
330
1E
100
AcDbEntity
  8
0
 62
     3
100
AcDbLine
 10
47.20196535932024
 20
280.2751551173418
 30
0.0
 11
47.20196535932024
 21
280.7751551173418
 31
0.0
  0
LINE
  5
6C1
330
1E
100
AcDbEntity
  8
0
 62
     3
100
AcDbLine
 10
52.20196535932024
 20
280.2753992579417
 30
0.0
 11
52.20196535932024
 21
280.7753992579417
 31
0.0
  0
LINE
  5
6C2
330
1E
100
AcDbEntity
  8
0
 62
     3
100
AcDbLine
 10
47.20193484172028
 20
280.7753992579417
 30
0.0
 11
52.20193484172028
 21
280.7753992579417
 31
0.0
  0
LINE
  5
6C3
330
1E
100
AcDbEntity
  8
0
 62
     3
100
AcDbLine
 10
60.01623537892027
 20
245.1761866114416
 30
0.0
 11
60.01623537892027
 21
243.0021448634418
 31
0.0
  0
LINE
  5
6C4
330
1E
100
AcDbEntity
  8
0
 62
     3
100
AcDbLine
 10
57.54885866992032
 20
243.0021448634418
 30
0.0
 11
57.54885866992032
 21
245.1761560938417
 31
0.0
  0
LINE
  5
6C5
330
1E
100
AcDbEntity
  8
0
 62
     3
100
AcDbLine
 10
58.14813235152024
 20
243.0021448634418
 30
0.0
 11
58.14813235152024
 21
245.1761560938417
 31
0.0
  0
LINE
  5
6C6
330
1E
100
AcDbEntity
  8
0
 62
     3
100
AcDbLine
 10
58.76330569142027
 20
243.0021448634418
 30
0.0
 11
58.76330569142027
 21
245.1761560938417
 31
0.0
  0
LINE
  5
6C7
330
1E
100
AcDbEntity
  8
0
 62
     3
100
AcDbLine
 10
59.38815310352032
 20
243.0021448634418
 30
0.0
 11
59.38815310352032
 21
245.1761560938417
 31
0.0
  0
LINE
  5
6C8
330
1E
100
AcDbEntity
  8
0
 62
     3
100
AcDbLine
 10
62.98178103322033
 20
245.1761866114416
 30
0.0
 11
62.98178103322033
 21
243.0021448634418
 31
0.0
  0
LINE
  5
6C9
330
1E
100
AcDbEntity
  8
0
 62
     3
100
AcDbLine
 10
62.43264773242032
 20
245.1761866114416
 30
0.0
 11
62.43264773242032
 21
243.0021448634418
 31
0.0
  0
LINE
  5
6CA
330
1E
100
AcDbEntity
  8
0
 62
     3
100
AcDbLine
 10
61.85549929492032
 20
245.1761866114416
 30
0.0
 11
61.85549929492032
 21
243.0021448634418
 31
0.0
  0
LINE
  5
6CB
330
1E
100
AcDbEntity
  8
0
 62
     3
100
AcDbLine
 10
61.25625613082029
 20
245.1761866114416
 30
0.0
 11
61.25625613082029
 21
243.0021448634418
 31
0.0
  0
LINE
  5
6CC
330
1E
100
AcDbEntity
  8
0
 62
     3
100
AcDbLine
 10
60.64108279102033
 20
245.1761866114416
 30
0.0
 11
60.64108279102033
 21
243.0021448634418
 31
0.0
  0
LINE
  5
6CD
330
1E
100
AcDbEntity
  8
0
 62
     3
100
AcDbLine
 10
65.90219118942029
 20
243.3768396876418
 30
0.0
 11
65.90219118942029
 21
245.1761866114416
 31
0.0
  0
LINE
  5
6CE
330
1E
100
AcDbEntity
  8
0
 62
     3
100
AcDbLine
 10
65.77529909962033
 20
245.1761866114416
 30
0.0
 11
65.77529909962033
 21
243.1317835352416
 31
0.0
  0
LINE
  5
6CF
330
1E
100
AcDbEntity
  8
0
 62
     3
100
AcDbLine
 10
65.61788943162025
 20
245.1761866114416
 30
0.0
 11
65.61788943162025
 21
243.0021448634418
 31
0.0
  0
LINE
  5
6D0
330
1E
100
AcDbEntity
  8
0
 62
     3
100
AcDbLine
 10
65.70480349412026
 20
245.7761927149415
 30
0.0
 11
65.70480349412026
 21
245.1761866114416
 31
0.0
  0
ARC
  5
6D1
330
1E
100
AcDbEntity
  8
0
 62
     3
100
AcDbCircle
 10
65.60217287892027
 20
243.3768091700418
 30
0.0
 40
0.2999999522999999
100
AcDbArc
 50
307.4629703759998
 51
0.0001272691000587
  0
LINE
  5
6D2
330
1E
100
AcDbEntity
  8
0
 62
     3
100
AcDbLine
 10
65.39974978322033
 20
245.1761866114416
 30
0.0
 11
65.39974978322033
 21
243.0021448634418
 31
0.0
  0
LINE
  5
6D3
330
1E
100
AcDbEntity
  8
0
 62
     3
100
AcDbLine
 10
65.12316897262024
 20
245.1761866114416
 30
0.0
 11
65.12316897262024
 21
243.0021448634418
 31
0.0
  0
LINE
  5
6D4
330
1E
100
AcDbEntity
  8
0
 62
     3
100
AcDbLine
 10
64.79095461712029
 20
245.1761866114416
 30
0.0
 11
64.79095461712029
 21
243.0021448634418
 31
0.0
  0
LINE
  5
6D5
330
1E
100
AcDbEntity
  8
0
 62
     3
100
AcDbLine
 10
64.4065246855203
 20
245.1761866114416
 30
0.0
 11
64.4065246855203
 21
243.0021448634418
 31
0.0
  0
LINE
  5
6D6
330
1E
100
AcDbEntity
  8
0
 62
     3
100
AcDbLine
 10
63.97381594532028
 20
245.1761866114416
 30
0.0
 11
63.97381594532028
 21
243.0021448634418
 31
0.0
  0
LINE
  5
6D7
330
1E
100
AcDbEntity
  8
0
 62
     3
100
AcDbLine
 10
63.49728396282029
 20
245.1761866114416
 30
0.0
 11
63.49728396282029
 21
243.0021448634418
 31
0.0
  0
LINE
  5
6D8
330
1E
100
AcDbEntity
  8
0
 62
     3
100
AcDbLine
 10
78.15414431442031
 20
246.9636927149415
 30
0.0
 11
78.15414431442031
 21
248.2761927149415
 31
0.0
  0
LINE
  5
6D9
330
1E
100
AcDbEntity
  8
0
 62
     3
100
AcDbLine
 10
78.1523132597203
 20
248.2762232325415
 30
0.0
 11
78.1523132597203
 21
246.7762232325418
 31
0.0
  0
ARC
  5
6DA
330
1E
100
AcDbEntity
  8
0
 62
     3
100
AcDbCircle
 10
79.46664431442029
 20
246.9636927149415
 30
0.0
 40
1.3125
100
AcDbArc
 50
180.0000359722
 51
270.0000179861
  0
ARC
  5
6DB
330
1E
100
AcDbEntity
  8
0
 62
     3
100
AcDbCircle
 10
77.15234377732031
 20
246.7762842677418
 30
0.0
 40
1.0
100
AcDbArc
 50
270.0000726275999
 51
0.0
  0
LINE
  5
6DC
330
1E
100
AcDbEntity
  8
0
 62
     3
100
AcDbLine
 10
67.20196535932024
 20
280.7756433985415
 30
0.0
 11
72.20196535932022
 21
280.7756433985415
 31
0.0
  0
LINE
  5
6DD
330
1E
100
AcDbEntity
  8
0
 62
     3
100
AcDbLine
 10
78.70196535932023
 20
276.7757654688417
 30
0.0
 11
66.62988283982031
 21
276.7757654688417
 31
0.0
  0
LINE
  5
6DE
330
1E
100
AcDbEntity
  8
0
 62
     3
100
AcDbLine
 10
67.20196535932024
 20
280.7756433985415
 30
0.0
 11
67.20196535932024
 21
280.2756433985416
 31
0.0
  0
LINE
  5
6DF
330
1E
100
AcDbEntity
  8
0
 62
     3
100
AcDbLine
 10
78.45184328902025
 20
280.7751551173418
 30
0.0
 11
78.45184328902025
 21
280.2753992579417
 31
0.0
  0
LINE
  5
6E0
330
1E
100
AcDbEntity
  8
0
 62
     3
100
AcDbLine
 10
80.20184328902024
 20
280.7753992579417
 30
0.0
 11
80.20184328902024
 21
280.2751551173418
 31
0.0
  0
LINE
  5
6E1
330
1E
100
AcDbEntity
  8
0
 62
     3
100
AcDbLine
 10
72.20196535932022
 20
280.7753992579417
 30
0.0
 11
72.20196535932022
 21
280.2753992579417
 31
0.0
  0
ARC
  5
6E2
330
1E
100
AcDbEntity
  8
0
 62
     3
100
AcDbCircle
 10
78.70199587692031
 20
277.7757654688417
 30
0.0
 40
1.0
100
AcDbArc
 50
270.0000726275999
 51
0.0
  0
LINE
  5
6E3
330
1E
100
AcDbEntity
  8
0
 62
     3
100
AcDbLine
 10
79.70196535932022
 20
280.2757654688416
 30
0.0
 11
79.70196535932022
 21
277.7757654688417
 31
0.0
  0
LINE
  5
6E4
330
1E
100
AcDbEntity
  8
0
 62
     3
100
AcDbLine
 10
85.55340578902024
 20
156.2643519861154
 30
0.0
 11
85.55340578902024
 21
214.7643519861154
 31
0.0
  0
LINE
  5
6E5
330
1E
100
AcDbEntity
  8
0
 62
     3
100
AcDbLine
 10
90.20350649702029
 20
170.8648158532155
 30
0.0
 11
90.20350649702029
 21
196.6648036462155
 31
0.0
  0
LINE
  5
6E6
330
1E
100
AcDbEntity
  8
0
 62
     3
100
AcDbLine
 10
89.70350649702025
 20
170.8648158532155
 30
0.0
 11
89.70350649702025
 21
196.6648036462155
 31
0.0
  0
LINE
  5
6E7
330
1E
100
AcDbEntity
  8
0
 62
     3
100
AcDbLine
 10
91.40345766892034
 20
171.0647975427155
 30
0.0
 11
91.40345766892034
 21
196.4647914392155
 31
0.0
  0
LINE
  5
6E8
330
1E
100
AcDbEntity
  8
0
 62
     3
100
AcDbLine
 10
90.20350649702029
 20
170.7648097497155
 30
0.0
 11
90.20350649702029
 21
196.7648097497155
 31
0.0
  0
LINE
  5
6E9
330
1E
100
AcDbEntity
  8
0
 62
     3
100
AcDbLine
 10
91.10340884082027
 20
170.7648097497155
 30
0.0
 11
91.10340884082027
 21
196.7648097497155
 31
0.0
  0
LINE
  5
6EA
330
1E
100
AcDbEntity
  8
0
 62
     3
100
AcDbLine
 10
89.70330813282027
 20
196.2643519861154
 30
0.0
 11
89.70330813282027
 21
171.2643519861154
 31
0.0
  0
LINE
  5
6EB
330
1E
100
AcDbEntity
  8
0
 62
     3
100
AcDbLine
 10
88.70330813282027
 20
196.5643702966154
 30
0.0
 11
88.70330813282027
 21
170.9645472986155
 31
0.0
  0
LINE
  5
6EC
330
1E
100
AcDbEntity
  8
0
 62
     3
100
AcDbLine
 10
86.70330813282026
 20
196.5643702966154
 30
0.0
 11
86.70330813282026
 21
170.9645472986155
 31
0.0
  0
ARC
  5
6ED
330
1E
100
AcDbEntity
  8
0
 62
     3
100
AcDbCircle
 10
84.70330813282027
 20
156.2644130212154
 30
0.0
 40
1.0
100
AcDbArc
 50
270.0000179861
 51
0.0
  0
ARC
  5
6EE
330
1E
100
AcDbEntity
  8
0
 62
     3
100
AcDbCircle
 10
84.55340578902022
 20
156.2644130212154
 30
0.0
 40
1.0
100
AcDbArc
 50
270.0000179861
 51
0.0
  0
LINE
  5
6EF
330
1E
100
AcDbEntity
  8
0
 62
     3
100
AcDbLine
 10
81.55242922652025
 20
155.2643519861154
 30
0.0
 11
84.55340578902022
 21
155.2643519861154
 31
0.0
  0
LINE
  5
6F0
330
1E
100
AcDbEntity
  8
0
 62
     3
100
AcDbLine
 10
81.70330813282026
 20
155.2643519861154
 30
0.0
 11
84.70330813282027
 21
155.2643519861154
 31
0.0
  0
ARC
  5
6F1
330
1E
100
AcDbEntity
  8
0
 62
     3
100
AcDbCircle
 10
83.3129329954203
 20
160.7225380164155
 30
0.0
 40
0.056875001639
100
AcDbArc
 50
303.6322280441998
 51
119.9999760184999
  0
ARC
  5
6F2
330
1E
100
AcDbEntity
  8
0
 62
     3
100
AcDbCircle
 10
83.3129329954203
 20
158.8062880260155
 30
0.0
 40
0.056875001639
100
AcDbArc
 50
243.6322639406
 51
59.99998800929999
  0
ARC
  5
6F3
330
1E
100
AcDbEntity
  8
0
 62
     3
100
AcDbCircle
 10
81.6534118925203
 20
161.6806622964155
 30
0.0
 40
0.056875001639
100
AcDbArc
 50
3.6322262987
 51
179.9999640277999
  0
ARC
  5
6F4
330
1E
100
AcDbEntity
  8
0
 62
     3
100
AcDbCircle
 10
81.6534118925203
 20
157.8481637460155
 30
0.0
 40
0.056875001639
100
AcDbArc
 50
183.6322212897999
 51
0.0
  0
ARC
  5
6F5
330
1E
100
AcDbEntity
  8
0
 62
     3
100
AcDbCircle
 10
82.80184939252029
 20
157.7752610666155
 30
0.0
 40
1.09375
100
AcDbArc
 50
63.63222796839999
 51
176.3677787102
  0
ARC
  5
6F6
330
1E
100
AcDbEntity
  8
0
 62
     3
100
AcDbCircle
 10
83.95028689252029
 20
159.7644130212153
 30
0.0
 40
1.09375
100
AcDbArc
 50
123.6322332804999
 51
236.3677840224
  0
ARC
  5
6F7
330
1E
100
AcDbEntity
  8
0
 62
     3
100
AcDbCircle
 10
82.80184939252029
 20
161.7535649759155
 30
0.0
 40
1.09375
100
AcDbArc
 50
183.6322212897999
 51
296.3677720315999
  0
LINE
  5
6F8
330
1E
100
AcDbEntity
  8
0
 62
     3
100
AcDbLine
 10
87.00335696092025
 20
172.1644984704155
 30
0.0
 11
88.4032593046203
 21
172.1644984704155
 31
0.0
  0
LINE
  5
6F9
330
1E
100
AcDbEntity
  8
0
 62
     3
100
AcDbLine
 10
81.6534118925203
 20
163.2643519861153
 30
0.0
 11
84.55340578902022
 21
163.2643519861153
 31
0.0
  0
ARC
  5
6FA
330
1E
100
AcDbEntity
  8
0
 62
     3
100
AcDbCircle
 10
84.55340578902022
 20
164.2644130212154
 30
0.0
 40
1.0
100
AcDbArc
 50
270.0000726275999
 51
0.0
  0
ARC
  5
6FB
330
1E
100
AcDbEntity
  8
0
 62
     3
100
AcDbCircle
 10
86.50335696092026
 20
170.9646083337154
 30
0.0
 40
0.1999999285
100
AcDbArc
 50
270.0000726275999
 51
0.0
  0
ARC
  5
6FC
330
1E
100
AcDbEntity
  8
0
 62
     3
100
AcDbCircle
 10
87.00335696092025
 20
171.8645106775154
 30
0.0
 40
0.2999999522999999
100
AcDbArc
 50
89.99998201389999
 51
179.9999640277999
  0
LINE
  5
6FD
330
1E
100
AcDbEntity
  8
0
 62
     3
100
AcDbLine
 10
85.70330813282026
 20
170.7643519861154
 30
0.0
 11
86.50335696092026
 21
170.7643519861154
 31
0.0
  0
LINE
  5
6FE
330
1E
100
AcDbEntity
  8
0
 62
     3
100
AcDbLine
 10
89.70350649702025
 20
170.8648158532155
 30
0.0
 11
90.20350649702029
 21
170.8648158532155
 31
0.0
  0
ARC
  5
6FF
330
1E
100
AcDbEntity
  8
0
 62
     3
100
AcDbCircle
 10
89.20330813282026
 20
171.2644130212154
 30
0.0
 40
0.5
100
AcDbArc
 50
270.0000726275999
 51
0.0
  0
ARC
  5
700
330
1E
100
AcDbEntity
  8
0
 62
     3
100
AcDbCircle
 10
88.90325930462031
 20
170.9646083337154
 30
0.0
 40
0.1999999285
100
AcDbArc
 50
179.9999640277999
 51
269.9999460416999
  0
ARC
  5
701
330
1E
100
AcDbEntity
  8
0
 62
     3
100
AcDbCircle
 10
88.4032593046203
 20
171.8645106775154
 30
0.0
 40
0.2999999522999999
100
AcDbArc
 50
0.0
 51
89.99998201389999
  0
LINE
  5
702
330
1E
100
AcDbEntity
  8
0
 62
     3
100
AcDbLine
 10
88.90325930462031
 20
170.7643519861154
 30
0.0
 11
89.20330813282026
 21
170.7643519861154
 31
0.0
  0
LINE
  5
703
330
1E
100
AcDbEntity
  8
0
 62
     3
100
AcDbLine
 10
90.20350649702029
 20
170.7648097497155
 30
0.0
 11
91.10340884082027
 21
170.7648097497155
 31
0.0
  0
LINE
  5
704
330
1E
100
AcDbEntity
  8
0
 62
     3
100
AcDbLine
 10
91.10345705632028
 20
170.7647049460154
 30
0.0
 11
91.4034989153203
 21
171.0647370932155
 31
0.0
  0
LINE
  5
705
330
1E
100
AcDbEntity
  8
0
 62
     3
100
AcDbLine
 10
87.00335696092025
 20
195.3643580896155
 30
0.0
 11
88.4032593046203
 21
195.3643580896155
 31
0.0
  0
ARC
  5
706
330
1E
100
AcDbEntity
  8
0
 62
     3
100
AcDbCircle
 10
87.00335696092025
 20
195.6644069177155
 30
0.0
 40
0.2999999522999999
100
AcDbArc
 50
179.9999640277999
 51
269.9999460416999
  0
ARC
  5
707
330
1E
100
AcDbEntity
  8
0
 62
     3
100
AcDbCircle
 10
86.50335696092026
 20
196.5644008142155
 30
0.0
 40
0.1999999285
100
AcDbArc
 50
0.0
 51
89.99998201389999
  0
LINE
  5
708
330
1E
100
AcDbEntity
  8
0
 62
     3
100
AcDbLine
 10
85.70330813282026
 20
196.7643519861154
 30
0.0
 11
86.50335696092026
 21
196.7643519861154
 31
0.0
  0
ARC
  5
709
330
1E
100
AcDbEntity
  8
0
 62
     3
100
AcDbCircle
 10
88.4032593046203
 20
195.6644069177155
 30
0.0
 40
0.2999999522999999
100
AcDbArc
 50
270.0000726275999
 51
0.0
  0
LINE
  5
70A
330
1E
100
AcDbEntity
  8
0
 62
     3
100
AcDbLine
 10
89.70350649702025
 20
196.6648036462155
 30
0.0
 11
90.20350649702029
 21
196.6648036462155
 31
0.0
  0
ARC
  5
70B
330
1E
100
AcDbEntity
  8
0
 62
     3
100
AcDbCircle
 10
89.20330813282026
 20
196.2644130212155
 30
0.0
 40
0.5
100
AcDbArc
 50
0.0
 51
89.99998201389999
  0
ARC
  5
70C
330
1E
100
AcDbEntity
  8
0
 62
     3
100
AcDbCircle
 10
88.90325930462031
 20
196.5644008142155
 30
0.0
 40
0.1999999285
100
AcDbArc
 50
89.99998201389999
 51
179.9999640277999
  0
LINE
  5
70D
330
1E
100
AcDbEntity
  8
0
 62
     3
100
AcDbLine
 10
88.90325930462031
 20
196.7643519861154
 30
0.0
 11
89.20330813282026
 21
196.7643519861154
 31
0.0
  0
LINE
  5
70E
330
1E
100
AcDbEntity
  8
0
 62
     3
100
AcDbLine
 10
91.10340884082027
 20
196.7648097497155
 30
0.0
 11
90.20350649702029
 21
196.7648097497155
 31
0.0
  0
LINE
  5
70F
330
1E
100
AcDbEntity
  8
0
 62
     3
100
AcDbLine
 10
91.40381935942032
 20
196.4643027343154
 30
0.0
 11
91.10377750042028
 21
196.7643348815155
 31
0.0
  0
ARC
  5
710
330
1E
100
AcDbEntity
  8
0
 62
     3
100
AcDbCircle
 10
81.70330813282026
 20
214.7644130212155
 30
0.0
 40
4.0
100
AcDbArc
 50
0.0
 51
89.99998201389999
  0
ARC
  5
711
330
1E
100
AcDbEntity
  8
0
 62
     3
100
AcDbCircle
 10
81.55340578902025
 20
214.7644130212155
 30
0.0
 40
4.0
100
AcDbArc
 50
0.0
 51
89.99998201389999
  0
ARC
  5
712
330
1E
100
AcDbEntity
  8
0
 62
     3
100
AcDbCircle
 10
82.80184939252029
 20
216.7535649759154
 30
0.0
 40
1.09375
100
AcDbArc
 50
183.6322212897999
 51
296.3677720315999
  0
LINE
  5
713
330
1E
100
AcDbEntity
  8
0
 62
     3
100
AcDbLine
 10
81.6534118925203
 20
211.2643519861154
 30
0.0
 11
84.55340578902022
 21
211.2643519861154
 31
0.0
  0
ARC
  5
714
330
1E
100
AcDbEntity
  8
0
 62
     3
100
AcDbCircle
 10
83.3129329954203
 20
215.7225380164153
 30
0.0
 40
0.056875001639
100
AcDbArc
 50
303.6322280441998
 51
119.9999760184999
  0
ARC
  5
715
330
1E
100
AcDbEntity
  8
0
 62
     3
100
AcDbCircle
 10
83.3129329954203
 20
213.8062880260156
 30
0.0
 40
0.056875001639
100
AcDbArc
 50
243.6322639406
 51
59.99998800929999
  0
ARC
  5
716
330
1E
100
AcDbEntity
  8
0
 62
     3
100
AcDbCircle
 10
81.6534118925203
 20
212.8481637460155
 30
0.0
 40
0.056875001639
100
AcDbArc
 50
183.6322212897999
 51
0.0
  0
ARC
  5
717
330
1E
100
AcDbEntity
  8
0
 62
     3
100
AcDbCircle
 10
82.80184939252029
 20
212.7752610666155
 30
0.0
 40
1.09375
100
AcDbArc
 50
63.63222796839999
 51
176.3677787102
  0
ARC
  5
718
330
1E
100
AcDbEntity
  8
0
 62
     3
100
AcDbCircle
 10
83.95028689252029
 20
214.7644130212155
 30
0.0
 40
1.09375
100
AcDbArc
 50
123.6322332804999
 51
236.3677840224
  0
ARC
  5
719
330
1E
100
AcDbEntity
  8
0
 62
     3
100
AcDbCircle
 10
84.55340578902022
 20
210.2644130212155
 30
0.0
 40
1.0
100
AcDbArc
 50
0.0
 51
89.99998201389999
  0
ARC
  5
71A
330
1E
100
AcDbEntity
  8
0
 62
     3
100
AcDbCircle
 10
81.6534118925203
 20
216.6806622964153
 30
0.0
 40
0.056875001639
100
AcDbArc
 50
3.6322262987
 51
179.9999640277999
  0
LINE
  5
71B
330
1E
100
AcDbEntity
  8
0
 62
     3
100
AcDbLine
 10
143.2442099856894
 20
162.6129237634154
 30
0.0
 11
143.2442099856894
 21
212.1102992517155
 31
0.0
  0
LINE
  5
71C
330
1E
100
AcDbEntity
  8
0
 62
     3
100
AcDbLine
 10
145.7442099856894
 20
156.3636561853155
 30
0.0
 11
145.7442099856894
 21
163.3636561853155
 31
0.0
  0
ARC
  5
71D
330
1E
100
AcDbEntity
  8
0
 62
     3
100
AcDbCircle
 10
144.4317099856894
 20
162.0511561853155
 30
0.0
 40
1.3125
100
AcDbArc
 50
90.00003597219999
 51
180.0000179861
  0
LINE
  5
71E
330
1E
100
AcDbEntity
  8
0
 62
     3
100
AcDbLine
 10
145.7442099856894
 20
151.9647609216155
 30
0.0
 11
145.7442099856894
 21
163.3649074060155
 31
0.0
  0
LINE
  5
71F
330
1E
100
AcDbEntity
  8
0
 62
     3
100
AcDbLine
 10
145.7442099856894
 20
163.3622828943154
 30
0.0
 11
145.7442099856894
 21
156.3624049646155
 31
0.0
  0
LINE
  5
720
330
1E
100
AcDbEntity
  8
0
 62
     3
100
AcDbLine
 10
144.4317099856894
 20
156.3636561853155
 30
0.0
 11
145.7442099856894
 21
156.3636561853155
 31
0.0
  0
LINE
  5
721
330
1E
100
AcDbEntity
  8
0
 62
     3
100
AcDbLine
 10
143.2442099856894
 20
151.9647609216155
 30
0.0
 11
145.7442099856894
 21
151.9647609216155
 31
0.0
  0
LINE
  5
722
330
1E
100
AcDbEntity
  8
0
 62
     3
100
AcDbLine
 10
143.2442099856894
 20
149.3649379236154
 30
0.0
 11
149.7442099856894
 21
149.3649379236154
 31
0.0
  0
LINE
  5
723
330
1E
100
AcDbEntity
  8
0
 62
     3
100
AcDbLine
 10
143.1192099856894
 20
157.6761561853155
 30
0.0
 11
143.1192099856894
 21
162.0511561853155
 31
0.0
  0
ARC
  5
724
330
1E
100
AcDbEntity
  8
0
 62
     3
100
AcDbCircle
 10
144.4317099856894
 20
157.6761561853155
 30
0.0
 40
1.3125
100
AcDbArc
 50
180.0000179861
 51
270.0
  0
ARC
  5
725
330
1E
100
AcDbEntity
  8
0
 62
     3
100
AcDbCircle
 10
146.7442405032894
 20
156.3649074060155
 30
0.0
 40
1.0
100
AcDbArc
 50
179.9999640277999
 51
269.9999460416999
  0
LINE
  5
726
330
1E
100
AcDbEntity
  8
0
 62
     3
100
AcDbLine
 10
145.7442099856894
 20
155.3649074060155
 30
0.0
 11
149.7442099856894
 21
155.3649074060155
 31
0.0
  0
LINE
  5
727
330
1E
100
AcDbEntity
  8
0
 62
     3
100
AcDbLine
 10
144.4317099856894
 20
163.3636561853155
 30
0.0
 11
145.7442099856894
 21
163.3636561853155
 31
0.0
  0
LINE
  5
728
330
1E
100
AcDbEntity
  8
0
 62
     3
100
AcDbLine
 10
144.2442099856894
 20
163.3649074060155
 30
0.0
 11
145.7442099856894
 21
163.3649074060155
 31
0.0
  0
ARC
  5
729
330
1E
100
AcDbEntity
  8
0
 62
     3
100
AcDbCircle
 10
144.2442405032894
 20
164.3649074060155
 30
0.0
 40
1.0
100
AcDbArc
 50
179.9999640277999
 51
269.9999460416999
  0
ARC
  5
72A
330
1E
100
AcDbEntity
  8
0
 62
     3
100
AcDbCircle
 10
148.5441977785893
 20
186.5648585779154
 30
0.0
 40
10.0
100
AcDbArc
 50
142.53708677
 51
217.4628412856999
  0
LINE
  5
72B
330
1E
100
AcDbEntity
  8
0
 62
     3
100
AcDbLine
 10
139.5399253176894
 20
190.6718226892153
 30
0.0
 11
139.5399253176894
 21
182.5344630700154
 31
0.0
  0
LINE
  5
72C
330
1E
100
AcDbEntity
  8
0
 62
     3
100
AcDbLine
 10
139.7990805910893
 20
191.0643397790155
 30
0.0
 11
139.7990805910893
 21
181.9816371423154
 31
0.0
  0
LINE
  5
72D
330
1E
100
AcDbEntity
  8
0
 62
     3
100
AcDbLine
 10
142.6442038821894
 20
180.3648768884155
 30
0.0
 11
142.6442038821894
 21
192.7648707849155
 31
0.0
  0
LINE
  5
72E
330
1E
100
AcDbEntity
  8
0
 62
     3
100
AcDbLine
 10
142.6442343996894
 20
180.4917079431155
 30
0.0
 11
140.5998313235893
 21
180.4917079431155
 31
0.0
  0
LINE
  5
72F
330
1E
100
AcDbEntity
  8
0
 62
     3
100
AcDbLine
 10
142.6442343996894
 20
180.6491176111154
 30
0.0
 11
140.4701926516894
 21
180.6491176111154
 31
0.0
  0
LINE
  5
730
330
1E
100
AcDbEntity
  8
0
 62
     3
100
AcDbLine
 10
142.6442343996894
 20
180.8672572595154
 30
0.0
 11
140.4701926516894
 21
180.8672572595154
 31
0.0
  0
LINE
  5
731
330
1E
100
AcDbEntity
  8
0
 62
     3
100
AcDbLine
 10
142.6442343996894
 20
181.1438380700154
 30
0.0
 11
140.4701926516894
 21
181.1438380700154
 31
0.0
  0
LINE
  5
732
330
1E
100
AcDbEntity
  8
0
 62
     3
100
AcDbLine
 10
142.6442343996894
 20
181.4760524255155
 30
0.0
 11
140.4701926516894
 21
181.4760524255155
 31
0.0
  0
LINE
  5
733
330
1E
100
AcDbEntity
  8
0
 62
     3
100
AcDbLine
 10
142.6442343996894
 20
181.8604823571155
 30
0.0
 11
140.4701926516894
 21
181.8604823571155
 31
0.0
  0
LINE
  5
734
330
1E
100
AcDbEntity
  8
0
 62
     3
100
AcDbLine
 10
142.6442343996894
 20
182.2931910974155
 30
0.0
 11
140.4701926516894
 21
182.2931910974155
 31
0.0
  0
LINE
  5
735
330
1E
100
AcDbEntity
  8
0
 62
     3
100
AcDbLine
 10
140.8448569582894
 20
180.3648768884155
 30
0.0
 11
142.6442038821894
 21
180.3648768884155
 31
0.0
  0
ARC
  5
736
330
1E
100
AcDbEntity
  8
0
 62
     3
100
AcDbCircle
 10
140.8448569582894
 20
180.6648646814154
 30
0.0
 40
0.2999999522999999
100
AcDbArc
 50
217.4629678715
 51
270.0001272691
  0
LINE
  5
737
330
1E
100
AcDbEntity
  8
0
 62
     3
100
AcDbLine
 10
142.6442038821894
 20
180.5648890954154
 30
0.0
 11
143.2442099856894
 21
180.5648890954154
 31
0.0
  0
LINE
  5
738
330
1E
100
AcDbEntity
  8
0
 62
     3
100
AcDbLine
 10
140.4701926516894
 20
188.7181788904154
 30
0.0
 11
142.6442038821894
 21
188.7181788904154
 31
0.0
  0
LINE
  5
739
330
1E
100
AcDbEntity
  8
0
 62
     3
100
AcDbLine
 10
140.4701926516894
 20
188.1189052087155
 30
0.0
 11
142.6442038821894
 21
188.1189052087155
 31
0.0
  0
LINE
  5
73A
330
1E
100
AcDbEntity
  8
0
 62
     3
100
AcDbLine
 10
140.4701926516894
 20
187.5037318689154
 30
0.0
 11
142.6442038821894
 21
187.5037318689154
 31
0.0
  0
LINE
  5
73B
330
1E
100
AcDbEntity
  8
0
 62
     3
100
AcDbLine
 10
140.4701926516894
 20
186.8788844568154
 30
0.0
 11
142.6442038821894
 21
186.8788844568154
 31
0.0
  0
LINE
  5
73C
330
1E
100
AcDbEntity
  8
0
 62
     3
100
AcDbLine
 10
142.6442343996894
 20
182.7697230798154
 30
0.0
 11
140.4701926516894
 21
182.7697230798154
 31
0.0
  0
LINE
  5
73D
330
1E
100
AcDbEntity
  8
0
 62
     3
100
AcDbLine
 10
142.6442343996894
 20
183.2852260095155
 30
0.0
 11
140.4701926516894
 21
183.2852260095155
 31
0.0
  0
LINE
  5
73E
330
1E
100
AcDbEntity
  8
0
 62
     3
100
AcDbLine
 10
142.6442343996894
 20
183.8343593103155
 30
0.0
 11
140.4701926516894
 21
183.8343593103155
 31
0.0
  0
LINE
  5
73F
330
1E
100
AcDbEntity
  8
0
 62
     3
100
AcDbLine
 10
142.6442343996894
 20
184.4115077478155
 30
0.0
 11
140.4701926516894
 21
184.4115077478155
 31
0.0
  0
LINE
  5
740
330
1E
100
AcDbEntity
  8
0
 62
     3
100
AcDbLine
 10
142.6442343996894
 20
185.0107509118154
 30
0.0
 11
140.4701926516894
 21
185.0107509118154
 31
0.0
  0
LINE
  5
741
330
1E
100
AcDbEntity
  8
0
 62
     3
100
AcDbLine
 10
142.6442343996894
 20
185.6259242517155
 30
0.0
 11
140.4701926516894
 21
185.6259242517155
 31
0.0
  0
LINE
  5
742
330
1E
100
AcDbEntity
  8
0
 62
     3
100
AcDbLine
 10
142.6442343996894
 20
186.2507716638154
 30
0.0
 11
140.4701926516894
 21
186.2507716638154
 31
0.0
  0
LINE
  5
743
330
1E
100
AcDbEntity
  8
0
 62
     3
100
AcDbLine
 10
140.4701926516894
 20
192.2623988611154
 30
0.0
 11
142.6442038821894
 21
192.2623988611154
 31
0.0
  0
LINE
  5
744
330
1E
100
AcDbEntity
  8
0
 62
     3
100
AcDbLine
 10
140.4701926516894
 20
190.3599330407154
 30
0.0
 11
142.6442038821894
 21
190.3599330407154
 31
0.0
  0
LINE
  5
745
330
1E
100
AcDbEntity
  8
0
 62
     3
100
AcDbLine
 10
140.4701926516894
 20
189.2953273279155
 30
0.0
 11
142.6442038821894
 21
189.2953273279155
 31
0.0
  0
LINE
  5
746
330
1E
100
AcDbEntity
  8
0
 62
     3
100
AcDbLine
 10
140.4701926516894
 20
189.8444606286155
 30
0.0
 11
142.6442038821894
 21
189.8444606286155
 31
0.0
  0
LINE
  5
747
330
1E
100
AcDbEntity
  8
0
 62
     3
100
AcDbLine
 10
140.8448569582894
 20
192.7648707849155
 30
0.0
 11
142.6442038821894
 21
192.7648707849155
 31
0.0
  0
LINE
  5
748
330
1E
100
AcDbEntity
  8
0
 62
     3
100
AcDbLine
 10
140.5998313235893
 20
192.6379481775154
 30
0.0
 11
142.6442038821894
 21
192.6379481775154
 31
0.0
  0
LINE
  5
749
330
1E
100
AcDbEntity
  8
0
 62
     3
100
AcDbLine
 10
140.4701926516894
 20
192.4805385095154
 30
0.0
 11
142.6442038821894
 21
192.4805385095154
 31
0.0
  0
LINE
  5
74A
330
1E
100
AcDbEntity
  8
0
 62
     3
100
AcDbLine
 10
140.4701926516894
 20
191.9858180505155
 30
0.0
 11
142.6442038821894
 21
191.9858180505155
 31
0.0
  0
LINE
  5
74B
330
1E
100
AcDbEntity
  8
0
 62
     3
100
AcDbLine
 10
140.4701926516894
 20
191.6536036950154
 30
0.0
 11
142.6442038821894
 21
191.6536036950154
 31
0.0
  0
LINE
  5
74C
330
1E
100
AcDbEntity
  8
0
 62
     3
100
AcDbLine
 10
140.4701926516894
 20
191.2691737634155
 30
0.0
 11
142.6442038821894
 21
191.2691737634155
 31
0.0
  0
LINE
  5
74D
330
1E
100
AcDbEntity
  8
0
 62
     3
100
AcDbLine
 10
140.4701926516894
 20
190.8364650232154
 30
0.0
 11
142.6442038821894
 21
190.8364650232154
 31
0.0
  0
ARC
  5
74E
330
1E
100
AcDbEntity
  8
0
 62
     3
100
AcDbCircle
 10
140.8448569582894
 20
192.4648524743154
 30
0.0
 40
0.2999999522999999
100
AcDbArc
 50
89.99992737239997
 51
142.5370321285
  0
LINE
  5
74F
330
1E
100
AcDbEntity
  8
0
 62
     3
100
AcDbLine
 10
142.6442038821894
 20
192.5648890954155
 30
0.0
 11
143.2442099856894
 21
192.5648890954155
 31
0.0
  0
LINE
  5
750
330
1E
100
AcDbEntity
  8
0
 62
     3
100
AcDbLine
 10
143.1192099856894
 20
212.6760951501155
 30
0.0
 11
143.1192099856894
 21
217.0510951501155
 31
0.0
  0
LINE
  5
751
330
1E
100
AcDbEntity
  8
0
 62
     3
100
AcDbLine
 10
145.7442099856894
 20
211.3635951501155
 30
0.0
 11
145.7442099856894
 21
218.3635951501155
 31
0.0
  0
LINE
  5
752
330
1E
100
AcDbEntity
  8
0
 62
     3
100
AcDbLine
 10
145.7442099856894
 20
211.3649074060155
 30
0.0
 11
145.7442099856894
 21
217.8649074060154
 31
0.0
  0
LINE
  5
753
330
1E
100
AcDbEntity
  8
0
 62
     3
100
AcDbLine
 10
144.4317099856894
 20
211.3635951501155
 30
0.0
 11
145.7442099856894
 21
211.3635951501155
 31
0.0
  0
LINE
  5
754
330
1E
100
AcDbEntity
  8
0
 62
     3
100
AcDbLine
 10
144.2442099856894
 20
211.3649074060155
 30
0.0
 11
145.7442099856894
 21
211.3649074060155
 31
0.0
  0
ARC
  5
755
330
1E
100
AcDbEntity
  8
0
 62
     3
100
AcDbCircle
 10
144.2442405032894
 20
210.3649074060155
 30
0.0
 40
1.0
100
AcDbArc
 50
89.99998201389999
 51
179.9999640277999
  0
ARC
  5
756
330
1E
100
AcDbEntity
  8
0
 62
     3
100
AcDbCircle
 10
144.4317099856894
 20
212.6760951501155
 30
0.0
 40
1.3125
100
AcDbArc
 50
180.0000179861
 51
270.0
  0
LINE
  5
757
330
1E
100
AcDbEntity
  8
0
 62
     3
100
AcDbLine
 10
144.4317099856894
 20
218.3635951501155
 30
0.0
 11
145.7442099856894
 21
218.3635951501155
 31
0.0
  0
LINE
  5
758
330
1E
100
AcDbEntity
  8
0
 62
     3
100
AcDbLine
 10
144.2442099856894
 20
218.8649074060155
 30
0.0
 11
149.7442099856894
 21
218.8649074060155
 31
0.0
  0
LINE
  5
759
330
1E
100
AcDbEntity
  8
0
 62
     3
100
AcDbLine
 10
143.2442099856894
 20
217.5213099939155
 30
0.0
 11
143.2442099856894
 21
217.8649074060154
 31
0.0
  0
ARC
  5
75A
330
1E
100
AcDbEntity
  8
0
 62
     3
100
AcDbCircle
 10
144.2442405032894
 20
217.8649074060154
 30
0.0
 40
1.0
100
AcDbArc
 50
89.99998201389999
 51
179.9999640277999
  0
ARC
  5
75B
330
1E
100
AcDbEntity
  8
0
 62
     3
100
AcDbCircle
 10
144.4317099856894
 20
217.0510951501155
 30
0.0
 40
1.3125
100
AcDbArc
 50
90.00003597219999
 51
180.0000179861
  0
ARC
  5
75C
330
1E
100
AcDbEntity
  8
0
 62
     3
100
AcDbCircle
 10
150.7442710207894
 20
222.2643519861154
 30
0.0
 40
0.5
100
AcDbArc
 50
89.99998201389999
 51
179.9999093863
  0
ARC
  5
75D
330
1E
100
AcDbEntity
  8
0
 62
     3
100
AcDbCircle
 10
146.7442405032894
 20
217.8649074060154
 30
0.0
 40
1.0
100
AcDbArc
 50
89.99998201389999
 51
179.9999640277999
  0
ARC
  5
75E
330
1E
100
AcDbEntity
  8
0
 62
     3
100
AcDbCircle
 10
150.4442832278894
 20
221.9643336755155
 30
0.0
 40
0.1999999285
100
AcDbArc
 50
179.9999093863
 51
269.9999460416999
  0
ARC
  5
75F
330
1E
100
AcDbEntity
  8
0
 62
     3
100
AcDbCircle
 10
150.4442832278894
 20
219.5643397790155
 30
0.0
 40
0.1999999285
100
AcDbArc
 50
89.99998201389999
 51
179.9999093863
  0
LINE
  5
760
330
1E
100
AcDbEntity
  8
0
 62
     3
100
AcDbLine
 10
150.2443015383895
 20
222.2644740564153
 30
0.0
 11
150.2443015383895
 21
221.9644862634154
 31
0.0
  0
LINE
  5
761
330
1E
100
AcDbEntity
  8
0
 62
     3
100
AcDbLine
 10
150.2443015383895
 20
219.5644618493154
 30
0.0
 11
150.2443015383895
 21
218.7644740564155
 31
0.0
  0
ARC
  5
762
330
1E
100
AcDbEntity
  8
0
 62
     3
100
AcDbCircle
 10
149.9442832278893
 20
218.5643397790155
 30
0.0
 40
0.1999999285
100
AcDbArc
 50
89.99998201389999
 51
179.9999640277999
  0
LINE
  5
763
330
1E
100
AcDbEntity
  8
0
 62
     3
100
AcDbLine
 10
91.10060122362025
 20
252.7755213282417
 30
0.0
 11
91.10060122362025
 21
278.7755213282415
 31
0.0
  0
LINE
  5
764
330
1E
100
AcDbEntity
  8
0
 62
     3
100
AcDbLine
 10
90.2006988798203
 20
252.7755213282417
 30
0.0
 11
90.2006988798203
 21
278.7755213282415
 31
0.0
  0
LINE
  5
765
330
1E
100
AcDbEntity
  8
0
 62
     3
100
AcDbLine
 10
91.40065005172028
 20
253.0755091212418
 30
0.0
 11
91.40065005172028
 21
278.4755030177417
 31
0.0
  0
LINE
  5
766
330
1E
100
AcDbEntity
  8
0
 62
     3
100
AcDbLine
 10
89.70069887982033
 20
252.8755274317417
 30
0.0
 11
89.70069887982033
 21
278.6755152247418
 31
0.0
  0
LINE
  5
767
330
1E
100
AcDbEntity
  8
0
 62
     3
100
AcDbLine
 10
90.2006988798203
 20
252.8755274317417
 30
0.0
 11
90.2006988798203
 21
278.6755152247418
 31
0.0
  0
LINE
  5
768
330
1E
100
AcDbEntity
  8
0
 62
     3
100
AcDbLine
 10
89.70053103322033
 20
278.2757654688416
 30
0.0
 11
89.70053103322033
 21
253.2757654688416
 31
0.0
  0
LINE
  5
769
330
1E
100
AcDbEntity
  8
0
 62
     3
100
AcDbLine
 10
85.70056155072029
 20
252.2759790919418
 30
0.0
 11
85.70056155072029
 21
280.0755091212418
 31
0.0
  0
LINE
  5
76A
330
1E
100
AcDbEntity
  8
0
 62
     3
100
AcDbLine
 10
88.70053103322034
 20
278.5755701563417
 30
0.0
 11
88.70053103322034
 21
252.9757166407417
 31
0.0
  0
LINE
  5
76B
330
1E
100
AcDbEntity
  8
0
 62
     3
100
AcDbLine
 10
86.7005615507203
 20
278.5755701563417
 30
0.0
 11
86.7005615507203
 21
252.9757166407417
 31
0.0
  0
ARC
  5
76C
330
1E
100
AcDbEntity
  8
0
 62
     3
100
AcDbCircle
 10
87.0015564238203
 20
253.8760767481416
 30
0.0
 40
0.2999999522999999
100
AcDbArc
 50
89.99998201389999
 51
179.9999093863
  0
ARC
  5
76D
330
1E
100
AcDbEntity
  8
0
 62
     3
100
AcDbCircle
 10
88.40170290822033
 20
253.8760767481416
 30
0.0
 40
0.2999999522999999
100
AcDbArc
 50
359.9999266892
 51
89.99987273089994
  0
LINE
  5
76E
330
1E
100
AcDbEntity
  8
0
 62
     3
100
AcDbLine
 10
85.1541443144203
 20
246.9636927149415
 30
0.0
 11
85.1541443144203
 21
248.2761927149415
 31
0.0
  0
LINE
  5
76F
330
1E
100
AcDbEntity
  8
0
 62
     3
100
AcDbLine
 10
85.55230715622025
 20
252.2762232325415
 30
0.0
 11
85.55230715622025
 21
246.7762232325418
 31
0.0
  0
ARC
  5
770
330
1E
100
AcDbEntity
  8
0
 62
     3
100
AcDbCircle
 10
83.84164431442028
 20
246.9636927149415
 30
0.0
 40
1.3125
100
AcDbArc
 50
270.0000179861
 51
0.0
  0
ARC
  5
771
330
1E
100
AcDbEntity
  8
0
 62
     3
100
AcDbCircle
 10
84.55236819142028
 20
246.7763147852417
 30
0.0
 40
1.0
100
AcDbArc
 50
270.0000726275999
 51
0.0
  0
LINE
  5
772
330
1E
100
AcDbEntity
  8
0
 62
     3
100
AcDbLine
 10
84.55230715622025
 20
245.7762232325416
 30
0.0
 11
84.35983279102032
 21
245.7762232325416
 31
0.0
  0
ARC
  5
773
330
1E
100
AcDbEntity
  8
0
 62
     3
100
AcDbCircle
 10
86.5015564238203
 20
252.9761744044416
 30
0.0
 40
0.1999999285
100
AcDbArc
 50
270.0000179861
 51
359.9998547448
  0
LINE
  5
774
330
1E
100
AcDbEntity
  8
0
 62
     3
100
AcDbLine
 10
86.5003662382203
 20
252.7757654688417
 30
0.0
 11
85.70056155072029
 21
252.7757654688417
 31
0.0
  0
LINE
  5
775
330
1E
100
AcDbEntity
  8
0
 62
     3
100
AcDbLine
 10
89.70069887982033
 20
252.8755274317417
 30
0.0
 11
90.2006988798203
 21
252.8755274317417
 31
0.0
  0
ARC
  5
776
330
1E
100
AcDbEntity
  8
0
 62
     3
100
AcDbCircle
 10
89.20150759572033
 20
253.2762232325417
 30
0.0
 40
0.5
100
AcDbArc
 50
270.0000179861
 51
359.9998547448
  0
ARC
  5
777
330
1E
100
AcDbEntity
  8
0
 62
     3
100
AcDbCircle
 10
88.90170290822032
 20
252.9761744044416
 30
0.0
 40
0.1999999285
100
AcDbArc
 50
180.0000906136999
 51
269.9999633446
  0
LINE
  5
778
330
1E
100
AcDbEntity
  8
0
 62
     3
100
AcDbLine
 10
89.20053103322031
 20
252.7757654688417
 30
0.0
 11
88.90048220502029
 21
252.7757654688417
 31
0.0
  0
LINE
  5
779
330
1E
100
AcDbEntity
  8
0
 62
     3
100
AcDbLine
 10
91.10064943912027
 20
252.7754165245418
 30
0.0
 11
91.40069129812031
 21
253.0754486717418
 31
0.0
  0
LINE
  5
77A
330
1E
100
AcDbEntity
  8
0
 62
     3
100
AcDbLine
 10
90.2006988798203
 20
252.7755213282417
 30
0.0
 11
91.10060122362025
 21
252.7755213282417
 31
0.0
  0
LINE
  5
77B
330
1E
100
AcDbEntity
  8
0
 62
     3
100
AcDbLine
 10
88.4004822050203
 20
254.1756678126418
 30
0.0
 11
87.00036623822029
 21
254.1756678126418
 31
0.0
  0
LINE
  5
77C
330
1E
100
AcDbEntity
  8
0
 62
     3
100
AcDbLine
 10
85.20184328902024
 20
280.7753992579417
 30
0.0
 11
85.20184328902024
 21
280.2756433985416
 31
0.0
  0
LINE
  5
77D
330
1E
100
AcDbEntity
  8
0
 62
     3
100
AcDbLine
 10
88.4004822050203
 20
277.3755884669418
 30
0.0
 11
87.00036623822029
 21
277.3755884669418
 31
0.0
  0
ARC
  5
77E
330
1E
100
AcDbEntity
  8
0
 62
     3
100
AcDbCircle
 10
86.5015564238203
 20
278.5757837794418
 30
0.0
 40
0.1999999285
100
AcDbArc
 50
359.9999266892
 51
89.99987273089994
  0
ARC
  5
77F
330
1E
100
AcDbEntity
  8
0
 62
     3
100
AcDbCircle
 10
87.0015564238203
 20
277.6758814356416
 30
0.0
 40
0.2999999522999999
100
AcDbArc
 50
180.0000906136999
 51
269.9999633446
  0
ARC
  5
780
330
1E
100
AcDbEntity
  8
0
 62
     3
100
AcDbCircle
 10
85.50033572072033
 20
280.0758142970418
 30
0.0
 40
0.1999999285
100
AcDbArc
 50
0.002768047553
 51
90.0054461652
  0
LINE
  5
781
330
1E
100
AcDbEntity
  8
0
 62
     3
100
AcDbLine
 10
86.5003662382203
 20
278.7757349513418
 30
0.0
 11
85.70056155072029
 21
278.7757349513418
 31
0.0
  0
LINE
  5
782
330
1E
100
AcDbEntity
  8
0
 62
     3
100
AcDbLine
 10
89.70069887982033
 20
278.6755152247418
 30
0.0
 11
90.2006988798203
 21
278.6755152247418
 31
0.0
  0
ARC
  5
783
330
1E
100
AcDbEntity
  8
0
 62
     3
100
AcDbCircle
 10
89.20150759572033
 20
278.2759790919417
 30
0.0
 40
0.5
100
AcDbArc
 50
359.9999266892
 51
89.99987273089994
  0
ARC
  5
784
330
1E
100
AcDbEntity
  8
0
 62
     3
100
AcDbCircle
 10
88.90170290822032
 20
278.5757837794418
 30
0.0
 40
0.1999999285
100
AcDbArc
 50
89.99998201389999
 51
179.9999093863
  0
ARC
  5
785
330
1E
100
AcDbEntity
  8
0
 62
     3
100
AcDbCircle
 10
88.40170290822033
 20
277.6758814356416
 30
0.0
 40
0.2999999522999999
100
AcDbArc
 50
270.0000179861
 51
359.9998547448
  0
LINE
  5
786
330
1E
100
AcDbEntity
  8
0
 62
     3
100
AcDbLine
 10
89.20053103322031
 20
278.7757349513418
 30
0.0
 11
88.90048220502029
 21
278.7757349513418
 31
0.0
  0
LINE
  5
787
330
1E
100
AcDbEntity
  8
0
 62
     3
100
AcDbLine
 10
91.4010117422203
 20
278.4750143128416
 30
0.0
 11
91.10096988322032
 21
278.7750464600417
 31
0.0
  0
LINE
  5
788
330
1E
100
AcDbEntity
  8
0
 62
     3
100
AcDbLine
 10
91.10060122362025
 20
278.7755213282415
 30
0.0
 11
90.2006988798203
 21
278.7755213282415
 31
0.0
  0
LINE
  5
789
330
1E
100
AcDbEntity
  8
0
 62
     3
100
AcDbLine
 10
174.3442771242893
 20
190.5311366540155
 30
0.0
 11
174.3442771242893
 21
202.7643519861154
 31
0.0
  0
ARC
  5
78A
330
1E
100
AcDbEntity
  8
0
 62
     3
100
AcDbCircle
 10
175.3442771242893
 20
164.7643519861154
 30
0.0
 40
1.0
100
AcDbArc
 50
179.9999640277999
 51
269.9999460416999
  0
LINE
  5
78B
330
1E
100
AcDbEntity
  8
0
  6
CENTER
 62
     3
100
AcDbLine
 10
163.2442405032894
 20
167.5546351892155
 30
0.0
 11
163.2442405032894
 21
199.2177821618154
 31
0.0
  0
LINE
  5
78C
330
1E
100
AcDbEntity
  8
0
 62
     3
100
AcDbLine
 10
174.3442771242893
 20
164.7643519861154
 30
0.0
 11
174.3442771242893
 21
176.9975673181155
 31
0.0
  0
ARC
  5
78D
330
1E
100
AcDbEntity
  8
0
 62
     3
100
AcDbCircle
 10
173.4442832278894
 20
154.9652797204155
 30
0.0
 40
0.2999999522999999
100
AcDbArc
 50
0.0
 51
89.99998201389999
  0
LINE
  5
78E
330
1E
100
AcDbEntity
  8
0
 62
     3
100
AcDbLine
 10
163.2442893500893
 20
188.4642958952154
 30
0.0
 11
159.2442893425894
 21
185.9965090636153
 31
0.0
  0
LINE
  5
78F
330
1E
100
AcDbEntity
  8
0
 62
     3
100
AcDbLine
 10
159.2442307334892
 20
181.5320639575154
 30
0.0
 11
163.2442307408894
 21
179.0642771258155
 31
0.0
  0
LINE
  5
790
330
1E
100
AcDbEntity
  8
0
 62
     3
100
AcDbLine
 10
159.2442252444894
 20
181.5320979577154
 30
0.0
 11
159.2442252444894
 21
185.9964992029155
 31
0.0
  0
LINE
  5
791
330
1E
100
AcDbEntity
  8
0
 62
     3
100
AcDbLine
 10
167.2442252444894
 20
185.9964992029155
 30
0.0
 11
167.2442252444894
 21
181.5320979577154
 31
0.0
  0
LINE
  5
792
330
1E
100
AcDbEntity
  8
0
 62
     3
100
AcDbLine
 10
163.2442961171894
 20
179.0643417971153
 30
0.0
 11
167.2442961246894
 21
181.5321286288154
 31
0.0
  0
LINE
  5
793
330
1E
100
AcDbEntity
  8
0
 62
     3
100
AcDbLine
 10
167.2442405529894
 20
185.9964783765155
 30
0.0
 11
163.2442275592893
 21
188.4642732199155
 31
0.0
  0
LINE
  5
794
330
1E
100
AcDbEntity
  8
0
 62
     3
100
AcDbLine
 10
177.7442405032894
 20
151.7643519861153
 30
0.0
 11
178.2442405032892
 21
151.7643519861153
 31
0.0
  0
LINE
  5
795
330
1E
100
AcDbEntity
  8
0
 62
     3
100
AcDbLine
 10
175.3442771242893
 20
163.7643519861154
 30
0.0
 11
177.7442405032894
 21
163.7643519861154
 31
0.0
  0
ARC
  5
796
330
1E
100
AcDbEntity
  8
0
 62
     3
100
AcDbCircle
 10
175.3442771242893
 20
202.7643519861154
 30
0.0
 40
1.0
100
AcDbArc
 50
89.99998201389999
 51
179.9999640277999
  0
ARC
  5
797
330
1E
100
AcDbEntity
  8
0
 62
     3
100
AcDbCircle
 10
151.3443076418893
 20
220.0643397790155
 30
0.0
 40
0.2999999522999999
100
AcDbArc
 50
270.0000726275999
 51
0.0
  0
ARC
  5
798
330
1E
100
AcDbEntity
  8
0
 62
     3
100
AcDbCircle
 10
151.3443076418893
 20
221.4643336755155
 30
0.0
 40
0.2999999522999999
100
AcDbArc
 50
0.0
 51
89.99998201389999
  0
LINE
  5
799
330
1E
100
AcDbEntity
  8
0
 62
     3
100
AcDbLine
 10
151.6442954348894
 20
221.4644862634155
 30
0.0
 11
151.6442954348894
 21
220.0644618493154
 31
0.0
  0
LINE
  5
79A
330
1E
100
AcDbEntity
  8
0
  6
CENTER
 62
     3
100
AcDbLine
 10
163.2442405032894
 20
217.0335475427155
 30
0.0
 11
163.2442405032894
 21
224.8470241052153
 31
0.0
  0
LINE
  5
79B
330
1E
100
AcDbEntity
  8
0
 62
     3
100
AcDbLine
 10
178.2442405032892
 20
208.2643519861155
 30
0.0
 11
178.2442405032892
 21
213.2643519861154
 31
0.0
  0
LINE
  5
79C
330
1E
100
AcDbEntity
  8
0
 62
     3
100
AcDbLine
 10
175.3442771242893
 20
203.7643519861155
 30
0.0
 11
177.7442405032894
 21
203.7643519861155
 31
0.0
  0
LINE
  5
79D
330
1E
100
AcDbEntity
  8
0
 62
     3
100
AcDbLine
 10
177.7442405032894
 20
208.2643519861155
 30
0.0
 11
178.2442405032892
 21
208.2643519861155
 31
0.0
  0
LINE
  5
79E
330
1E
100
AcDbEntity
  8
0
 62
     3
100
AcDbLine
 10
177.7442405032894
 20
213.2643519861154
 30
0.0
 11
178.2442405032892
 21
213.2643519861154
 31
0.0
  0
ARC
  5
79F
330
1E
100
AcDbEntity
  8
0
 62
     3
100
AcDbCircle
 10
175.7442710207894
 20
222.2643519861154
 30
0.0
 40
0.5
100
AcDbArc
 50
0.0
 51
89.99998201389999
  0
ARC
  5
7A0
330
1E
100
AcDbEntity
  8
0
 62
     3
100
AcDbCircle
 10
176.0442588137894
 20
221.9643641931154
 30
0.0
 40
0.1999999285
100
AcDbArc
 50
270.0000726275999
 51
0.0
  0
ARC
  5
7A1
330
1E
100
AcDbEntity
  8
0
 62
     3
100
AcDbCircle
 10
176.0442588137894
 20
219.5643397790155
 30
0.0
 40
0.1999999285
100
AcDbArc
 50
0.0
 51
89.99998201389999
  0
ARC
  5
7A2
330
1E
100
AcDbEntity
  8
0
 62
     3
100
AcDbCircle
 10
175.1442649172893
 20
220.0643397790155
 30
0.0
 40
0.2999999522999999
100
AcDbArc
 50
179.9999093863
 51
269.9999460416999
  0
ARC
  5
7A3
330
1E
100
AcDbEntity
  8
0
 62
     3
100
AcDbCircle
 10
175.1442649172893
 20
221.4643641931155
 30
0.0
 40
0.2999999522999999
100
AcDbArc
 50
89.99998201389999
 51
179.9999093863
  0
LINE
  5
7A4
330
1E
100
AcDbEntity
  8
0
 62
     3
100
AcDbLine
 10
176.2442710207894
 20
222.2644740564153
 30
0.0
 11
176.2442710207894
 21
221.9644862634154
 31
0.0
  0
LINE
  5
7A5
330
1E
100
AcDbEntity
  8
0
 62
     3
100
AcDbLine
 10
176.2442710207894
 20
219.5644618493154
 30
0.0
 11
176.2442710207894
 21
218.7644740564155
 31
0.0
  0
LINE
  5
7A6
330
1E
100
AcDbEntity
  8
0
 62
     3
100
AcDbLine
 10
174.8442771242894
 20
221.4644862634155
 30
0.0
 11
174.8442771242894
 21
220.0644618493154
 31
0.0
  0
ARC
  5
7A7
330
1E
100
AcDbEntity
  8
0
 62
     3
100
AcDbCircle
 10
177.5442588137894
 20
218.5643397790155
 30
0.0
 40
0.1999999285
100
AcDbArc
 50
0.0
 51
89.99998201389999
  0
TEXT
  5
7BD
330
1E
100
AcDbEntity
  8
0
 62
     7
100
AcDbText
 10
146.0
 20
55.00000295525
 30
0.0
 40
2.999994089499998
  1
HS1B-024R-*
 11
146.0
 21
56.5
 31
0.0
100
AcDbText
 73
     2
  0
TEXT
  5
7BE
330
1E
100
AcDbEntity
  8
0
 62
     7
100
AcDbText
 10
146.0
 20
50.00000295524991
 30
0.0
 40
2.999994089499998
  1
HS1B-114R-*
 11
146.0
 21
51.4999999999999
 31
0.0
100
AcDbText
 73
     2
  0
ENDSEC
  0
SECTION
  2
OBJECTS
  0
DICTIONARY
  5
C
330
0
100
AcDbDictionary
281
     1
  3
ACAD_GROUP
350
D
  3
ACAD_LAYOUT
350
19
  3
ACAD_MLINESTYLE
350
16
  3
ACAD_PLOTSETTINGS
350
18
  3
ACAD_PLOTSTYLENAME
350
E
  3
AcDbVariableDictionary
350
7C0
  0
DICTIONARY
  5
D
102
{ACAD_REACTORS
330
C
102
}
330
C
100
AcDbDictionary
281
     1
  0
DICTIONARY
  5
19
102
{ACAD_REACTORS
330
C
102
}
330
C
100
AcDbDictionary
281
     1
  3
Model
350
21
  3
ﾚｲｱｳﾄ1
350
1D
  0
DICTIONARY
  5
16
102
{ACAD_REACTORS
330
C
102
}
330
C
100
AcDbDictionary
281
     1
  3
Standard
350
17
  0
DICTIONARY
  5
18
102
{ACAD_REACTORS
330
C
102
}
330
C
100
AcDbDictionary
281
     1
  0
ACDBDICTIONARYWDFLT
  5
E
102
{ACAD_REACTORS
330
C
102
}
330
C
100
AcDbDictionary
281
     1
  3
Normal
350
F
100
AcDbDictionaryWithDefault
340
F
  0
DICTIONARY
  5
7C0
102
{ACAD_REACTORS
330
C
102
}
330
C
100
AcDbDictionary
281
     1
  3
DIMASSOC
350
7C1
  0
LAYOUT
  5
21
102
{ACAD_REACTORS
330
19
102
}
330
19
100
AcDbPlotSettings
  1

  2
none_device
  4
Letter_(8.50_x_11.00_Inches)
  6

 40
6.349999904632568
 41
6.349999904632568
 42
6.350006103515625
 43
6.350006103515625
 44
215.8999938964843
 45
279.3999938964843
 46
0.0
 47
0.0
 48
0.0
 49
0.0
140
0.0
141
0.0
142
1.0
143
1.0
 70
 11952
 72
     0
 73
     1
 74
     0
  7

 75
     0
147
1.0
148
1156.461295866199
149
51.14018186494956
100
AcDbLayout
  1
Model
 70
     1
 71
     0
 10
0.0
 20
0.0
 11
12.0
 21
9.0
 12
0.0
 22
0.0
 32
0.0
 14
0.0
 24
0.0
 34
0.0
 15
0.0
 25
0.0
 35
0.0
146
0.0
 13
0.0
 23
0.0
 33
0.0
 16
1.0
 26
0.0
 36
0.0
 17
0.0
 27
1.0
 37
0.0
 76
     0
330
1E
  0
LAYOUT
  5
1D
102
{ACAD_REACTORS
330
19
102
}
330
19
100
AcDbPlotSettings
  1

  2
C:\Program Files\AutoCAD 2000i\plotters\DWF Classic.pc3
  4

  6

 40
0.0
 41
0.0
 42
0.0
 43
0.0
 44
0.0
 45
0.0
 46
0.0
 47
0.0
 48
0.0
 49
0.0
140
0.0
141
0.0
142
1.0
143
1.0
 70
   688
 72
     0
 73
     0
 74
     5
  7

 75
    16
147
1.0
148
0.0
149
0.0
100
AcDbLayout
  1
ﾚｲｱｳﾄ1
 70
     1
 71
     1
 10
0.0
 20
0.0
 11
12.0
 21
9.0
 12
0.0
 22
0.0
 32
0.0
 14
1.000000000000000E+20
 24
1.000000000000000E+20
 34
1.000000000000000E+20
 15
-1.000000000000000E+20
 25
-1.000000000000000E+20
 35
-1.000000000000000E+20
146
0.0
 13
0.0
 23
0.0
 33
0.0
 16
1.0
 26
0.0
 36
0.0
 17
0.0
 27
1.0
 37
0.0
 76
     0
330
1A
  0
MLINESTYLE
  5
17
102
{ACAD_REACTORS
330
16
102
}
330
16
100
AcDbMlineStyle
  2
STANDARD
 70
     0
  3

 62
   256
 51
90.0
 52
90.0
 71
     2
 49
0.5
 62
   256
  6
BYLAYER
 49
-0.5
 62
   256
  6
BYLAYER
  0
ACDBPLACEHOLDER
  5
F
102
{ACAD_REACTORS
330
E
102
}
330
E
  0
DICTIONARYVAR
  5
7C1
102
{ACAD_REACTORS
330
7C0
102
}
330
7C0
100
DictionaryVariables
280
     0
  1
1
  0
ENDSEC
  0
EOF
