  0
SECTION
  2
HEADER
  9
$ACADVER
  1
AC1015
  9
$ACADMAINTVER
 70
    13
  9
$DWGCODEPAGE
  3
ANSI_932
  9
$INSBASE
 10
0.0
 20
0.0
 30
0.0
  9
$EXTMIN
 10
-0.0248323812458011
 20
-0.000648506279731
 30
-0.0000000000112498
  9
$EXTMAX
 10
210.0294759284704
 20
297.0049868345098
 30
0.0000000000002956
  9
$LIMMIN
 10
-191.2688568115
 20
-3.174999999999998
  9
$LIMMAX
 10
3.174999999999998
 20
291.2585876465
  9
$ORTHOMODE
 70
     0
  9
$REGENMODE
 70
     1
  9
$FILLMODE
 70
     1
  9
$QTEXTMODE
 70
     0
  9
$MIRRTEXT
 70
     0
  9
$LTSCALE
 40
1.0
  9
$ATTMODE
 70
     1
  9
$TEXTSIZE
 40
2.999994039499997
  9
$TRACEWID
 40
0.05
  9
$TEXTSTYLE
  7
STANDARD
  9
$CLAYER
  8
0
  9
$CELTYPE
  6
ByLayer
  9
$CECOLOR
 62
   256
  9
$CELTSCALE
 40
1.0
  9
$DISPSILH
 70
     0
  9
$DIMSCALE
 40
1.0
  9
$DIMASZ
 40
1.9727878465
  9
$DIMEXO
 40
2.539999961899999
  9
$DIMDLI
 40
0.38
  9
$DIMRND
 40
0.0
  9
$DIMDLE
 40
0.0
  9
$DIMEXE
 40
3.809999942799997
  9
$DIMTP
 40
0.0
  9
$DIMTM
 40
0.0
  9
$DIMTXT
 40
2.999994039499997
  9
$DIMCEN
 40
0.09
  9
$DIMTSZ
 40
0.0
  9
$DIMTOL
 70
     0
  9
$DIMLIM
 70
     0
  9
$DIMTIH
 70
     0
  9
$DIMTOH
 70
     1
  9
$DIMSE1
 70
     0
  9
$DIMSE2
 70
     0
  9
$DIMTAD
 70
     0
  9
$DIMZIN
 70
     0
  9
$DIMBLK
  1

  9
$DIMASO
 70
     1
  9
$DIMSHO
 70
     0
  9
$DIMPOST
  1

  9
$DIMAPOST
  1

  9
$DIMALT
 70
     0
  9
$DIMALTD
 70
     2
  9
$DIMALTF
 40
25.4
  9
$DIMLFAC
 40
1.0
  9
$DIMTOFL
 70
     0
  9
$DIMTVP
 40
0.0
  9
$DIMTIX
 70
     0
  9
$DIMSOXD
 70
     0
  9
$DIMSAH
 70
     0
  9
$DIMBLK1
  1

  9
$DIMBLK2
  1

  9
$DIMSTYLE
  2
Standard
  9
$DIMCLRD
 70
     0
  9
$DIMCLRE
 70
     0
  9
$DIMCLRT
 70
     0
  9
$DIMTFAC
 40
1.0
  9
$DIMGAP
 40
0.09
  9
$DIMJUST
 70
     0
  9
$DIMSD1
 70
     0
  9
$DIMSD2
 70
     0
  9
$DIMTOLJ
 70
     1
  9
$DIMTZIN
 70
     0
  9
$DIMALTZ
 70
     0
  9
$DIMALTTZ
 70
     0
  9
$DIMUPT
 70
     0
  9
$DIMDEC
 70
     4
  9
$DIMTDEC
 70
     4
  9
$DIMALTU
 70
     2
  9
$DIMALTTD
 70
     2
  9
$DIMTXSTY
  7
STANDARD
  9
$DIMAUNIT
 70
     0
  9
$DIMADEC
 70
     0
  9
$DIMALTRND
 40
0.0
  9
$DIMAZIN
 70
     0
  9
$DIMDSEP
 70
    46
  9
$DIMATFIT
 70
     3
  9
$DIMFRAC
 70
     0
  9
$DIMLDRBLK
  1

  9
$DIMLUNIT
 70
     2
  9
$DIMLWD
 70
    -2
  9
$DIMLWE
 70
    -2
  9
$DIMTMOVE
 70
     0
  9
$LUNITS
 70
     2
  9
$LUPREC
 70
     3
  9
$SKETCHINC
 40
0.1
  9
$FILLETRAD
 40
0.0625
  9
$AUNITS
 70
     0
  9
$AUPREC
 70
     0
  9
$MENU
  1
ACAD
  9
$ELEVATION
 40
0.0
  9
$PELEVATION
 40
0.0
  9
$THICKNESS
 40
0.0
  9
$LIMCHECK
 70
     0
  9
$CHAMFERA
 40
0.0
  9
$CHAMFERB
 40
0.0
  9
$CHAMFERC
 40
0.0
  9
$CHAMFERD
 40
0.0
  9
$SKPOLY
 70
     0
  9
$TDCREATE
 40
2452310.750532407
  9
$TDUCREATE
 40
2452310.375532407
  9
$TDUPDATE
 40
2453382.695544884
  9
$TDUUPDATE
 40
2453382.320544884
  9
$TDINDWG
 40
0.0042001157
  9
$TDUSRTIMER
 40
0.0041983102
  9
$USRTIMER
 70
     1
  9
$ANGBASE
 50
0.0
  9
$ANGDIR
 70
     0
  9
$PDMODE
 70
     0
  9
$PDSIZE
 40
0.0
  9
$PLINEWID
 40
0.0
  9
$SPLFRAME
 70
     0
  9
$SPLINETYPE
 70
     6
  9
$SPLINESEGS
 70
     8
  9
$HANDSEED
  5
26B
  9
$SURFTAB1
 70
     6
  9
$SURFTAB2
 70
     6
  9
$SURFTYPE
 70
     6
  9
$SURFU
 70
     6
  9
$SURFV
 70
     6
  9
$UCSBASE
  2

  9
$UCSNAME
  2

  9
$UCSORG
 10
0.0
 20
0.0
 30
0.0
  9
$UCSXDIR
 10
1.0
 20
0.0
 30
0.0
  9
$UCSYDIR
 10
0.0
 20
1.0
 30
0.0
  9
$UCSORTHOREF
  2

  9
$UCSORTHOVIEW
 70
     0
  9
$UCSORGTOP
 10
0.0
 20
0.0
 30
0.0
  9
$UCSORGBOTTOM
 10
0.0
 20
0.0
 30
0.0
  9
$UCSORGLEFT
 10
0.0
 20
0.0
 30
0.0
  9
$UCSORGRIGHT
 10
0.0
 20
0.0
 30
0.0
  9
$UCSORGFRONT
 10
0.0
 20
0.0
 30
0.0
  9
$UCSORGBACK
 10
0.0
 20
0.0
 30
0.0
  9
$PUCSBASE
  2

  9
$PUCSNAME
  2

  9
$PUCSORG
 10
0.0
 20
0.0
 30
0.0
  9
$PUCSXDIR
 10
1.0
 20
0.0
 30
0.0
  9
$PUCSYDIR
 10
0.0
 20
1.0
 30
0.0
  9
$PUCSORTHOREF
  2

  9
$PUCSORTHOVIEW
 70
     0
  9
$PUCSORGTOP
 10
0.0
 20
0.0
 30
0.0
  9
$PUCSORGBOTTOM
 10
0.0
 20
0.0
 30
0.0
  9
$PUCSORGLEFT
 10
0.0
 20
0.0
 30
0.0
  9
$PUCSORGRIGHT
 10
0.0
 20
0.0
 30
0.0
  9
$PUCSORGFRONT
 10
0.0
 20
0.0
 30
0.0
  9
$PUCSORGBACK
 10
0.0
 20
0.0
 30
0.0
  9
$USERI1
 70
     9
  9
$USERI2
 70
     0
  9
$USERI3
 70
     0
  9
$USERI4
 70
     0
  9
$USERI5
 70
     0
  9
$USERR1
 40
0.0
  9
$USERR2
 40
0.0
  9
$USERR3
 40
0.0
  9
$USERR4
 40
0.0
  9
$USERR5
 40
0.0
  9
$WORLDVIEW
 70
     1
  9
$SHADEDGE
 70
     3
  9
$SHADEDIF
 70
    70
  9
$TILEMODE
 70
     1
  9
$MAXACTVP
 70
    64
  9
$PINSBASE
 10
0.0
 20
0.0
 30
0.0
  9
$PLIMCHECK
 70
     0
  9
$PEXTMIN
 10
1.000000000000000E+20
 20
1.000000000000000E+20
 30
1.000000000000000E+20
  9
$PEXTMAX
 10
-1.000000000000000E+20
 20
-1.000000000000000E+20
 30
-1.000000000000000E+20
  9
$PLIMMIN
 10
0.0
 20
0.0
  9
$PLIMMAX
 10
12.0
 20
9.0
  9
$UNITMODE
 70
     0
  9
$VISRETAIN
 70
     1
  9
$PLINEGEN
 70
     0
  9
$PSLTSCALE
 70
     1
  9
$TREEDEPTH
 70
  3020
  9
$CMLSTYLE
  2
Standard
  9
$CMLJUST
 70
     0
  9
$CMLSCALE
 40
1.0
  9
$PROXYGRAPHICS
 70
     1
  9
$MEASUREMENT
 70
     0
  9
$CELWEIGHT
370
    -1
  9
$ENDCAPS
280
     0
  9
$JOINSTYLE
280
     0
  9
$LWDISPLAY
290
     0
  9
$INSUNITS
 70
     0
  9
$HYPERLINKBASE
  1

  9
$STYLESHEET
  1

  9
$XEDIT
290
     1
  9
$CEPSNTYPE
380
     0
  9
$PSTYLEMODE
290
     1
  9
$FINGERPRINTGUID
  2
{90BA2305-B722-4CFB-B8BF-F05393D748C5}
  9
$VERSIONGUID
  2
{35D7A992-C20B-45F9-81A0-1162FB423C7E}
  9
$EXTNAMES
290
     1
  9
$PSVPSCALE
 40
0.0
  9
$OLESTARTUP
290
     0
  0
ENDSEC
  0
SECTION
  2
CLASSES
  0
CLASS
  1
ACDBDICTIONARYWDFLT
  2
AcDbDictionaryWithDefault
  3
AutoCAD 2000
 90
        0
280
     0
281
     0
  0
CLASS
  1
ACDBPLACEHOLDER
  2
AcDbPlaceHolder
  3
AutoCAD 2000
 90
        0
280
     0
281
     0
  0
CLASS
  1
LAYOUT
  2
AcDbLayout
  3
AutoCAD 2000
 90
        0
280
     0
281
     0
  0
CLASS
  1
DICTIONARYVAR
  2
AcDbDictionaryVar
  3
AutoCAD 2000
 90
        0
280
     0
281
     0
  0
ENDSEC
  0
SECTION
  2
TABLES
  0
TABLE
  2
VPORT
  5
19
330
0
100
AcDbSymbolTable
 70
     2
  0
VPORT
  5
26A
330
19
100
AcDbSymbolTableRecord
100
AcDbViewportTableRecord
  2
*Active
 70
     0
 10
0.0
 20
0.0
 11
1.0
 21
1.0
 12
105.0023217736123
 22
148.502169164115
 13
0.0
 23
0.0
 14
1.0
 24
1.0
 15
0.0
 25
0.0
 16
0.0
 26
0.0
 36
1.0
 17
0.0
 27
0.0
 37
0.0
 40
301.341484031896
 41
2.407317073170731
 42
50.0
 43
0.0
 44
0.0
 50
0.0
 51
0.0
 71
     0
 72
   100
 73
     1
 74
     1
 75
     0
 76
     0
 77
     0
 78
     0
281
     0
 65
     1
110
0.0
120
0.0
130
0.0
111
1.0
121
0.0
131
0.0
112
0.0
122
1.0
132
0.0
 79
     0
146
0.0
  0
ENDTAB
  0
TABLE
  2
LTYPE
  5
14
330
0
100
AcDbSymbolTable
 70
     4
  0
LTYPE
  5
15
330
14
100
AcDbSymbolTableRecord
100
AcDbLinetypeTableRecord
  2
ByBlock
 70
     0
  3

 72
    65
 73
     0
 40
0.0
  0
LTYPE
  5
16
330
14
100
AcDbSymbolTableRecord
100
AcDbLinetypeTableRecord
  2
ByLayer
 70
     0
  3

 72
    65
 73
     0
 40
0.0
  0
LTYPE
  5
8
330
14
100
AcDbSymbolTableRecord
100
AcDbLinetypeTableRecord
  2
Continuous
 70
     0
  3
Solid line
 72
    65
 73
     0
 40
0.0
  0
LTYPE
  5
49
330
14
100
AcDbSymbolTableRecord
100
AcDbLinetypeTableRecord
  2
DASHED
 70
     0
  3
Dashed
 72
    65
 73
     2
 40
4.7625
 49
3.174999999999998
 74
     0
 49
-1.587499999999999
 74
     0
  0
LTYPE
  5
85
330
14
100
AcDbSymbolTableRecord
100
AcDbLinetypeTableRecord
  2
DASH
 70
     0
  3
Dash
 72
    65
 73
     2
 40
1.9999960661
 49
0.9999980329999999
 74
     0
 49
-0.9999980329999999
 74
     0
  0
LTYPE
  5
29
330
14
100
AcDbSymbolTableRecord
100
AcDbLinetypeTableRecord
  2
CENTER
 70
     0
  3
Center
 72
    65
 73
     4
 40
9.100006759199999
 49
6.5000119209
 74
     0
 49
-0.7999984026000001
 74
     0
 49
0.9999980329999999
 74
     0
 49
-0.7999984026000001
 74
     0
  0
ENDTAB
  0
TABLE
  2
LAYER
  5
10
330
0
100
AcDbSymbolTable
 70
     1
  0
LAYER
  5
4
330
10
100
AcDbSymbolTableRecord
100
AcDbLayerTableRecord
  2
0
 70
     0
 62
     7
  6
Continuous
370
    -3
390
5
  0
ENDTAB
  0
TABLE
  2
STYLE
  5
11
330
0
100
AcDbSymbolTable
 70
     1
  0
STYLE
  5
12
330
11
100
AcDbSymbolTableRecord
100
AcDbTextStyleTableRecord
  2
STANDARD
 70
     0
 40
0.0
 41
1.0
 50
0.0
 71
     0
 42
2.999994039499997
  3
romans.shx
  4
bigfont.shx
  0
ENDTAB
  0
TABLE
  2
VIEW
  5
17
330
0
100
AcDbSymbolTable
 70
     0
  0
ENDTAB
  0
TABLE
  2
UCS
  5
18
330
0
100
AcDbSymbolTable
 70
     0
  0
ENDTAB
  0
TABLE
  2
APPID
  5
1B
330
0
100
AcDbSymbolTable
 70
     2
  0
APPID
  5
1C
330
1B
100
AcDbSymbolTableRecord
100
AcDbRegAppTableRecord
  2
ACAD
 70
     0
  0
APPID
  5
268
330
1B
100
AcDbSymbolTableRecord
100
AcDbRegAppTableRecord
  2
DCO15
 70
     0
  0
ENDTAB
  0
TABLE
  2
DIMSTYLE
  5
1D
330
0
100
AcDbSymbolTable
 70
     1
100
AcDbDimStyleTable
 71
     0
  0
DIMSTYLE
105
23
330
1D
100
AcDbSymbolTableRecord
100
AcDbDimStyleTableRecord
  2
Standard
 70
     0
340
12
  0
ENDTAB
  0
TABLE
  2
BLOCK_RECORD
  5
1
330
0
100
AcDbSymbolTable
 70
     0
  0
BLOCK_RECORD
  5
2
330
1
100
AcDbSymbolTableRecord
100
AcDbBlockTableRecord
  2
*Model_Space
340
A
  0
BLOCK_RECORD
  5
C
330
1
100
AcDbSymbolTableRecord
100
AcDbBlockTableRecord
  2
*Paper_Space
340
F
  0
ENDTAB
  0
ENDSEC
  0
SECTION
  2
BLOCKS
  0
BLOCK
  5
3
330
2
100
AcDbEntity
  8
0
100
AcDbBlockBegin
  2
*Model_Space
 70
     2
 10
0.0
 20
0.0
 30
0.0
  3
*Model_Space
  1

  0
ENDBLK
  5
9
330
2
100
AcDbEntity
  8
0
100
AcDbBlockEnd
  0
BLOCK
  5
D
330
C
100
AcDbEntity
 67
     1
  8
0
100
AcDbBlockBegin
  2
*Paper_Space
 70
     0
 10
0.0
 20
0.0
 30
0.0
  3
*Paper_Space
  1

  0
ENDBLK
  5
E
330
C
100
AcDbEntity
 67
     1
  8
0
100
AcDbBlockEnd
  0
ENDSEC
  0
SECTION
  2
ENTITIES
  0
LINE
  5
24
330
2
100
AcDbEntity
  8
0
100
AcDbLine
 10
210.0
 20
0.0
 30
0.0
 11
210.0
 21
297.0
 31
0.0
  0
LINE
  5
25
330
2
100
AcDbEntity
  8
0
100
AcDbLine
 10
0.0
 20
297.0
 30
0.0
 11
0.0
 21
0.0
 31
0.0
  0
TEXT
  5
26
330
2
100
AcDbEntity
  8
0
 62
     5
100
AcDbText
 10
145.0
 20
10.0
 30
0.0
 40
5.0
  1
ＭＡ４－Ｈ０１０６６Ｂ
 41
0.84439677439531
 72
     5
 11
199.0413935612998
 21
10.0
 31
0.0
100
AcDbText
  0
LINE
  5
27
330
2
100
AcDbEntity
  8
0
100
AcDbLine
 10
0.0
 20
0.0
 30
0.0
 11
210.0
 21
0.0
 31
0.0
  0
LINE
  5
28
330
2
100
AcDbEntity
  8
0
  6
CENTER
 62
     3
100
AcDbLine
 10
86.64119965269998
 20
168.5
 30
0.0
 11
147.2772164983998
 21
168.5
 31
0.0
  0
LINE
  5
2A
330
2
100
AcDbEntity
  8
0
 62
     3
100
AcDbLine
 10
61.21797882969996
 20
161.5003204345999
 30
0.0
 11
61.21797882969996
 21
158.2001495361
 31
0.0
  0
LINE
  5
2B
330
2
100
AcDbEntity
  8
0
 62
     3
100
AcDbLine
 10
59.01791938699997
 20
160.899909399
 30
0.0
 11
58.71792604799997
 21
160.5999150231999
 31
0.0
  0
LINE
  5
2C
330
2
100
AcDbEntity
  8
0
 62
     3
100
AcDbLine
 10
62.81795441569999
 20
156.8999786376999
 30
0.0
 11
62.81795441569999
 21
173.2153930663999
 31
0.0
  0
LINE
  5
2D
330
2
100
AcDbEntity
  8
0
 62
     3
100
AcDbLine
 10
57.41788422519997
 20
160.6000061035
 30
0.0
 11
57.41788422519997
 21
174.4000091552999
 31
0.0
  0
LINE
  5
2E
330
2
100
AcDbEntity
  8
0
 62
     3
100
AcDbLine
 10
59.81787812170001
 20
160.6000213623
 30
0.0
 11
59.81787812170001
 21
174.4000091552999
 31
0.0
  0
LINE
  5
2F
330
2
100
AcDbEntity
  8
0
 62
     3
100
AcDbLine
 10
56.01789032869999
 20
162.9000091552998
 30
0.0
 11
56.01789032869999
 21
160.1000213622999
 31
0.0
  0
LINE
  5
30
330
2
100
AcDbEntity
  8
0
 62
     3
100
AcDbLine
 10
56.51789032869999
 20
160.1000213622999
 30
0.0
 11
56.51789032869999
 21
162.9000091552998
 31
0.0
  0
LINE
  5
31
330
2
100
AcDbEntity
  8
0
 62
     3
100
AcDbLine
 10
49.21788727699999
 20
162.9000091552998
 30
0.0
 11
49.21788727699999
 21
160.1000213622999
 31
0.0
  0
LINE
  5
32
330
2
100
AcDbEntity
  8
0
 62
     3
100
AcDbLine
 10
49.71788727699999
 20
160.1000213622999
 30
0.0
 11
49.71788727699999
 21
162.9000091552998
 31
0.0
  0
LINE
  5
33
330
2
100
AcDbEntity
  8
0
 62
     3
100
AcDbLine
 10
50.61788117349997
 20
160.6000061035
 30
0.0
 11
50.61788117349997
 21
174.4000091552999
 31
0.0
  0
LINE
  5
34
330
2
100
AcDbEntity
  8
0
 62
     3
100
AcDbLine
 10
52.21787201819998
 20
160.6000061035
 30
0.0
 11
52.21787201819998
 21
174.4000091552999
 31
0.0
  0
LINE
  5
35
330
2
100
AcDbEntity
  8
0
 62
     3
100
AcDbLine
 10
42.81789338049998
 20
162.9500122069998
 30
0.0
 11
42.81789338049998
 21
160.1000213622999
 31
0.0
  0
LINE
  5
36
330
2
100
AcDbEntity
  8
0
 62
     3
100
AcDbLine
 10
43.31789338049997
 20
160.1000213622999
 30
0.0
 11
43.31789338049997
 21
162.9000091552998
 31
0.0
  0
LINE
  5
37
330
2
100
AcDbEntity
  8
0
 62
     3
100
AcDbLine
 10
45.41788422519997
 20
174.4000091552999
 30
0.0
 11
45.41788422519997
 21
160.6000061035
 31
0.0
  0
LINE
  5
38
330
2
100
AcDbEntity
  8
0
 62
     3
100
AcDbLine
 10
42.01787507
 20
160.6000213623
 30
0.0
 11
42.01787507
 21
174.4000091552999
 31
0.0
  0
LINE
  5
39
330
2
100
AcDbEntity
  8
0
  6
CENTER
 62
     3
100
AcDbLine
 10
50.91796051919999
 20
181.6666564940999
 30
0.0
 11
50.91796051919999
 21
155.1516571045
 31
0.0
  0
LINE
  5
3A
330
2
100
AcDbEntity
  8
0
 62
     3
100
AcDbLine
 10
40.61794220859996
 20
158.2001495361
 30
0.0
 11
40.61794220859996
 21
161.5003204345999
 31
0.0
  0
LINE
  5
3B
330
2
100
AcDbEntity
  8
0
 62
     3
100
AcDbLine
 10
39.01795136389995
 20
156.8999786376999
 30
0.0
 11
39.01795136389995
 21
180.0998840332
 31
0.0
  0
LINE
  5
3C
330
2
100
AcDbEntity
  8
0
 62
     3
100
AcDbLine
 10
39.31796967439996
 20
156.5999908446999
 30
0.0
 11
62.51796662269999
 21
156.5999908446999
 31
0.0
  0
LINE
  5
3D
330
2
100
AcDbEntity
  8
0
 62
     3
100
AcDbLine
 10
56.51789032869999
 20
160.6000061035
 30
0.0
 11
58.71787201819998
 21
160.6000061035
 31
0.0
  0
LINE
  5
3E
330
2
100
AcDbEntity
  8
0
 62
     3
100
AcDbLine
 10
43.01787507
 20
159.6000213623
 30
0.0
 11
58.81787812169999
 21
159.6000213623
 31
0.0
  0
ARC
  5
3F
330
2
100
AcDbEntity
  8
0
 62
     3
100
AcDbCircle
 10
43.01787507
 20
160.6000213623
 30
0.0
 40
1.0
100
AcDbArc
 50
180.0000359722
 51
270.0000179861
  0
LINE
  5
40
330
2
100
AcDbEntity
  8
0
 62
     3
100
AcDbLine
 10
43.91793000159998
 20
158.2001495361
 30
0.0
 11
40.61794220859996
 21
158.2001495361
 31
0.0
  0
LINE
  5
41
330
2
100
AcDbEntity
  8
0
 62
     3
100
AcDbLine
 10
39.3180541728
 20
156.5999690038998
 30
0.0
 11
39.01806080859998
 21
156.8999633544
 31
0.0
  0
LINE
  5
42
330
2
100
AcDbEntity
  8
0
 62
     3
100
AcDbLine
 10
49.71788727699999
 20
160.6000061035
 30
0.0
 11
56.01789032869999
 21
160.6000061035
 31
0.0
  0
ARC
  5
43
330
2
100
AcDbEntity
  8
0
 62
     3
100
AcDbCircle
 10
50.91788422519994
 20
168.5000152587999
 30
0.0
 40
10.5
100
AcDbArc
 50
237.9536446645999
 51
302.0463913076
  0
LINE
  5
44
330
2
100
AcDbEntity
  8
0
 62
     3
100
AcDbLine
 10
43.31789338049997
 20
160.6000061035
 30
0.0
 11
49.21788727699999
 21
160.6000061035
 31
0.0
  0
LINE
  5
45
330
2
100
AcDbEntity
  8
0
 62
     3
100
AcDbLine
 10
49.5835794157
 20
159.6000061035
 30
0.0
 11
44.97231232579998
 21
159.6000061035
 31
0.0
  0
LINE
  5
46
330
2
100
AcDbEntity
  8
0
 62
     3
100
AcDbLine
 10
43.91793000159998
 20
158.2001495361
 30
0.0
 11
43.91793000159998
 21
159.5999908447
 31
0.0
  0
LINE
  5
47
330
2
100
AcDbEntity
  8
0
 62
     3
100
AcDbLine
 10
42.81789338049998
 20
160.1000213622999
 30
0.0
 11
43.31789338049997
 21
160.1000213622999
 31
0.0
  0
LINE
  5
48
330
2
100
AcDbEntity
  8
0
  6
DASHED
 62
     3
100
AcDbLine
 10
47.41788422519997
 20
159.6000213623
 30
0.0
 11
47.41788422519997
 21
160.6000213623
 31
0.0
  0
LINE
  5
4A
330
2
100
AcDbEntity
  8
0
 62
     3
100
AcDbLine
 10
49.21788727699999
 20
160.1000213622999
 30
0.0
 11
49.71788727699999
 21
160.1000213622999
 31
0.0
  0
LINE
  5
4B
330
2
100
AcDbEntity
  8
0
  6
DASHED
 62
     3
100
AcDbLine
 10
49.81787812170001
 20
159.6000213623
 30
0.0
 11
49.81787812170001
 21
160.6000213623
 31
0.0
  0
LINE
  5
4C
330
2
100
AcDbEntity
  8
0
 62
     3
100
AcDbLine
 10
56.87079560219999
 20
159.6000061035
 30
0.0
 11
52.25946747719999
 21
159.6000061035
 31
0.0
  0
LINE
  5
4D
330
2
100
AcDbEntity
  8
0
  6
DASHED
 62
     3
100
AcDbLine
 10
54.21788727699999
 20
159.6000213623
 30
0.0
 11
54.21788727699999
 21
160.6000213623
 31
0.0
  0
LINE
  5
4E
330
2
100
AcDbEntity
  8
0
 62
     3
100
AcDbLine
 10
56.01789032869999
 20
160.1000213622999
 30
0.0
 11
56.51789032869999
 21
160.1000213622999
 31
0.0
  0
LINE
  5
4F
330
2
100
AcDbEntity
  8
0
  6
DASHED
 62
     3
100
AcDbLine
 10
56.61788117349996
 20
159.6000213623
 30
0.0
 11
56.61788117349996
 21
160.6000213623
 31
0.0
  0
ARC
  5
50
330
2
100
AcDbEntity
  8
0
 62
     3
100
AcDbCircle
 10
58.81787812169999
 20
160.6000213623
 30
0.0
 40
1.0
100
AcDbArc
 50
270.0000179861
 51
0.0
  0
LINE
  5
51
330
2
100
AcDbEntity
  8
0
 62
     3
100
AcDbLine
 10
61.21797882969996
 20
158.2001495361
 30
0.0
 11
57.91799103679998
 21
158.2001495361
 31
0.0
  0
LINE
  5
52
330
2
100
AcDbEntity
  8
0
 62
     3
100
AcDbLine
 10
57.91799103679998
 20
159.5999908447
 30
0.0
 11
57.91799103679998
 21
158.2001495361
 31
0.0
  0
LINE
  5
53
330
2
100
AcDbEntity
  8
0
 62
     3
100
AcDbLine
 10
62.81800507669998
 20
156.8999889712999
 30
0.0
 11
62.51799993659997
 21
156.5999848175
 31
0.0
  0
LINE
  5
54
330
2
100
AcDbEntity
  8
0
 62
     3
100
AcDbLine
 10
57.7008910457
 20
181.0986209031
 30
0.0
 11
58.5642866174
 21
180.5940932747
 31
0.0
  0
LINE
  5
55
330
2
100
AcDbEntity
  8
0
 62
     3
100
AcDbLine
 10
59.78756795839996
 20
180.110905393
 30
0.0
 11
57.69113310239998
 21
176.5232870565
 31
0.0
  0
ARC
  5
56
330
2
100
AcDbEntity
  8
0
 62
     3
100
AcDbCircle
 10
57.5428384489
 20
181.4228515625
 30
0.0
 40
0.9999999404
100
AcDbArc
 50
59.70022466699998
 51
149.6999881147999
  0
ARC
  5
57
330
2
100
AcDbEntity
  8
0
 62
     3
100
AcDbCircle
 10
50.91788422519994
 20
168.5000152587999
 30
0.0
 40
10.5
100
AcDbArc
 50
41.0823276877
 51
138.9176329249999
  0
LINE
  5
58
330
2
100
AcDbEntity
  8
0
 62
     3
100
AcDbLine
 10
58.5642866174
 20
180.5940932747
 30
0.0
 11
56.64115225959998
 21
177.3030432016999
 31
0.0
  0
LINE
  5
59
330
2
100
AcDbEntity
  8
0
 62
     3
100
AcDbLine
 10
56.51789032869999
 20
174.4000091552999
 30
0.0
 11
58.71787201819998
 21
174.4000091552999
 31
0.0
  0
LINE
  5
5A
330
2
100
AcDbEntity
  8
0
 62
     3
100
AcDbLine
 10
43.01787507
 20
175.4000091552998
 30
0.0
 11
58.81787812169999
 21
175.4000091552998
 31
0.0
  0
LINE
  5
5B
330
2
100
AcDbEntity
  8
0
  6
CENTER
 62
     3
100
AcDbLine
 10
37.03392731599999
 20
168.5
 30
0.0
 11
65.0357278532
 21
168.5
 31
0.0
  0
ARC
  5
5C
330
2
100
AcDbEntity
  8
0
 62
     3
100
AcDbCircle
 10
43.01787507
 20
174.4000091552999
 30
0.0
 40
1.0
100
AcDbArc
 50
90.83867460250003
 51
179.9999640277999
  0
LINE
  5
5D
330
2
100
AcDbEntity
  8
0
 62
     3
100
AcDbLine
 10
42.81786286289997
 20
172.0500183104999
 30
0.0
 11
42.01787507
 21
172.0500183104999
 31
0.0
  0
LINE
  5
5E
330
2
100
AcDbEntity
  8
0
 62
     3
100
AcDbLine
 10
42.81786286289997
 20
162.9500122069998
 30
0.0
 11
42.01787507
 21
162.9500122069998
 31
0.0
  0
LINE
  5
5F
330
2
100
AcDbEntity
  8
0
 62
     3
100
AcDbLine
 10
39.31796967439996
 20
180.3999328612999
 30
0.0
 11
55.78694855629999
 21
180.3999328612999
 31
0.0
  0
LINE
  5
60
330
2
100
AcDbEntity
  8
0
 62
     3
100
AcDbLine
 10
40.61795746739999
 20
178.7998352050999
 30
0.0
 11
43.91794526039999
 21
178.7998352050999
 31
0.0
  0
LINE
  5
61
330
2
100
AcDbEntity
  8
0
 62
     3
100
AcDbLine
 10
40.61795746739999
 20
175.4997863768999
 30
0.0
 11
43.09152924479999
 21
175.4997863768999
 31
0.0
  0
LINE
  5
62
330
2
100
AcDbEntity
  8
0
 62
     3
100
AcDbLine
 10
42.02155243809997
 20
169.8380584716999
 30
0.0
 11
42.02155243809997
 21
174.4492492675999
 31
0.0
  0
ARC
  5
63
330
2
100
AcDbEntity
  8
0
 62
     3
100
AcDbCircle
 10
50.91788422519994
 20
168.5000152587999
 30
0.0
 40
10.5
100
AcDbArc
 50
147.9536999894
 51
212.0462280663
  0
LINE
  5
64
330
2
100
AcDbEntity
  8
0
 62
     3
100
AcDbLine
 10
42.01787507
 20
162.9500122069998
 30
0.0
 11
42.01787507
 21
172.0500030516999
 31
0.0
  0
LINE
  5
65
330
2
100
AcDbEntity
  8
0
 62
     3
100
AcDbLine
 10
42.02155243809997
 20
162.5508422850999
 30
0.0
 11
42.02155243809997
 21
167.1619567870999
 31
0.0
  0
LINE
  5
66
330
2
100
AcDbEntity
  8
0
 62
     3
100
AcDbLine
 10
42.01795136389995
 20
161.5001983642
 30
0.0
 11
40.61794220859996
 21
161.5001983642
 31
0.0
  0
LINE
  5
67
330
2
100
AcDbEntity
  8
0
 62
     3
100
AcDbLine
 10
40.61795746739999
 20
175.4996643065999
 30
0.0
 11
40.61795746739999
 21
178.7998352050999
 31
0.0
  0
LINE
  5
68
330
2
100
AcDbEntity
  8
0
 62
     3
100
AcDbLine
 10
39.01803869689999
 20
180.0999920997999
 30
0.0
 11
39.31803974019996
 21
180.4000003250999
 31
0.0
  0
LINE
  5
69
330
2
100
AcDbEntity
  8
0
 62
     3
100
AcDbLine
 10
49.71788727699999
 20
174.4000091552999
 30
0.0
 11
56.01789032869999
 21
174.4000091552999
 31
0.0
  0
LINE
  5
6A
330
2
100
AcDbEntity
  8
0
 62
     3
100
AcDbLine
 10
49.21788727699999
 20
174.9000091552999
 30
0.0
 11
49.21788727699999
 21
172.1000213623
 31
0.0
  0
LINE
  5
6B
330
2
100
AcDbEntity
  8
0
 62
     3
100
AcDbLine
 10
49.71788727699999
 20
172.1000213623
 30
0.0
 11
49.71788727699999
 21
174.9000091552999
 31
0.0
  0
LINE
  5
6C
330
2
100
AcDbEntity
  8
0
 62
     3
100
AcDbLine
 10
42.81789338049998
 20
174.9000091552999
 30
0.0
 11
42.81789338049998
 21
172.0500183104999
 31
0.0
  0
LINE
  5
6D
330
2
100
AcDbEntity
  8
0
 62
     3
100
AcDbLine
 10
43.31789338049997
 20
172.1000213623
 30
0.0
 11
43.31789338049997
 21
174.9000091552999
 31
0.0
  0
LINE
  5
6E
330
2
100
AcDbEntity
  8
0
 62
     3
100
AcDbLine
 10
42.81789338049998
 20
168.9000091552999
 30
0.0
 11
42.81789338049998
 21
166.1000213622999
 31
0.0
  0
LINE
  5
6F
330
2
100
AcDbEntity
  8
0
 62
     3
100
AcDbLine
 10
43.31789338049997
 20
166.1000213622999
 30
0.0
 11
43.31789338049997
 21
168.9000091552999
 31
0.0
  0
LINE
  5
70
330
2
100
AcDbEntity
  8
0
 62
     3
100
AcDbLine
 10
42.81789338049998
 20
166.1000213622999
 30
0.0
 11
43.31789338049997
 21
166.1000213622999
 31
0.0
  0
LINE
  5
71
330
2
100
AcDbEntity
  8
0
 62
     3
100
AcDbLine
 10
43.31789338049997
 20
162.9000091552998
 30
0.0
 11
42.81789338049998
 21
162.9000091552998
 31
0.0
  0
LINE
  5
72
330
2
100
AcDbEntity
  8
0
 62
     3
100
AcDbLine
 10
42.81789338049998
 20
162.1000061034999
 30
0.0
 11
43.31789338049997
 21
162.1000061034999
 31
0.0
  0
LINE
  5
73
330
2
100
AcDbEntity
  8
0
 62
     3
100
AcDbLine
 10
42.81789338049998
 20
172.1000213623
 30
0.0
 11
43.31789338049997
 21
172.1000213623
 31
0.0
  0
LINE
  5
74
330
2
100
AcDbEntity
  8
0
 62
     3
100
AcDbLine
 10
43.31789338049997
 20
168.9000091552999
 30
0.0
 11
42.81789338049998
 21
168.9000091552999
 31
0.0
  0
LINE
  5
75
330
2
100
AcDbEntity
  8
0
 62
     3
100
AcDbLine
 10
42.81789338049998
 20
167.9000091552999
 30
0.0
 11
43.31789338049997
 21
167.9000091552999
 31
0.0
  0
LINE
  5
76
330
2
100
AcDbEntity
  8
0
 62
     3
100
AcDbLine
 10
42.81789338049998
 20
167.1000061034999
 30
0.0
 11
43.31789338049997
 21
167.1000061034999
 31
0.0
  0
LINE
  5
77
330
2
100
AcDbEntity
  8
0
 62
     3
100
AcDbLine
 10
49.21788727699999
 20
168.9000091552999
 30
0.0
 11
49.21788727699999
 21
166.1000213622999
 31
0.0
  0
LINE
  5
78
330
2
100
AcDbEntity
  8
0
 62
     3
100
AcDbLine
 10
49.71788727699999
 20
166.1000213622999
 30
0.0
 11
49.71788727699999
 21
168.9000091552999
 31
0.0
  0
LINE
  5
79
330
2
100
AcDbEntity
  8
0
 62
     3
100
AcDbLine
 10
49.21788727699999
 20
166.1000213622999
 30
0.0
 11
49.71788727699999
 21
166.1000213622999
 31
0.0
  0
LINE
  5
7A
330
2
100
AcDbEntity
  8
0
 62
     3
100
AcDbLine
 10
49.71788727699999
 20
162.9000091552998
 30
0.0
 11
49.21788727699999
 21
162.9000091552998
 31
0.0
  0
LINE
  5
7B
330
2
100
AcDbEntity
  8
0
 62
     3
100
AcDbLine
 10
49.21788727699999
 20
162.1000061034999
 30
0.0
 11
49.71788727699999
 21
162.1000061034999
 31
0.0
  0
LINE
  5
7C
330
2
100
AcDbEntity
  8
0
 62
     3
100
AcDbLine
 10
49.21788727699999
 20
172.1000213623
 30
0.0
 11
49.71788727699999
 21
172.1000213623
 31
0.0
  0
LINE
  5
7D
330
2
100
AcDbEntity
  8
0
 62
     3
100
AcDbLine
 10
49.71788727699999
 20
168.9000091552999
 30
0.0
 11
49.21788727699999
 21
168.9000091552999
 31
0.0
  0
LINE
  5
7E
330
2
100
AcDbEntity
  8
0
 62
     3
100
AcDbLine
 10
49.21788727699999
 20
167.9000091552999
 30
0.0
 11
49.71788727699999
 21
167.9000091552999
 31
0.0
  0
LINE
  5
7F
330
2
100
AcDbEntity
  8
0
 62
     3
100
AcDbLine
 10
49.21788727699999
 20
167.1000061034999
 30
0.0
 11
49.71788727699999
 21
167.1000061034999
 31
0.0
  0
LINE
  5
80
330
2
100
AcDbEntity
  8
0
 62
     3
100
AcDbLine
 10
43.31789338049997
 20
174.4000091552999
 30
0.0
 11
49.21788727699999
 21
174.4000091552999
 31
0.0
  0
LINE
  5
81
330
2
100
AcDbEntity
  8
0
 62
     3
100
AcDbLine
 10
43.91794526039999
 20
176.3262176513999
 30
0.0
 11
43.91794526039999
 21
178.7998352050999
 31
0.0
  0
LINE
  5
82
330
2
100
AcDbEntity
  8
0
 62
     3
100
AcDbLine
 10
43.31789338049997
 20
174.9000091552999
 30
0.0
 11
42.81789338049998
 21
174.9000091552999
 31
0.0
  0
LINE
  5
83
330
2
100
AcDbEntity
  8
0
 62
     3
100
AcDbLine
 10
42.81789338049998
 20
172.9000091552999
 30
0.0
 11
43.31789338049997
 21
172.9000091552999
 31
0.0
  0
LINE
  5
84
330
2
100
AcDbEntity
  8
0
  6
DASH
 62
     3
100
AcDbLine
 10
47.41788422519997
 20
174.4000091552999
 30
0.0
 11
47.41788422519997
 21
175.4000091552998
 31
0.0
  0
LINE
  5
86
330
2
100
AcDbEntity
  8
0
 62
     3
100
AcDbLine
 10
49.71788727699999
 20
174.9000091552999
 30
0.0
 11
49.21788727699999
 21
174.9000091552999
 31
0.0
  0
LINE
  5
87
330
2
100
AcDbEntity
  8
0
  6
DASH
 62
     3
100
AcDbLine
 10
49.81787812170001
 20
174.4000091552999
 30
0.0
 11
49.81787812170001
 21
175.4000091552998
 31
0.0
  0
LINE
  5
88
330
2
100
AcDbEntity
  8
0
 62
     3
100
AcDbLine
 10
49.21788727699999
 20
172.9000091552999
 30
0.0
 11
49.71788727699999
 21
172.9000091552999
 31
0.0
  0
LINE
  5
89
330
2
100
AcDbEntity
  8
0
 62
     3
100
AcDbLine
 10
56.01789032869999
 20
174.9000091552999
 30
0.0
 11
56.01789032869999
 21
172.1000213623
 31
0.0
  0
LINE
  5
8A
330
2
100
AcDbEntity
  8
0
 62
     3
100
AcDbLine
 10
56.51789032869999
 20
172.1000213623
 30
0.0
 11
56.51789032869999
 21
174.9000091552999
 31
0.0
  0
LINE
  5
8B
330
2
100
AcDbEntity
  8
0
 62
     3
100
AcDbLine
 10
56.01789032869999
 20
168.9000091552999
 30
0.0
 11
56.01789032869999
 21
166.1000213622999
 31
0.0
  0
LINE
  5
8C
330
2
100
AcDbEntity
  8
0
 62
     3
100
AcDbLine
 10
56.51789032869999
 20
166.1000213622999
 30
0.0
 11
56.51789032869999
 21
168.9000091552999
 31
0.0
  0
LINE
  5
8D
330
2
100
AcDbEntity
  8
0
 62
     3
100
AcDbLine
 10
56.01789032869999
 20
166.1000213622999
 30
0.0
 11
56.51789032869999
 21
166.1000213622999
 31
0.0
  0
LINE
  5
8E
330
2
100
AcDbEntity
  8
0
 62
     3
100
AcDbLine
 10
56.51789032869999
 20
162.9000091552998
 30
0.0
 11
56.01789032869999
 21
162.9000091552998
 31
0.0
  0
LINE
  5
8F
330
2
100
AcDbEntity
  8
0
 62
     3
100
AcDbLine
 10
56.01789032869999
 20
162.1000061034999
 30
0.0
 11
56.51789032869999
 21
162.1000061034999
 31
0.0
  0
LINE
  5
90
330
2
100
AcDbEntity
  8
0
 62
     3
100
AcDbLine
 10
56.01789032869999
 20
172.1000213623
 30
0.0
 11
56.51789032869999
 21
172.1000213623
 31
0.0
  0
LINE
  5
91
330
2
100
AcDbEntity
  8
0
 62
     3
100
AcDbLine
 10
56.51789032869999
 20
168.9000091552999
 30
0.0
 11
56.01789032869999
 21
168.9000091552999
 31
0.0
  0
LINE
  5
92
330
2
100
AcDbEntity
  8
0
 62
     3
100
AcDbLine
 10
56.01789032869999
 20
167.9000091552999
 30
0.0
 11
56.51789032869999
 21
167.9000091552999
 31
0.0
  0
LINE
  5
93
330
2
100
AcDbEntity
  8
0
 62
     3
100
AcDbLine
 10
56.01789032869999
 20
167.1000061034999
 30
0.0
 11
56.51789032869999
 21
167.1000061034999
 31
0.0
  0
LINE
  5
94
330
2
100
AcDbEntity
  8
0
 62
     3
100
AcDbLine
 10
57.7008910457
 20
181.0986209031
 30
0.0
 11
55.77776438629999
 21
177.8075840045
 31
0.0
  0
LINE
  5
95
330
2
100
AcDbEntity
  8
0
  6
DASH
 62
     3
100
AcDbLine
 10
54.21788727699999
 20
174.4000091552999
 30
0.0
 11
54.21788727699999
 21
175.4000091552998
 31
0.0
  0
LINE
  5
96
330
2
100
AcDbEntity
  8
0
 62
     3
100
AcDbLine
 10
56.51789032869999
 20
174.9000091552999
 30
0.0
 11
56.01789032869999
 21
174.9000091552999
 31
0.0
  0
LINE
  5
97
330
2
100
AcDbEntity
  8
0
  6
DASH
 62
     3
100
AcDbLine
 10
56.61788117349996
 20
174.4000091552999
 30
0.0
 11
56.61788117349996
 21
175.4000091552998
 31
0.0
  0
LINE
  5
98
330
2
100
AcDbEntity
  8
0
 62
     3
100
AcDbLine
 10
56.01789032869999
 20
172.9000091552999
 30
0.0
 11
56.51789032869999
 21
172.9000091552999
 31
0.0
  0
LINE
  5
99
330
2
100
AcDbEntity
  8
0
 62
     3
100
AcDbLine
 10
56.67937815359997
 20
181.9271848391998
 30
0.0
 11
54.58294329769998
 21
178.3395665027998
 31
0.0
  0
ARC
  5
9A
330
2
100
AcDbEntity
  8
0
 62
     3
100
AcDbCircle
 10
50.91788422519994
 20
168.5000152587999
 30
0.0
 40
10.5
100
AcDbArc
 50
327.9535788672
 51
32.04642113279993
  0
LINE
  5
9B
330
2
100
AcDbEntity
  8
0
 62
     3
100
AcDbLine
 10
59.01787507
 20
160.9000091552998
 30
0.0
 11
59.01787507
 21
174.1000061035
 31
0.0
  0
LINE
  5
9C
330
2
100
AcDbEntity
  8
0
  6
DASH
 62
     3
100
AcDbLine
 10
64.40477205199997
 20
174.1204641768999
 30
0.0
 11
60.7953839816
 21
172.0617055173
 31
0.0
  0
LINE
  5
9D
330
2
100
AcDbEntity
  8
0
 62
     3
100
AcDbLine
 10
61.21799408849998
 20
161.5001983642
 30
0.0
 11
59.8179544157
 21
161.5001983642
 31
0.0
  0
LINE
  5
9E
330
2
100
AcDbEntity
  8
0
 62
     3
100
AcDbLine
 10
59.9007943815
 20
180.3999328612999
 30
0.0
 11
62.51796662269999
 21
180.3999328612999
 31
0.0
  0
LINE
  5
9F
330
2
100
AcDbEntity
  8
0
  6
DASH
 62
     3
100
AcDbLine
 10
62.62112540299997
 20
177.24752956
 30
0.0
 11
59.01175058689998
 21
175.1887784604999
 31
0.0
  0
LINE
  5
A0
330
2
100
AcDbEntity
  8
0
  6
DASH
 62
     3
100
AcDbLine
 10
63.5869581932
 20
175.1505842798
 30
0.0
 11
60.27596338089997
 21
173.2620261339999
 31
0.0
  0
LINE
  5
A1
330
2
100
AcDbEntity
  8
0
  6
DASH
 62
     3
100
AcDbLine
 10
63.0914995307
 20
176.0192157619
 30
0.0
 11
59.78050471839997
 21
174.1306576161
 31
0.0
  0
LINE
  5
A2
330
2
100
AcDbEntity
  8
0
 62
     3
100
AcDbLine
 10
61.21797882969996
 20
176.4472198486
 30
0.0
 11
61.21797882969996
 21
179.0503387450999
 31
0.0
  0
ARC
  5
A3
330
2
100
AcDbEntity
  8
0
 62
     3
100
AcDbCircle
 10
58.81787812169999
 20
174.4000091552999
 30
0.0
 40
1.0
100
AcDbArc
 50
0.0
 51
89.16128942530001
  0
LINE
  5
A4
330
2
100
AcDbEntity
  8
0
 62
     3
100
AcDbLine
 10
58.74451386389996
 20
175.4996490477999
 30
0.0
 11
59.55670868809995
 21
175.4996490477999
 31
0.0
  0
LINE
  5
A5
330
2
100
AcDbEntity
  8
0
 62
     3
100
AcDbLine
 10
58.71791949289999
 20
174.3999098703998
 30
0.0
 11
59.01791361579999
 21
174.0999162784999
 31
0.0
  0
ARC
  5
A6
330
2
100
AcDbEntity
  8
0
 62
     3
100
AcDbCircle
 10
58.9242623991
 20
180.6155853270999
 30
0.0
 40
0.9999999404
100
AcDbArc
 50
329.7001333699999
 51
59.70011538400002
  0
LINE
  5
A7
330
2
100
AcDbEntity
  8
0
 62
     3
100
AcDbLine
 10
59.16786896639999
 20
179.0503234862999
 30
0.0
 11
61.21796357089998
 21
179.0503234862999
 31
0.0
  0
LINE
  5
A8
330
2
100
AcDbEntity
  8
0
 62
     3
100
AcDbLine
 10
58.03142623679996
 20
182.2953294516999
 30
0.0
 11
59.444114029
 21
181.4698213706999
 31
0.0
  0
LINE
  5
A9
330
2
100
AcDbEntity
  8
0
 62
     3
100
AcDbLine
 10
62.81795441569999
 20
177.3332824706999
 30
0.0
 11
62.81795441569999
 21
180.0998840332
 31
0.0
  0
ARC
  5
AA
330
2
100
AcDbEntity
  8
0
  6
DASH
 62
     3
100
AcDbCircle
 10
63.11655365879997
 20
176.3789367675999
 30
0.0
 40
1.0
100
AcDbArc
 50
29.6992573604
 51
119.6996116195998
  0
LINE
  5
AB
330
2
100
AcDbEntity
  8
0
  6
DASH
 62
     3
100
AcDbLine
 10
63.0914995307
 20
176.0192157619
 30
0.0
 11
63.5869581932
 21
175.1505842798
 31
0.0
  0
ARC
  5
AC
330
2
100
AcDbEntity
  8
0
  6
DASH
 62
     3
100
AcDbCircle
 10
63.9094308561
 20
174.9892272948999
 30
0.0
 40
0.9999999404
100
AcDbArc
 50
299.7001940068999
 51
29.70015894540005
  0
LINE
  5
AD
330
2
100
AcDbEntity
  8
0
  6
DASH
 62
     3
100
AcDbLine
 10
63.98522310769997
 20
176.8743434861999
 30
0.0
 11
64.7779448716
 21
175.4845543215999
 31
0.0
  0
LINE
  5
AE
330
2
100
AcDbEntity
  8
0
 62
     3
100
AcDbLine
 10
62.5180061088
 20
180.3999867027999
 30
0.0
 11
62.81801433409999
 21
180.0999856595
 31
0.0
  0
LINE
  5
AF
330
2
100
AcDbEntity
  8
0
 62
     3
100
AcDbLine
 10
134.1141289277999
 20
160.4998928757999
 30
0.0
 11
133.8141283484999
 21
161.0998945540998
 31
0.0
  0
LINE
  5
B0
330
2
100
AcDbEntity
  8
0
 62
     3
100
AcDbLine
 10
134.2141366643999
 20
158.4999999999999
 30
0.0
 11
134.2141366643999
 21
178.5
 31
0.0
  0
LINE
  5
B1
330
2
100
AcDbEntity
  8
0
 62
     3
100
AcDbLine
 10
145.8141275091998
 20
179.5946502684999
 30
0.0
 11
145.8141275091998
 21
157.4052886962999
 31
0.0
  0
LINE
  5
B2
330
2
100
AcDbEntity
  8
0
 62
     3
100
AcDbLine
 10
134.8141275091996
 20
180.3999481201
 30
0.0
 11
134.8141275091996
 21
156.6000061035
 31
0.0
  0
LINE
  5
B3
330
2
100
AcDbEntity
  8
0
 62
     3
100
AcDbLine
 10
140.3141275091996
 20
179.9943084716999
 30
0.0
 11
140.3141275091996
 21
157.0056152344
 31
0.0
  0
LINE
  5
B4
330
2
100
AcDbEntity
  8
0
 62
     3
100
AcDbLine
 10
140.0141397161999
 20
180.3053436279
 30
0.0
 11
140.0141397161999
 21
156.6945495604999
 31
0.0
  0
LINE
  5
B5
330
2
100
AcDbEntity
  8
0
 62
     3
100
AcDbLine
 10
145.5141397161999
 20
179.9046020508
 30
0.0
 11
145.5141397161999
 21
157.0999908446998
 31
0.0
  0
LINE
  5
B6
330
2
100
AcDbEntity
  8
0
 62
     3
100
AcDbLine
 10
131.0135920888999
 20
162.3349650648999
 30
0.0
 11
131.9576776286999
 21
159.5498612241998
 31
0.0
  0
LINE
  5
B7
330
2
100
AcDbEntity
  8
0
 62
     3
100
AcDbLine
 10
126.0140786809996
 20
165.4999542236
 30
0.0
 11
126.0140786809996
 21
160.1208343505998
 31
0.0
  0
LINE
  5
B8
330
2
100
AcDbEntity
  8
0
 62
     3
100
AcDbLine
 10
131.0140329046997
 20
177.3999023436999
 30
0.0
 11
131.0140329046997
 21
159.5999145508
 31
0.0
  0
LINE
  5
B9
330
2
100
AcDbEntity
  8
0
 62
     3
100
AcDbLine
 10
131.0135141057999
 20
159.5999450683
 30
0.0
 11
131.0135141057999
 21
177.3994750975999
 31
0.0
  0
LINE
  5
BA
330
2
100
AcDbEntity
  8
0
 62
     3
100
AcDbLine
 10
122.1141383847998
 20
160.4998833862
 30
0.0
 11
121.8141378055999
 21
161.0998850645
 31
0.0
  0
LINE
  5
BB
330
2
100
AcDbEntity
  8
0
 62
     3
100
AcDbLine
 10
122.1141305608999
 20
176.4999237059999
 30
0.0
 11
122.1141305608999
 21
160.5000152587999
 31
0.0
  0
LINE
  5
BC
330
2
100
AcDbEntity
  8
0
 62
     3
100
AcDbLine
 10
121.3141427678999
 20
179.0
 30
0.0
 11
121.3141427678999
 21
158.0000152587999
 31
0.0
  0
LINE
  5
BD
330
2
100
AcDbEntity
  8
0
 62
     3
100
AcDbLine
 10
132.0135841266999
 20
162.4998692711
 30
0.0
 11
132.9047453066999
 21
159.8708951787999
 31
0.0
  0
LINE
  5
BE
330
2
100
AcDbEntity
  8
0
 62
     3
100
AcDbLine
 10
112.014154975
 20
167.9000091552999
 30
0.0
 11
112.014154975
 21
158.0000152587999
 31
0.0
  0
LINE
  5
BF
330
2
100
AcDbEntity
  8
0
 62
     3
100
AcDbLine
 10
116.3141427678999
 20
167.9000091552999
 30
0.0
 11
116.3141427678999
 21
158.0000152587999
 31
0.0
  0
LINE
  5
C0
330
2
100
AcDbEntity
  8
0
 62
     3
100
AcDbLine
 10
110.8141427678999
 20
178.0
 30
0.0
 11
110.8141427678999
 21
159.0000610350999
 31
0.0
  0
LINE
  5
C1
330
2
100
AcDbEntity
  8
0
 62
     3
100
AcDbLine
 10
96.8141427679
 20
162.0999908446998
 30
0.0
 11
96.8141427679
 21
160.1000061034999
 31
0.0
  0
LINE
  5
C2
330
2
100
AcDbEntity
  8
0
 62
     3
100
AcDbLine
 10
98.81414276790001
 20
175.4000091552998
 30
0.0
 11
98.81414276790001
 21
159.6000213623
 31
0.0
  0
LINE
  5
C3
330
2
100
AcDbEntity
  8
0
 62
     3
100
AcDbLine
 10
121.3141732854998
 20
158.0000152587999
 30
0.0
 11
111.8141885442999
 21
158.0000152587999
 31
0.0
  0
LINE
  5
C4
330
2
100
AcDbEntity
  8
0
 62
     3
100
AcDbLine
 10
110.8141885442999
 20
159.6000213623
 30
0.0
 11
98.81418854429998
 21
159.6000213623
 31
0.0
  0
LINE
  5
C5
330
2
100
AcDbEntity
  8
0
 62
     3
100
AcDbLine
 10
96.8141427679
 20
160.1000213622999
 30
0.0
 11
98.8141580267
 21
160.1000213622999
 31
0.0
  0
ARC
  5
C6
330
2
100
AcDbEntity
  8
0
 62
     3
100
AcDbCircle
 10
111.8141732854998
 20
159.0000610350999
 30
0.0
 40
1.0
100
AcDbArc
 50
180.0000359722
 51
270.0000179861
  0
LINE
  5
C7
330
2
100
AcDbEntity
  8
0
 62
     3
100
AcDbLine
 10
116.3141885442999
 20
159.9000091552998
 30
0.0
 11
112.0142007512999
 21
159.9000091552998
 31
0.0
  0
LINE
  5
C8
330
2
100
AcDbEntity
  8
0
 62
     3
100
AcDbLine
 10
132.6915383977999
 20
160.5000152587999
 30
0.0
 11
134.2141366643999
 21
160.5000152587999
 31
0.0
  0
LINE
  5
C9
330
2
100
AcDbEntity
  8
0
 62
     3
100
AcDbLine
 10
126.0140786809996
 20
160.1208343505998
 30
0.0
 11
127.2140756292999
 21
160.1208343505998
 31
0.0
  0
LINE
  5
CA
330
2
100
AcDbEntity
  8
0
 62
     3
100
AcDbLine
 10
122.1141305608999
 20
160.5000152587999
 30
0.0
 11
126.0141397161999
 21
160.5000152587999
 31
0.0
  0
LINE
  5
CB
330
2
100
AcDbEntity
  8
0
 62
     3
100
AcDbLine
 10
131.0140481633996
 20
159.5999450683
 30
0.0
 11
127.2140603704998
 21
159.5999450683
 31
0.0
  0
LINE
  5
CC
330
2
100
AcDbEntity
  8
0
 62
     3
100
AcDbLine
 10
131.0140634221999
 20
160.0867309569999
 30
0.0
 11
128.0140634221999
 21
160.0867309569999
 31
0.0
  0
LINE
  5
CD
330
2
100
AcDbEntity
  8
0
 62
     3
100
AcDbLine
 10
131.0140634221999
 20
160.5098571776998
 30
0.0
 11
128.0140634221999
 21
160.5098571776998
 31
0.0
  0
LINE
  5
CE
330
2
100
AcDbEntity
  8
0
 62
     3
100
AcDbLine
 10
127.2140490375999
 20
159.5999346751999
 30
0.0
 11
127.2140642964999
 21
160.1208239574
 31
0.0
  0
LINE
  5
CF
330
2
100
AcDbEntity
  8
0
 62
     3
100
AcDbLine
 10
128.0140329047
 20
160.5098114013999
 30
0.0
 11
128.0140329047
 21
160.0867004393999
 31
0.0
  0
LINE
  5
D0
330
2
100
AcDbEntity
  8
0
 62
     3
100
AcDbLine
 10
131.0135903998
 20
159.5500030516999
 30
0.0
 11
131.9576821966996
 21
159.5500030516999
 31
0.0
  0
LINE
  5
D1
330
2
100
AcDbEntity
  8
0
 62
     3
100
AcDbLine
 10
131.9576210321999
 20
159.5498457926
 30
0.0
 11
132.9046899618999
 21
159.8708759920999
 31
0.0
  0
LINE
  5
D2
330
2
100
AcDbEntity
  8
0
 62
     3
100
AcDbLine
 10
145.5085377872999
 20
157.0944193957999
 30
0.0
 11
140.3141141905996
 21
156.9999758772999
 31
0.0
  0
LINE
  5
D3
330
2
100
AcDbEntity
  8
0
 62
     3
100
AcDbLine
 10
145.8141389214999
 20
157.4000081938999
 30
0.0
 11
140.3141247972999
 21
157.3056151902999
 31
0.0
  0
LINE
  5
D4
330
2
100
AcDbEntity
  8
0
 62
     3
100
AcDbLine
 10
140.0141560145996
 20
156.6945349448999
 30
0.0
 11
134.8141181112
 21
156.5999884573998
 31
0.0
  0
LINE
  5
D5
330
2
100
AcDbEntity
  8
0
 62
     3
100
AcDbLine
 10
140.0141182701996
 20
156.9945869016
 30
0.0
 11
134.8086643916996
 21
156.8999419414
 31
0.0
  0
LINE
  5
D6
330
2
100
AcDbEntity
  8
0
 62
     3
100
AcDbLine
 10
134.2141366643999
 20
158.4999999999999
 30
0.0
 11
134.8141275091996
 21
158.4999999999999
 31
0.0
  0
LINE
  5
D7
330
2
100
AcDbEntity
  8
0
 62
     3
100
AcDbLine
 10
140.3140251540999
 20
156.9998805374
 30
0.0
 11
140.0084634157996
 21
156.6943197004999
 31
0.0
  0
LINE
  5
D8
330
2
100
AcDbEntity
  8
0
 62
     3
100
AcDbLine
 10
140.3138926641996
 20
157.3053863760998
 30
0.0
 11
140.0138247923996
 21
156.9942591071999
 31
0.0
  0
LINE
  5
D9
330
2
100
AcDbEntity
  8
0
 62
     3
100
AcDbLine
 10
145.8139630317999
 20
157.3998284187999
 30
0.0
 11
145.5084014737999
 21
157.0942674017
 31
0.0
  0
LINE
  5
DA
330
2
100
AcDbEntity
  8
0
 62
     3
100
AcDbLine
 10
117.5141702337999
 20
210.8866271973
 30
0.0
 11
121.3141427678999
 21
210.8866271973
 31
0.0
  0
LINE
  5
DB
330
2
100
AcDbEntity
  8
0
 62
     3
100
AcDbLine
 10
118.5141549749999
 20
204.0000305176
 30
0.0
 11
121.3141427678999
 21
204.0000305176
 31
0.0
  0
LINE
  5
DC
330
2
100
AcDbEntity
  8
0
 62
     3
100
AcDbLine
 10
121.3141732854998
 20
179.0
 30
0.0
 11
118.5141549749999
 21
179.0
 31
0.0
  0
LINE
  5
DD
330
2
100
AcDbEntity
  8
0
 62
     3
100
AcDbLine
 10
117.5141549749999
 20
171.7282714844
 30
0.0
 11
121.3141427678999
 21
171.7282714844
 31
0.0
  0
LINE
  5
DE
330
2
100
AcDbEntity
  8
0
  6
CENTER
 62
     3
100
AcDbLine
 10
91.52288300229999
 20
214.4999084473
 30
0.0
 11
147.5399575873
 21
214.4999084473
 31
0.0
  0
LINE
  5
DF
330
2
100
AcDbEntity
  8
0
 62
     3
100
AcDbLine
 10
111.8141580267
 20
225.0000152588
 30
0.0
 11
121.3141427678999
 21
225.0000152588
 31
0.0
  0
LINE
  5
E0
330
2
100
AcDbEntity
  8
0
 62
     3
100
AcDbLine
 10
117.5141549749999
 20
210.8865814208999
 30
0.0
 11
117.5141549749999
 21
201.5380096434999
 31
0.0
  0
LINE
  5
E1
330
2
100
AcDbEntity
  8
0
 62
     3
100
AcDbLine
 10
118.5141549749999
 20
210.8865814208999
 30
0.0
 11
118.5141549749999
 21
201.5380096434999
 31
0.0
  0
LINE
  5
E2
330
2
100
AcDbEntity
  8
0
 62
     3
100
AcDbLine
 10
112.0141702337999
 20
213.9000396727999
 30
0.0
 11
112.0141702337999
 21
204.0000305176
 31
0.0
  0
LINE
  5
E3
330
2
100
AcDbEntity
  8
0
 62
     3
100
AcDbLine
 10
116.3141580266999
 20
213.9000396727999
 30
0.0
 11
116.3141580266999
 21
204.0000305176
 31
0.0
  0
LINE
  5
E4
330
2
100
AcDbEntity
  8
0
 62
     3
100
AcDbLine
 10
110.8141580267
 20
224.0000152588
 30
0.0
 11
110.8141580267
 21
205.0000305175999
 31
0.0
  0
LINE
  5
E5
330
2
100
AcDbEntity
  8
0
 62
     3
100
AcDbLine
 10
98.81418854429998
 20
223.4000396727997
 30
0.0
 11
98.81418854429998
 21
205.6001281737998
 31
0.0
  0
LINE
  5
E6
330
2
100
AcDbEntity
  8
0
 62
     3
100
AcDbLine
 10
98.81418854429998
 20
205.6001281737998
 30
0.0
 11
110.8141580267
 21
205.6001281737998
 31
0.0
  0
LINE
  5
E7
330
2
100
AcDbEntity
  8
0
 62
     3
100
AcDbLine
 10
110.8142038030998
 20
175.4000091552998
 30
0.0
 11
98.81420380309997
 21
175.4000091552998
 31
0.0
  0
LINE
  5
E8
330
2
100
AcDbEntity
  8
0
 62
     3
100
AcDbLine
 10
93.31414276789995
 20
162.9000091552998
 30
0.0
 11
98.8141580267
 21
162.9000091552998
 31
0.0
  0
LINE
  5
E9
330
2
100
AcDbEntity
  8
0
 62
     3
100
AcDbLine
 10
93.31414276789995
 20
172.1000213623
 30
0.0
 11
98.8141580267
 21
172.1000213623
 31
0.0
  0
LINE
  5
EA
330
2
100
AcDbEntity
  8
0
  6
CENTER
 62
     3
100
AcDbLine
 10
92.31414276790001
 20
167.5000152587999
 30
0.0
 11
99.81414276790001
 21
167.5000152587999
 31
0.0
  0
LINE
  5
EB
330
2
100
AcDbEntity
  8
0
 62
     3
100
AcDbLine
 10
93.31414276789995
 20
172.9000091552999
 30
0.0
 11
96.8141427679
 21
172.9000091552999
 31
0.0
  0
LINE
  5
EC
330
2
100
AcDbEntity
  8
0
 62
     3
100
AcDbLine
 10
93.31414276789995
 20
162.1000061034999
 30
0.0
 11
96.8141427679
 21
162.1000061034999
 31
0.0
  0
LINE
  5
ED
330
2
100
AcDbEntity
  8
0
 62
     3
100
AcDbLine
 10
93.31414276789995
 20
167.9000091552999
 30
0.0
 11
96.8141427679
 21
167.9000091552999
 31
0.0
  0
LINE
  5
EE
330
2
100
AcDbEntity
  8
0
 62
     3
100
AcDbLine
 10
93.31414276789995
 20
167.1000061034999
 30
0.0
 11
96.8141427679
 21
167.1000061034999
 31
0.0
  0
LINE
  5
EF
330
2
100
AcDbEntity
  8
0
  6
CENTER
 62
     3
100
AcDbLine
 10
92.31414276790001
 20
162.5000152587999
 30
0.0
 11
99.81414276790001
 21
162.5000152587999
 31
0.0
  0
LINE
  5
F0
330
2
100
AcDbEntity
  8
0
  6
CENTER
 62
     3
100
AcDbLine
 10
92.31414276790001
 20
172.5
 30
0.0
 11
99.81414276790001
 21
172.5
 31
0.0
  0
LINE
  5
F1
330
2
100
AcDbEntity
  8
0
 62
     3
100
AcDbLine
 10
93.31414276789995
 20
172.8999938965
 30
0.0
 11
93.31414276789995
 21
172.1000061035
 31
0.0
  0
LINE
  5
F2
330
2
100
AcDbEntity
  8
0
 62
     3
100
AcDbLine
 10
93.31414276789995
 20
162.8999938965
 30
0.0
 11
93.31414276789995
 21
162.0999908446998
 31
0.0
  0
LINE
  5
F3
330
2
100
AcDbEntity
  8
0
 62
     3
100
AcDbLine
 10
93.31414276789995
 20
167.8999938965
 30
0.0
 11
93.31414276789995
 21
167.0999908446999
 31
0.0
  0
LINE
  5
F4
330
2
100
AcDbEntity
  8
0
 62
     3
100
AcDbLine
 10
96.8141427679
 20
167.0999908446999
 30
0.0
 11
96.8141427679
 21
166.1000061034999
 31
0.0
  0
LINE
  5
F5
330
2
100
AcDbEntity
  8
0
 62
     3
100
AcDbLine
 10
96.8141427679
 20
166.1000213622999
 30
0.0
 11
98.8141580267
 21
166.1000213622999
 31
0.0
  0
LINE
  5
F6
330
2
100
AcDbEntity
  8
0
 62
     3
100
AcDbLine
 10
96.8141427679
 20
168.9000091552999
 30
0.0
 11
98.8141580267
 21
168.9000091552999
 31
0.0
  0
LINE
  5
F7
330
2
100
AcDbEntity
  8
0
 62
     3
100
AcDbLine
 10
96.8141427679
 20
168.8999938965
 30
0.0
 11
96.8141427679
 21
167.8999938965
 31
0.0
  0
LINE
  5
F8
330
2
100
AcDbEntity
  8
0
 62
     3
100
AcDbLine
 10
96.8141427679
 20
174.9000091552999
 30
0.0
 11
98.8141580267
 21
174.9000091552999
 31
0.0
  0
LINE
  5
F9
330
2
100
AcDbEntity
  8
0
 62
     3
100
AcDbLine
 10
96.8141427679
 20
174.8999938964999
 30
0.0
 11
96.8141427679
 21
172.8999938965
 31
0.0
  0
ARC
  5
FA
330
2
100
AcDbEntity
  8
0
 62
     3
100
AcDbCircle
 10
111.8141732854998
 20
178.0000457763999
 30
0.0
 40
1.0
100
AcDbArc
 50
89.99998201389999
 51
179.9999640277999
  0
LINE
  5
FB
330
2
100
AcDbEntity
  8
0
 62
     3
100
AcDbLine
 10
117.5141549749999
 20
182.4228210449
 30
0.0
 11
117.5141549749999
 21
171.7282409667999
 31
0.0
  0
LINE
  5
FC
330
2
100
AcDbEntity
  8
0
 62
     3
100
AcDbLine
 10
118.5141549749999
 20
182.4228210449
 30
0.0
 11
118.5141549749999
 21
171.7282409667999
 31
0.0
  0
LINE
  5
FD
330
2
100
AcDbEntity
  8
0
 62
     3
100
AcDbLine
 10
112.014154975
 20
179.0
 30
0.0
 11
112.014154975
 21
169.1000061035
 31
0.0
  0
LINE
  5
FE
330
2
100
AcDbEntity
  8
0
 62
     3
100
AcDbLine
 10
116.3141427678999
 20
179.0
 30
0.0
 11
116.3141427678999
 21
169.1000061035
 31
0.0
  0
LINE
  5
FF
330
2
100
AcDbEntity
  8
0
 62
     3
100
AcDbLine
 10
116.3141580266999
 20
169.1000061035
 30
0.0
 11
112.0141702337999
 21
169.1000061035
 31
0.0
  0
LINE
  5
100
330
2
100
AcDbEntity
  8
0
 62
     3
100
AcDbLine
 10
116.3141580266999
 20
167.9000091552999
 30
0.0
 11
112.0141702337999
 21
167.9000091552999
 31
0.0
  0
LINE
  5
101
330
2
100
AcDbEntity
  8
0
 62
     3
100
AcDbLine
 10
116.3141885442999
 20
177.1000061035
 30
0.0
 11
112.0142007512999
 21
177.1000061035
 31
0.0
  0
LINE
  5
102
330
2
100
AcDbEntity
  8
0
 62
     3
100
AcDbLine
 10
117.5141549749999
 20
179.0
 30
0.0
 11
111.8141885442999
 21
179.0
 31
0.0
  0
LINE
  5
103
330
2
100
AcDbEntity
  8
0
 62
     3
100
AcDbLine
 10
118.3141580266999
 20
173.4968261718999
 30
0.0
 11
118.5141549749999
 21
173.4968261718999
 31
0.0
  0
LINE
  5
104
330
2
100
AcDbEntity
  8
0
 62
     3
100
AcDbLine
 10
117.5141549749999
 20
172.5016937255998
 30
0.0
 11
118.5141549749999
 21
172.5016937255998
 31
0.0
  0
LINE
  5
105
330
2
100
AcDbEntity
  8
0
 62
     3
100
AcDbLine
 10
118.3141580266999
 20
173.4967956543
 30
0.0
 11
118.3141580266999
 21
172.501663208
 31
0.0
  0
LINE
  5
106
330
2
100
AcDbEntity
  8
0
 62
     3
100
AcDbLine
 10
117.5141549749999
 20
180.9743041992
 30
0.0
 11
118.5141549749999
 21
180.9743041992
 31
0.0
  0
LINE
  5
107
330
2
100
AcDbEntity
  8
0
 62
     3
100
AcDbLine
 10
117.5141549749999
 20
182.4228363037
 30
0.0
 11
118.5141549749999
 21
182.4228363037
 31
0.0
  0
ARC
  5
108
330
2
100
AcDbEntity
  8
0
 62
     3
100
AcDbCircle
 10
111.8141427678999
 20
205.0000305175999
 30
0.0
 40
1.0
100
AcDbArc
 50
179.9999640277999
 51
269.9999460416999
  0
LINE
  5
109
330
2
100
AcDbEntity
  8
0
 62
     3
100
AcDbLine
 10
112.0141702337999
 20
205.9000549315999
 30
0.0
 11
116.3141580266999
 21
205.9000549315999
 31
0.0
  0
LINE
  5
10A
330
2
100
AcDbEntity
  8
0
 62
     3
100
AcDbLine
 10
111.8141580267
 20
204.0000305176
 30
0.0
 11
117.5141549749999
 21
204.0000305176
 31
0.0
  0
LINE
  5
10B
330
2
100
AcDbEntity
  8
0
 62
     3
100
AcDbLine
 10
117.5141549749999
 20
201.5380554198999
 30
0.0
 11
118.5141549749999
 21
201.5380554198999
 31
0.0
  0
LINE
  5
10C
330
2
100
AcDbEntity
  8
0
 62
     3
100
AcDbLine
 10
117.5141549749999
 20
203.3369293213
 30
0.0
 11
118.5141549749999
 21
203.3369293213
 31
0.0
  0
LINE
  5
10D
330
2
100
AcDbEntity
  8
0
 62
     3
100
AcDbLine
 10
98.81418854429998
 20
223.4000396727997
 30
0.0
 11
110.8141580267
 21
223.4000396727997
 31
0.0
  0
LINE
  5
10E
330
2
100
AcDbEntity
  8
0
 62
     3
100
AcDbLine
 10
93.31414276789995
 20
209.3999176024999
 30
0.0
 11
98.8142190619
 21
209.3999176024999
 31
0.0
  0
LINE
  5
10F
330
2
100
AcDbEntity
  8
0
 62
     3
100
AcDbLine
 10
93.31414276789995
 20
208.8999176024997
 30
0.0
 11
98.8142190619
 21
208.8999176024997
 31
0.0
  0
LINE
  5
110
330
2
100
AcDbEntity
  8
0
 62
     3
100
AcDbLine
 10
93.31414276789995
 20
222.5999145508
 30
0.0
 11
98.81418854429998
 21
222.5999145508
 31
0.0
  0
LINE
  5
111
330
2
100
AcDbEntity
  8
0
 62
     3
100
AcDbLine
 10
93.31414276789995
 20
222.0999145507998
 30
0.0
 11
98.81418854429998
 21
222.0999145507998
 31
0.0
  0
LINE
  5
112
330
2
100
AcDbEntity
  8
0
 62
     3
100
AcDbLine
 10
93.31414276789995
 20
216.1999206542998
 30
0.0
 11
98.81420380309997
 21
216.1999206542998
 31
0.0
  0
LINE
  5
113
330
2
100
AcDbEntity
  8
0
 62
     3
100
AcDbLine
 10
93.31414276789995
 20
215.6999206542999
 30
0.0
 11
98.81420380309997
 21
215.6999206542999
 31
0.0
  0
LINE
  5
114
330
2
100
AcDbEntity
  8
0
 62
     3
100
AcDbLine
 10
93.31418854429998
 20
209.3999176024999
 30
0.0
 11
93.31418854429998
 21
208.8999176024997
 31
0.0
  0
LINE
  5
115
330
2
100
AcDbEntity
  8
0
 62
     3
100
AcDbLine
 10
93.31418854429998
 20
216.1999206542998
 30
0.0
 11
93.31418854429998
 21
215.6999206542999
 31
0.0
  0
LINE
  5
116
330
2
100
AcDbEntity
  8
0
 62
     3
100
AcDbLine
 10
93.31418854429998
 20
222.5999145508
 30
0.0
 11
93.31418854429998
 21
222.0999145507998
 31
0.0
  0
LINE
  5
117
330
2
100
AcDbEntity
  8
0
 62
     3
100
AcDbLine
 10
96.8141427679
 20
209.3999176024999
 30
0.0
 11
96.8141427679
 21
208.8999176024997
 31
0.0
  0
LINE
  5
118
330
2
100
AcDbEntity
  8
0
 62
     3
100
AcDbLine
 10
96.8141427679
 20
216.1999206542998
 30
0.0
 11
96.8141427679
 21
215.6999206542999
 31
0.0
  0
LINE
  5
119
330
2
100
AcDbEntity
  8
0
 62
     3
100
AcDbLine
 10
102.0141702337999
 20
208.8003234862998
 30
0.0
 11
100.5141702337999
 21
208.8003234862998
 31
0.0
  0
LINE
  5
11A
330
2
100
AcDbEntity
  8
0
 62
     3
100
AcDbLine
 10
102.0141702337999
 20
211.2002258300999
 30
0.0
 11
100.5141702337999
 21
211.2002258300999
 31
0.0
  0
LINE
  5
11B
330
2
100
AcDbEntity
  8
0
 62
     3
100
AcDbLine
 10
100.5141702337999
 20
208.8003234862998
 30
0.0
 11
100.5141702337999
 21
211.2002258300999
 31
0.0
  0
LINE
  5
11C
330
2
100
AcDbEntity
  8
0
 62
     3
100
AcDbLine
 10
102.0141702337999
 20
208.8003234862998
 30
0.0
 11
102.0141702337999
 21
211.2002258300999
 31
0.0
  0
LINE
  5
11D
330
2
100
AcDbEntity
  8
0
 62
     3
100
AcDbLine
 10
102.0141702337999
 20
218.0000457763999
 30
0.0
 11
100.5141702337999
 21
218.0000457763999
 31
0.0
  0
LINE
  5
11E
330
2
100
AcDbEntity
  8
0
 62
     3
100
AcDbLine
 10
102.0141702337999
 20
215.6000976561999
 30
0.0
 11
100.5141702337999
 21
215.6000976561999
 31
0.0
  0
LINE
  5
11F
330
2
100
AcDbEntity
  8
0
 62
     3
100
AcDbLine
 10
100.5141702337999
 20
218.0000457763999
 30
0.0
 11
100.5141702337999
 21
215.6000976561999
 31
0.0
  0
LINE
  5
120
330
2
100
AcDbEntity
  8
0
 62
     3
100
AcDbLine
 10
102.0141702337999
 20
218.0000457763999
 30
0.0
 11
102.0141702337999
 21
215.6000976561999
 31
0.0
  0
LINE
  5
121
330
2
100
AcDbEntity
  8
0
 62
     3
100
AcDbLine
 10
96.8141427679
 20
222.5999145508
 30
0.0
 11
96.8141427679
 21
222.0999145507998
 31
0.0
  0
ARC
  5
122
330
2
100
AcDbEntity
  8
0
 62
     3
100
AcDbCircle
 10
111.8141427678999
 20
224.0000152588
 30
0.0
 40
1.0
100
AcDbArc
 50
89.99998201389999
 51
179.9999640277999
  0
LINE
  5
123
330
2
100
AcDbEntity
  8
0
 62
     3
100
AcDbLine
 10
106.8141580267
 20
218.0000152588
 30
0.0
 11
109.8141580267
 21
218.0000152588
 31
0.0
  0
LINE
  5
124
330
2
100
AcDbEntity
  8
0
 62
     3
100
AcDbLine
 10
109.8141580267
 20
211.0000305175999
 30
0.0
 11
106.8141580267
 21
211.0000305175999
 31
0.0
  0
LINE
  5
125
330
2
100
AcDbEntity
  8
0
 62
     3
100
AcDbLine
 10
106.8141580267
 20
211.0000305175999
 30
0.0
 11
106.8141580267
 21
218.0000152588
 31
0.0
  0
LINE
  5
126
330
2
100
AcDbEntity
  8
0
 62
     3
100
AcDbLine
 10
109.8141580267
 20
218.0000152588
 30
0.0
 11
109.8141580267
 21
211.0000305175999
 31
0.0
  0
LINE
  5
127
330
2
100
AcDbEntity
  8
0
 62
     3
100
AcDbLine
 10
112.0141702337999
 20
225.0000152588
 30
0.0
 11
112.0141702337999
 21
215.1001129149996
 31
0.0
  0
LINE
  5
128
330
2
100
AcDbEntity
  8
0
 62
     3
100
AcDbLine
 10
116.3141580266999
 20
225.0000152588
 30
0.0
 11
116.3141580266999
 21
215.1001129149996
 31
0.0
  0
LINE
  5
129
330
2
100
AcDbEntity
  8
0
 62
     3
100
AcDbLine
 10
112.0141702337999
 20
213.9000396727999
 30
0.0
 11
116.3141580266999
 21
213.9000396727999
 31
0.0
  0
LINE
  5
12A
330
2
100
AcDbEntity
  8
0
 62
     3
100
AcDbLine
 10
112.0141702337999
 20
215.1001129149996
 30
0.0
 11
116.3141580266999
 21
215.1001129149996
 31
0.0
  0
LINE
  5
12B
330
2
100
AcDbEntity
  8
0
 62
     3
100
AcDbLine
 10
117.5141549749999
 20
208.7851867675999
 30
0.0
 11
118.5141549749999
 21
208.7851867675999
 31
0.0
  0
LINE
  5
12C
330
2
100
AcDbEntity
  8
0
 62
     3
100
AcDbLine
 10
118.3141580266999
 20
207.2928924559999
 30
0.0
 11
118.5141549749999
 21
207.2928924559999
 31
0.0
  0
LINE
  5
12D
330
2
100
AcDbEntity
  8
0
 62
     3
100
AcDbLine
 10
118.3141580266999
 20
208.7851409911999
 30
0.0
 11
118.3141580266999
 21
207.2928466797
 31
0.0
  0
LINE
  5
12E
330
2
100
AcDbEntity
  8
0
 62
     3
100
AcDbLine
 10
112.0141702337999
 20
223.1001129149999
 30
0.0
 11
116.3141580266999
 21
223.1001129149999
 31
0.0
  0
LINE
  5
12F
330
2
100
AcDbEntity
  8
0
 62
     3
100
AcDbLine
 10
145.5141244573999
 20
212.2191467284999
 30
0.0
 11
145.5141244573999
 21
203.0941925048999
 31
0.0
  0
LINE
  5
130
330
2
100
AcDbEntity
  8
0
 62
     3
100
AcDbLine
 10
134.2141366643999
 20
204.4999084472999
 30
0.0
 11
134.2141366643999
 21
224.4999084473
 31
0.0
  0
LINE
  5
131
330
2
100
AcDbEntity
  8
0
 62
     3
100
AcDbLine
 10
145.8141275091998
 20
225.5946350097999
 30
0.0
 11
145.8141275091998
 21
203.3998565673999
 31
0.0
  0
LINE
  5
132
330
2
100
AcDbEntity
  8
0
 62
     3
100
AcDbLine
 10
134.8141275091996
 20
226.3999481200999
 30
0.0
 11
134.8141275091996
 21
202.5998992919999
 31
0.0
  0
LINE
  5
133
330
2
100
AcDbEntity
  8
0
 62
     3
100
AcDbLine
 10
140.3141275091996
 20
225.9943084716999
 30
0.0
 11
140.3141275091996
 21
203.0055389404
 31
0.0
  0
LINE
  5
134
330
2
100
AcDbEntity
  8
0
 62
     3
100
AcDbLine
 10
140.0141397161999
 20
226.3053436279
 30
0.0
 11
140.0141397161999
 21
202.6945037841998
 31
0.0
  0
LINE
  5
135
330
2
100
AcDbEntity
  8
0
 62
     3
100
AcDbLine
 10
131.0135707406999
 20
208.3348402806999
 30
0.0
 11
131.9576562804998
 21
205.5497364399999
 31
0.0
  0
LINE
  5
136
330
2
100
AcDbEntity
  8
0
 62
     3
100
AcDbLine
 10
126.0140634221998
 20
211.4998474121
 30
0.0
 11
126.0140634221998
 21
206.1207275389998
 31
0.0
  0
LINE
  5
137
330
2
100
AcDbEntity
  8
0
 62
     3
100
AcDbLine
 10
131.0139718694999
 20
223.3997802733998
 30
0.0
 11
131.0139718694999
 21
205.5997924804999
 31
0.0
  0
LINE
  5
138
330
2
100
AcDbEntity
  8
0
 62
     3
100
AcDbLine
 10
131.0134988469999
 20
205.5998535155999
 30
0.0
 11
131.0134988469999
 21
223.3993835449
 31
0.0
  0
LINE
  5
139
330
2
100
AcDbEntity
  8
0
 62
     3
100
AcDbLine
 10
122.0640803024999
 20
206.5997541534998
 30
0.0
 11
121.8141264499999
 21
207.0996622916
 31
0.0
  0
LINE
  5
13A
330
2
100
AcDbEntity
  8
0
 62
     3
100
AcDbLine
 10
122.8140785999999
 20
206.5995552672998
 30
0.0
 11
122.4770589407996
 21
211.5874501572998
 31
0.0
  0
LINE
  5
13B
330
2
100
AcDbEntity
  8
0
 62
     3
100
AcDbLine
 10
119.5641580266999
 20
210.8866271973
 30
0.0
 11
119.5641580266999
 21
204.0000305176
 31
0.0
  0
LINE
  5
13C
330
2
100
AcDbEntity
  8
0
 62
     3
100
AcDbLine
 10
120.5641580266999
 20
210.8866271973
 30
0.0
 11
120.5641580266999
 21
204.0000305176
 31
0.0
  0
LINE
  5
13D
330
2
100
AcDbEntity
  8
0
 62
     3
100
AcDbLine
 10
123.3152206597999
 20
206.5995256154999
 30
0.0
 11
122.8490350931999
 21
213.4990774423
 31
0.0
  0
LINE
  5
13E
330
2
100
AcDbEntity
  8
0
 62
     3
100
AcDbLine
 10
122.3129365402999
 20
206.5995849191998
 30
0.0
 11
121.8956901716
 21
212.7748360448998
 31
0.0
  0
LINE
  5
13F
330
2
100
AcDbEntity
  8
0
 62
     3
100
AcDbLine
 10
123.8442984442999
 20
213.4990331573999
 30
0.0
 11
124.3104757817
 21
206.5996031232999
 31
0.0
  0
LINE
  5
140
330
2
100
AcDbEntity
  8
0
 62
     3
100
AcDbLine
 10
123.3490271178999
 20
213.4990924341999
 30
0.0
 11
123.8152126844999
 21
206.5995406074
 31
0.0
  0
LINE
  5
141
330
2
100
AcDbEntity
  8
0
 62
     3
100
AcDbLine
 10
121.3141427678999
 20
225.0000152588
 30
0.0
 11
121.3141427678999
 21
204.0000305176
 31
0.0
  0
LINE
  5
142
330
2
100
AcDbEntity
  8
0
 62
     3
100
AcDbLine
 10
132.0135627784999
 20
208.4997444868998
 30
0.0
 11
132.9047239584999
 21
205.8707703945999
 31
0.0
  0
LINE
  5
143
330
2
100
AcDbEntity
  8
0
 62
     3
100
AcDbLine
 10
132.6576333685
 20
206.5998992919999
 30
0.0
 11
134.2141366643999
 21
206.5998992919999
 31
0.0
  0
LINE
  5
144
330
2
100
AcDbEntity
  8
0
 62
     3
100
AcDbLine
 10
134.2141366643999
 20
176.4999237059999
 30
0.0
 11
132.6915536565999
 21
176.4999237059999
 31
0.0
  0
LINE
  5
145
330
2
100
AcDbEntity
  8
0
 62
     3
100
AcDbLine
 10
133.8140008490997
 20
175.899697176
 30
0.0
 11
134.1140355480999
 21
176.4997670937
 31
0.0
  0
LINE
  5
146
330
2
100
AcDbEntity
  8
0
 62
     3
100
AcDbLine
 10
127.2140756292999
 20
176.8791198729999
 30
0.0
 11
126.0140786809996
 21
176.8791198729999
 31
0.0
  0
LINE
  5
147
330
2
100
AcDbEntity
  8
0
 62
     3
100
AcDbLine
 10
126.0140786809996
 20
171.4999542236
 30
0.0
 11
127.2140756292999
 21
171.4999542236
 31
0.0
  0
LINE
  5
148
330
2
100
AcDbEntity
  8
0
 62
     3
100
AcDbLine
 10
127.2140756292999
 20
165.4999542236
 30
0.0
 11
126.0140786809996
 21
165.4999542236
 31
0.0
  0
LINE
  5
149
330
2
100
AcDbEntity
  8
0
 62
     3
100
AcDbLine
 10
126.0140786809996
 20
176.8791198729999
 30
0.0
 11
126.0140786809996
 21
171.4999542236
 31
0.0
  0
LINE
  5
14A
330
2
100
AcDbEntity
  8
0
 62
     3
100
AcDbLine
 10
121.8141427678999
 20
175.8999481200999
 30
0.0
 11
121.8141427678999
 21
161.1000061034999
 31
0.0
  0
LINE
  5
14B
330
2
100
AcDbEntity
  8
0
 62
     3
100
AcDbLine
 10
120.5641580266999
 20
179.0
 30
0.0
 11
120.5641580266999
 21
171.7282714844
 31
0.0
  0
LINE
  5
14C
330
2
100
AcDbEntity
  8
0
 62
     3
100
AcDbLine
 10
119.5641580266999
 20
179.0
 30
0.0
 11
119.5641580266999
 21
171.7282714844
 31
0.0
  0
LINE
  5
14D
330
2
100
AcDbEntity
  8
0
 62
     3
100
AcDbLine
 10
121.8141427678999
 20
161.1000061034999
 30
0.0
 11
126.0141397161999
 21
161.1000061034999
 31
0.0
  0
LINE
  5
14E
330
2
100
AcDbEntity
  8
0
 62
     3
100
AcDbLine
 10
121.8141427678999
 20
161.1500091552999
 30
0.0
 11
121.3141580267
 21
161.1500091552999
 31
0.0
  0
LINE
  5
14F
330
2
100
AcDbEntity
  8
0
 62
     3
100
AcDbLine
 10
126.0141244573999
 20
175.8999481200999
 30
0.0
 11
121.8141427678999
 21
175.8999481200999
 31
0.0
  0
LINE
  5
150
330
2
100
AcDbEntity
  8
0
 62
     3
100
AcDbLine
 10
126.0141244573999
 20
176.4999237059999
 30
0.0
 11
122.1141305608999
 21
176.4999237059999
 31
0.0
  0
LINE
  5
151
330
2
100
AcDbEntity
  8
0
 62
     3
100
AcDbLine
 10
121.8141427678999
 20
175.8498992919999
 30
0.0
 11
121.3141580267
 21
175.8498992919999
 31
0.0
  0
LINE
  5
152
330
2
100
AcDbEntity
  8
0
 62
     3
100
AcDbLine
 10
121.8140444258999
 20
175.8996725459
 30
0.0
 11
122.1140791247999
 21
176.4997424636
 31
0.0
  0
LINE
  5
153
330
2
100
AcDbEntity
  8
0
 62
     3
100
AcDbLine
 10
133.8141275091996
 20
175.8999481200999
 30
0.0
 11
133.8141275091996
 21
161.1000061034999
 31
0.0
  0
LINE
  5
154
330
2
100
AcDbEntity
  8
0
 62
     3
100
AcDbLine
 10
128.0140634221999
 20
172.4202270508
 30
0.0
 11
128.0140634221999
 21
171.3777770995999
 31
0.0
  0
LINE
  5
155
330
2
100
AcDbEntity
  8
0
 62
     3
100
AcDbLine
 10
132.0135141057999
 20
162.4999542235999
 30
0.0
 11
132.0135141057999
 21
174.4999237059999
 31
0.0
  0
LINE
  5
156
330
2
100
AcDbEntity
  8
0
 62
     3
100
AcDbLine
 10
131.0140634221999
 20
166.8074798583999
 30
0.0
 11
128.0140634221999
 21
166.8074798583999
 31
0.0
  0
LINE
  5
157
330
2
100
AcDbEntity
  8
0
 62
     3
100
AcDbLine
 10
131.0140634221999
 20
167.8999328612999
 30
0.0
 11
128.0140634221999
 21
167.8999328612999
 31
0.0
  0
LINE
  5
158
330
2
100
AcDbEntity
  8
0
 62
     3
100
AcDbLine
 10
128.0140634221999
 20
171.3777770995999
 30
0.0
 11
131.0140634221999
 21
171.3777770995999
 31
0.0
  0
LINE
  5
159
330
2
100
AcDbEntity
  8
0
 62
     3
100
AcDbLine
 10
128.0140634221999
 20
170.1924133300998
 30
0.0
 11
131.0140634221999
 21
170.1924133300998
 31
0.0
  0
LINE
  5
15A
330
2
100
AcDbEntity
  8
0
 62
     3
100
AcDbLine
 10
128.0140634221999
 20
169.0999603270999
 30
0.0
 11
131.0140634221999
 21
169.0999603270999
 31
0.0
  0
LINE
  5
15B
330
2
100
AcDbEntity
  8
0
 62
     3
100
AcDbLine
 10
131.0140634221999
 20
161.1098480224
 30
0.0
 11
128.0140634221999
 21
161.1098480224
 31
0.0
  0
LINE
  5
15C
330
2
100
AcDbEntity
  8
0
 62
     3
100
AcDbLine
 10
131.0140634221999
 20
161.7967376708999
 30
0.0
 11
128.0140634221999
 21
161.7967376708999
 31
0.0
  0
LINE
  5
15D
330
2
100
AcDbEntity
  8
0
 62
     3
100
AcDbLine
 10
131.0140634221999
 20
162.6654357909998
 30
0.0
 11
128.0140634221999
 21
162.6654357909998
 31
0.0
  0
LINE
  5
15E
330
2
100
AcDbEntity
  8
0
 62
     3
100
AcDbLine
 10
131.0140634221999
 20
163.5404510497999
 30
0.0
 11
128.0140634221999
 21
163.5404510497999
 31
0.0
  0
LINE
  5
15F
330
2
100
AcDbEntity
  8
0
 62
     3
100
AcDbLine
 10
131.0140634221999
 20
164.5796661377
 30
0.0
 11
128.0140634221999
 21
164.5796661377
 31
0.0
  0
LINE
  5
160
330
2
100
AcDbEntity
  8
0
 62
     3
100
AcDbLine
 10
131.0140634221999
 20
165.6221160888998
 30
0.0
 11
128.0140634221999
 21
165.6221160888998
 31
0.0
  0
LINE
  5
161
330
2
100
AcDbEntity
  8
0
 62
     3
100
AcDbLine
 10
127.2140756292999
 20
171.4999542236
 30
0.0
 11
127.2140756292999
 21
165.4999542236
 31
0.0
  0
LINE
  5
162
330
2
100
AcDbEntity
  8
0
 62
     3
100
AcDbLine
 10
128.0140634221999
 20
161.1098480224
 30
0.0
 11
128.0140634221999
 21
161.7967376708999
 31
0.0
  0
LINE
  5
163
330
2
100
AcDbEntity
  8
0
 62
     3
100
AcDbLine
 10
128.0140634221999
 20
162.6654357909998
 30
0.0
 11
128.0140634221999
 21
163.5404510497999
 31
0.0
  0
LINE
  5
164
330
2
100
AcDbEntity
  8
0
 62
     3
100
AcDbLine
 10
128.0140634221999
 20
165.6221160888998
 30
0.0
 11
128.0140634221999
 21
164.5796661377
 31
0.0
  0
LINE
  5
165
330
2
100
AcDbEntity
  8
0
 62
     3
100
AcDbLine
 10
128.0140634221999
 20
167.8999328612999
 30
0.0
 11
128.0140634221999
 21
166.8074798583999
 31
0.0
  0
LINE
  5
166
330
2
100
AcDbEntity
  8
0
 62
     3
100
AcDbLine
 10
128.0140634221999
 20
170.1924133300998
 30
0.0
 11
128.0140634221999
 21
169.0999603270999
 31
0.0
  0
LINE
  5
167
330
2
100
AcDbEntity
  8
0
 62
     3
100
AcDbLine
 10
132.4881539983999
 20
161.1000061034999
 30
0.0
 11
133.8141427678999
 21
161.1000061034999
 31
0.0
  0
LINE
  5
168
330
2
100
AcDbEntity
  8
0
 62
     3
100
AcDbLine
 10
127.2140756292999
 20
177.3999481200999
 30
0.0
 11
131.0140634221999
 21
177.3999481200999
 31
0.0
  0
LINE
  5
169
330
2
100
AcDbEntity
  8
0
 62
     3
100
AcDbLine
 10
128.0140634221999
 20
176.9131622313999
 30
0.0
 11
131.0140634221999
 21
176.9131622313999
 31
0.0
  0
LINE
  5
16A
330
2
100
AcDbEntity
  8
0
 62
     3
100
AcDbLine
 10
128.0140634221999
 20
176.4900360107
 30
0.0
 11
131.0140634221999
 21
176.4900360107
 31
0.0
  0
LINE
  5
16B
330
2
100
AcDbEntity
  8
0
 62
     3
100
AcDbLine
 10
128.0140634221999
 20
175.8900451659999
 30
0.0
 11
131.0140634221999
 21
175.8900451659999
 31
0.0
  0
LINE
  5
16C
330
2
100
AcDbEntity
  8
0
 62
     3
100
AcDbLine
 10
128.0140634221999
 20
175.2031555175999
 30
0.0
 11
131.0140634221999
 21
175.2031555175999
 31
0.0
  0
LINE
  5
16D
330
2
100
AcDbEntity
  8
0
 62
     3
100
AcDbLine
 10
128.0140634221999
 20
174.3344573974
 30
0.0
 11
131.0140634221999
 21
174.3344573974
 31
0.0
  0
LINE
  5
16E
330
2
100
AcDbEntity
  8
0
 62
     3
100
AcDbLine
 10
128.0140634221999
 20
173.4594421386999
 30
0.0
 11
131.0140634221999
 21
173.4594421386999
 31
0.0
  0
LINE
  5
16F
330
2
100
AcDbEntity
  8
0
 62
     3
100
AcDbLine
 10
128.0140634221999
 20
172.4202270508
 30
0.0
 11
131.0140634221999
 21
172.4202270508
 31
0.0
  0
LINE
  5
170
330
2
100
AcDbEntity
  8
0
 62
     3
100
AcDbLine
 10
127.2140756292999
 20
177.3999481200999
 30
0.0
 11
127.2140756292999
 21
176.8791198729999
 31
0.0
  0
LINE
  5
171
330
2
100
AcDbEntity
  8
0
 62
     3
100
AcDbLine
 10
128.0141091985999
 20
176.9131317139
 30
0.0
 11
128.0141091985999
 21
176.4900207518999
 31
0.0
  0
LINE
  5
172
330
2
100
AcDbEntity
  8
0
 62
     3
100
AcDbLine
 10
128.0140634221999
 20
175.2031555175999
 30
0.0
 11
128.0140634221999
 21
175.8900451659999
 31
0.0
  0
LINE
  5
173
330
2
100
AcDbEntity
  8
0
 62
     3
100
AcDbLine
 10
128.0140634221999
 20
173.4594421386999
 30
0.0
 11
128.0140634221999
 21
174.3344573974
 31
0.0
  0
LINE
  5
174
330
2
100
AcDbEntity
  8
0
 62
     3
100
AcDbLine
 10
131.0135762484996
 20
174.6647514650998
 30
0.0
 11
131.9576808662999
 21
177.4498972567998
 31
0.0
  0
LINE
  5
175
330
2
100
AcDbEntity
  8
0
 62
     3
100
AcDbLine
 10
131.0135903998
 20
177.4500122069999
 30
0.0
 11
131.9576974553999
 21
177.4500122069999
 31
0.0
  0
LINE
  5
176
330
2
100
AcDbEntity
  8
0
 62
     3
100
AcDbLine
 10
133.8141427678999
 20
175.8999481200999
 30
0.0
 11
132.4881692571999
 21
175.8999481200999
 31
0.0
  0
LINE
  5
177
330
2
100
AcDbEntity
  8
0
 62
     3
100
AcDbLine
 10
132.0135876495999
 20
174.4999034945999
 30
0.0
 11
132.9047431687999
 21
177.128847361
 31
0.0
  0
LINE
  5
178
330
2
100
AcDbEntity
  8
0
 62
     3
100
AcDbLine
 10
131.9576942379999
 20
177.4498896279999
 30
0.0
 11
132.9047585184996
 21
177.1288457193999
 31
0.0
  0
LINE
  5
179
330
2
100
AcDbEntity
  8
0
 62
     3
100
AcDbLine
 10
126.0140634221998
 20
206.1207275389998
 30
0.0
 11
127.2140603704998
 21
206.1207275389998
 31
0.0
  0
LINE
  5
17A
330
2
100
AcDbEntity
  8
0
 62
     3
100
AcDbLine
 10
122.0640969915999
 20
206.5998992919999
 30
0.0
 11
126.0141244573999
 21
206.5998992919999
 31
0.0
  0
LINE
  5
17B
330
2
100
AcDbEntity
  8
0
 62
     3
100
AcDbLine
 10
131.0140329046997
 20
205.5998382568
 30
0.0
 11
127.2140451116999
 21
205.5998382568
 31
0.0
  0
LINE
  5
17C
330
2
100
AcDbEntity
  8
0
 62
     3
100
AcDbLine
 10
131.0140481633996
 20
206.0866241454998
 30
0.0
 11
128.0140481633999
 21
206.0866241454998
 31
0.0
  0
LINE
  5
17D
330
2
100
AcDbEntity
  8
0
 62
     3
100
AcDbLine
 10
131.0140481633996
 20
206.5097503661998
 30
0.0
 11
128.0140481633999
 21
206.5097503661998
 31
0.0
  0
LINE
  5
17E
330
2
100
AcDbEntity
  8
0
 62
     3
100
AcDbLine
 10
127.2140385155998
 20
205.5998126447
 30
0.0
 11
127.2140537743999
 21
206.1207019268998
 31
0.0
  0
LINE
  5
17F
330
2
100
AcDbEntity
  8
0
 62
     3
100
AcDbLine
 10
128.0139718694999
 20
206.5097045898
 30
0.0
 11
128.0139718694999
 21
206.0865936279
 31
0.0
  0
LINE
  5
180
330
2
100
AcDbEntity
  8
0
 62
     3
100
AcDbLine
 10
131.0135903998
 20
205.5499114989999
 30
0.0
 11
131.9576821966996
 21
205.5499114989999
 31
0.0
  0
LINE
  5
181
330
2
100
AcDbEntity
  8
0
 62
     3
100
AcDbLine
 10
131.9576176536999
 20
205.5497289044998
 30
0.0
 11
132.9046865833996
 21
205.870759104
 31
0.0
  0
LINE
  5
182
330
2
100
AcDbEntity
  8
0
 62
     3
100
AcDbLine
 10
140.3140943003999
 20
179.9940370567999
 30
0.0
 11
145.5141342838
 21
179.9047923054
 31
0.0
  0
LINE
  5
183
330
2
100
AcDbEntity
  8
0
 62
     3
100
AcDbLine
 10
140.3089476191999
 20
179.6941544552
 30
0.0
 11
145.8141337112999
 21
179.5996726885999
 31
0.0
  0
LINE
  5
184
330
2
100
AcDbEntity
  8
0
 62
     3
100
AcDbLine
 10
134.8141198374999
 20
180.399793021
 30
0.0
 11
140.0141577408999
 21
180.3052465334999
 31
0.0
  0
LINE
  5
185
330
2
100
AcDbEntity
  8
0
 62
     3
100
AcDbLine
 10
134.8086652857996
 20
180.0997937682
 30
0.0
 11
140.0141191642999
 21
180.005148808
 31
0.0
  0
LINE
  5
186
330
2
100
AcDbEntity
  8
0
 62
     3
100
AcDbLine
 10
134.2141366643999
 20
178.5
 30
0.0
 11
134.8141275091996
 21
178.5
 31
0.0
  0
LINE
  5
187
330
2
100
AcDbEntity
  8
0
 62
     3
100
AcDbLine
 10
140.0139211623999
 20
180.3051340549
 30
0.0
 11
140.3138662704997
 21
179.9940791561
 31
0.0
  0
LINE
  5
188
330
2
100
AcDbEntity
  8
0
 62
     3
100
AcDbLine
 10
140.0139281508999
 20
180.0051224746999
 30
0.0
 11
140.3139329306999
 21
179.6940615676998
 31
0.0
  0
LINE
  5
189
330
2
100
AcDbEntity
  8
0
 62
     3
100
AcDbLine
 10
145.5139199594998
 20
179.9048340119
 30
0.0
 11
145.8138751554998
 21
179.5944038818999
 31
0.0
  0
LINE
  5
18A
330
2
100
AcDbEntity
  8
0
 62
     3
100
AcDbLine
 10
145.5085547688999
 20
203.0940972652999
 30
0.0
 11
140.3141159159
 21
202.9996534692998
 31
0.0
  0
LINE
  5
18B
330
2
100
AcDbEntity
  8
0
 62
     3
100
AcDbLine
 10
145.8141189813999
 20
203.3993548685999
 30
0.0
 11
140.3089481457999
 21
203.3048733638
 31
0.0
  0
LINE
  5
18C
330
2
100
AcDbEntity
  8
0
 62
     3
100
AcDbLine
 10
140.01416394
 20
202.6942587326999
 30
0.0
 11
134.8141260365999
 21
202.5997122451999
 31
0.0
  0
LINE
  5
18D
330
2
100
AcDbEntity
  8
0
 62
     3
100
AcDbLine
 10
140.0141275824996
 20
202.9942344079999
 30
0.0
 11
134.808673704
 21
202.8995894478
 31
0.0
  0
LINE
  5
18E
330
2
100
AcDbEntity
  8
0
 62
     3
100
AcDbLine
 10
134.2141366643999
 20
204.4999084472999
 30
0.0
 11
134.8141275091996
 21
204.4999084472999
 31
0.0
  0
LINE
  5
18F
330
2
100
AcDbEntity
  8
0
 62
     3
100
AcDbLine
 10
140.3140093926999
 20
202.9997885316999
 30
0.0
 11
140.0084476542999
 21
202.6942276948
 31
0.0
  0
LINE
  5
190
330
2
100
AcDbEntity
  8
0
 62
     3
100
AcDbLine
 10
140.3138851778999
 20
203.3051892832999
 30
0.0
 11
140.0139020470999
 21
202.9941498787
 31
0.0
  0
LINE
  5
191
330
2
100
AcDbEntity
  8
0
 62
     3
100
AcDbLine
 10
145.8139626960999
 20
203.3996938447999
 30
0.0
 11
145.5084011380999
 21
203.0941328276
 31
0.0
  0
LINE
  5
192
330
2
100
AcDbEntity
  8
0
 62
     3
100
AcDbLine
 10
134.2141366643999
 20
222.3998260497999
 30
0.0
 11
132.6576486272998
 21
222.3998260497999
 31
0.0
  0
LINE
  5
193
330
2
100
AcDbEntity
  8
0
 62
     3
100
AcDbLine
 10
134.1141305608996
 20
215.4998016356997
 30
0.0
 11
132.0135598821998
 21
215.4998016356997
 31
0.0
  0
LINE
  5
194
330
2
100
AcDbEntity
  8
0
 62
     3
100
AcDbLine
 10
134.1141305608996
 20
213.4998016356998
 30
0.0
 11
132.0135598821998
 21
213.4998016356998
 31
0.0
  0
LINE
  5
195
330
2
100
AcDbEntity
  8
0
 62
     3
100
AcDbLine
 10
127.2140603704998
 20
222.8790130614999
 30
0.0
 11
126.0140634221998
 21
222.8790130614999
 31
0.0
  0
LINE
  5
196
330
2
100
AcDbEntity
  8
0
 62
     3
100
AcDbLine
 10
126.0140634221998
 20
217.4998474121
 30
0.0
 11
127.2140603704998
 21
217.4998474121
 31
0.0
  0
LINE
  5
197
330
2
100
AcDbEntity
  8
0
 62
     3
100
AcDbLine
 10
127.2140603704998
 20
211.4998474121
 30
0.0
 11
126.0140634221998
 21
211.4998474121
 31
0.0
  0
LINE
  5
198
330
2
100
AcDbEntity
  8
0
 62
     3
100
AcDbLine
 10
127.2141214055998
 20
213.4998016356998
 30
0.0
 11
122.3141275091996
 21
213.4998016356998
 31
0.0
  0
LINE
  5
199
330
2
100
AcDbEntity
  8
0
 62
     3
100
AcDbLine
 10
127.2141214055998
 20
215.4998016356997
 30
0.0
 11
122.7803445501999
 21
215.4998016356997
 31
0.0
  0
LINE
  5
19A
330
2
100
AcDbEntity
  8
0
 62
     3
100
AcDbLine
 10
126.0140634221998
 20
222.8790130614999
 30
0.0
 11
126.0140634221998
 21
217.4998474121
 31
0.0
  0
LINE
  5
19B
330
2
100
AcDbEntity
  8
0
 62
     3
100
AcDbLine
 10
122.8140745004999
 20
222.3994145077999
 30
0.0
 11
123.2802929839998
 21
215.4993755105
 31
0.0
  0
LINE
  5
19C
330
2
100
AcDbEntity
  8
0
 62
     3
100
AcDbLine
 10
123.3140665251999
 20
222.3994294995998
 30
0.0
 11
123.7802767794999
 21
215.4995122948998
 31
0.0
  0
LINE
  5
19D
330
2
100
AcDbEntity
  8
0
 62
     3
100
AcDbLine
 10
123.8140737739998
 20
222.3994455200998
 30
0.0
 11
124.2802840282999
 21
215.4995283154
 31
0.0
  0
LINE
  5
19E
330
2
100
AcDbEntity
  8
0
 62
     3
100
AcDbLine
 10
122.3512222001999
 20
221.8495048156999
 30
0.0
 11
122.7802775059999
 21
215.4994812826
 31
0.0
  0
LINE
  5
19F
330
2
100
AcDbEntity
  8
0
 62
     3
100
AcDbLine
 10
119.4086251897999
 20
219.6103363036999
 30
0.0
 11
119.4086251897999
 21
215.1103363037
 31
0.0
  0
LINE
  5
1A0
330
2
100
AcDbEntity
  8
0
 62
     3
100
AcDbLine
 10
120.2086282415999
 20
219.6103363036999
 30
0.0
 11
120.2086282415999
 21
215.1103363037
 31
0.0
  0
LINE
  5
1A1
330
2
100
AcDbEntity
  8
0
 62
     3
100
AcDbLine
 10
121.8141427678999
 20
221.8498992919998
 30
0.0
 11
121.8141427678999
 21
207.0998992919999
 31
0.0
  0
LINE
  5
1A2
330
2
100
AcDbEntity
  8
0
 62
     3
100
AcDbLine
 10
122.3139013369999
 20
213.4995934462998
 30
0.0
 11
122.9197743726997
 21
212.450190387
 31
0.0
  0
LINE
  5
1A3
330
2
100
AcDbEntity
  8
0
 62
     3
100
AcDbLine
 10
121.8954625968999
 20
212.7748661033999
 30
0.0
 11
122.4768312938999
 21
211.5874857150998
 31
0.0
  0
LINE
  5
1A4
330
2
100
AcDbEntity
  8
0
 62
     3
100
AcDbLine
 10
121.8141427678999
 20
207.1499481201
 30
0.0
 11
121.3141427678999
 21
207.1499481201
 31
0.0
  0
LINE
  5
1A5
330
2
100
AcDbEntity
  8
0
 62
     3
100
AcDbLine
 10
119.8086247115996
 20
212.6102316465998
 30
0.0
 11
120.7086210102999
 21
215.1102251661
 31
0.0
  0
LINE
  5
1A6
330
2
100
AcDbEntity
  8
0
 62
     3
100
AcDbLine
 10
120.2086282415999
 20
215.1103363037
 30
0.0
 11
120.7086282416
 21
215.1103363037
 31
0.0
  0
LINE
  5
1A7
330
2
100
AcDbEntity
  8
0
 62
     3
100
AcDbLine
 10
118.9086251897998
 20
215.1103363037
 30
0.0
 11
119.4086251897999
 21
215.1103363037
 31
0.0
  0
LINE
  5
1A8
330
2
100
AcDbEntity
  8
0
 62
     3
100
AcDbLine
 10
118.9086044894999
 20
215.1102935288
 30
0.0
 11
119.8086070652999
 21
212.6102859692998
 31
0.0
  0
LINE
  5
1A9
330
2
100
AcDbEntity
  8
0
 62
     3
100
AcDbLine
 10
122.3139891138
 20
213.4993680078
 30
0.0
 11
121.8955321323999
 21
212.7745791319998
 31
0.0
  0
LINE
  5
1AA
330
2
100
AcDbEntity
  8
0
 62
     3
100
AcDbLine
 10
122.4770705832999
 20
211.5874729349999
 30
0.0
 11
122.9198817569999
 21
212.4500569393
 31
0.0
  0
LINE
  5
1AB
330
2
100
AcDbEntity
  8
0
 62
     3
100
AcDbLine
 10
122.4765878362999
 20
221.8498992919998
 30
0.0
 11
121.3141427678999
 21
221.8498992919998
 31
0.0
  0
LINE
  5
1AC
330
2
100
AcDbEntity
  8
0
 62
     3
100
AcDbLine
 10
119.4086251897999
 20
219.6103363036999
 30
0.0
 11
120.2086282415999
 21
219.6103363036999
 31
0.0
  0
LINE
  5
1AD
330
2
100
AcDbEntity
  8
0
 62
     3
100
AcDbLine
 10
126.0141244573999
 20
222.3998260497999
 30
0.0
 11
122.7515512151999
 21
222.3998260497999
 31
0.0
  0
LINE
  5
1AE
330
2
100
AcDbEntity
  8
0
 62
     3
100
AcDbLine
 10
122.4766260606999
 20
221.8496693746998
 30
0.0
 11
122.7515486850996
 21
222.3995150998999
 31
0.0
  0
LINE
  5
1AF
330
2
100
AcDbEntity
  8
0
 62
     3
100
AcDbLine
 10
128.0140481633999
 20
218.4201202391999
 30
0.0
 11
128.0140481633999
 21
217.3776702881
 31
0.0
  0
LINE
  5
1B0
330
2
100
AcDbEntity
  8
0
 62
     3
100
AcDbLine
 10
132.0134988469999
 20
208.4998626708999
 30
0.0
 11
132.0134988469999
 21
220.4998321532999
 31
0.0
  0
LINE
  5
1B1
330
2
100
AcDbEntity
  8
0
 62
     3
100
AcDbLine
 10
131.0140481633996
 20
212.8073730468999
 30
0.0
 11
128.0140481633999
 21
212.8073730468999
 31
0.0
  0
LINE
  5
1B2
330
2
100
AcDbEntity
  8
0
 62
     3
100
AcDbLine
 10
131.0140481633996
 20
213.8998260498
 30
0.0
 11
128.0140481633999
 21
213.8998260498
 31
0.0
  0
LINE
  5
1B3
330
2
100
AcDbEntity
  8
0
 62
     3
100
AcDbLine
 10
128.0140481633999
 20
217.3776702881
 30
0.0
 11
131.0140481633996
 21
217.3776702881
 31
0.0
  0
LINE
  5
1B4
330
2
100
AcDbEntity
  8
0
 62
     3
100
AcDbLine
 10
128.0140481633999
 20
216.1923065184999
 30
0.0
 11
131.0140481633996
 21
216.1923065184999
 31
0.0
  0
LINE
  5
1B5
330
2
100
AcDbEntity
  8
0
 62
     3
100
AcDbLine
 10
128.0140481633999
 20
215.0998535155999
 30
0.0
 11
131.0140481633996
 21
215.0998535155999
 31
0.0
  0
LINE
  5
1B6
330
2
100
AcDbEntity
  8
0
 62
     3
100
AcDbLine
 10
131.0140481633996
 20
207.1097412108999
 30
0.0
 11
128.0140481633999
 21
207.1097412108999
 31
0.0
  0
LINE
  5
1B7
330
2
100
AcDbEntity
  8
0
 62
     3
100
AcDbLine
 10
131.0140481633996
 20
207.7966308593999
 30
0.0
 11
128.0140481633999
 21
207.7966308593999
 31
0.0
  0
LINE
  5
1B8
330
2
100
AcDbEntity
  8
0
 62
     3
100
AcDbLine
 10
131.0140481633996
 20
208.6653289794998
 30
0.0
 11
128.0140481633999
 21
208.6653289794998
 31
0.0
  0
LINE
  5
1B9
330
2
100
AcDbEntity
  8
0
 62
     3
100
AcDbLine
 10
131.0140481633996
 20
209.5403442383
 30
0.0
 11
128.0140481633999
 21
209.5403442383
 31
0.0
  0
LINE
  5
1BA
330
2
100
AcDbEntity
  8
0
 62
     3
100
AcDbLine
 10
131.0140481633996
 20
210.5795593261999
 30
0.0
 11
128.0140481633999
 21
210.5795593261999
 31
0.0
  0
LINE
  5
1BB
330
2
100
AcDbEntity
  8
0
 62
     3
100
AcDbLine
 10
131.0140481633996
 20
211.6220092773
 30
0.0
 11
128.0140481633999
 21
211.6220092773
 31
0.0
  0
LINE
  5
1BC
330
2
100
AcDbEntity
  8
0
 62
     3
100
AcDbLine
 10
127.2140603704998
 20
217.4998474121
 30
0.0
 11
127.2140603704998
 21
211.4998321533
 31
0.0
  0
LINE
  5
1BD
330
2
100
AcDbEntity
  8
0
 62
     3
100
AcDbLine
 10
128.0140481633999
 20
207.1097412108999
 30
0.0
 11
128.0140481633999
 21
207.7966308593999
 31
0.0
  0
LINE
  5
1BE
330
2
100
AcDbEntity
  8
0
 62
     3
100
AcDbLine
 10
128.0140481633999
 20
208.6653289794998
 30
0.0
 11
128.0140481633999
 21
209.5403442383
 31
0.0
  0
LINE
  5
1BF
330
2
100
AcDbEntity
  8
0
 62
     3
100
AcDbLine
 10
128.0140481633999
 20
211.6220092773
 30
0.0
 11
128.0140481633999
 21
210.5795593261999
 31
0.0
  0
LINE
  5
1C0
330
2
100
AcDbEntity
  8
0
 62
     3
100
AcDbLine
 10
128.0140481633999
 20
213.8998260498
 30
0.0
 11
128.0140481633999
 21
212.8073730468999
 31
0.0
  0
LINE
  5
1C1
330
2
100
AcDbEntity
  8
0
 62
     3
100
AcDbLine
 10
128.0140481633999
 20
216.1923065184999
 30
0.0
 11
128.0140481633999
 21
215.0998535155999
 31
0.0
  0
LINE
  5
1C2
330
2
100
AcDbEntity
  8
0
 62
     3
100
AcDbLine
 10
127.2140603704998
 20
223.3998413085998
 30
0.0
 11
131.0140481633996
 21
223.3998413085998
 31
0.0
  0
LINE
  5
1C3
330
2
100
AcDbEntity
  8
0
 62
     3
100
AcDbLine
 10
128.0140481633999
 20
222.9130554198998
 30
0.0
 11
131.0140481633996
 21
222.9130554198998
 31
0.0
  0
LINE
  5
1C4
330
2
100
AcDbEntity
  8
0
 62
     3
100
AcDbLine
 10
128.0140481633999
 20
222.4899291992
 30
0.0
 11
131.0140481633996
 21
222.4899291992
 31
0.0
  0
LINE
  5
1C5
330
2
100
AcDbEntity
  8
0
 62
     3
100
AcDbLine
 10
128.0140481633999
 20
221.8899383544998
 30
0.0
 11
131.0140481633996
 21
221.8899383544998
 31
0.0
  0
LINE
  5
1C6
330
2
100
AcDbEntity
  8
0
 62
     3
100
AcDbLine
 10
128.0140481633999
 20
221.2030487059998
 30
0.0
 11
131.0140481633996
 21
221.2030487059998
 31
0.0
  0
LINE
  5
1C7
330
2
100
AcDbEntity
  8
0
 62
     3
100
AcDbLine
 10
128.0140481633999
 20
220.3343505858998
 30
0.0
 11
131.0140481633996
 21
220.3343505858998
 31
0.0
  0
LINE
  5
1C8
330
2
100
AcDbEntity
  8
0
 62
     3
100
AcDbLine
 10
128.0140481633999
 20
219.4593353270998
 30
0.0
 11
131.0140481633996
 21
219.4593353270998
 31
0.0
  0
LINE
  5
1C9
330
2
100
AcDbEntity
  8
0
 62
     3
100
AcDbLine
 10
128.0140481633999
 20
218.4201202391999
 30
0.0
 11
131.0140481633996
 21
218.4201202391999
 31
0.0
  0
LINE
  5
1CA
330
2
100
AcDbEntity
  8
0
 62
     3
100
AcDbLine
 10
127.2140603704998
 20
223.3998413085998
 30
0.0
 11
127.2140603704998
 21
222.8790130614999
 31
0.0
  0
LINE
  5
1CB
330
2
100
AcDbEntity
  8
0
 62
     3
100
AcDbLine
 10
128.0141244573999
 20
222.9130096434999
 30
0.0
 11
128.0141244573999
 21
222.4898986815999
 31
0.0
  0
LINE
  5
1CC
330
2
100
AcDbEntity
  8
0
 62
     3
100
AcDbLine
 10
128.0140481633999
 20
221.2030487059998
 30
0.0
 11
128.0140481633999
 21
221.8899383544998
 31
0.0
  0
LINE
  5
1CD
330
2
100
AcDbEntity
  8
0
 62
     3
100
AcDbLine
 10
128.0140481633999
 20
219.4593353270998
 30
0.0
 11
128.0140481633999
 21
220.3343505858998
 31
0.0
  0
LINE
  5
1CE
330
2
100
AcDbEntity
  8
0
 62
     3
100
AcDbLine
 10
131.0135779501
 20
220.6646428533999
 30
0.0
 11
131.9576825677999
 21
223.4497886450999
 31
0.0
  0
LINE
  5
1CF
330
2
100
AcDbEntity
  8
0
 62
     3
100
AcDbLine
 10
131.0135903998
 20
223.4499206542998
 30
0.0
 11
131.9576974553999
 21
223.4499206542998
 31
0.0
  0
LINE
  5
1D0
330
2
100
AcDbEntity
  8
0
 62
     3
100
AcDbLine
 10
132.0135893511999
 20
220.4997948827998
 30
0.0
 11
132.9047448703999
 21
223.1287387492999
 31
0.0
  0
LINE
  5
1D1
330
2
100
AcDbEntity
  8
0
 62
     3
100
AcDbLine
 10
131.9577073318999
 20
223.4497856301998
 30
0.0
 11
132.9047716123999
 21
223.1287417215999
 31
0.0
  0
LINE
  5
1D2
330
2
100
AcDbEntity
  8
0
 62
     3
100
AcDbLine
 10
140.3140910633996
 20
225.993811962
 30
0.0
 11
145.5141310467999
 21
225.9045672106
 31
0.0
  0
LINE
  5
1D3
330
2
100
AcDbEntity
  8
0
 62
     3
100
AcDbLine
 10
140.3089422873996
 20
225.6938073081
 30
0.0
 11
145.8141283795999
 21
225.5993255414999
 31
0.0
  0
LINE
  5
1D4
330
2
100
AcDbEntity
  8
0
 62
     3
100
AcDbLine
 10
134.8141144136999
 20
226.3996546699999
 30
0.0
 11
140.0141523169999
 21
226.3051081823999
 31
0.0
  0
LINE
  5
1D5
330
2
100
AcDbEntity
  8
0
 62
     3
100
AcDbLine
 10
134.8086620810996
 20
226.0997774673
 30
0.0
 11
140.0141007032999
 21
226.0051327844998
 31
0.0
  0
LINE
  5
1D6
330
2
100
AcDbEntity
  8
0
 62
     3
100
AcDbLine
 10
134.2141366643999
 20
224.4999084473
 30
0.0
 11
134.8141275091996
 21
224.4999084473
 31
0.0
  0
LINE
  5
1D7
330
2
100
AcDbEntity
  8
0
 62
     3
100
AcDbLine
 10
140.0138690707999
 20
226.305031529
 30
0.0
 11
140.3138141788998
 21
225.9939766302
 31
0.0
  0
LINE
  5
1D8
330
2
100
AcDbEntity
  8
0
 62
     3
100
AcDbLine
 10
140.0138105155997
 20
226.0049316329999
 30
0.0
 11
140.3138152953999
 21
225.6938707259998
 31
0.0
  0
LINE
  5
1D9
330
2
100
AcDbEntity
  8
0
 62
     3
100
AcDbLine
 10
145.5141397161999
 20
225.9042663573999
 30
0.0
 11
145.5141397161999
 21
216.7805480956999
 31
0.0
  0
LINE
  5
1DA
330
2
100
AcDbEntity
  8
0
 62
     3
100
AcDbLine
 10
143.8141275091998
 20
216.4999237059996
 30
0.0
 11
145.5141244573999
 21
216.4999237059996
 31
0.0
  0
LINE
  5
1DB
330
2
100
AcDbEntity
  8
0
 62
     3
100
AcDbLine
 10
143.8141122503999
 20
212.4999084473
 30
0.0
 11
145.5141091985999
 21
212.4999084473
 31
0.0
  0
LINE
  5
1DC
330
2
100
AcDbEntity
  8
0
 62
     3
100
AcDbLine
 10
143.5141397161999
 20
216.7805633544999
 30
0.0
 11
145.5141397161999
 21
216.7805633544999
 31
0.0
  0
LINE
  5
1DD
330
2
100
AcDbEntity
  8
0
 62
     3
100
AcDbLine
 10
143.5141244573999
 20
212.2191467284999
 30
0.0
 11
145.5141244573999
 21
212.2191467284999
 31
0.0
  0
LINE
  5
1DE
330
2
100
AcDbEntity
  8
0
 62
     3
100
AcDbLine
 10
143.5141091985999
 20
216.7805633544999
 30
0.0
 11
143.5141091985999
 21
212.2191467284999
 31
0.0
  0
LINE
  5
1DF
330
2
100
AcDbEntity
  8
0
 62
     3
100
AcDbLine
 10
143.8141275091998
 20
216.4999084473
 30
0.0
 11
143.8141275091998
 21
212.4998931884999
 31
0.0
  0
LINE
  5
1E0
330
2
100
AcDbEntity
  8
0
 62
     3
100
AcDbLine
 10
145.5138469794998
 20
212.4995355340999
 30
0.0
 11
145.8138510787
 21
212.1994656270999
 31
0.0
  0
LINE
  5
1E1
330
2
100
AcDbEntity
  8
0
 62
     3
100
AcDbLine
 10
145.8140375640998
 20
216.7997145099997
 30
0.0
 11
145.5140876109999
 21
216.4997630650999
 31
0.0
  0
LINE
  5
1E2
330
2
100
AcDbEntity
  8
0
 62
     3
100
AcDbLine
 10
145.514078681
 20
216.4999084473
 30
0.0
 11
145.514078681
 21
212.4998931884999
 31
0.0
  0
LINE
  5
1E3
330
2
100
AcDbEntity
  8
0
 62
     3
100
AcDbLine
 10
145.5137933983999
 20
225.9046292521999
 30
0.0
 11
145.8137485945
 21
225.5941991222
 31
0.0
  0
LINE
  5
1E4
330
2
100
AcDbEntity
  8
0
 62
     3
100
AcDbLine
 10
190.4940781562999
 20
180.0998840332
 30
0.0
 11
190.4940781562999
 21
156.8999786376999
 31
0.0
  0
LINE
  5
1E5
330
2
100
AcDbEntity
  8
0
 62
     3
100
AcDbLine
 10
188.8941178291998
 20
178.7999572754
 30
0.0
 11
188.8941178291998
 21
157.0999908446998
 31
0.0
  0
LINE
  5
1E6
330
2
100
AcDbEntity
  8
0
 62
     3
100
AcDbLine
 10
189.9940781563
 20
179.5998840331999
 30
0.0
 11
189.9940781563
 21
157.3999786377
 31
0.0
  0
LINE
  5
1E7
330
2
100
AcDbEntity
  8
0
 62
     3
100
AcDbLine
 10
188.6941666572999
 20
178.2999267577999
 30
0.0
 11
188.6941666572999
 21
158.6999816893999
 31
0.0
  0
LINE
  5
1E8
330
2
100
AcDbEntity
  8
0
 62
     3
100
AcDbLine
 10
188.3941636055998
 20
178.1756591797
 30
0.0
 11
188.3941636055998
 21
158.8242492675998
 31
0.0
  0
LINE
  5
1E9
330
2
100
AcDbEntity
  8
0
  6
CENTER
 62
     3
100
AcDbLine
 10
178.5941300361999
 20
153.5999755858999
 30
0.0
 11
178.5941300361999
 21
183.399810791
 31
0.0
  0
LINE
  5
1EA
330
2
100
AcDbEntity
  8
0
 62
     3
100
AcDbLine
 10
166.6941208808998
 20
180.0998840332
 30
0.0
 11
166.6941208808998
 21
156.8999786376999
 31
0.0
  0
LINE
  5
1EB
330
2
100
AcDbEntity
  8
0
 62
     3
100
AcDbLine
 10
168.2941269844999
 20
178.7999572754
 30
0.0
 11
168.2941269844999
 21
157.0999908446998
 31
0.0
  0
LINE
  5
1EC
330
2
100
AcDbEntity
  8
0
 62
     3
100
AcDbLine
 10
167.1941208808999
 20
179.5998840331999
 30
0.0
 11
167.1941208808999
 21
157.3999786377
 31
0.0
  0
LINE
  5
1ED
330
2
100
AcDbEntity
  8
0
 62
     3
100
AcDbLine
 10
168.4941544502999
 20
178.2999267577999
 30
0.0
 11
168.4941544502999
 21
158.6999816893999
 31
0.0
  0
LINE
  5
1EE
330
2
100
AcDbEntity
  8
0
 62
     3
100
AcDbLine
 10
168.7941575019999
 20
178.175415039
 30
0.0
 11
168.7941575019999
 21
158.8242340087999
 31
0.0
  0
LINE
  5
1EF
330
2
100
AcDbEntity
  8
0
 62
     3
100
AcDbLine
 10
168.2941269844999
 20
158.1999969482
 30
0.0
 11
188.8941178291998
 21
158.1999969482
 31
0.0
  0
LINE
  5
1F0
330
2
100
AcDbEntity
  8
0
 62
     3
100
AcDbLine
 10
166.9941239326999
 20
156.5999908446999
 30
0.0
 11
190.1940293281999
 21
156.5999908446999
 31
0.0
  0
LINE
  5
1F1
330
2
100
AcDbEntity
  8
0
 62
     3
100
AcDbLine
 10
167.4941239326999
 20
157.0999908446998
 30
0.0
 11
189.6940293281999
 21
157.0999908446998
 31
0.0
  0
LINE
  5
1F2
330
2
100
AcDbEntity
  8
0
 62
     3
100
AcDbLine
 10
169.8941178291998
 20
157.8999938965
 30
0.0
 11
187.2941269845
 21
157.8999938965
 31
0.0
  0
LINE
  5
1F3
330
2
100
AcDbEntity
  8
0
 62
     3
100
AcDbLine
 10
168.7941575019999
 20
158.3999938965
 30
0.0
 11
188.3941788642998
 21
158.3999938965
 31
0.0
  0
LINE
  5
1F4
330
2
100
AcDbEntity
  8
0
 62
     3
100
AcDbLine
 10
168.9184250802
 20
158.6999816893999
 30
0.0
 11
188.2699112861999
 21
158.6999816893999
 31
0.0
  0
LINE
  5
1F5
330
2
100
AcDbEntity
  8
0
 62
     3
100
AcDbLine
 10
167.4938310669999
 20
157.0996153945
 30
0.0
 11
167.1938264832999
 21
157.3996200794
 31
0.0
  0
LINE
  5
1F6
330
2
100
AcDbEntity
  8
0
 62
     3
100
AcDbLine
 10
166.9939063308999
 20
156.5996715430999
 30
0.0
 11
167.4938421241999
 21
157.0996073363
 31
0.0
  0
LINE
  5
1F7
330
2
100
AcDbEntity
  8
0
 62
     3
100
AcDbLine
 10
166.9937654383
 20
156.5995570002999
 30
0.0
 11
166.6937602981998
 21
156.8995611541
 31
0.0
  0
LINE
  5
1F8
330
2
100
AcDbEntity
  8
0
 62
     3
100
AcDbLine
 10
167.1938267002999
 20
157.3996227602999
 30
0.0
 11
166.6938909069999
 21
156.8996869669999
 31
0.0
  0
LINE
  5
1F9
330
2
100
AcDbEntity
  8
0
 62
     3
100
AcDbLine
 10
169.8941178291998
 20
158.1999969482
 30
0.0
 11
169.8941178291998
 21
157.0999908446998
 31
0.0
  0
LINE
  5
1FA
330
2
100
AcDbEntity
  8
0
 62
     3
100
AcDbLine
 10
168.9184109486999
 20
158.6998649348998
 30
0.0
 11
168.794114596
 21
158.8241608056998
 31
0.0
  0
LINE
  5
1FB
330
2
100
AcDbEntity
  8
0
 62
     3
100
AcDbLine
 10
168.7941585768999
 20
158.3998708492998
 30
0.0
 11
168.4941209920999
 21
158.6999072707
 31
0.0
  0
LINE
  5
1FC
330
2
100
AcDbEntity
  8
0
 62
     3
100
AcDbLine
 10
188.6940451711999
 20
158.7000072771998
 30
0.0
 11
188.3940544874999
 21
158.4000102462999
 31
0.0
  0
LINE
  5
1FD
330
2
100
AcDbEntity
  8
0
 62
     3
100
AcDbLine
 10
188.3940499991998
 20
158.8242786414998
 30
0.0
 11
188.2697875654999
 21
158.7000135787
 31
0.0
  0
LINE
  5
1FE
330
2
100
AcDbEntity
  8
0
 62
     3
100
AcDbLine
 10
187.2941269845
 20
158.1999969482
 30
0.0
 11
187.2941269845
 21
157.0999908446998
 31
0.0
  0
LINE
  5
1FF
330
2
100
AcDbEntity
  8
0
 62
     3
100
AcDbLine
 10
190.4936917534999
 20
156.8996090412999
 30
0.0
 11
190.1937415475998
 21
156.5996578493
 31
0.0
  0
LINE
  5
200
330
2
100
AcDbEntity
  8
0
 62
     3
100
AcDbLine
 10
189.6937348654999
 20
157.0996812454
 30
0.0
 11
189.9936855012999
 21
157.3996319822998
 31
0.0
  0
LINE
  5
201
330
2
100
AcDbEntity
  8
0
 62
     3
100
AcDbLine
 10
190.4937168350999
 20
156.8997638429
 30
0.0
 11
189.9937378835
 21
157.3997427944999
 31
0.0
  0
LINE
  5
202
330
2
100
AcDbEntity
  8
0
 62
     3
100
AcDbLine
 10
189.6937008803998
 20
157.0997057913998
 30
0.0
 11
190.1936798319999
 21
156.5997268397999
 31
0.0
  0
LINE
  5
203
330
2
100
AcDbEntity
  8
0
  6
CENTER
 62
     3
100
AcDbLine
 10
163.6941361396999
 20
168.5
 30
0.0
 11
193.4940781563
 21
168.5
 31
0.0
  0
LINE
  5
204
330
2
100
AcDbEntity
  8
0
 62
     3
100
AcDbLine
 10
168.2941269844999
 20
178.7999572754
 30
0.0
 11
188.8941178291998
 21
178.7999572754
 31
0.0
  0
LINE
  5
205
330
2
100
AcDbEntity
  8
0
 62
     3
100
AcDbLine
 10
166.9941239326999
 20
180.3999328612999
 30
0.0
 11
190.1940293281999
 21
180.3999328612999
 31
0.0
  0
LINE
  5
206
330
2
100
AcDbEntity
  8
0
 62
     3
100
AcDbLine
 10
167.4941391914998
 20
179.8999328612999
 30
0.0
 11
189.6940293281999
 21
179.8999328612999
 31
0.0
  0
LINE
  5
207
330
2
100
AcDbEntity
  8
0
 62
     3
100
AcDbLine
 10
176.4941086738999
 20
179.0998840332
 30
0.0
 11
180.6941056221998
 21
179.0998840332
 31
0.0
  0
LINE
  5
208
330
2
100
AcDbEntity
  8
0
 62
     3
100
AcDbLine
 10
168.7942948311
 20
178.5999755858999
 30
0.0
 11
188.3941636055998
 21
178.5999755858999
 31
0.0
  0
LINE
  5
209
330
2
100
AcDbEntity
  8
0
 62
     3
100
AcDbLine
 10
168.9186387031998
 20
178.2999267577999
 30
0.0
 11
188.2699418037999
 21
178.2999267577999
 31
0.0
  0
LINE
  5
20A
330
2
100
AcDbEntity
  8
0
 62
     3
100
AcDbLine
 10
170.9477300951999
 20
180.5940396848999
 30
0.0
 11
171.8111256668999
 21
181.0985673133
 31
0.0
  0
ARC
  5
20B
330
2
100
AcDbEntity
  8
0
 62
     3
100
AcDbCircle
 10
171.9691910713999
 20
181.4228210449
 30
0.0
 40
0.9999999404
100
AcDbArc
 50
30.3000100639
 51
120.2997393607999
  0
LINE
  5
20C
330
2
100
AcDbEntity
  8
0
 62
     3
100
AcDbLine
 10
166.9940476387999
 20
180.3998870849
 30
0.0
 11
169.6112198799999
 21
180.3998870849
 31
0.0
  0
LINE
  5
20D
330
2
100
AcDbEntity
  8
0
 62
     3
100
AcDbLine
 10
167.1938937235998
 20
179.5996381879999
 30
0.0
 11
167.4939348744999
 21
179.8996710686
 31
0.0
  0
LINE
  5
20E
330
2
100
AcDbEntity
  8
0
 62
     3
100
AcDbLine
 10
167.4938866312999
 20
179.8995940467998
 30
0.0
 11
166.9938968901
 21
180.3995837879999
 31
0.0
  0
LINE
  5
20F
330
2
100
AcDbEntity
  8
0
 62
     3
100
AcDbLine
 10
166.6938801645999
 20
180.0996227366
 30
0.0
 11
166.9939207589996
 21
180.3996561483999
 31
0.0
  0
LINE
  5
210
330
2
100
AcDbEntity
  8
0
 62
     3
100
AcDbLine
 10
166.6938598869999
 20
180.0995467848998
 30
0.0
 11
167.1938496281998
 21
179.5995570437
 31
0.0
  0
ARC
  5
211
330
2
100
AcDbEntity
  8
0
 62
     3
100
AcDbCircle
 10
170.5877671211998
 20
180.6155548095999
 30
0.0
 40
0.9999999404
100
AcDbArc
 50
120.2998486438998
 51
192.4519999414
  0
LINE
  5
212
330
2
100
AcDbEntity
  8
0
 62
     3
100
AcDbLine
 10
168.7940987595998
 20
178.1754171684999
 30
0.0
 11
168.9185724970999
 21
178.2998377525998
 31
0.0
  0
LINE
  5
213
330
2
100
AcDbEntity
  8
0
 62
     3
100
AcDbLine
 10
168.4941530648998
 20
178.2998420740999
 30
0.0
 11
168.7942865064
 21
178.5998473510999
 31
0.0
  0
LINE
  5
214
330
2
100
AcDbEntity
  8
0
 62
     3
100
AcDbLine
 10
171.0611826046998
 20
180.3998889808999
 30
0.0
 11
170.9477300951999
 21
180.5940396848999
 31
0.0
  0
LINE
  5
215
330
2
100
AcDbEntity
  8
0
 62
     3
100
AcDbLine
 10
170.0679026835999
 20
181.4697677808999
 30
0.0
 11
171.4805904758998
 21
182.2952758618999
 31
0.0
  0
LINE
  5
216
330
2
100
AcDbEntity
  8
0
 62
     3
100
AcDbLine
 10
173.7250926278
 20
180.3998791277999
 30
0.0
 11
172.8326385589998
 21
181.9271312493999
 31
0.0
  0
LINE
  5
217
330
2
100
AcDbEntity
  8
0
 62
     3
100
AcDbLine
 10
172.2194068901998
 20
180.3998777266999
 30
0.0
 11
171.8111256668999
 21
181.0985673133
 31
0.0
  0
LINE
  5
218
330
2
100
AcDbEntity
  8
0
 62
     3
100
AcDbLine
 10
176.4941239326998
 20
179.8999328612999
 30
0.0
 11
176.4941239326998
 21
178.7999572754
 31
0.0
  0
LINE
  5
219
330
2
100
AcDbEntity
  8
0
 62
     3
100
AcDbLine
 10
180.6941208809
 20
179.8999328612999
 30
0.0
 11
180.6941208809
 21
178.7999572754
 31
0.0
  0
LINE
  5
21A
330
2
100
AcDbEntity
  8
0
 62
     3
100
AcDbLine
 10
188.3941379958999
 20
178.599855634
 30
0.0
 11
188.6941728745
 21
178.2998164810998
 31
0.0
  0
LINE
  5
21B
330
2
100
AcDbEntity
  8
0
 62
     3
100
AcDbLine
 10
188.2699584268999
 20
178.2997655546998
 30
0.0
 11
188.3941673425
 21
178.1755548697999
 31
0.0
  0
LINE
  5
21C
330
2
100
AcDbEntity
  8
0
 62
     3
100
AcDbLine
 10
190.1938439688999
 20
180.399648192
 30
0.0
 11
190.4938450122999
 21
180.0996399666999
 31
0.0
  0
LINE
  5
21D
330
2
100
AcDbEntity
  8
0
 62
     3
100
AcDbLine
 10
189.9937560965999
 20
179.5995700584999
 30
0.0
 11
189.693747315
 21
179.8995705707999
 31
0.0
  0
LINE
  5
21E
330
2
100
AcDbEntity
  8
0
 62
     3
100
AcDbLine
 10
190.1937553591999
 20
180.3995945775
 30
0.0
 11
189.6938087763999
 21
179.8996479947
 31
0.0
  0
LINE
  5
21F
330
2
100
AcDbEntity
  8
0
 62
     3
100
AcDbLine
 10
189.9938242002999
 20
179.5996325708
 30
0.0
 11
190.4937707830999
 21
180.0995791535999
 31
0.0
  0
LINE
  5
222
330
2
100
AcDbEntity
  8
0
100
AcDbLine
 10
210.0
 20
297.0
 30
0.0
 11
0.0
 21
297.0
 31
0.0
  0
TEXT
  5
24E
330
2
100
AcDbEntity
  8
0
 62
     7
100
AcDbText
 10
108.0
 20
105.0000029552498
 30
0.0
 40
2.999994089499998
  1
HA2L-M1C14V*
 11
108.0
 21
106.4999999999999
 31
0.0
100
AcDbText
 73
     2
  0
TEXT
  5
24F
330
2
100
AcDbEntity
  8
0
 62
     7
100
AcDbText
 10
108.0
 20
110.0000029552498
 30
0.0
 40
2.999994089499998
  1
HA2L-M1C13V*
 11
108.0
 21
111.4999999999999
 31
0.0
100
AcDbText
 73
     2
  0
TEXT
  5
251
330
2
100
AcDbEntity
  8
0
 62
     7
100
AcDbText
 10
108.0
 20
115.0000029552499
 30
0.0
 40
2.999994089499998
  1
HA2L-M1C11V*
 11
108.0
 21
116.5
 31
0.0
100
AcDbText
 73
     2
  0
TEXT
  5
252
330
2
100
AcDbEntity
  8
0
 62
     7
100
AcDbText
 10
146.0
 20
105.0000029552498
 30
0.0
 40
2.999994089499998
  1
HA2L-A1C14V*
 11
146.0
 21
106.4999999999999
 31
0.0
100
AcDbText
 73
     2
  0
TEXT
  5
253
330
2
100
AcDbEntity
  8
0
 62
     7
100
AcDbText
 10
146.0
 20
110.0000029552498
 30
0.0
 40
2.999994089499998
  1
HA2L-A1C13V*
 11
146.0
 21
111.4999999999999
 31
0.0
100
AcDbText
 73
     2
  0
TEXT
  5
255
330
2
100
AcDbEntity
  8
0
 62
     7
100
AcDbText
 10
146.0
 20
115.0000029552499
 30
0.0
 40
2.999994089499998
  1
HA2L-A1C11V*
 11
146.0
 21
116.5
 31
0.0
100
AcDbText
 73
     2
  0
TEXT
  5
256
330
2
100
AcDbEntity
  8
0
 62
     7
100
AcDbText
 10
108.0
 20
90.00000295524989
 30
0.0
 40
2.999994089499998
  1
HA2L-M1C24V*
 11
108.0
 21
91.49999999999989
 31
0.0
100
AcDbText
 73
     2
  0
TEXT
  5
257
330
2
100
AcDbEntity
  8
0
 62
     7
100
AcDbText
 10
108.0
 20
95.00000295525
 30
0.0
 40
2.999994089499998
  1
HA2L-M1C23V*
 11
108.0
 21
96.5
 31
0.0
100
AcDbText
 73
     2
  0
TEXT
  5
259
330
2
100
AcDbEntity
  8
0
 62
     7
100
AcDbText
 10
108.0
 20
100.00000295525
 30
0.0
 40
2.999994089499998
  1
HA2L-M1C21V*
 11
108.0
 21
101.5
 31
0.0
100
AcDbText
 73
     2
  0
TEXT
  5
25A
330
2
100
AcDbEntity
  8
0
 62
     7
100
AcDbText
 10
146.0
 20
90.00000295524989
 30
0.0
 40
2.999994089499998
  1
HA2L-A1C24V*
 11
146.0
 21
91.49999999999989
 31
0.0
100
AcDbText
 73
     2
  0
TEXT
  5
25B
330
2
100
AcDbEntity
  8
0
 62
     7
100
AcDbText
 10
146.0
 20
100.00000295525
 30
0.0
 40
2.999994089499998
  1
HA2L-A1C21V*
 11
146.0
 21
101.5
 31
0.0
100
AcDbText
 73
     2
  0
TEXT
  5
25D
330
2
100
AcDbEntity
  8
0
 62
     7
100
AcDbText
 10
146.0
 20
95.00000295525
 30
0.0
 40
2.999994089499998
  1
HA2L-A1C23V*
 11
146.0
 21
96.5
 31
0.0
100
AcDbText
 73
     2
  0
ENDSEC
  0
SECTION
  2
OBJECTS
  0
DICTIONARY
  5
7
330
0
100
AcDbDictionary
281
     1
  3
ACAD_GROUP
350
1F
  3
ACAD_LAYOUT
350
B
  3
ACAD_MLINESTYLE
350
20
  3
ACAD_PLOTSETTINGS
350
21
  3
ACAD_PLOTSTYLENAME
350
6
  3
AcDbVariableDictionary
350
25E
  3
ASE_INDEX_DICTIONARY
350
267
  0
DICTIONARY
  5
1F
102
{ACAD_REACTORS
330
7
102
}
330
7
100
AcDbDictionary
281
     1
  0
DICTIONARY
  5
B
102
{ACAD_REACTORS
330
7
102
}
330
7
100
AcDbDictionary
281
     1
  3
Model
350
A
  3
ﾚｲｱｳﾄ1
350
F
  0
DICTIONARY
  5
20
102
{ACAD_REACTORS
330
7
102
}
330
7
100
AcDbDictionary
281
     1
  3
Standard
350
22
  0
DICTIONARY
  5
21
102
{ACAD_REACTORS
330
7
102
}
330
7
100
AcDbDictionary
281
     1
  0
ACDBDICTIONARYWDFLT
  5
6
102
{ACAD_REACTORS
330
7
102
}
330
7
100
AcDbDictionary
281
     1
  3
Normal
350
5
100
AcDbDictionaryWithDefault
340
5
  0
DICTIONARY
  5
25E
102
{ACAD_REACTORS
330
7
102
}
330
7
100
AcDbDictionary
281
     1
  3
DIMASSOC
350
25F
  0
DICTIONARY
  5
267
102
{ACAD_REACTORS
330
7
102
}
330
7
100
AcDbDictionary
281
     1
  3
ASEBlockHierarchyIndexRecord
350
269
1001
DCO15
1040
1518867391.078
  0
LAYOUT
  5
A
102
{ACAD_REACTORS
330
B
102
}
330
B
100
AcDbPlotSettings
  1

  2
C:\Program Files\AutoCAD 2000i\plotters\DWF Classic.pc3
  4

  6

 40
0.0
 41
0.0
 42
0.0
 43
0.0
 44
0.0
 45
0.0
 46
0.0
 47
0.0
 48
0.0
 49
0.0
140
0.0
141
0.0
142
1.0
143
1.0
 70
  1712
 72
     0
 73
     0
 74
     0
  7

 75
     0
147
1.0
148
0.0
149
0.0
100
AcDbLayout
  1
Model
 70
     1
 71
     0
 10
0.0
 20
0.0
 11
12.0
 21
9.0
 12
0.0
 22
0.0
 32
0.0
 14
0.0
 24
0.0
 34
0.0
 15
0.0
 25
0.0
 35
0.0
146
0.0
 13
0.0
 23
0.0
 33
0.0
 16
1.0
 26
0.0
 36
0.0
 17
0.0
 27
1.0
 37
0.0
 76
     0
330
2
  0
LAYOUT
  5
F
102
{ACAD_REACTORS
330
B
102
}
330
B
100
AcDbPlotSettings
  1

  2
C:\Program Files\AutoCAD 2000i\plotters\DWF Classic.pc3
  4

  6

 40
0.0
 41
0.0
 42
0.0
 43
0.0
 44
0.0
 45
0.0
 46
0.0
 47
0.0
 48
0.0
 49
0.0
140
0.0
141
0.0
142
1.0
143
1.0
 70
   688
 72
     0
 73
     0
 74
     5
  7

 75
    16
147
1.0
148
0.0
149
0.0
100
AcDbLayout
  1
ﾚｲｱｳﾄ1
 70
     1
 71
     1
 10
0.0
 20
0.0
 11
12.0
 21
9.0
 12
0.0
 22
0.0
 32
0.0
 14
1.000000000000000E+20
 24
1.000000000000000E+20
 34
1.000000000000000E+20
 15
-1.000000000000000E+20
 25
-1.000000000000000E+20
 35
-1.000000000000000E+20
146
0.0
 13
0.0
 23
0.0
 33
0.0
 16
1.0
 26
0.0
 36
0.0
 17
0.0
 27
1.0
 37
0.0
 76
     0
330
C
  0
MLINESTYLE
  5
22
102
{ACAD_REACTORS
330
20
102
}
330
20
100
AcDbMlineStyle
  2
STANDARD
 70
     0
  3

 62
   256
 51
90.0
 52
90.0
 71
     2
 49
0.5
 62
   256
  6
BYLAYER
 49
-0.5
 62
   256
  6
BYLAYER
  0
ACDBPLACEHOLDER
  5
5
102
{ACAD_REACTORS
330
6
102
}
330
6
  0
DICTIONARYVAR
  5
25F
102
{ACAD_REACTORS
330
25E
102
}
330
25E
100
DictionaryVariables
280
     0
  1
1
  0
XRECORD
  5
269
102
{ACAD_REACTORS
330
267
102
}
330
267
100
AcDbXrecord
280
     1
  0
ENDSEC
  0
EOF
