  0
SECTION
  2
HEADER
  9
$ACADVER
  1
AC1015
  9
$ACADMAINTVER
 70
    20
  9
$DWGCODEPAGE
  3
ANSI_932
  9
$INSBASE
 10
0.0
 20
0.0
 30
0.0
  9
$EXTMIN
 10
-0.0156466955733095
 20
-0.0007653957877665
 30
-0.0000000000112498
  9
$EXTMAX
 10
210.0059754807785
 20
297.0168353930656
 30
0.0000000000002956
  9
$LIMMIN
 10
-193.3155487061
 20
-3.174999999999998
  9
$LIMMAX
 10
3.174999999999998
 20
291.2585876465
  9
$ORTHOMODE
 70
     0
  9
$REGENMODE
 70
     1
  9
$FILLMODE
 70
     1
  9
$QTEXTMODE
 70
     0
  9
$MIRRTEXT
 70
     0
  9
$LTSCALE
 40
1.0
  9
$ATTMODE
 70
     1
  9
$TEXTSIZE
 40
2.999994039499997
  9
$TRACEWID
 40
0.05
  9
$TEXTSTYLE
  7
STANDARD
  9
$CLAYER
  8
0
  9
$CELTYPE
  6
ByLayer
  9
$CECOLOR
 62
   256
  9
$CELTSCALE
 40
1.0
  9
$DISPSILH
 70
     0
  9
$DIMSCALE
 40
1.0
  9
$DIMASZ
 40
1.9727878465
  9
$DIMEXO
 40
2.539999961899999
  9
$DIMDLI
 40
0.38
  9
$DIMRND
 40
0.0
  9
$DIMDLE
 40
0.0
  9
$DIMEXE
 40
3.809999942799997
  9
$DIMTP
 40
0.0
  9
$DIMTM
 40
0.0
  9
$DIMTXT
 40
2.999994039499997
  9
$DIMCEN
 40
0.09
  9
$DIMTSZ
 40
0.0
  9
$DIMTOL
 70
     0
  9
$DIMLIM
 70
     0
  9
$DIMTIH
 70
     0
  9
$DIMTOH
 70
     1
  9
$DIMSE1
 70
     0
  9
$DIMSE2
 70
     0
  9
$DIMTAD
 70
     0
  9
$DIMZIN
 70
     0
  9
$DIMBLK
  1

  9
$DIMASO
 70
     1
  9
$DIMSHO
 70
     0
  9
$DIMPOST
  1

  9
$DIMAPOST
  1

  9
$DIMALT
 70
     0
  9
$DIMALTD
 70
     2
  9
$DIMALTF
 40
25.4
  9
$DIMLFAC
 40
1.0
  9
$DIMTOFL
 70
     0
  9
$DIMTVP
 40
0.0
  9
$DIMTIX
 70
     0
  9
$DIMSOXD
 70
     0
  9
$DIMSAH
 70
     0
  9
$DIMBLK1
  1

  9
$DIMBLK2
  1

  9
$DIMSTYLE
  2
Standard
  9
$DIMCLRD
 70
     0
  9
$DIMCLRE
 70
     0
  9
$DIMCLRT
 70
     0
  9
$DIMTFAC
 40
1.0
  9
$DIMGAP
 40
0.09
  9
$DIMJUST
 70
     0
  9
$DIMSD1
 70
     0
  9
$DIMSD2
 70
     0
  9
$DIMTOLJ
 70
     1
  9
$DIMTZIN
 70
     0
  9
$DIMALTZ
 70
     0
  9
$DIMALTTZ
 70
     0
  9
$DIMUPT
 70
     0
  9
$DIMDEC
 70
     4
  9
$DIMTDEC
 70
     4
  9
$DIMALTU
 70
     2
  9
$DIMALTTD
 70
     2
  9
$DIMTXSTY
  7
STANDARD
  9
$DIMAUNIT
 70
     0
  9
$DIMADEC
 70
     0
  9
$DIMALTRND
 40
0.0
  9
$DIMAZIN
 70
     0
  9
$DIMDSEP
 70
    46
  9
$DIMATFIT
 70
     3
  9
$DIMFRAC
 70
     0
  9
$DIMLDRBLK
  1

  9
$DIMLUNIT
 70
     2
  9
$DIMLWD
 70
    -2
  9
$DIMLWE
 70
    -2
  9
$DIMTMOVE
 70
     0
  9
$LUNITS
 70
     2
  9
$LUPREC
 70
     3
  9
$SKETCHINC
 40
0.1
  9
$FILLETRAD
 40
0.0625
  9
$AUNITS
 70
     0
  9
$AUPREC
 70
     0
  9
$MENU
  1
ACAD
  9
$ELEVATION
 40
0.0
  9
$PELEVATION
 40
0.0
  9
$THICKNESS
 40
0.0
  9
$LIMCHECK
 70
     0
  9
$CHAMFERA
 40
0.0
  9
$CHAMFERB
 40
0.0
  9
$CHAMFERC
 40
0.0
  9
$CHAMFERD
 40
0.0
  9
$SKPOLY
 70
     0
  9
$TDCREATE
 40
2452310.780023148
  9
$TDUCREATE
 40
2452310.405023149
  9
$TDUPDATE
 40
2453386.721333183
  9
$TDUUPDATE
 40
2453386.346333183
  9
$TDINDWG
 40
0.0045481944
  9
$TDUSRTIMER
 40
0.0045427778
  9
$USRTIMER
 70
     1
  9
$ANGBASE
 50
0.0
  9
$ANGDIR
 70
     0
  9
$PDMODE
 70
     0
  9
$PDSIZE
 40
0.0
  9
$PLINEWID
 40
0.0
  9
$SPLFRAME
 70
     0
  9
$SPLINETYPE
 70
     6
  9
$SPLINESEGS
 70
     8
  9
$HANDSEED
  5
2ED
  9
$SURFTAB1
 70
     6
  9
$SURFTAB2
 70
     6
  9
$SURFTYPE
 70
     6
  9
$SURFU
 70
     6
  9
$SURFV
 70
     6
  9
$UCSBASE
  2

  9
$UCSNAME
  2

  9
$UCSORG
 10
0.0
 20
0.0
 30
0.0
  9
$UCSXDIR
 10
1.0
 20
0.0
 30
0.0
  9
$UCSYDIR
 10
0.0
 20
1.0
 30
0.0
  9
$UCSORTHOREF
  2

  9
$UCSORTHOVIEW
 70
     0
  9
$UCSORGTOP
 10
0.0
 20
0.0
 30
0.0
  9
$UCSORGBOTTOM
 10
0.0
 20
0.0
 30
0.0
  9
$UCSORGLEFT
 10
0.0
 20
0.0
 30
0.0
  9
$UCSORGRIGHT
 10
0.0
 20
0.0
 30
0.0
  9
$UCSORGFRONT
 10
0.0
 20
0.0
 30
0.0
  9
$UCSORGBACK
 10
0.0
 20
0.0
 30
0.0
  9
$PUCSBASE
  2

  9
$PUCSNAME
  2

  9
$PUCSORG
 10
0.0
 20
0.0
 30
0.0
  9
$PUCSXDIR
 10
1.0
 20
0.0
 30
0.0
  9
$PUCSYDIR
 10
0.0
 20
1.0
 30
0.0
  9
$PUCSORTHOREF
  2

  9
$PUCSORTHOVIEW
 70
     0
  9
$PUCSORGTOP
 10
0.0
 20
0.0
 30
0.0
  9
$PUCSORGBOTTOM
 10
0.0
 20
0.0
 30
0.0
  9
$PUCSORGLEFT
 10
0.0
 20
0.0
 30
0.0
  9
$PUCSORGRIGHT
 10
0.0
 20
0.0
 30
0.0
  9
$PUCSORGFRONT
 10
0.0
 20
0.0
 30
0.0
  9
$PUCSORGBACK
 10
0.0
 20
0.0
 30
0.0
  9
$USERI1
 70
     9
  9
$USERI2
 70
     0
  9
$USERI3
 70
     0
  9
$USERI4
 70
     0
  9
$USERI5
 70
     0
  9
$USERR1
 40
0.0
  9
$USERR2
 40
0.0
  9
$USERR3
 40
0.0
  9
$USERR4
 40
0.0
  9
$USERR5
 40
0.0
  9
$WORLDVIEW
 70
     1
  9
$SHADEDGE
 70
     3
  9
$SHADEDIF
 70
    70
  9
$TILEMODE
 70
     1
  9
$MAXACTVP
 70
    64
  9
$PINSBASE
 10
0.0
 20
0.0
 30
0.0
  9
$PLIMCHECK
 70
     0
  9
$PEXTMIN
 10
1.000000000000000E+20
 20
1.000000000000000E+20
 30
1.000000000000000E+20
  9
$PEXTMAX
 10
-1.000000000000000E+20
 20
-1.000000000000000E+20
 30
-1.000000000000000E+20
  9
$PLIMMIN
 10
0.0
 20
0.0
  9
$PLIMMAX
 10
12.0
 20
9.0
  9
$UNITMODE
 70
     0
  9
$VISRETAIN
 70
     1
  9
$PLINEGEN
 70
     0
  9
$PSLTSCALE
 70
     1
  9
$TREEDEPTH
 70
  3020
  9
$CMLSTYLE
  2
Standard
  9
$CMLJUST
 70
     0
  9
$CMLSCALE
 40
1.0
  9
$PROXYGRAPHICS
 70
     1
  9
$MEASUREMENT
 70
     0
  9
$CELWEIGHT
370
    -1
  9
$ENDCAPS
280
     0
  9
$JOINSTYLE
280
     0
  9
$LWDISPLAY
290
     0
  9
$INSUNITS
 70
     0
  9
$HYPERLINKBASE
  1

  9
$STYLESHEET
  1

  9
$XEDIT
290
     1
  9
$CEPSNTYPE
380
     0
  9
$PSTYLEMODE
290
     1
  9
$FINGERPRINTGUID
  2
{6582EFB3-D17C-4F48-8F5F-9822FAAA7AEA}
  9
$VERSIONGUID
  2
{D80E0D46-4FE4-4BC5-9086-7063A12176D7}
  9
$EXTNAMES
290
     1
  9
$PSVPSCALE
 40
0.0
  9
$OLESTARTUP
290
     0
  0
ENDSEC
  0
SECTION
  2
CLASSES
  0
CLASS
  1
ACDBDICTIONARYWDFLT
  2
AcDbDictionaryWithDefault
  3
ObjectDBX Classes
 90
        0
280
     0
281
     0
  0
CLASS
  1
ACDBPLACEHOLDER
  2
AcDbPlaceHolder
  3
ObjectDBX Classes
 90
        0
280
     0
281
     0
  0
CLASS
  1
LAYOUT
  2
AcDbLayout
  3
ObjectDBX Classes
 90
        0
280
     0
281
     0
  0
CLASS
  1
DICTIONARYVAR
  2
AcDbDictionaryVar
  3
ObjectDBX Classes
 90
        0
280
     0
281
     0
  0
CLASS
  1
TABLESTYLE
  2
AcDbTableStyle
  3
ObjectDBX Classes
 90
     2047
280
     0
281
     0
  0
ENDSEC
  0
SECTION
  2
TABLES
  0
TABLE
  2
VPORT
  5
19
330
0
100
AcDbSymbolTable
 70
     3
  0
VPORT
  5
2E7
330
19
100
AcDbSymbolTableRecord
100
AcDbViewportTableRecord
  2
*Active
 70
     0
 10
0.0
 20
0.0
 11
1.0
 21
1.0
 12
104.9951643926025
 22
148.5080349986389
 13
0.0
 23
0.0
 14
1.0
 24
1.0
 15
0.0
 25
0.0
 16
0.0
 26
0.0
 36
1.0
 17
0.0
 27
0.0
 37
0.0
 40
299.253617858782
 41
1.516331658291457
 42
50.0
 43
0.0
 44
0.0
 50
0.0
 51
0.0
 71
     0
 72
   100
 73
     1
 74
     1
 75
     0
 76
     0
 77
     0
 78
     0
281
     0
 65
     1
110
0.0
120
0.0
130
0.0
111
1.0
121
0.0
131
0.0
112
0.0
122
1.0
132
0.0
 79
     0
146
0.0
  0
ENDTAB
  0
TABLE
  2
LTYPE
  5
14
330
0
100
AcDbSymbolTable
 70
     3
  0
LTYPE
  5
15
330
14
100
AcDbSymbolTableRecord
100
AcDbLinetypeTableRecord
  2
ByBlock
 70
     0
  3

 72
    65
 73
     0
 40
0.0
  0
LTYPE
  5
16
330
14
100
AcDbSymbolTableRecord
100
AcDbLinetypeTableRecord
  2
ByLayer
 70
     0
  3

 72
    65
 73
     0
 40
0.0
  0
LTYPE
  5
8
330
14
100
AcDbSymbolTableRecord
100
AcDbLinetypeTableRecord
  2
Continuous
 70
     0
  3
Solid line
 72
    65
 73
     0
 40
0.0
  0
LTYPE
  5
8E
330
14
100
AcDbSymbolTableRecord
100
AcDbLinetypeTableRecord
  2
DASHED
 70
     0
  3
Dashed
 72
    65
 73
     2
 40
4.7625
 49
3.174999999999998
 74
     0
 49
-1.587499999999999
 74
     0
  0
LTYPE
  5
6B
330
14
100
AcDbSymbolTableRecord
100
AcDbLinetypeTableRecord
  2
CENTER
 70
     0
  3
Center
 72
    65
 73
     4
 40
9.100006759199999
 49
6.5000119209
 74
     0
 49
-0.7999984026000001
 74
     0
 49
0.9999980329999999
 74
     0
 49
-0.7999984026000001
 74
     0
  0
ENDTAB
  0
TABLE
  2
LAYER
  5
10
330
0
100
AcDbSymbolTable
 70
     1
  0
LAYER
  5
4
330
10
100
AcDbSymbolTableRecord
100
AcDbLayerTableRecord
  2
0
 70
     0
 62
     7
  6
Continuous
370
    -3
390
5
  0
ENDTAB
  0
TABLE
  2
STYLE
  5
11
330
0
100
AcDbSymbolTable
 70
     1
  0
STYLE
  5
12
330
11
100
AcDbSymbolTableRecord
100
AcDbTextStyleTableRecord
  2
STANDARD
 70
     0
 40
0.0
 41
1.0
 50
0.0
 71
     0
 42
2.999994039499997
  3
romans.shx
  4
bigfont.shx
  0
ENDTAB
  0
TABLE
  2
VIEW
  5
17
330
0
100
AcDbSymbolTable
 70
     0
  0
ENDTAB
  0
TABLE
  2
UCS
  5
18
330
0
100
AcDbSymbolTable
 70
     0
  0
ENDTAB
  0
TABLE
  2
APPID
  5
1B
330
0
100
AcDbSymbolTable
 70
     1
  0
APPID
  5
1C
330
1B
100
AcDbSymbolTableRecord
100
AcDbRegAppTableRecord
  2
ACAD
 70
     0
  0
ENDTAB
  0
TABLE
  2
DIMSTYLE
  5
1D
330
0
100
AcDbSymbolTable
 70
     1
100
AcDbDimStyleTable
 71
     0
  0
DIMSTYLE
105
23
330
1D
100
AcDbSymbolTableRecord
100
AcDbDimStyleTableRecord
  2
Standard
 70
     0
340
12
  0
ENDTAB
  0
TABLE
  2
BLOCK_RECORD
  5
1
330
0
100
AcDbSymbolTable
 70
     1
  0
BLOCK_RECORD
  5
2
330
1
100
AcDbSymbolTableRecord
100
AcDbBlockTableRecord
  2
*Model_Space
340
A
  0
BLOCK_RECORD
  5
C
330
1
100
AcDbSymbolTableRecord
100
AcDbBlockTableRecord
  2
*Paper_Space
340
F
  0
ENDTAB
  0
ENDSEC
  0
SECTION
  2
BLOCKS
  0
BLOCK
  5
3
330
2
100
AcDbEntity
  8
0
100
AcDbBlockBegin
  2
*Model_Space
 70
     2
 10
0.0
 20
0.0
 30
0.0
  3
*Model_Space
  1

  0
ENDBLK
  5
9
330
2
100
AcDbEntity
  8
0
100
AcDbBlockEnd
  0
BLOCK
  5
D
330
C
100
AcDbEntity
 67
     1
  8
0
100
AcDbBlockBegin
  2
*Paper_Space
 70
     0
 10
0.0
 20
0.0
 30
0.0
  3
*Paper_Space
  1

  0
ENDBLK
  5
E
330
C
100
AcDbEntity
 67
     1
  8
0
100
AcDbBlockEnd
  0
ENDSEC
  0
SECTION
  2
ENTITIES
  0
LINE
  5
24
330
2
100
AcDbEntity
  8
0
100
AcDbLine
 10
210.0
 20
0.0
 30
0.0
 11
210.0
 21
297.0
 31
0.0
  0
LINE
  5
25
330
2
100
AcDbEntity
  8
0
100
AcDbLine
 10
0.0
 20
297.0
 30
0.0
 11
0.0
 21
0.0
 31
0.0
  0
LINE
  5
26
330
2
100
AcDbEntity
  8
0
 62
     3
100
AcDbLine
 10
155.9923507769999
 20
224.2620849609
 30
0.0
 11
145.9923507769999
 21
224.2620849609
 31
0.0
  0
LINE
  5
27
330
2
100
AcDbEntity
  8
0
 62
     3
100
AcDbLine
 10
155.9923507769999
 20
224.8281249999998
 30
0.0
 11
145.9923507769999
 21
224.8281249999998
 31
0.0
  0
LINE
  5
28
330
2
100
AcDbEntity
  8
0
 62
     3
100
AcDbLine
 10
155.9923507769999
 20
226.2135009764999
 30
0.0
 11
145.9923507769999
 21
226.2135009764999
 31
0.0
  0
LINE
  5
29
330
2
100
AcDbEntity
  8
0
 62
     3
100
AcDbLine
 10
155.9923507769999
 20
213.9998016357
 30
0.0
 11
145.2923385699999
 21
213.9998016357
 31
0.0
  0
LINE
  5
2A
330
2
100
AcDbEntity
  8
0
 62
     3
100
AcDbLine
 10
155.9923507769999
 20
214.5261688232
 30
0.0
 11
145.9923507769999
 21
214.5261688232
 31
0.0
  0
LINE
  5
2B
330
2
100
AcDbEntity
  8
0
 62
     3
100
AcDbLine
 10
155.9923507769999
 20
214.7031707762998
 30
0.0
 11
145.9923507769999
 21
214.7031707762998
 31
0.0
  0
LINE
  5
2C
330
2
100
AcDbEntity
  8
0
 62
     3
100
AcDbLine
 10
154.9063217242999
 20
217.3527984619
 30
0.0
 11
145.2923538288
 21
217.3527984619
 31
0.0
  0
LINE
  5
2D
330
2
100
AcDbEntity
  8
0
 62
     3
100
AcDbLine
 10
154.9063217242999
 20
215.9079895018999
 30
0.0
 11
145.2923538288
 21
215.9079895018999
 31
0.0
  0
LINE
  5
2E
330
2
100
AcDbEntity
  8
0
 62
     3
100
AcDbLine
 10
156.9923507769999
 20
219.1558990478
 30
0.0
 11
145.2923538288
 21
219.1558990478
 31
0.0
  0
LINE
  5
2F
330
2
100
AcDbEntity
  8
0
 62
     3
100
AcDbLine
 10
155.9923660357999
 20
155.9999237059999
 30
0.0
 11
145.2923538288
 21
155.9999237059999
 31
0.0
  0
LINE
  5
30
330
2
100
AcDbEntity
  8
0
 62
     3
100
AcDbLine
 10
155.9923660357999
 20
156.5262908935
 30
0.0
 11
145.9923660357999
 21
156.5262908935
 31
0.0
  0
LINE
  5
31
330
2
100
AcDbEntity
  8
0
 62
     3
100
AcDbLine
 10
155.9923660357999
 20
156.7032928466999
 30
0.0
 11
145.9923660357999
 21
156.7032928466999
 31
0.0
  0
LINE
  5
32
330
2
100
AcDbEntity
  8
0
 62
     3
100
AcDbLine
 10
155.9923660357999
 20
157.2351531981999
 30
0.0
 11
145.9923660357999
 21
157.2351531981999
 31
0.0
  0
LINE
  5
33
330
2
100
AcDbEntity
  8
0
 62
     3
100
AcDbLine
 10
155.9923660357999
 20
157.4952850341999
 30
0.0
 11
145.9923660357999
 21
157.4952850341999
 31
0.0
  0
LINE
  5
34
330
2
100
AcDbEntity
  8
0
 62
     3
100
AcDbLine
 10
155.9923660357999
 20
158.2213592528999
 30
0.0
 11
145.9923660357999
 21
158.2213592528999
 31
0.0
  0
LINE
  5
35
330
2
100
AcDbEntity
  8
0
 62
     3
100
AcDbLine
 10
155.9923660357999
 20
158.5582733154
 30
0.0
 11
145.9923660357999
 21
158.5582733154
 31
0.0
  0
LINE
  5
36
330
2
100
AcDbEntity
  8
0
 62
     3
100
AcDbLine
 10
155.9923660357999
 20
159.4607391356999
 30
0.0
 11
145.9923660357999
 21
159.4607391356999
 31
0.0
  0
LINE
  5
37
330
2
100
AcDbEntity
  8
0
 62
     3
100
AcDbLine
 10
155.9923660357999
 20
159.8660125731999
 30
0.0
 11
145.9923660357999
 21
159.8660125731999
 31
0.0
  0
LINE
  5
38
330
2
100
AcDbEntity
  8
0
 62
     3
100
AcDbLine
 10
155.9923660357999
 20
160.9226531981999
 30
0.0
 11
145.9923660357999
 21
160.9226531981999
 31
0.0
  0
LINE
  5
39
330
2
100
AcDbEntity
  8
0
 62
     3
100
AcDbLine
 10
155.9923660357999
 20
161.3863983154
 30
0.0
 11
145.9923660357999
 21
161.3863983154
 31
0.0
  0
LINE
  5
3A
330
2
100
AcDbEntity
  8
0
 62
     3
100
AcDbLine
 10
155.9923660357999
 20
162.5712127685
 30
0.0
 11
145.9923660357999
 21
162.5712127685
 31
0.0
  0
LINE
  5
3B
330
2
100
AcDbEntity
  8
0
 62
     3
100
AcDbLine
 10
155.9923660357999
 20
163.0818328856999
 30
0.0
 11
145.9923660357999
 21
163.0818328856999
 31
0.0
  0
LINE
  5
3C
330
2
100
AcDbEntity
  8
0
 62
     3
100
AcDbLine
 10
155.9923660357999
 20
164.3656463622999
 30
0.0
 11
145.9923660357999
 21
164.3656463622999
 31
0.0
  0
LINE
  5
3D
330
2
100
AcDbEntity
  8
0
 62
     3
100
AcDbLine
 10
155.9923660357999
 20
164.9108123779
 30
0.0
 11
145.9923660357999
 21
164.9108123779
 31
0.0
  0
LINE
  5
3E
330
2
100
AcDbEntity
  8
0
 62
     3
100
AcDbLine
 10
155.9923660357999
 20
166.2620086669999
 30
0.0
 11
145.9923660357999
 21
166.2620086669999
 31
0.0
  0
LINE
  5
3F
330
2
100
AcDbEntity
  8
0
 62
     3
100
AcDbLine
 10
155.9923660357999
 20
166.828048706
 30
0.0
 11
145.9923660357999
 21
166.828048706
 31
0.0
  0
LINE
  5
40
330
2
100
AcDbEntity
  8
0
 62
     3
100
AcDbLine
 10
155.9923660357999
 20
168.2134246825999
 30
0.0
 11
145.9923660357999
 21
168.2134246825999
 31
0.0
  0
LINE
  5
41
330
2
100
AcDbEntity
  8
0
 62
     3
100
AcDbLine
 10
145.9923660357999
 20
179.7645568846999
 30
0.0
 11
155.9923660357999
 21
179.7645568846999
 31
0.0
  0
LINE
  5
42
330
2
100
AcDbEntity
  8
0
 62
     3
100
AcDbLine
 10
145.9923660357999
 20
179.5044250487999
 30
0.0
 11
155.9923660357999
 21
179.5044250487999
 31
0.0
  0
LINE
  5
43
330
2
100
AcDbEntity
  8
0
 62
     3
100
AcDbLine
 10
145.9923660357999
 20
174.4284973143999
 30
0.0
 11
155.9923660357999
 21
174.4284973143999
 31
0.0
  0
LINE
  5
44
330
2
100
AcDbEntity
  8
0
 62
     3
100
AcDbLine
 10
145.9923660357999
 20
173.9178771971999
 30
0.0
 11
155.9923660357999
 21
173.9178771971999
 31
0.0
  0
LINE
  5
45
330
2
100
AcDbEntity
  8
0
 62
     3
100
AcDbLine
 10
145.9923660357999
 20
172.6340637206999
 30
0.0
 11
155.9923660357999
 21
172.6340637206999
 31
0.0
  0
LINE
  5
46
330
2
100
AcDbEntity
  8
0
 62
     3
100
AcDbLine
 10
145.9923660357999
 20
172.0888977051
 30
0.0
 11
155.9923660357999
 21
172.0888977051
 31
0.0
  0
LINE
  5
47
330
2
100
AcDbEntity
  8
0
 62
     3
100
AcDbLine
 10
145.9923660357999
 20
170.7377014159999
 30
0.0
 11
155.9923660357999
 21
170.7377014159999
 31
0.0
  0
LINE
  5
48
330
2
100
AcDbEntity
  8
0
 62
     3
100
AcDbLine
 10
145.9923660357999
 20
170.1716613768999
 30
0.0
 11
155.9923660357999
 21
170.1716613768999
 31
0.0
  0
LINE
  5
49
330
2
100
AcDbEntity
  8
0
 62
     3
100
AcDbLine
 10
145.9923660357999
 20
168.7862854004
 30
0.0
 11
155.9923660357999
 21
168.7862854004
 31
0.0
  0
LINE
  5
4A
330
2
100
AcDbEntity
  8
0
 62
     3
100
AcDbLine
 10
145.2923385699999
 20
180.9999847411999
 30
0.0
 11
155.9923507769999
 21
180.9999847411999
 31
0.0
  0
LINE
  5
4B
330
2
100
AcDbEntity
  8
0
 62
     3
100
AcDbLine
 10
145.9923507769999
 20
180.4736175537
 30
0.0
 11
155.9923507769999
 21
180.4736175537
 31
0.0
  0
LINE
  5
4C
330
2
100
AcDbEntity
  8
0
 62
     3
100
AcDbLine
 10
145.9923507769999
 20
180.2966156005999
 30
0.0
 11
155.9923507769999
 21
180.2966156005999
 31
0.0
  0
LINE
  5
4D
330
2
100
AcDbEntity
  8
0
 62
     3
100
AcDbLine
 10
145.2923538288
 20
177.646987915
 30
0.0
 11
154.9063217242999
 21
177.646987915
 31
0.0
  0
LINE
  5
4E
330
2
100
AcDbEntity
  8
0
 62
     3
100
AcDbLine
 10
145.2923538288
 20
179.091796875
 30
0.0
 11
154.9063217242999
 21
179.091796875
 31
0.0
  0
LINE
  5
4F
330
2
100
AcDbEntity
  8
0
 62
     3
100
AcDbLine
 10
145.2923538288
 20
175.8438873291
 30
0.0
 11
156.9923507769999
 21
175.8438873291
 31
0.0
  0
LINE
  5
50
330
2
100
AcDbEntity
  8
0
 62
     3
100
AcDbLine
 10
145.2923385699999
 20
238.9998626708999
 30
0.0
 11
155.9923507769999
 21
238.9998626708999
 31
0.0
  0
LINE
  5
51
330
2
100
AcDbEntity
  8
0
 62
     3
100
AcDbLine
 10
145.9923507769999
 20
238.4734954833999
 30
0.0
 11
155.9923507769999
 21
238.4734954833999
 31
0.0
  0
LINE
  5
52
330
2
100
AcDbEntity
  8
0
 62
     3
100
AcDbLine
 10
145.9923507769999
 20
238.2964935302
 30
0.0
 11
155.9923507769999
 21
238.2964935302
 31
0.0
  0
LINE
  5
53
330
2
100
AcDbEntity
  8
0
 62
     3
100
AcDbLine
 10
145.9923507769999
 20
237.7646331786999
 30
0.0
 11
155.9923507769999
 21
237.7646331786999
 31
0.0
  0
LINE
  5
54
330
2
100
AcDbEntity
  8
0
 62
     3
100
AcDbLine
 10
145.9923507769999
 20
237.5045013427
 30
0.0
 11
155.9923507769999
 21
237.5045013427
 31
0.0
  0
LINE
  5
55
330
2
100
AcDbEntity
  8
0
 62
     3
100
AcDbLine
 10
145.9923507769999
 20
236.778427124
 30
0.0
 11
155.9923507769999
 21
236.778427124
 31
0.0
  0
LINE
  5
56
330
2
100
AcDbEntity
  8
0
 62
     3
100
AcDbLine
 10
145.9923507769999
 20
236.4415130615
 30
0.0
 11
155.9923507769999
 21
236.4415130615
 31
0.0
  0
LINE
  5
57
330
2
100
AcDbEntity
  8
0
 62
     3
100
AcDbLine
 10
145.9923507769999
 20
235.5390472411999
 30
0.0
 11
155.9923507769999
 21
235.5390472411999
 31
0.0
  0
LINE
  5
58
330
2
100
AcDbEntity
  8
0
 62
     3
100
AcDbLine
 10
145.9923507769999
 20
235.1337738036999
 30
0.0
 11
155.9923507769999
 21
235.1337738036999
 31
0.0
  0
LINE
  5
59
330
2
100
AcDbEntity
  8
0
 62
     3
100
AcDbLine
 10
145.9923507769999
 20
234.0771331786999
 30
0.0
 11
155.9923507769999
 21
234.0771331786999
 31
0.0
  0
LINE
  5
5A
330
2
100
AcDbEntity
  8
0
 62
     3
100
AcDbLine
 10
145.9923507769999
 20
233.6133880615
 30
0.0
 11
155.9923507769999
 21
233.6133880615
 31
0.0
  0
LINE
  5
5B
330
2
100
AcDbEntity
  8
0
 62
     3
100
AcDbLine
 10
145.9923507769999
 20
232.4285736083999
 30
0.0
 11
155.9923507769999
 21
232.4285736083999
 31
0.0
  0
LINE
  5
5C
330
2
100
AcDbEntity
  8
0
 62
     3
100
AcDbLine
 10
145.9923507769999
 20
231.9179534911997
 30
0.0
 11
155.9923507769999
 21
231.9179534911997
 31
0.0
  0
LINE
  5
5D
330
2
100
AcDbEntity
  8
0
 62
     3
100
AcDbLine
 10
145.9923507769999
 20
230.6341400146
 30
0.0
 11
155.9923507769999
 21
230.6341400146
 31
0.0
  0
LINE
  5
5E
330
2
100
AcDbEntity
  8
0
 62
     3
100
AcDbLine
 10
145.9923507769999
 20
230.088973999
 30
0.0
 11
155.9923507769999
 21
230.088973999
 31
0.0
  0
LINE
  5
5F
330
2
100
AcDbEntity
  8
0
 62
     3
100
AcDbLine
 10
145.9923507769999
 20
228.7377777099
 30
0.0
 11
155.9923507769999
 21
228.7377777099
 31
0.0
  0
LINE
  5
60
330
2
100
AcDbEntity
  8
0
 62
     3
100
AcDbLine
 10
145.9923507769999
 20
228.1717376708999
 30
0.0
 11
155.9923507769999
 21
228.1717376708999
 31
0.0
  0
LINE
  5
61
330
2
100
AcDbEntity
  8
0
 62
     3
100
AcDbLine
 10
145.9923507769999
 20
226.7863616942999
 30
0.0
 11
155.9923507769999
 21
226.7863616942999
 31
0.0
  0
LINE
  5
62
330
2
100
AcDbEntity
  8
0
 62
     3
100
AcDbLine
 10
155.9923507769999
 20
215.2352294921998
 30
0.0
 11
145.9923507769999
 21
215.2352294921998
 31
0.0
  0
LINE
  5
63
330
2
100
AcDbEntity
  8
0
 62
     3
100
AcDbLine
 10
155.9923507769999
 20
215.4953613281
 30
0.0
 11
145.9923507769999
 21
215.4953613281
 31
0.0
  0
LINE
  5
64
330
2
100
AcDbEntity
  8
0
 62
     3
100
AcDbLine
 10
155.9923507769999
 20
220.5712890625
 30
0.0
 11
145.9923507769999
 21
220.5712890625
 31
0.0
  0
LINE
  5
65
330
2
100
AcDbEntity
  8
0
 62
     3
100
AcDbLine
 10
155.9923507769999
 20
221.0819091797
 30
0.0
 11
145.9923507769999
 21
221.0819091797
 31
0.0
  0
LINE
  5
66
330
2
100
AcDbEntity
  8
0
 62
     3
100
AcDbLine
 10
155.9923507769999
 20
222.3657226561999
 30
0.0
 11
145.9923507769999
 21
222.3657226561999
 31
0.0
  0
LINE
  5
67
330
2
100
AcDbEntity
  8
0
 62
     3
100
AcDbLine
 10
155.9923507769999
 20
222.9108886717999
 30
0.0
 11
145.9923507769999
 21
222.9108886717999
 31
0.0
  0
TEXT
  5
68
330
2
100
AcDbEntity
  8
0
 62
     5
100
AcDbText
 10
145.0
 20
10.0
 30
0.0
 40
5.0
  1
ＭＡ４-Ｈ００７１２Ｂ
 41
0.8418911459846407
 72
     5
 11
199.0413935612998
 21
10.0
 31
0.0
100
AcDbText
  0
LINE
  5
69
330
2
100
AcDbEntity
  8
0
100
AcDbLine
 10
0.0
 20
0.0
 30
0.0
 11
210.0
 21
0.0
 31
0.0
  0
LINE
  5
6A
330
2
100
AcDbEntity
  8
0
  6
CENTER
 62
     3
100
AcDbLine
 10
88.81936188539999
 20
168.4999542235999
 30
0.0
 11
159.2706100542999
 21
168.4999542235999
 31
0.0
  0
LINE
  5
6C
330
2
100
AcDbEntity
  8
0
  6
CENTER
 62
     3
100
AcDbLine
 10
93.7010910114
 20
226.4998626709
 30
0.0
 11
159.2706100542999
 21
226.4998626709
 31
0.0
  0
ARC
  5
6D
330
2
100
AcDbEntity
  8
0
 62
     3
100
AcDbCircle
 10
51.27118809109996
 20
168.4999542235999
 30
0.0
 40
10.8000030518
100
AcDbArc
 50
39.2939792573
 51
50.1060013738
  0
LINE
  5
6E
330
2
100
AcDbEntity
  8
0
 62
     3
100
AcDbLine
 10
56.87116367699997
 20
174.3999633789
 30
0.0
 11
59.07114536649999
 21
174.3999633789
 31
0.0
  0
LINE
  5
6F
330
2
100
AcDbEntity
  8
0
 62
     3
100
AcDbLine
 10
58.05413735599998
 20
181.0986096743999
 30
0.0
 11
58.91753292769997
 21
180.5940820459999
 31
0.0
  0
LINE
  5
70
330
2
100
AcDbEntity
  8
0
 62
     3
100
AcDbLine
 10
58.91753292769997
 20
180.5940820459999
 30
0.0
 11
56.9943985699
 21
177.303031973
 31
0.0
  0
LINE
  5
71
330
2
100
AcDbEntity
  8
0
 62
     3
100
AcDbLine
 10
60.14084061739999
 20
180.1108787672999
 30
0.0
 11
58.04439806299999
 21
176.5232472564999
 31
0.0
  0
LINE
  5
72
330
2
100
AcDbEntity
  8
0
 62
     3
100
AcDbLine
 10
58.38467254699998
 20
182.2953182229999
 30
0.0
 11
59.79736033929999
 21
181.4698101419999
 31
0.0
  0
LINE
  5
73
330
2
100
AcDbEntity
  8
0
 62
     3
100
AcDbLine
 10
56.87116367699997
 20
160.5999603270999
 30
0.0
 11
59.07114536649999
 21
160.5999603270999
 31
0.0
  0
ARC
  5
74
330
2
100
AcDbEntity
  8
0
 62
     3
100
AcDbCircle
 10
51.27115757349995
 20
168.4999694824
 30
0.0
 40
10.5
100
AcDbArc
 50
41.0823276877
 51
138.9176329249999
  0
ARC
  5
75
330
2
100
AcDbEntity
  8
0
 62
     3
100
AcDbCircle
 10
51.2724087942
 20
168.4990997314
 30
0.0
 40
12.5
100
AcDbArc
 50
66.5786076518
 51
21.42683253860006
  0
ARC
  5
76
330
2
100
AcDbEntity
  8
0
 62
     3
100
AcDbCircle
 10
51.2724087942
 20
168.4990997314
 30
0.0
 40
12.1999588013
100
AcDbArc
 50
68.19151584310001
 51
21.22187222199992
  0
ARC
  5
77
330
2
100
AcDbEntity
  8
0
 62
     3
100
AcDbCircle
 10
51.27118809109996
 20
168.4999542235999
 30
0.0
 40
11.8999938965
100
AcDbArc
 50
68.3999732166
 51
359.9999826972001
  0
ARC
  5
78
330
2
100
AcDbEntity
  8
0
 62
     3
100
AcDbCircle
 10
51.27118809109996
 20
168.4999542235999
 30
0.0
 40
10.8000030518
100
AcDbArc
 50
69.2940722997
 51
359.9999826972001
  0
LINE
  5
79
330
2
100
AcDbEntity
  8
0
 62
     3
100
AcDbLine
 10
43.37114841819999
 20
159.5999755858999
 30
0.0
 11
59.17115146999998
 21
159.5999755858999
 31
0.0
  0
LINE
  5
7A
330
2
100
AcDbEntity
  8
0
 62
     3
100
AcDbLine
 10
43.37114841819999
 20
175.3999633789
 30
0.0
 11
59.17115146999998
 21
175.3999633789
 31
0.0
  0
LINE
  5
7B
330
2
100
AcDbEntity
  8
0
  6
CENTER
 62
     3
100
AcDbLine
 10
37.38713962919999
 20
168.4999542235999
 30
0.0
 11
65.38894016629999
 21
168.4999542235999
 31
0.0
  0
ARC
  5
7C
330
2
100
AcDbEntity
  8
0
 62
     3
100
AcDbCircle
 10
43.37114841819999
 20
174.3999633789
 30
0.0
 40
1.0
100
AcDbArc
 50
90.83867460250003
 51
179.9999640277999
  0
LINE
  5
7D
330
2
100
AcDbEntity
  8
0
 62
     3
100
AcDbLine
 10
43.17113621119998
 20
172.0499725341999
 30
0.0
 11
42.37114841819999
 21
172.0499725341999
 31
0.0
  0
ARC
  5
7E
330
2
100
AcDbEntity
  8
0
 62
     3
100
AcDbCircle
 10
43.37114841819999
 20
160.5999755858999
 30
0.0
 40
1.0
100
AcDbArc
 50
180.0000359722
 51
270.0000179861
  0
LINE
  5
7F
330
2
100
AcDbEntity
  8
0
 62
     3
100
AcDbLine
 10
43.17113621119998
 20
162.9499664306
 30
0.0
 11
42.37114841819999
 21
162.9499664306
 31
0.0
  0
ARC
  5
80
330
2
100
AcDbEntity
  8
0
 62
     3
100
AcDbCircle
 10
51.27115757349995
 20
168.4999694824
 30
0.0
 40
10.5
100
AcDbArc
 50
147.9536999894
 51
212.0462280663
  0
LINE
  5
81
330
2
100
AcDbEntity
  8
0
 62
     3
100
AcDbLine
 10
42.37114841819999
 20
160.5999755858999
 30
0.0
 11
42.37114841819999
 21
174.3999633789
 31
0.0
  0
LINE
  5
82
330
2
100
AcDbEntity
  8
0
 62
     3
100
AcDbLine
 10
42.37114841819999
 20
162.9499664306
 30
0.0
 11
42.37114841819999
 21
172.0499572754
 31
0.0
  0
ARC
  5
83
330
2
100
AcDbEntity
  8
0
 62
     3
100
AcDbCircle
 10
51.27118809109996
 20
168.4999542235999
 30
0.0
 40
11.0999984741
100
AcDbArc
 50
171.712321772
 51
188.2877155666999
  0
LINE
  5
84
330
2
100
AcDbEntity
  8
0
 62
     3
100
AcDbLine
 10
40.28710300809999
 20
170.0999450682999
 30
0.0
 11
40.59035618189997
 21
170.0999450682999
 31
0.0
  0
LINE
  5
85
330
2
100
AcDbEntity
  8
0
 62
     3
100
AcDbLine
 10
40.28711826689995
 20
166.8999481201
 30
0.0
 11
40.59035618189997
 21
166.8999481201
 31
0.0
  0
LINE
  5
86
330
2
100
AcDbEntity
  8
0
  6
CENTER
 62
     3
100
AcDbLine
 10
51.27117283229997
 20
181.6666107177
 30
0.0
 11
51.27117283229997
 21
155.1516113281
 31
0.0
  0
ARC
  5
87
330
2
100
AcDbEntity
  8
0
 62
     3
100
AcDbCircle
 10
51.27115757349995
 20
168.4999694824
 30
0.0
 40
10.5
100
AcDbArc
 50
237.9536446645999
 51
302.0463913076
  0
LINE
  5
88
330
2
100
AcDbEntity
  8
0
 62
     3
100
AcDbLine
 10
50.07116062529997
 20
160.5999603270999
 30
0.0
 11
56.37116367699997
 21
160.5999603270999
 31
0.0
  0
LINE
  5
89
330
2
100
AcDbEntity
  8
0
 62
     3
100
AcDbLine
 10
50.07116062529997
 20
174.3999633789
 30
0.0
 11
56.37116367699997
 21
174.3999633789
 31
0.0
  0
LINE
  5
8A
330
2
100
AcDbEntity
  8
0
 62
     3
100
AcDbLine
 10
45.77115757349996
 20
174.3999633789
 30
0.0
 11
45.77115757349996
 21
160.5999603270999
 31
0.0
  0
LINE
  5
8B
330
2
100
AcDbEntity
  8
0
 62
     3
100
AcDbLine
 10
43.17113621119998
 20
174.3999633789
 30
0.0
 11
43.17113621119998
 21
160.5999603270999
 31
0.0
  0
LINE
  5
8C
330
2
100
AcDbEntity
  8
0
 62
     3
100
AcDbLine
 10
43.17113621119998
 20
160.5999603270999
 30
0.0
 11
49.57116062529997
 21
160.5999603270999
 31
0.0
  0
LINE
  5
8D
330
2
100
AcDbEntity
  8
0
  6
DASHED
 62
     3
100
AcDbLine
 10
47.77115757349998
 20
159.5999755858999
 30
0.0
 11
47.77115757349998
 21
160.5999755858999
 31
0.0
  0
LINE
  5
8F
330
2
100
AcDbEntity
  8
0
  6
DASHED
 62
     3
100
AcDbLine
 10
50.17115146999998
 20
159.5999755858999
 30
0.0
 11
50.17115146999998
 21
160.5999755858999
 31
0.0
  0
LINE
  5
90
330
2
100
AcDbEntity
  8
0
 62
     3
100
AcDbLine
 10
49.57116062529997
 20
160.0999755858999
 30
0.0
 11
50.07116062529997
 21
160.0999755858999
 31
0.0
  0
LINE
  5
91
330
2
100
AcDbEntity
  8
0
 62
     3
100
AcDbLine
 10
50.07116062529997
 20
160.0999755858999
 30
0.0
 11
50.07116062529997
 21
162.8999633789
 31
0.0
  0
LINE
  5
92
330
2
100
AcDbEntity
  8
0
 62
     3
100
AcDbLine
 10
50.07116062529997
 20
162.8999633789
 30
0.0
 11
49.57116062529997
 21
162.8999633789
 31
0.0
  0
LINE
  5
93
330
2
100
AcDbEntity
  8
0
 62
     3
100
AcDbLine
 10
49.57116062529997
 20
162.8999633789
 30
0.0
 11
49.57116062529997
 21
160.0999755858999
 31
0.0
  0
LINE
  5
94
330
2
100
AcDbEntity
  8
0
 62
     3
100
AcDbLine
 10
43.17113621119998
 20
174.3999633789
 30
0.0
 11
49.57116062529997
 21
174.3999633789
 31
0.0
  0
LINE
  5
95
330
2
100
AcDbEntity
  8
0
 62
     3
100
AcDbLine
 10
49.57116062529997
 20
166.0999755858999
 30
0.0
 11
50.07116062529997
 21
166.0999755858999
 31
0.0
  0
LINE
  5
96
330
2
100
AcDbEntity
  8
0
 62
     3
100
AcDbLine
 10
50.07116062529997
 20
166.0999755858999
 30
0.0
 11
50.07116062529997
 21
168.8999633789
 31
0.0
  0
LINE
  5
97
330
2
100
AcDbEntity
  8
0
 62
     3
100
AcDbLine
 10
50.07116062529997
 20
168.8999633789
 30
0.0
 11
49.57116062529997
 21
168.8999633789
 31
0.0
  0
LINE
  5
98
330
2
100
AcDbEntity
  8
0
 62
     3
100
AcDbLine
 10
49.57116062529997
 20
168.8999633789
 30
0.0
 11
49.57116062529997
 21
166.0999755858999
 31
0.0
  0
LINE
  5
99
330
2
100
AcDbEntity
  8
0
  6
DASHED
 62
     3
100
AcDbLine
 10
47.77115757349998
 20
174.3999633789
 30
0.0
 11
47.77115757349998
 21
175.3999633789
 31
0.0
  0
LINE
  5
9A
330
2
100
AcDbEntity
  8
0
  6
DASHED
 62
     3
100
AcDbLine
 10
50.17115146999998
 20
174.3999633789
 30
0.0
 11
50.17115146999998
 21
175.3999633789
 31
0.0
  0
LINE
  5
9B
330
2
100
AcDbEntity
  8
0
 62
     3
100
AcDbLine
 10
49.57116062529997
 20
172.0999755858999
 30
0.0
 11
50.07116062529997
 21
172.0999755858999
 31
0.0
  0
LINE
  5
9C
330
2
100
AcDbEntity
  8
0
 62
     3
100
AcDbLine
 10
50.07116062529997
 20
172.0999755858999
 30
0.0
 11
50.07116062529997
 21
174.8999633788999
 31
0.0
  0
LINE
  5
9D
330
2
100
AcDbEntity
  8
0
 62
     3
100
AcDbLine
 10
50.07116062529997
 20
174.8999633788999
 30
0.0
 11
49.57116062529997
 21
174.8999633788999
 31
0.0
  0
LINE
  5
9E
330
2
100
AcDbEntity
  8
0
 62
     3
100
AcDbLine
 10
49.57116062529997
 20
174.8999633788999
 30
0.0
 11
49.57116062529997
 21
172.0999755858999
 31
0.0
  0
LINE
  5
9F
330
2
100
AcDbEntity
  8
0
 62
     3
100
AcDbLine
 10
57.77115757349998
 20
160.5999603270999
 30
0.0
 11
57.77115757349998
 21
174.3999633789
 31
0.0
  0
LINE
  5
A0
330
2
100
AcDbEntity
  8
0
 62
     3
100
AcDbLine
 10
52.5711453665
 20
160.5999603270999
 30
0.0
 11
52.5711453665
 21
174.3999633789
 31
0.0
  0
LINE
  5
A1
330
2
100
AcDbEntity
  8
0
 62
     3
100
AcDbLine
 10
50.97115452179997
 20
160.5999603270999
 30
0.0
 11
50.97115452179997
 21
174.3999633789
 31
0.0
  0
LINE
  5
A2
330
2
100
AcDbEntity
  8
0
  6
DASHED
 62
     3
100
AcDbLine
 10
54.57116062529997
 20
159.5999755858999
 30
0.0
 11
54.57116062529997
 21
160.5999755858999
 31
0.0
  0
LINE
  5
A3
330
2
100
AcDbEntity
  8
0
 62
     3
100
AcDbLine
 10
56.87116367699997
 20
162.8999633789
 30
0.0
 11
56.37116367699997
 21
162.8999633789
 31
0.0
  0
LINE
  5
A4
330
2
100
AcDbEntity
  8
0
 62
     3
100
AcDbLine
 10
56.37116367699997
 20
160.0999755858999
 30
0.0
 11
56.87116367699997
 21
160.0999755858999
 31
0.0
  0
LINE
  5
A5
330
2
100
AcDbEntity
  8
0
 62
     3
100
AcDbLine
 10
56.37116367699997
 20
162.8999633789
 30
0.0
 11
56.37116367699997
 21
160.0999755858999
 31
0.0
  0
LINE
  5
A6
330
2
100
AcDbEntity
  8
0
  6
DASHED
 62
     3
100
AcDbLine
 10
56.97115452179996
 20
159.5999755858999
 30
0.0
 11
56.97115452179996
 21
160.5999755858999
 31
0.0
  0
LINE
  5
A7
330
2
100
AcDbEntity
  8
0
 62
     3
100
AcDbLine
 10
56.87116367699997
 20
160.0999755858999
 30
0.0
 11
56.87116367699997
 21
162.8999633789
 31
0.0
  0
LINE
  5
A8
330
2
100
AcDbEntity
  8
0
  6
DASHED
 62
     3
100
AcDbLine
 10
54.57116062529997
 20
174.3999633789
 30
0.0
 11
54.57116062529997
 21
175.3999633789
 31
0.0
  0
LINE
  5
A9
330
2
100
AcDbEntity
  8
0
 62
     3
100
AcDbLine
 10
56.37116367699997
 20
166.0999755858999
 30
0.0
 11
56.87116367699997
 21
166.0999755858999
 31
0.0
  0
LINE
  5
AA
330
2
100
AcDbEntity
  8
0
 62
     3
100
AcDbLine
 10
56.87116367699997
 20
168.8999633789
 30
0.0
 11
56.37116367699997
 21
168.8999633789
 31
0.0
  0
LINE
  5
AB
330
2
100
AcDbEntity
  8
0
 62
     3
100
AcDbLine
 10
56.37116367699997
 20
168.8999633789
 30
0.0
 11
56.37116367699997
 21
166.0999755858999
 31
0.0
  0
LINE
  5
AC
330
2
100
AcDbEntity
  8
0
 62
     3
100
AcDbLine
 10
56.87116367699997
 20
166.0999755858999
 30
0.0
 11
56.87116367699997
 21
168.8999633789
 31
0.0
  0
LINE
  5
AD
330
2
100
AcDbEntity
  8
0
 62
     3
100
AcDbLine
 10
56.37116367699997
 20
172.0999755858999
 30
0.0
 11
56.87116367699997
 21
172.0999755858999
 31
0.0
  0
LINE
  5
AE
330
2
100
AcDbEntity
  8
0
 62
     3
100
AcDbLine
 10
56.87116367699997
 20
174.8999633788999
 30
0.0
 11
56.37116367699997
 21
174.8999633788999
 31
0.0
  0
LINE
  5
AF
330
2
100
AcDbEntity
  8
0
 62
     3
100
AcDbLine
 10
56.37116367699997
 20
174.8999633788999
 30
0.0
 11
56.37116367699997
 21
172.0999755858999
 31
0.0
  0
LINE
  5
B0
330
2
100
AcDbEntity
  8
0
  6
DASHED
 62
     3
100
AcDbLine
 10
56.97115452179996
 20
174.3999633789
 30
0.0
 11
56.97115452179996
 21
175.3999633789
 31
0.0
  0
LINE
  5
B1
330
2
100
AcDbEntity
  8
0
 62
     3
100
AcDbLine
 10
56.87116367699997
 20
172.0999755858999
 30
0.0
 11
56.87116367699997
 21
174.8999633788999
 31
0.0
  0
ARC
  5
B2
330
2
100
AcDbEntity
  8
0
 62
     3
100
AcDbCircle
 10
57.89611179719996
 20
181.4228057861
 30
0.0
 40
0.9999999404
100
AcDbArc
 50
59.70022466699998
 51
149.6999881147999
  0
ARC
  5
B3
330
2
100
AcDbEntity
  8
0
 62
     3
100
AcDbCircle
 10
51.27118809109996
 20
168.4999542235999
 30
0.0
 40
10.8000030518
100
AcDbArc
 50
57.04647077819997
 51
62.35350727270001
  0
LINE
  5
B4
330
2
100
AcDbEntity
  8
0
 62
     3
100
AcDbLine
 10
58.05413735599998
 20
181.0986096743999
 30
0.0
 11
56.13101069659998
 21
177.8075727757999
 31
0.0
  0
LINE
  5
B5
330
2
100
AcDbEntity
  8
0
 62
     3
100
AcDbLine
 10
57.03262446389999
 20
181.9271736104999
 30
0.0
 11
54.93618960799997
 21
178.3395552741
 31
0.0
  0
ARC
  5
B6
330
2
100
AcDbEntity
  8
0
 62
     3
100
AcDbCircle
 10
51.2724087942
 20
168.4990997314
 30
0.0
 40
12.5
100
AcDbArc
 50
57.4143515971
 51
61.9992117001
  0
ARC
  5
B7
330
2
100
AcDbEntity
  8
0
 62
     3
100
AcDbCircle
 10
51.2724087942
 20
168.4990997314
 30
0.0
 40
12.1999588013
100
AcDbArc
 50
57.3581254798
 51
62.0558203079
  0
ARC
  5
B8
330
2
100
AcDbEntity
  8
0
 62
     3
100
AcDbCircle
 10
51.27118809109996
 20
168.4999542235999
 30
0.0
 40
11.8999938965
100
AcDbArc
 50
57.29190679580001
 51
62.10805759470002
  0
LINE
  5
B9
330
2
100
AcDbEntity
  8
0
  6
DASHED
 62
     3
100
AcDbLine
 10
64.33846861589997
 20
176.8743377255999
 30
0.0
 11
65.13119037969996
 21
175.4845485609999
 31
0.0
  0
LINE
  5
BA
330
2
100
AcDbEntity
  8
0
 62
     3
100
AcDbLine
 10
60.36311139469995
 20
176.1776395131999
 30
0.0
 11
60.74524641119999
 21
176.5597745297
 31
0.0
  0
LINE
  5
BB
330
2
100
AcDbEntity
  8
0
 62
     3
100
AcDbLine
 10
59.13155487699999
 20
177.7743374383999
 30
0.0
 11
60.54576841519994
 21
176.3601239001999
 31
0.0
  0
ARC
  5
BC
330
2
100
AcDbEntity
  8
0
 62
     3
100
AcDbCircle
 10
51.27118809109996
 20
168.4999542235999
 30
0.0
 40
11.8999938965
100
AcDbArc
 50
38.399907495
 51
51.00007655129999
  0
LINE
  5
BD
330
2
100
AcDbEntity
  8
0
  6
DASHED
 62
     3
100
AcDbLine
 10
62.97437091109998
 20
177.2475237994999
 30
0.0
 11
59.5811333872
 21
175.3120552378999
 31
0.0
  0
ARC
  5
BE
330
2
100
AcDbEntity
  8
0
 62
     3
100
AcDbCircle
 10
51.27115757349995
 20
168.4999694824
 30
0.0
 40
10.5
100
AcDbArc
 50
327.9535788672
 51
32.04642113279993
  0
LINE
  5
BF
330
2
100
AcDbEntity
  8
0
 62
     3
100
AcDbLine
 10
60.17115146999998
 20
160.5999755858999
 30
0.0
 11
60.17115146999998
 21
174.3999633789
 31
0.0
  0
LINE
  5
C0
330
2
100
AcDbEntity
  8
0
 62
     3
100
AcDbLine
 10
59.37114841819999
 20
160.8999633788999
 30
0.0
 11
59.37114841819999
 21
174.0999603270999
 31
0.0
  0
ARC
  5
C1
330
2
100
AcDbEntity
  8
0
 62
     3
100
AcDbCircle
 10
59.17115146999998
 20
160.5999755858999
 30
0.0
 40
1.0
100
AcDbArc
 50
270.0000179861
 51
0.0
  0
LINE
  5
C2
330
2
100
AcDbEntity
  8
0
 62
     3
100
AcDbLine
 10
59.37117157749998
 20
160.8998810345999
 30
0.0
 11
59.07117823849997
 21
160.5998866587999
 31
0.0
  0
ARC
  5
C3
330
2
100
AcDbEntity
  8
0
 62
     3
100
AcDbCircle
 10
51.2724087942
 20
168.4990997314
 30
0.0
 40
12.5
100
AcDbArc
 50
27.4136472528
 51
31.99853467649999
  0
LINE
  5
C4
330
2
100
AcDbEntity
  8
0
  6
DASHED
 62
     3
100
AcDbLine
 10
63.44475829309999
 20
176.0192175615
 30
0.0
 11
60.1337634807
 21
174.1306594156
 31
0.0
  0
LINE
  5
C5
330
2
100
AcDbEntity
  8
0
  6
DASHED
 62
     3
100
AcDbLine
 10
63.94021695559999
 20
175.1505860792999
 30
0.0
 11
60.62922214329997
 21
173.2620279335
 31
0.0
  0
LINE
  5
C6
330
2
100
AcDbEntity
  8
0
  6
DASHED
 62
     3
100
AcDbLine
 10
64.75803081439997
 20
174.1204659764999
 30
0.0
 11
61.14864274399999
 21
172.0617073168999
 31
0.0
  0
ARC
  5
C7
330
2
100
AcDbEntity
  8
0
 62
     3
100
AcDbCircle
 10
51.27118809109996
 20
168.4999542235999
 30
0.0
 40
11.0999984741
100
AcDbArc
 50
351.7122484610997
 51
8.287676406800024
  0
ARC
  5
C8
330
2
100
AcDbEntity
  8
0
 62
     3
100
AcDbCircle
 10
51.27118809109996
 20
168.4999542235999
 30
0.0
 40
10.8000030518
100
AcDbArc
 50
0.0
 51
20.1058980862
  0
LINE
  5
C9
330
2
100
AcDbEntity
  8
0
 62
     3
100
AcDbLine
 10
61.95202000029997
 20
170.0999450682999
 30
0.0
 11
62.25527317409998
 21
170.0999450682999
 31
0.0
  0
LINE
  5
CA
330
2
100
AcDbEntity
  8
0
 62
     3
100
AcDbLine
 10
61.95202000029997
 20
166.8999481201
 30
0.0
 11
62.25527317409998
 21
166.8999481201
 31
0.0
  0
ARC
  5
CB
330
2
100
AcDbEntity
  8
0
 62
     3
100
AcDbCircle
 10
59.17115146999998
 20
174.3999633789
 30
0.0
 40
1.0
100
AcDbArc
 50
0.0
 51
89.16128942530001
  0
LINE
  5
CC
330
2
100
AcDbEntity
  8
0
 62
     3
100
AcDbLine
 10
59.07117674109997
 20
174.3998815059999
 30
0.0
 11
59.37117086399999
 21
174.0998879141
 31
0.0
  0
ARC
  5
CD
330
2
100
AcDbEntity
  8
0
 62
     3
100
AcDbCircle
 10
51.2724087942
 20
168.4990997314
 30
0.0
 40
12.1999588013
100
AcDbArc
 50
27.3573869846
 51
32.05509547309999
  0
ARC
  5
CE
330
2
100
AcDbEntity
  8
0
 62
     3
100
AcDbCircle
 10
51.27118809109996
 20
168.4999542235999
 30
0.0
 40
11.8999938965
100
AcDbArc
 50
27.2918137534
 51
32.1080021184
  0
ARC
  5
CF
330
2
100
AcDbEntity
  8
0
 62
     3
100
AcDbCircle
 10
51.27118809109996
 20
168.4999542235999
 30
0.0
 40
10.8000030518
100
AcDbArc
 50
27.0463674905
 51
32.35342789070001
  0
ARC
  5
D0
330
2
100
AcDbEntity
  8
0
 62
     3
100
AcDbCircle
 10
51.2724087942
 20
168.4990997314
 30
0.0
 40
12.1999588013
100
AcDbArc
 50
38.1907978385
 51
40.3049258017
  0
ARC
  5
D1
330
2
100
AcDbEntity
  8
0
 62
     3
100
AcDbCircle
 10
51.27118809109996
 20
168.4999542235999
 30
0.0
 40
11.8999938965
100
AcDbArc
 50
0.0
 51
20.9999800938
  0
LINE
  5
D2
330
2
100
AcDbEntity
  8
0
  6
DASHED
 62
     3
100
AcDbLine
 10
63.44475829309999
 20
176.0192175615
 30
0.0
 11
63.94021695559999
 21
175.1505860792999
 31
0.0
  0
ARC
  5
D3
330
2
100
AcDbEntity
  8
0
  6
DASHED
 62
     3
100
AcDbCircle
 10
64.26270420439997
 20
174.9891815185
 30
0.0
 40
0.9999999404
100
AcDbArc
 50
299.7001940068999
 51
29.70015894540005
  0
ARC
  5
D4
330
2
100
AcDbEntity
  8
0
 62
     3
100
AcDbCircle
 10
59.27753574729999
 20
180.6155395508
 30
0.0
 40
0.9999999404
100
AcDbArc
 50
329.7001333699999
 51
59.70011538400002
  0
LINE
  5
D5
330
2
100
AcDbEntity
  8
0
 62
     3
100
AcDbLine
 10
59.38403815779998
 20
178.8157210749
 30
0.0
 11
60.42342243989998
 21
179.0942232561999
 31
0.0
  0
ARC
  5
D6
330
2
100
AcDbEntity
  8
0
 62
     3
100
AcDbCircle
 10
51.2724087942
 20
168.5011444091999
 30
0.0
 40
13.19841766359999
100
AcDbArc
 50
42.6396688751
 51
47.35659751589999
  0
ARC
  5
D7
330
2
100
AcDbEntity
  8
0
 62
     3
100
AcDbCircle
 10
51.2724087942
 20
168.4990997314
 30
0.0
 40
12.1999588013
100
AcDbArc
 50
49.70858340189998
 51
51.22263143520001
  0
LINE
  5
D8
330
2
100
AcDbEntity
  8
0
 62
     3
100
AcDbLine
 10
59.32993346259996
 20
177.9729522810999
 30
0.0
 11
60.21332166919997
 21
178.2096554396999
 31
0.0
  0
LINE
  5
D9
330
2
100
AcDbEntity
  8
0
 62
     3
100
AcDbLine
 10
58.94889785659998
 20
177.5918530513999
 30
0.0
 11
59.32999707209997
 21
177.9729522669
 31
0.0
  0
LINE
  5
DA
330
2
100
AcDbEntity
  8
0
 62
     3
100
AcDbLine
 10
61.5381936174
 20
176.4283425007
 30
0.0
 11
61.86596288199999
 21
177.6515940392
 31
0.0
  0
ARC
  5
DB
330
2
100
AcDbEntity
  8
0
 62
     3
100
AcDbCircle
 10
51.2724087942
 20
168.5011444091999
 30
0.0
 40
13.9984130859
100
AcDbArc
 50
40.81945078199999
 51
49.17719468450001
  0
LINE
  5
DC
330
2
100
AcDbEntity
  8
0
 62
     3
100
AcDbLine
 10
60.7451500217
 20
176.5598147693999
 30
0.0
 11
60.98141481179997
 21
177.4415669627999
 31
0.0
  0
ARC
  5
DD
330
2
100
AcDbEntity
  8
0
  6
DASHED
 62
     3
100
AcDbCircle
 10
63.46982700709998
 20
176.3788909911999
 30
0.0
 40
1.0
100
AcDbArc
 50
29.6992573604
 51
119.6996116195998
  0
LINE
  5
DE
330
2
100
AcDbEntity
  8
0
 62
     3
100
AcDbLine
 10
119.6923935015999
 20
222.8866271971999
 30
0.0
 11
123.4923660357999
 21
222.8866271971999
 31
0.0
  0
LINE
  5
DF
330
2
100
AcDbEntity
  8
0
 62
     3
100
AcDbLine
 10
119.6923782427999
 20
220.7851867676
 30
0.0
 11
120.6923782427999
 21
220.7851867676
 31
0.0
  0
LINE
  5
E0
330
2
100
AcDbEntity
  8
0
 62
     3
100
AcDbLine
 10
119.6923782427999
 20
213.5380554199
 30
0.0
 11
120.6923782427999
 21
213.5380554199
 31
0.0
  0
LINE
  5
E1
330
2
100
AcDbEntity
  8
0
 62
     3
100
AcDbLine
 10
119.6923782427999
 20
215.3369293212998
 30
0.0
 11
120.6923782427999
 21
215.3369293212998
 31
0.0
  0
LINE
  5
E2
330
2
100
AcDbEntity
  8
0
 62
     3
100
AcDbLine
 10
119.6923782427999
 20
182.4228363036999
 30
0.0
 11
120.6923782427999
 21
182.4228363036999
 31
0.0
  0
LINE
  5
E3
330
2
100
AcDbEntity
  8
0
 62
     3
100
AcDbLine
 10
119.6923782427999
 20
171.7282714842999
 30
0.0
 11
123.4923660357999
 21
171.7282714842999
 31
0.0
  0
LINE
  5
E4
330
2
100
AcDbEntity
  8
0
 62
     3
100
AcDbLine
 10
119.6923782427999
 20
172.5016937255999
 30
0.0
 11
120.6923782427999
 21
172.5016937255999
 31
0.0
  0
LINE
  5
E5
330
2
100
AcDbEntity
  8
0
 62
     3
100
AcDbLine
 10
119.6923782427999
 20
180.9743041992
 30
0.0
 11
120.6923782427999
 21
180.9743041992
 31
0.0
  0
LINE
  5
E6
330
2
100
AcDbEntity
  8
0
 62
     3
100
AcDbLine
 10
123.4923965533997
 20
157.9999694824
 30
0.0
 11
113.9924118121999
 21
157.9999694824
 31
0.0
  0
LINE
  5
E7
330
2
100
AcDbEntity
  8
0
 62
     3
100
AcDbLine
 10
113.9923812945999
 20
237.0000152587999
 30
0.0
 11
123.4923660357999
 21
237.0000152587999
 31
0.0
  0
LINE
  5
E8
330
2
100
AcDbEntity
  8
0
 62
     3
100
AcDbLine
 10
112.9924118121998
 20
159.5999755858999
 30
0.0
 11
100.9924118122
 21
159.5999755858999
 31
0.0
  0
LINE
  5
E9
330
2
100
AcDbEntity
  8
0
 62
     3
100
AcDbLine
 10
112.9924270708999
 20
175.3999633789
 30
0.0
 11
100.9924270708999
 21
175.3999633789
 31
0.0
  0
LINE
  5
EA
330
2
100
AcDbEntity
  8
0
 62
     3
100
AcDbLine
 10
92.49236603579999
 20
172.1000213622999
 30
0.0
 11
100.9923812945999
 21
172.1000213622999
 31
0.0
  0
LINE
  5
EB
330
2
100
AcDbEntity
  8
0
 62
     3
100
AcDbLine
 10
92.49236603579999
 20
174.9000091552
 30
0.0
 11
100.9923812945999
 21
174.9000091552
 31
0.0
  0
LINE
  5
EC
330
2
100
AcDbEntity
  8
0
 62
     3
100
AcDbLine
 10
92.49236603579999
 20
160.1000213622999
 30
0.0
 11
100.9923812945999
 21
160.1000213622999
 31
0.0
  0
LINE
  5
ED
330
2
100
AcDbEntity
  8
0
 62
     3
100
AcDbLine
 10
92.49236603579999
 20
162.9000091552
 30
0.0
 11
100.9923812945999
 21
162.9000091552
 31
0.0
  0
LINE
  5
EE
330
2
100
AcDbEntity
  8
0
 62
     3
100
AcDbLine
 10
92.49236603579999
 20
166.1000213622999
 30
0.0
 11
100.9923812945999
 21
166.1000213622999
 31
0.0
  0
LINE
  5
EF
330
2
100
AcDbEntity
  8
0
 62
     3
100
AcDbLine
 10
92.49236603579999
 20
168.9000091551999
 30
0.0
 11
100.9923812945999
 21
168.9000091551999
 31
0.0
  0
LINE
  5
F0
330
2
100
AcDbEntity
  8
0
  6
CENTER
 62
     3
100
AcDbLine
 10
91.49236603579998
 20
161.5000152587999
 30
0.0
 11
96.01762730729999
 21
161.5000152587999
 31
0.0
  0
LINE
  5
F1
330
2
100
AcDbEntity
  8
0
 62
     3
100
AcDbLine
 10
91.99236603580001
 20
162.3999938965
 30
0.0
 11
91.99236603580001
 21
160.6000213622999
 31
0.0
  0
LINE
  5
F2
330
2
100
AcDbEntity
  8
0
 62
     3
100
AcDbLine
 10
92.49240463639996
 20
162.8999199732999
 30
0.0
 11
91.99241160769998
 21
162.3999118982999
 31
0.0
  0
LINE
  5
F3
330
2
100
AcDbEntity
  8
0
 62
     3
100
AcDbLine
 10
91.99241375619996
 20
160.5999623596
 30
0.0
 11
92.49241428689995
 21
160.0999618288
 31
0.0
  0
LINE
  5
F4
330
2
100
AcDbEntity
  8
0
 62
     3
100
AcDbLine
 10
93.59236603579999
 20
162.1000152588
 30
0.0
 11
94.99236603579999
 21
162.1000152588
 31
0.0
  0
LINE
  5
F5
330
2
100
AcDbEntity
  8
0
 62
     3
100
AcDbLine
 10
93.59236603579999
 20
160.9000152587999
 30
0.0
 11
94.99236603579999
 21
160.9000152587999
 31
0.0
  0
ARC
  5
F6
330
2
100
AcDbEntity
  8
0
 62
     3
100
AcDbCircle
 10
93.59236603579999
 20
161.5000152587999
 30
0.0
 40
0.6
100
AcDbArc
 50
90.0
 51
270.0
  0
ARC
  5
F7
330
2
100
AcDbEntity
  8
0
 62
     3
100
AcDbCircle
 10
94.99236603579999
 20
161.5000152587999
 30
0.0
 40
0.6
100
AcDbArc
 50
0.0
 51
90.0
  0
ARC
  5
F8
330
2
100
AcDbEntity
  8
0
 62
     3
100
AcDbCircle
 10
94.99236603579999
 20
161.5000152587999
 30
0.0
 40
0.6
100
AcDbArc
 50
270.0
 51
0.0
  0
LINE
  5
F9
330
2
100
AcDbEntity
  8
0
  6
CENTER
 62
     3
100
AcDbLine
 10
91.49236603579998
 20
173.5
 30
0.0
 11
95.86642091469999
 21
173.5
 31
0.0
  0
LINE
  5
FA
330
2
100
AcDbEntity
  8
0
  6
CENTER
 62
     3
100
AcDbLine
 10
91.49236603579998
 20
167.5000152587999
 30
0.0
 11
95.86642091469999
 21
167.5000152587999
 31
0.0
  0
LINE
  5
FB
330
2
100
AcDbEntity
  8
0
 62
     3
100
AcDbLine
 10
91.99236603580001
 20
168.3999938964999
 30
0.0
 11
91.99236603580001
 21
166.6000213622999
 31
0.0
  0
LINE
  5
FC
330
2
100
AcDbEntity
  8
0
 62
     3
100
AcDbLine
 10
92.492389885
 20
168.8999158072999
 30
0.0
 11
91.99238606699998
 21
168.3998969424999
 31
0.0
  0
LINE
  5
FD
330
2
100
AcDbEntity
  8
0
 62
     3
100
AcDbLine
 10
91.99238138739998
 20
166.5999363604
 30
0.0
 11
92.49238191819999
 21
166.0999358295999
 31
0.0
  0
LINE
  5
FE
330
2
100
AcDbEntity
  8
0
 62
     3
100
AcDbLine
 10
91.99236603580001
 20
174.3999938965
 30
0.0
 11
91.99236603580001
 21
172.6000213622999
 31
0.0
  0
LINE
  5
FF
330
2
100
AcDbEntity
  8
0
 62
     3
100
AcDbLine
 10
92.49237513369996
 20
174.8999116412999
 30
0.0
 11
91.99237131559998
 21
174.3998927764
 31
0.0
  0
LINE
  5
100
330
2
100
AcDbEntity
  8
0
 62
     3
100
AcDbLine
 10
91.99237059779994
 20
172.5999319402999
 30
0.0
 11
92.49237112860001
 21
172.0999314094999
 31
0.0
  0
LINE
  5
101
330
2
100
AcDbEntity
  8
0
 62
     3
100
AcDbLine
 10
93.59236603579999
 20
166.9000152588
 30
0.0
 11
94.99236603579999
 21
166.9000152588
 31
0.0
  0
LINE
  5
102
330
2
100
AcDbEntity
  8
0
 62
     3
100
AcDbLine
 10
93.59236603579999
 20
168.1000152588
 30
0.0
 11
94.99236603579999
 21
168.1000152588
 31
0.0
  0
ARC
  5
103
330
2
100
AcDbEntity
  8
0
 62
     3
100
AcDbCircle
 10
93.59236603579999
 20
167.5000152587999
 30
0.0
 40
0.6
100
AcDbArc
 50
90.0
 51
270.0
  0
ARC
  5
104
330
2
100
AcDbEntity
  8
0
 62
     3
100
AcDbCircle
 10
94.99236603579999
 20
167.5000152587999
 30
0.0
 40
0.6
100
AcDbArc
 50
270.0
 51
0.0
  0
ARC
  5
105
330
2
100
AcDbEntity
  8
0
 62
     3
100
AcDbCircle
 10
94.99236603579999
 20
167.5000152587999
 30
0.0
 40
0.6
100
AcDbArc
 50
0.0
 51
90.0
  0
LINE
  5
106
330
2
100
AcDbEntity
  8
0
 62
     3
100
AcDbLine
 10
93.59236603579999
 20
174.0999999999999
 30
0.0
 11
94.99236603579999
 21
174.0999999999999
 31
0.0
  0
LINE
  5
107
330
2
100
AcDbEntity
  8
0
 62
     3
100
AcDbLine
 10
93.59236603579999
 20
172.8999999999999
 30
0.0
 11
94.99236603579999
 21
172.8999999999999
 31
0.0
  0
ARC
  5
108
330
2
100
AcDbEntity
  8
0
 62
     3
100
AcDbCircle
 10
93.59236603579999
 20
173.5
 30
0.0
 40
0.6
100
AcDbArc
 50
90.0
 51
270.0
  0
ARC
  5
109
330
2
100
AcDbEntity
  8
0
 62
     3
100
AcDbCircle
 10
94.99236603579999
 20
173.5
 30
0.0
 40
0.6
100
AcDbArc
 50
0.0
 51
90.0
  0
ARC
  5
10A
330
2
100
AcDbEntity
  8
0
 62
     3
100
AcDbCircle
 10
94.99236603579999
 20
173.5
 30
0.0
 40
0.6
100
AcDbArc
 50
270.0
 51
0.0
  0
LINE
  5
10B
330
2
100
AcDbEntity
  8
0
 62
     3
100
AcDbLine
 10
100.9923660357999
 20
175.3999633789
 30
0.0
 11
100.9923660357999
 21
159.5999755858999
 31
0.0
  0
LINE
  5
10C
330
2
100
AcDbEntity
  8
0
 62
     3
100
AcDbLine
 10
119.6923782427999
 20
182.4228210449
 30
0.0
 11
119.6923782427999
 21
171.7282409667999
 31
0.0
  0
LINE
  5
10D
330
2
100
AcDbEntity
  8
0
 62
     3
100
AcDbLine
 10
118.4923660357999
 20
178.9999542235999
 30
0.0
 11
118.4923660357999
 21
169.0999603270999
 31
0.0
  0
LINE
  5
10E
330
2
100
AcDbEntity
  8
0
 62
     3
100
AcDbLine
 10
114.1923782427999
 20
178.9999542235999
 30
0.0
 11
114.1923782427999
 21
169.0999603270999
 31
0.0
  0
LINE
  5
10F
330
2
100
AcDbEntity
  8
0
 62
     3
100
AcDbLine
 10
112.9923660357997
 20
177.9999542235999
 30
0.0
 11
112.9923660357997
 21
159.0000152588
 31
0.0
  0
LINE
  5
110
330
2
100
AcDbEntity
  8
0
 62
     3
100
AcDbLine
 10
118.4923660357999
 20
167.8999633789
 30
0.0
 11
118.4923660357999
 21
157.9999694824
 31
0.0
  0
LINE
  5
111
330
2
100
AcDbEntity
  8
0
 62
     3
100
AcDbLine
 10
114.1923782427999
 20
167.8999633789
 30
0.0
 11
114.1923782427999
 21
157.9999694824
 31
0.0
  0
LINE
  5
112
330
2
100
AcDbEntity
  8
0
 62
     3
100
AcDbLine
 10
118.4924118121999
 20
159.8999633789
 30
0.0
 11
114.1924240192
 21
159.8999633789
 31
0.0
  0
ARC
  5
113
330
2
100
AcDbEntity
  8
0
 62
     3
100
AcDbCircle
 10
113.9923660357997
 20
159.0000610350999
 30
0.0
 40
1.0
100
AcDbArc
 50
180.0000359722
 51
270.0000179861
  0
LINE
  5
114
330
2
100
AcDbEntity
  8
0
 62
     3
100
AcDbLine
 10
118.4923812945999
 20
169.0999603270999
 30
0.0
 11
114.1923935015999
 21
169.0999603270999
 31
0.0
  0
LINE
  5
115
330
2
100
AcDbEntity
  8
0
 62
     3
100
AcDbLine
 10
118.4923812945999
 20
167.8999633789
 30
0.0
 11
114.1923935015999
 21
167.8999633789
 31
0.0
  0
LINE
  5
116
330
2
100
AcDbEntity
  8
0
 62
     3
100
AcDbLine
 10
118.4924118121999
 20
177.0999603271
 30
0.0
 11
114.1924240192
 21
177.0999603271
 31
0.0
  0
LINE
  5
117
330
2
100
AcDbEntity
  8
0
 62
     3
100
AcDbLine
 10
119.6923782427999
 20
178.9999542235999
 30
0.0
 11
113.9924118121999
 21
178.9999542235999
 31
0.0
  0
ARC
  5
118
330
2
100
AcDbEntity
  8
0
 62
     3
100
AcDbCircle
 10
113.9923660357997
 20
178.0000457763
 30
0.0
 40
1.0
100
AcDbArc
 50
89.99998201389999
 51
179.9999640277999
  0
LINE
  5
119
330
2
100
AcDbEntity
  8
0
 62
     3
100
AcDbLine
 10
100.9924118122
 20
235.4000396728
 30
0.0
 11
112.9923812945999
 21
235.4000396728
 31
0.0
  0
LINE
  5
11A
330
2
100
AcDbEntity
  8
0
 62
     3
100
AcDbLine
 10
100.9924118122
 20
217.6001281737998
 30
0.0
 11
112.9923812945999
 21
217.6001281737998
 31
0.0
  0
LINE
  5
11B
330
2
100
AcDbEntity
  8
0
 62
     3
100
AcDbLine
 10
102.6923935015999
 20
220.8003234862999
 30
0.0
 11
102.6923935015999
 21
223.2002258301
 31
0.0
  0
LINE
  5
11C
330
2
100
AcDbEntity
  8
0
 62
     3
100
AcDbLine
 10
104.1923935015999
 20
220.8003234862999
 30
0.0
 11
104.1923935015999
 21
223.2002258301
 31
0.0
  0
LINE
  5
11D
330
2
100
AcDbEntity
  8
0
 62
     3
100
AcDbLine
 10
100.9924118122
 20
235.4000396728
 30
0.0
 11
100.9924118122
 21
217.6001281737998
 31
0.0
  0
LINE
  5
11E
330
2
100
AcDbEntity
  8
0
 62
     3
100
AcDbLine
 10
91.99239655339994
 20
221.3999176025
 30
0.0
 11
100.9924423296999
 21
221.3999176025
 31
0.0
  0
LINE
  5
11F
330
2
100
AcDbEntity
  8
0
 62
     3
100
AcDbLine
 10
91.99239655339994
 20
220.8999176025
 30
0.0
 11
100.9924423296999
 21
220.8999176025
 31
0.0
  0
LINE
  5
120
330
2
100
AcDbEntity
  8
0
 62
     3
100
AcDbLine
 10
91.99239655339994
 20
221.3999176025
 30
0.0
 11
91.99239655339994
 21
220.8999176025
 31
0.0
  0
LINE
  5
121
330
2
100
AcDbEntity
  8
0
 62
     3
100
AcDbLine
 10
104.1923935015999
 20
220.8003234862999
 30
0.0
 11
102.6923935015999
 21
220.8003234862999
 31
0.0
  0
LINE
  5
122
330
2
100
AcDbEntity
  8
0
 62
     3
100
AcDbLine
 10
91.99238129459995
 20
228.1999206542999
 30
0.0
 11
100.9924270708999
 21
228.1999206542999
 31
0.0
  0
LINE
  5
123
330
2
100
AcDbEntity
  8
0
 62
     3
100
AcDbLine
 10
91.99238129459995
 20
227.6999206543
 30
0.0
 11
100.9924270708999
 21
227.6999206543
 31
0.0
  0
LINE
  5
124
330
2
100
AcDbEntity
  8
0
 62
     3
100
AcDbLine
 10
91.99238129459995
 20
228.1999206542999
 30
0.0
 11
91.99238129459995
 21
227.6999206543
 31
0.0
  0
LINE
  5
125
330
2
100
AcDbEntity
  8
0
 62
     3
100
AcDbLine
 10
102.6923935015999
 20
230.0000457762998
 30
0.0
 11
102.6923935015999
 21
227.6000976561999
 31
0.0
  0
LINE
  5
126
330
2
100
AcDbEntity
  8
0
 62
     3
100
AcDbLine
 10
104.1923935015999
 20
230.0000457762998
 30
0.0
 11
104.1923935015999
 21
227.6000976561999
 31
0.0
  0
LINE
  5
127
330
2
100
AcDbEntity
  8
0
 62
     3
100
AcDbLine
 10
104.1923935015999
 20
227.6000976561999
 30
0.0
 11
102.6923935015999
 21
227.6000976561999
 31
0.0
  0
LINE
  5
128
330
2
100
AcDbEntity
  8
0
 62
     3
100
AcDbLine
 10
104.1923935015999
 20
223.2002258301
 30
0.0
 11
102.6923935015999
 21
223.2002258301
 31
0.0
  0
LINE
  5
129
330
2
100
AcDbEntity
  8
0
 62
     3
100
AcDbLine
 10
104.1923935015999
 20
230.0000457762998
 30
0.0
 11
102.6923935015999
 21
230.0000457762998
 31
0.0
  0
LINE
  5
12A
330
2
100
AcDbEntity
  8
0
 62
     3
100
AcDbLine
 10
119.6923782427999
 20
222.8865814209
 30
0.0
 11
119.6923782427999
 21
213.5380096435
 31
0.0
  0
LINE
  5
12B
330
2
100
AcDbEntity
  8
0
 62
     3
100
AcDbLine
 10
118.4923812945999
 20
225.9000396728
 30
0.0
 11
118.4923812945999
 21
216.0000305176
 31
0.0
  0
LINE
  5
12C
330
2
100
AcDbEntity
  8
0
 62
     3
100
AcDbLine
 10
112.9923812945999
 20
236.0000152587999
 30
0.0
 11
112.9923812945999
 21
217.0000305175999
 31
0.0
  0
LINE
  5
12D
330
2
100
AcDbEntity
  8
0
 62
     3
100
AcDbLine
 10
114.1923935015999
 20
225.9000396728
 30
0.0
 11
114.1923935015999
 21
216.0000305176
 31
0.0
  0
LINE
  5
12E
330
2
100
AcDbEntity
  8
0
 62
     3
100
AcDbLine
 10
113.9923812945999
 20
216.0000305176
 30
0.0
 11
119.6923782427999
 21
216.0000305176
 31
0.0
  0
LINE
  5
12F
330
2
100
AcDbEntity
  8
0
 62
     3
100
AcDbLine
 10
114.1923935015999
 20
217.9000549316
 30
0.0
 11
118.4923812945999
 21
217.9000549316
 31
0.0
  0
ARC
  5
130
330
2
100
AcDbEntity
  8
0
 62
     3
100
AcDbCircle
 10
113.9923355182
 20
217.0000305175999
 30
0.0
 40
1.0
100
AcDbArc
 50
179.9999640277999
 51
269.9999460416999
  0
LINE
  5
131
330
2
100
AcDbEntity
  8
0
 62
     3
100
AcDbLine
 10
108.9923812945999
 20
223.0000305175999
 30
0.0
 11
108.9923812945999
 21
230.0000152587999
 31
0.0
  0
LINE
  5
132
330
2
100
AcDbEntity
  8
0
 62
     3
100
AcDbLine
 10
111.9923812945999
 20
230.0000152587999
 30
0.0
 11
111.9923812945999
 21
223.0000305175999
 31
0.0
  0
LINE
  5
133
330
2
100
AcDbEntity
  8
0
 62
     3
100
AcDbLine
 10
111.9923812945999
 20
223.0000305175999
 30
0.0
 11
108.9923812945999
 21
223.0000305175999
 31
0.0
  0
LINE
  5
134
330
2
100
AcDbEntity
  8
0
 62
     3
100
AcDbLine
 10
108.9923812945999
 20
230.0000152587999
 30
0.0
 11
111.9923812945999
 21
230.0000152587999
 31
0.0
  0
LINE
  5
135
330
2
100
AcDbEntity
  8
0
 62
     3
100
AcDbLine
 10
118.4923812945999
 20
237.0000152587999
 30
0.0
 11
118.4923812945999
 21
227.100112915
 31
0.0
  0
LINE
  5
136
330
2
100
AcDbEntity
  8
0
 62
     3
100
AcDbLine
 10
114.1923935015999
 20
237.0000152587999
 30
0.0
 11
114.1923935015999
 21
227.100112915
 31
0.0
  0
LINE
  5
137
330
2
100
AcDbEntity
  8
0
 62
     3
100
AcDbLine
 10
114.1923935015999
 20
225.9000396728
 30
0.0
 11
118.4923812945999
 21
225.9000396728
 31
0.0
  0
LINE
  5
138
330
2
100
AcDbEntity
  8
0
 62
     3
100
AcDbLine
 10
114.1923935015999
 20
227.100112915
 30
0.0
 11
118.4923812945999
 21
227.100112915
 31
0.0
  0
LINE
  5
139
330
2
100
AcDbEntity
  8
0
 62
     3
100
AcDbLine
 10
114.1923935015999
 20
235.100112915
 30
0.0
 11
118.4923812945999
 21
235.100112915
 31
0.0
  0
ARC
  5
13A
330
2
100
AcDbEntity
  8
0
 62
     3
100
AcDbCircle
 10
113.9923355182
 20
236.0000152587999
 30
0.0
 40
1.0
100
AcDbArc
 50
89.99998201389999
 51
179.9999640277999
  0
LINE
  5
13B
330
2
100
AcDbEntity
  8
0
 62
     3
100
AcDbLine
 10
136.3923599322999
 20
176.4999237059999
 30
0.0
 11
134.8697769244999
 21
176.4999237059999
 31
0.0
  0
LINE
  5
13C
330
2
100
AcDbEntity
  8
0
 62
     3
100
AcDbLine
 10
135.9923660357999
 20
175.8999481200999
 30
0.0
 11
134.6663925249999
 21
175.8999481200999
 31
0.0
  0
LINE
  5
13D
330
2
100
AcDbEntity
  8
0
 62
     3
100
AcDbLine
 10
134.8697616656999
 20
160.5000152587999
 30
0.0
 11
136.3923599322999
 21
160.5000152587999
 31
0.0
  0
LINE
  5
13E
330
2
100
AcDbEntity
  8
0
 62
     3
100
AcDbLine
 10
134.6663772662999
 20
161.1000061034999
 30
0.0
 11
135.9923660357999
 21
161.1000061034999
 31
0.0
  0
LINE
  5
13F
330
2
100
AcDbEntity
  8
0
 62
     3
100
AcDbLine
 10
134.1918162199999
 20
174.4998999111999
 30
0.0
 11
135.0829717391997
 21
177.1288437776
 31
0.0
  0
LINE
  5
140
330
2
100
AcDbEntity
  8
0
 62
     3
100
AcDbLine
 10
133.1918048188998
 20
174.6647478817
 30
0.0
 11
134.1359094366999
 21
177.4498936734999
 31
0.0
  0
LINE
  5
141
330
2
100
AcDbEntity
  8
0
 62
     3
100
AcDbLine
 10
133.1922714312999
 20
177.3998107909999
 30
0.0
 11
133.1922714312999
 21
159.5998229979999
 31
0.0
  0
LINE
  5
142
330
2
100
AcDbEntity
  8
0
 62
     3
100
AcDbLine
 10
133.1917984087999
 20
159.5999450682999
 30
0.0
 11
133.1917984087999
 21
177.3994750975999
 31
0.0
  0
LINE
  5
143
330
2
100
AcDbEntity
  8
0
 62
     3
100
AcDbLine
 10
128.192362984
 20
176.8791198729999
 30
0.0
 11
128.192362984
 21
171.4999542235999
 31
0.0
  0
LINE
  5
144
330
2
100
AcDbEntity
  8
0
 62
     3
100
AcDbLine
 10
122.7423812945999
 20
179.0
 30
0.0
 11
122.7423812945999
 21
171.7282714842999
 31
0.0
  0
LINE
  5
145
330
2
100
AcDbEntity
  8
0
 62
     3
100
AcDbLine
 10
121.7423812945999
 20
179.0
 30
0.0
 11
121.7423812945999
 21
171.7282714842999
 31
0.0
  0
LINE
  5
146
330
2
100
AcDbEntity
  8
0
 62
     3
100
AcDbLine
 10
120.6923782427999
 20
182.4228210449
 30
0.0
 11
120.6923782427999
 21
171.7282409667999
 31
0.0
  0
LINE
  5
147
330
2
100
AcDbEntity
  8
0
 62
     3
100
AcDbLine
 10
123.9923191312999
 20
175.8996666440999
 30
0.0
 11
124.2923538301999
 21
176.4997365617999
 31
0.0
  0
LINE
  5
148
330
2
100
AcDbEntity
  8
0
 62
     3
100
AcDbLine
 10
124.2923538287999
 20
176.4998779297
 30
0.0
 11
124.2923538287999
 21
160.4999694823999
 31
0.0
  0
LINE
  5
149
330
2
100
AcDbEntity
  8
0
 62
     3
100
AcDbLine
 10
123.4923660357999
 20
178.9999542235999
 30
0.0
 11
123.4923660357999
 21
157.9999694824
 31
0.0
  0
LINE
  5
14A
330
2
100
AcDbEntity
  8
0
 62
     3
100
AcDbLine
 10
128.1923477252
 20
175.8999481200999
 30
0.0
 11
123.9923660357999
 21
175.8999481200999
 31
0.0
  0
LINE
  5
14B
330
2
100
AcDbEntity
  8
0
 62
     3
100
AcDbLine
 10
124.2923538287999
 20
160.5000152587999
 30
0.0
 11
128.192362984
 21
160.5000152587999
 31
0.0
  0
LINE
  5
14C
330
2
100
AcDbEntity
  8
0
 62
     3
100
AcDbLine
 10
123.9923660357999
 20
161.1000061034999
 30
0.0
 11
128.192362984
 21
161.1000061034999
 31
0.0
  0
LINE
  5
14D
330
2
100
AcDbEntity
  8
0
 62
     3
100
AcDbLine
 10
123.9923660357999
 20
175.8999023436999
 30
0.0
 11
123.9923660357999
 21
161.0999603271
 31
0.0
  0
LINE
  5
14E
330
2
100
AcDbEntity
  8
0
 62
     3
100
AcDbLine
 10
123.9923660357999
 20
161.1499633789
 30
0.0
 11
123.4923812945999
 21
161.1499633789
 31
0.0
  0
LINE
  5
14F
330
2
100
AcDbEntity
  8
0
 62
     3
100
AcDbLine
 10
124.2924171418999
 20
160.4999001419999
 30
0.0
 11
123.9924165626999
 21
161.0999018202999
 31
0.0
  0
LINE
  5
150
330
2
100
AcDbEntity
  8
0
 62
     3
100
AcDbLine
 10
123.9923660357999
 20
175.8498535155999
 30
0.0
 11
123.4923812945999
 21
175.8498535155999
 31
0.0
  0
LINE
  5
151
330
2
100
AcDbEntity
  8
0
 62
     3
100
AcDbLine
 10
120.4923812945999
 20
173.4968261717999
 30
0.0
 11
120.6923782427999
 21
173.4968261717999
 31
0.0
  0
LINE
  5
152
330
2
100
AcDbEntity
  8
0
 62
     3
100
AcDbLine
 10
120.4923812945999
 20
173.4967956543
 30
0.0
 11
120.4923812945999
 21
172.501663208
 31
0.0
  0
LINE
  5
153
330
2
100
AcDbEntity
  8
0
 62
     3
100
AcDbLine
 10
134.1917984087999
 20
162.4999542235999
 30
0.0
 11
134.1917984087999
 21
174.4999237059999
 31
0.0
  0
LINE
  5
154
330
2
100
AcDbEntity
  8
0
 62
     3
100
AcDbLine
 10
128.192362984
 20
165.4999542236
 30
0.0
 11
128.192362984
 21
160.1208343505999
 31
0.0
  0
LINE
  5
155
330
2
100
AcDbEntity
  8
0
 62
     3
100
AcDbLine
 10
130.1923477251999
 20
165.6221160888
 30
0.0
 11
130.1923477251999
 21
164.5796661376999
 31
0.0
  0
LINE
  5
156
330
2
100
AcDbEntity
  8
0
 62
     3
100
AcDbLine
 10
133.1923324664998
 20
159.5999450682999
 30
0.0
 11
129.3923446735
 21
159.5999450682999
 31
0.0
  0
LINE
  5
157
330
2
100
AcDbEntity
  8
0
 62
     3
100
AcDbLine
 10
133.1923477251999
 20
160.0867309569999
 30
0.0
 11
130.1923477251999
 21
160.0867309569999
 31
0.0
  0
LINE
  5
158
330
2
100
AcDbEntity
  8
0
 62
     3
100
AcDbLine
 10
133.1923477251999
 20
160.5098571776999
 30
0.0
 11
130.1923477251999
 21
160.5098571776999
 31
0.0
  0
LINE
  5
159
330
2
100
AcDbEntity
  8
0
 62
     3
100
AcDbLine
 10
133.1923477251999
 20
161.1098480224
 30
0.0
 11
130.1923477251999
 21
161.1098480224
 31
0.0
  0
LINE
  5
15A
330
2
100
AcDbEntity
  8
0
 62
     3
100
AcDbLine
 10
133.1923477251999
 20
161.7967376709
 30
0.0
 11
130.1923477251999
 21
161.7967376709
 31
0.0
  0
LINE
  5
15B
330
2
100
AcDbEntity
  8
0
 62
     3
100
AcDbLine
 10
133.1923477251999
 20
162.6654357909999
 30
0.0
 11
130.1923477251999
 21
162.6654357909999
 31
0.0
  0
LINE
  5
15C
330
2
100
AcDbEntity
  8
0
 62
     3
100
AcDbLine
 10
133.1923477251999
 20
163.5404510497999
 30
0.0
 11
130.1923477251999
 21
163.5404510497999
 31
0.0
  0
LINE
  5
15D
330
2
100
AcDbEntity
  8
0
 62
     3
100
AcDbLine
 10
133.1923477251999
 20
164.5796661376999
 30
0.0
 11
130.1923477251999
 21
164.5796661376999
 31
0.0
  0
LINE
  5
15E
330
2
100
AcDbEntity
  8
0
 62
     3
100
AcDbLine
 10
129.3923229649997
 20
159.5999035021
 30
0.0
 11
129.3923382237999
 21
160.1207927843
 31
0.0
  0
LINE
  5
15F
330
2
100
AcDbEntity
  8
0
 62
     3
100
AcDbLine
 10
128.192362984
 20
160.1208343505999
 30
0.0
 11
129.3923599323
 21
160.1208343505999
 31
0.0
  0
LINE
  5
160
330
2
100
AcDbEntity
  8
0
 62
     3
100
AcDbLine
 10
130.1922714312999
 20
160.5097198485999
 30
0.0
 11
130.1922714312999
 21
160.0866088866999
 31
0.0
  0
LINE
  5
161
330
2
100
AcDbEntity
  8
0
 62
     3
100
AcDbLine
 10
130.1923477251999
 20
161.1098480224
 30
0.0
 11
130.1923477251999
 21
161.7967376709
 31
0.0
  0
LINE
  5
162
330
2
100
AcDbEntity
  8
0
 62
     3
100
AcDbLine
 10
130.1923477251999
 20
162.6654357909999
 30
0.0
 11
130.1923477251999
 21
163.5404510497999
 31
0.0
  0
LINE
  5
163
330
2
100
AcDbEntity
  8
0
 62
     3
100
AcDbLine
 10
133.1918009037997
 20
162.3349835724
 30
0.0
 11
134.1358864435999
 21
159.5498797317
 31
0.0
  0
LINE
  5
164
330
2
100
AcDbEntity
  8
0
 62
     3
100
AcDbLine
 10
133.1918136676
 20
159.5500030516999
 30
0.0
 11
134.1359054644997
 21
159.5500030516999
 31
0.0
  0
LINE
  5
165
330
2
100
AcDbEntity
  8
0
 62
     3
100
AcDbLine
 10
134.1917929415999
 20
162.4998877786
 30
0.0
 11
135.0829541215997
 21
159.8709136862999
 31
0.0
  0
LINE
  5
166
330
2
100
AcDbEntity
  8
0
 62
     3
100
AcDbLine
 10
134.1358772229999
 20
159.5498727277
 30
0.0
 11
135.0829461525999
 21
159.8709029271999
 31
0.0
  0
LINE
  5
167
330
2
100
AcDbEntity
  8
0
 62
     3
100
AcDbLine
 10
133.1923477251999
 20
165.6221160888
 30
0.0
 11
130.1923477251999
 21
165.6221160888
 31
0.0
  0
LINE
  5
168
330
2
100
AcDbEntity
  8
0
 62
     3
100
AcDbLine
 10
133.1923477251999
 20
167.8999328612999
 30
0.0
 11
130.1923477251999
 21
167.8999328612999
 31
0.0
  0
LINE
  5
169
330
2
100
AcDbEntity
  8
0
 62
     3
100
AcDbLine
 10
133.1923477251999
 20
166.8074798584
 30
0.0
 11
130.1923477251999
 21
166.8074798584
 31
0.0
  0
LINE
  5
16A
330
2
100
AcDbEntity
  8
0
 62
     3
100
AcDbLine
 10
130.1923477251999
 20
175.8900451659999
 30
0.0
 11
133.1923477251999
 21
175.8900451659999
 31
0.0
  0
LINE
  5
16B
330
2
100
AcDbEntity
  8
0
 62
     3
100
AcDbLine
 10
130.1923477251999
 20
175.2031555176
 30
0.0
 11
133.1923477251999
 21
175.2031555176
 31
0.0
  0
LINE
  5
16C
330
2
100
AcDbEntity
  8
0
 62
     3
100
AcDbLine
 10
130.1923477251999
 20
174.3344573974
 30
0.0
 11
133.1923477251999
 21
174.3344573974
 31
0.0
  0
LINE
  5
16D
330
2
100
AcDbEntity
  8
0
 62
     3
100
AcDbLine
 10
130.1923477251999
 20
173.4594421386
 30
0.0
 11
133.1923477251999
 21
173.4594421386
 31
0.0
  0
LINE
  5
16E
330
2
100
AcDbEntity
  8
0
 62
     3
100
AcDbLine
 10
130.1923477251999
 20
172.4202270508
 30
0.0
 11
133.1923477251999
 21
172.4202270508
 31
0.0
  0
LINE
  5
16F
330
2
100
AcDbEntity
  8
0
 62
     3
100
AcDbLine
 10
130.1923477251999
 20
171.3777770995999
 30
0.0
 11
133.1923477251999
 21
171.3777770995999
 31
0.0
  0
LINE
  5
170
330
2
100
AcDbEntity
  8
0
 62
     3
100
AcDbLine
 10
130.1923477251999
 20
169.0999603270999
 30
0.0
 11
133.1923477251999
 21
169.0999603270999
 31
0.0
  0
LINE
  5
171
330
2
100
AcDbEntity
  8
0
 62
     3
100
AcDbLine
 10
130.1923477251999
 20
170.1924133301
 30
0.0
 11
133.1923477251999
 21
170.1924133301
 31
0.0
  0
LINE
  5
172
330
2
100
AcDbEntity
  8
0
 62
     3
100
AcDbLine
 10
129.3923599323
 20
171.4999542235999
 30
0.0
 11
129.3923599323
 21
165.4999542236
 31
0.0
  0
LINE
  5
173
330
2
100
AcDbEntity
  8
0
 62
     3
100
AcDbLine
 10
129.3923599323
 20
165.4999542236
 30
0.0
 11
128.192362984
 21
165.4999542236
 31
0.0
  0
LINE
  5
174
330
2
100
AcDbEntity
  8
0
 62
     3
100
AcDbLine
 10
130.1923477251999
 20
167.8999328612999
 30
0.0
 11
130.1923477251999
 21
166.8074798584
 31
0.0
  0
LINE
  5
175
330
2
100
AcDbEntity
  8
0
 62
     3
100
AcDbLine
 10
130.1923477251999
 20
170.1924133301
 30
0.0
 11
130.1923477251999
 21
169.0999603270999
 31
0.0
  0
LINE
  5
176
330
2
100
AcDbEntity
  8
0
 62
     3
100
AcDbLine
 10
128.192362984
 20
171.4999542235999
 30
0.0
 11
129.3923599323
 21
171.4999542235999
 31
0.0
  0
LINE
  5
177
330
2
100
AcDbEntity
  8
0
 62
     3
100
AcDbLine
 10
130.1923477251999
 20
175.2031555176
 30
0.0
 11
130.1923477251999
 21
175.8900451659999
 31
0.0
  0
LINE
  5
178
330
2
100
AcDbEntity
  8
0
 62
     3
100
AcDbLine
 10
130.1923477251999
 20
173.4594421386
 30
0.0
 11
130.1923477251999
 21
174.3344573974
 31
0.0
  0
LINE
  5
179
330
2
100
AcDbEntity
  8
0
 62
     3
100
AcDbLine
 10
130.1923477251999
 20
172.4202270508
 30
0.0
 11
130.1923477251999
 21
171.3777770995999
 31
0.0
  0
LINE
  5
17A
330
2
100
AcDbEntity
  8
0
 62
     3
100
AcDbLine
 10
128.1923477252
 20
176.4999237059999
 30
0.0
 11
124.2923538287999
 21
176.4999237059999
 31
0.0
  0
LINE
  5
17B
330
2
100
AcDbEntity
  8
0
 62
     3
100
AcDbLine
 10
123.4923965533997
 20
178.9999542235999
 30
0.0
 11
120.6923782427999
 21
178.9999542235999
 31
0.0
  0
LINE
  5
17C
330
2
100
AcDbEntity
  8
0
 62
     3
100
AcDbLine
 10
129.3923599323
 20
177.3999481200999
 30
0.0
 11
133.1923477251999
 21
177.3999481200999
 31
0.0
  0
LINE
  5
17D
330
2
100
AcDbEntity
  8
0
 62
     3
100
AcDbLine
 10
130.1923477251999
 20
176.9131622314
 30
0.0
 11
133.1923477251999
 21
176.9131622314
 31
0.0
  0
LINE
  5
17E
330
2
100
AcDbEntity
  8
0
 62
     3
100
AcDbLine
 10
130.1923477251999
 20
176.4900360107
 30
0.0
 11
133.1923477251999
 21
176.4900360107
 31
0.0
  0
LINE
  5
17F
330
2
100
AcDbEntity
  8
0
 62
     3
100
AcDbLine
 10
129.3923599323
 20
177.3999481200999
 30
0.0
 11
129.3923599323
 21
176.8791198729999
 31
0.0
  0
LINE
  5
180
330
2
100
AcDbEntity
  8
0
 62
     3
100
AcDbLine
 10
129.3923599323
 20
176.8791198729999
 30
0.0
 11
128.192362984
 21
176.8791198729999
 31
0.0
  0
LINE
  5
181
330
2
100
AcDbEntity
  8
0
 62
     3
100
AcDbLine
 10
130.1923935015999
 20
176.9131774901999
 30
0.0
 11
130.1923935015999
 21
176.4900665282999
 31
0.0
  0
LINE
  5
182
330
2
100
AcDbEntity
  8
0
 62
     3
100
AcDbLine
 10
133.1918136676
 20
177.4500122069999
 30
0.0
 11
134.1359207232999
 21
177.4500122069999
 31
0.0
  0
LINE
  5
183
330
2
100
AcDbEntity
  8
0
 62
     3
100
AcDbLine
 10
134.1359255933999
 20
177.4498769839999
 30
0.0
 11
135.0829898738998
 21
177.1288330753999
 31
0.0
  0
LINE
  5
184
330
2
100
AcDbEntity
  8
0
 62
     3
100
AcDbLine
 10
135.9922482587999
 20
175.8997049221
 30
0.0
 11
136.2922829576999
 21
176.4997748397999
 31
0.0
  0
LINE
  5
185
330
2
100
AcDbEntity
  8
0
 62
     3
100
AcDbLine
 10
136.3923599322999
 20
158.5000762938999
 30
0.0
 11
136.3923599322999
 21
178.4999389647999
 31
0.0
  0
LINE
  5
186
330
2
100
AcDbEntity
  8
0
 62
     3
100
AcDbLine
 10
136.9923337536999
 20
156.5999202418999
 30
0.0
 11
136.9923337536999
 21
180.3997761328998
 31
0.0
  0
LINE
  5
187
330
2
100
AcDbEntity
  8
0
 62
     3
100
AcDbLine
 10
144.9923660357999
 20
156.2999725341999
 30
0.0
 11
144.9923660357999
 21
180.7000122069999
 31
0.0
  0
LINE
  5
188
330
2
100
AcDbEntity
  8
0
 62
     3
100
AcDbLine
 10
145.2923690874999
 20
155.9999237059999
 30
0.0
 11
145.2923690874999
 21
180.9999694824
 31
0.0
  0
LINE
  5
189
330
2
100
AcDbEntity
  8
0
 62
     3
100
AcDbLine
 10
141.9923507769999
 20
180.2998504637999
 30
0.0
 11
141.9923507769999
 21
156.6999511718
 31
0.0
  0
LINE
  5
18A
330
2
100
AcDbEntity
  8
0
 62
     3
100
AcDbLine
 10
142.4923507769999
 20
179.7998504638
 30
0.0
 11
142.4923507769999
 21
157.1999511717999
 31
0.0
  0
LINE
  5
18B
330
2
100
AcDbEntity
  8
0
 62
     3
100
AcDbLine
 10
144.9923507769999
 20
157.1999511717999
 30
0.0
 11
142.4923507769999
 21
157.1999511717999
 31
0.0
  0
LINE
  5
18C
330
2
100
AcDbEntity
  8
0
 62
     3
100
AcDbLine
 10
135.9923660357999
 20
175.8999023436999
 30
0.0
 11
135.9923660357999
 21
161.0999603271
 31
0.0
  0
LINE
  5
18D
330
2
100
AcDbEntity
  8
0
 62
     3
100
AcDbLine
 10
141.9923258067998
 20
156.6999185396999
 30
0.0
 11
136.9923337536999
 21
156.5999202418999
 31
0.0
  0
LINE
  5
18E
330
2
100
AcDbEntity
  8
0
 62
     3
100
AcDbLine
 10
136.3923599322999
 20
158.5000762938999
 30
0.0
 11
136.9923660357999
 21
158.5000762938999
 31
0.0
  0
LINE
  5
18F
330
2
100
AcDbEntity
  8
0
 62
     3
100
AcDbLine
 10
136.2924076848997
 20
160.4999096315999
 30
0.0
 11
135.9924071055999
 21
161.0999113098
 31
0.0
  0
LINE
  5
190
330
2
100
AcDbEntity
  8
0
 62
     3
100
AcDbLine
 10
142.4922663724998
 20
157.1998813938999
 30
0.0
 11
141.9923197896999
 21
156.6999348110999
 31
0.0
  0
LINE
  5
191
330
2
100
AcDbEntity
  8
0
 62
     3
100
AcDbLine
 10
145.9923660357999
 20
164.9108123779
 30
0.0
 11
145.9923660357999
 21
164.3656463622999
 31
0.0
  0
LINE
  5
192
330
2
100
AcDbEntity
  8
0
 62
     3
100
AcDbLine
 10
145.9923660357999
 20
158.5582733154
 30
0.0
 11
145.9923660357999
 21
158.2213592528999
 31
0.0
  0
LINE
  5
193
330
2
100
AcDbEntity
  8
0
 62
     3
100
AcDbLine
 10
145.9923660357999
 20
157.4952850341999
 30
0.0
 11
145.9923660357999
 21
157.2351531981999
 31
0.0
  0
LINE
  5
194
330
2
100
AcDbEntity
  8
0
 62
     3
100
AcDbLine
 10
145.9923660357999
 20
156.7032928466999
 30
0.0
 11
145.9923660357999
 21
156.5262908935
 31
0.0
  0
LINE
  5
195
330
2
100
AcDbEntity
  8
0
 62
     3
100
AcDbLine
 10
144.9922159930999
 20
156.3000379973999
 30
0.0
 11
145.2922541342998
 21
156.0000021070999
 31
0.0
  0
LINE
  5
196
330
2
100
AcDbEntity
  8
0
 62
     3
100
AcDbLine
 10
145.9923660357999
 20
163.0818328856999
 30
0.0
 11
145.9923660357999
 21
162.5712127685
 31
0.0
  0
LINE
  5
197
330
2
100
AcDbEntity
  8
0
 62
     3
100
AcDbLine
 10
145.9923660357999
 20
161.3863983154
 30
0.0
 11
145.9923660357999
 21
160.9226531981999
 31
0.0
  0
LINE
  5
198
330
2
100
AcDbEntity
  8
0
 62
     3
100
AcDbLine
 10
145.9923660357999
 20
159.8660125731999
 30
0.0
 11
145.9923660357999
 21
159.4607391356999
 31
0.0
  0
LINE
  5
199
330
2
100
AcDbEntity
  8
0
 62
     3
100
AcDbLine
 10
145.9923660357999
 20
170.7377014159999
 30
0.0
 11
145.9923660357999
 21
170.1716613768999
 31
0.0
  0
LINE
  5
19A
330
2
100
AcDbEntity
  8
0
 62
     3
100
AcDbLine
 10
145.9923660357999
 20
166.828048706
 30
0.0
 11
145.9923660357999
 21
166.2620086669999
 31
0.0
  0
LINE
  5
19B
330
2
100
AcDbEntity
  8
0
 62
     3
100
AcDbLine
 10
145.9923660357999
 20
168.7862854004
 30
0.0
 11
145.9923660357999
 21
168.2134246825999
 31
0.0
  0
LINE
  5
19C
330
2
100
AcDbEntity
  8
0
 62
     3
100
AcDbLine
 10
145.9923660357999
 20
172.6340637206999
 30
0.0
 11
145.9923660357999
 21
172.0888977051
 31
0.0
  0
LINE
  5
19D
330
2
100
AcDbEntity
  8
0
 62
     3
100
AcDbLine
 10
145.9923660357999
 20
174.4284973143999
 30
0.0
 11
145.9923660357999
 21
173.9178771971999
 31
0.0
  0
LINE
  5
19E
330
2
100
AcDbEntity
  8
0
 62
     3
100
AcDbLine
 10
142.4923507769999
 20
179.7998504638
 30
0.0
 11
144.9923507769999
 21
179.7998504638
 31
0.0
  0
LINE
  5
19F
330
2
100
AcDbEntity
  8
0
 62
     3
100
AcDbLine
 10
136.9923059153
 20
180.3997766896
 30
0.0
 11
141.9922979683998
 21
180.2997783918999
 31
0.0
  0
LINE
  5
1A0
330
2
100
AcDbEntity
  8
0
 62
     3
100
AcDbLine
 10
136.3923599322999
 20
178.4999389647999
 30
0.0
 11
136.9923660357999
 21
178.4999389647999
 31
0.0
  0
LINE
  5
1A1
330
2
100
AcDbEntity
  8
0
 62
     3
100
AcDbLine
 10
141.9922658416999
 20
180.2998282315999
 30
0.0
 11
142.4922663724998
 21
179.7998277008
 31
0.0
  0
LINE
  5
1A2
330
2
100
AcDbEntity
  8
0
 62
     3
100
AcDbLine
 10
145.9923660357999
 20
179.7645568846999
 30
0.0
 11
145.9923660357999
 21
179.5044250487999
 31
0.0
  0
LINE
  5
1A3
330
2
100
AcDbEntity
  8
0
 62
     3
100
AcDbLine
 10
145.9923507769999
 20
180.4736022948999
 30
0.0
 11
145.9923507769999
 21
180.2966003417999
 31
0.0
  0
LINE
  5
1A4
330
2
100
AcDbEntity
  8
0
 62
     3
100
AcDbLine
 10
145.2922412689
 20
180.9998964661
 30
0.0
 11
144.9922031277
 21
180.6998605758999
 31
0.0
  0
LINE
  5
1A5
330
2
100
AcDbEntity
  8
0
 62
     3
100
AcDbLine
 10
136.3923599322999
 20
234.3998260497999
 30
0.0
 11
134.8358718952
 21
234.3998260497999
 31
0.0
  0
LINE
  5
1A6
330
2
100
AcDbEntity
  8
0
 62
     3
100
AcDbLine
 10
134.8358566363999
 20
218.5998992919999
 30
0.0
 11
136.3923599322999
 21
218.5998992919999
 31
0.0
  0
LINE
  5
1A7
330
2
100
AcDbEntity
  8
0
 62
     3
100
AcDbLine
 10
136.2923538288
 20
225.4998016357
 30
0.0
 11
134.1917831499999
 21
225.4998016357
 31
0.0
  0
LINE
  5
1A8
330
2
100
AcDbEntity
  8
0
 62
     3
100
AcDbLine
 10
136.2923538288
 20
227.4998016357
 30
0.0
 11
134.1917831499999
 21
227.4998016357
 31
0.0
  0
LINE
  5
1A9
330
2
100
AcDbEntity
  8
0
 62
     3
100
AcDbLine
 10
133.1922103961
 20
235.3996887206999
 30
0.0
 11
133.1922103961
 21
217.5997009276998
 31
0.0
  0
LINE
  5
1AA
330
2
100
AcDbEntity
  8
0
 62
     3
100
AcDbLine
 10
133.1917984087999
 20
217.5998535155999
 30
0.0
 11
133.1917984087999
 21
235.3993835448999
 31
0.0
  0
LINE
  5
1AB
330
2
100
AcDbEntity
  8
0
 62
     3
100
AcDbLine
 10
134.1917984087999
 20
220.4998626709
 30
0.0
 11
134.1917984087999
 21
232.4998321533
 31
0.0
  0
LINE
  5
1AC
330
2
100
AcDbEntity
  8
0
 62
     3
100
AcDbLine
 10
128.192362984
 20
223.4998474120998
 30
0.0
 11
128.192362984
 21
218.1207275389999
 31
0.0
  0
LINE
  5
1AD
330
2
100
AcDbEntity
  8
0
 62
     3
100
AcDbLine
 10
125.4935038754998
 20
218.5995207631999
 30
0.0
 11
125.0273183088999
 21
225.4990725898999
 31
0.0
  0
LINE
  5
1AE
330
2
100
AcDbEntity
  8
0
 62
     3
100
AcDbLine
 10
124.9923618158
 20
218.599550415
 30
0.0
 11
124.6553421565999
 21
223.5874453048999
 31
0.0
  0
LINE
  5
1AF
330
2
100
AcDbEntity
  8
0
 62
     3
100
AcDbLine
 10
126.0225816599999
 20
225.4990283049999
 30
0.0
 11
126.4887589973999
 21
218.5995982709
 31
0.0
  0
LINE
  5
1B0
330
2
100
AcDbEntity
  8
0
 62
     3
100
AcDbLine
 10
125.5273103335999
 20
225.4990875817999
 30
0.0
 11
125.9934959002999
 21
218.5995357549999
 31
0.0
  0
LINE
  5
1B1
330
2
100
AcDbEntity
  8
0
 62
     3
100
AcDbLine
 10
123.9923660357999
 20
233.8498535155999
 30
0.0
 11
123.9923660357999
 21
219.0998535155998
 31
0.0
  0
LINE
  5
1B2
330
2
100
AcDbEntity
  8
0
 62
     3
100
AcDbLine
 10
124.4912197559999
 20
218.5995800668
 30
0.0
 11
124.0739733873999
 21
224.7748311924999
 31
0.0
  0
LINE
  5
1B3
330
2
100
AcDbEntity
  8
0
 62
     3
100
AcDbLine
 10
120.6923782427999
 20
222.8865814209
 30
0.0
 11
120.6923782427999
 21
213.5380096435
 31
0.0
  0
LINE
  5
1B4
330
2
100
AcDbEntity
  8
0
 62
     3
100
AcDbLine
 10
123.4923660357999
 20
237.0000152587999
 30
0.0
 11
123.4923660357999
 21
216.0000305176
 31
0.0
  0
LINE
  5
1B5
330
2
100
AcDbEntity
  8
0
 62
     3
100
AcDbLine
 10
121.7423812945999
 20
222.8866271971999
 30
0.0
 11
121.7423812945999
 21
216.0000305176
 31
0.0
  0
LINE
  5
1B6
330
2
100
AcDbEntity
  8
0
 62
     3
100
AcDbLine
 10
122.7423812945999
 20
222.8866271971999
 30
0.0
 11
122.7423812945999
 21
216.0000305176
 31
0.0
  0
LINE
  5
1B7
330
2
100
AcDbEntity
  8
0
 62
     3
100
AcDbLine
 10
124.2423202593997
 20
218.5998992919999
 30
0.0
 11
128.1923477252
 21
218.5998992919999
 31
0.0
  0
LINE
  5
1B8
330
2
100
AcDbEntity
  8
0
 62
     3
100
AcDbLine
 10
123.9923660357999
 20
219.1499023436999
 30
0.0
 11
123.4923660357999
 21
219.1499023436999
 31
0.0
  0
LINE
  5
1B9
330
2
100
AcDbEntity
  8
0
 62
     3
100
AcDbLine
 10
120.6923782427999
 20
216.0000305176
 30
0.0
 11
123.4923660357999
 21
216.0000305176
 31
0.0
  0
LINE
  5
1BA
330
2
100
AcDbEntity
  8
0
 62
     3
100
AcDbLine
 10
120.4923812945999
 20
219.2928924559999
 30
0.0
 11
120.6923782427999
 21
219.2928924559999
 31
0.0
  0
LINE
  5
1BB
330
2
100
AcDbEntity
  8
0
 62
     3
100
AcDbLine
 10
120.4923812945999
 20
220.7851409911999
 30
0.0
 11
120.4923812945999
 21
219.2928466796999
 31
0.0
  0
LINE
  5
1BC
330
2
100
AcDbEntity
  8
0
 62
     3
100
AcDbLine
 10
124.2423529286999
 20
218.5997784316999
 30
0.0
 11
123.9923990761999
 21
219.0996865697999
 31
0.0
  0
LINE
  5
1BD
330
2
100
AcDbEntity
  8
0
 62
     3
100
AcDbLine
 10
133.1923324664998
 20
217.5998382568
 30
0.0
 11
129.3923446735
 21
217.5998382568
 31
0.0
  0
LINE
  5
1BE
330
2
100
AcDbEntity
  8
0
 62
     3
100
AcDbLine
 10
133.1923477251999
 20
218.0866241454999
 30
0.0
 11
130.1923477251999
 21
218.0866241454999
 31
0.0
  0
LINE
  5
1BF
330
2
100
AcDbEntity
  8
0
 62
     3
100
AcDbLine
 10
133.1923477251999
 20
218.5097503661999
 30
0.0
 11
130.1923477251999
 21
218.5097503661999
 31
0.0
  0
LINE
  5
1C0
330
2
100
AcDbEntity
  8
0
 62
     3
100
AcDbLine
 10
133.1923477251999
 20
219.1097412108999
 30
0.0
 11
130.1923477251999
 21
219.1097412108999
 31
0.0
  0
LINE
  5
1C1
330
2
100
AcDbEntity
  8
0
 62
     3
100
AcDbLine
 10
133.1923477251999
 20
219.7966308593
 30
0.0
 11
130.1923477251999
 21
219.7966308593
 31
0.0
  0
LINE
  5
1C2
330
2
100
AcDbEntity
  8
0
 62
     3
100
AcDbLine
 10
133.1923477251999
 20
220.6653289794999
 30
0.0
 11
130.1923477251999
 21
220.6653289794999
 31
0.0
  0
LINE
  5
1C3
330
2
100
AcDbEntity
  8
0
 62
     3
100
AcDbLine
 10
133.1923477251999
 20
221.5403442383
 30
0.0
 11
130.1923477251999
 21
221.5403442383
 31
0.0
  0
LINE
  5
1C4
330
2
100
AcDbEntity
  8
0
 62
     3
100
AcDbLine
 10
129.3923252541
 20
217.5997814728999
 30
0.0
 11
129.3923405128999
 21
218.1206707550999
 31
0.0
  0
LINE
  5
1C5
330
2
100
AcDbEntity
  8
0
 62
     3
100
AcDbLine
 10
128.192362984
 20
218.1207275389999
 30
0.0
 11
129.3923599323
 21
218.1207275389999
 31
0.0
  0
LINE
  5
1C6
330
2
100
AcDbEntity
  8
0
 62
     3
100
AcDbLine
 10
130.1922103961
 20
218.5095977782999
 30
0.0
 11
130.1922103961
 21
218.0864868163999
 31
0.0
  0
LINE
  5
1C7
330
2
100
AcDbEntity
  8
0
 62
     3
100
AcDbLine
 10
130.1923477251999
 20
219.1097412108999
 30
0.0
 11
130.1923477251999
 21
219.7966308593
 31
0.0
  0
LINE
  5
1C8
330
2
100
AcDbEntity
  8
0
 62
     3
100
AcDbLine
 10
130.1923477251999
 20
220.6653289794999
 30
0.0
 11
130.1923477251999
 21
221.5403442383
 31
0.0
  0
LINE
  5
1C9
330
2
100
AcDbEntity
  8
0
 62
     3
100
AcDbLine
 10
133.1917812471997
 20
220.3348745655998
 30
0.0
 11
134.1358667870999
 21
217.5497707247998
 31
0.0
  0
LINE
  5
1CA
330
2
100
AcDbEntity
  8
0
 62
     3
100
AcDbLine
 10
133.1918136676
 20
217.549911499
 30
0.0
 11
134.1359054644997
 21
217.549911499
 31
0.0
  0
LINE
  5
1CB
330
2
100
AcDbEntity
  8
0
 62
     3
100
AcDbLine
 10
134.1917732849997
 20
220.4997787717999
 30
0.0
 11
135.0829344649999
 21
217.8708046794999
 31
0.0
  0
LINE
  5
1CC
330
2
100
AcDbEntity
  8
0
 62
     3
100
AcDbLine
 10
134.1358834524999
 20
217.5497715767999
 30
0.0
 11
135.0829523822
 21
217.8708017762999
 31
0.0
  0
LINE
  5
1CD
330
2
100
AcDbEntity
  8
0
 62
     3
100
AcDbLine
 10
128.1923477252
 20
234.3998260497999
 30
0.0
 11
124.9297744830998
 21
234.3998260497999
 31
0.0
  0
LINE
  5
1CE
330
2
100
AcDbEntity
  8
0
 62
     3
100
AcDbLine
 10
129.3923446735
 20
225.4998016357
 30
0.0
 11
124.4923507769999
 21
225.4998016357
 31
0.0
  0
LINE
  5
1CF
330
2
100
AcDbEntity
  8
0
 62
     3
100
AcDbLine
 10
129.3923446735
 20
227.4998016357
 30
0.0
 11
124.9585678179998
 21
227.4998016357
 31
0.0
  0
LINE
  5
1D0
330
2
100
AcDbEntity
  8
0
 62
     3
100
AcDbLine
 10
124.6548659532999
 20
233.8496914670999
 30
0.0
 11
124.9297885776999
 21
234.3995371923
 31
0.0
  0
LINE
  5
1D1
330
2
100
AcDbEntity
  8
0
 62
     3
100
AcDbLine
 10
124.9923577162999
 20
234.3994096554
 30
0.0
 11
125.4585761997999
 21
227.4993706580999
 31
0.0
  0
LINE
  5
1D2
330
2
100
AcDbEntity
  8
0
 62
     3
100
AcDbLine
 10
125.9923569897999
 20
234.3994406676999
 30
0.0
 11
126.4585672440997
 21
227.4995234629999
 31
0.0
  0
LINE
  5
1D3
330
2
100
AcDbEntity
  8
0
 62
     3
100
AcDbLine
 10
125.4923497409999
 20
234.3994246471999
 30
0.0
 11
125.9585599952999
 21
227.4995074426
 31
0.0
  0
LINE
  5
1D4
330
2
100
AcDbEntity
  8
0
 62
     3
100
AcDbLine
 10
124.6548111042
 20
233.8498535155999
 30
0.0
 11
123.4923660357999
 21
233.8498535155999
 31
0.0
  0
LINE
  5
1D5
330
2
100
AcDbEntity
  8
0
 62
     3
100
AcDbLine
 10
121.5868484576999
 20
231.6103363036999
 30
0.0
 11
121.5868484576999
 21
227.1103363036999
 31
0.0
  0
LINE
  5
1D6
330
2
100
AcDbEntity
  8
0
 62
     3
100
AcDbLine
 10
122.3868515093997
 20
231.6103363036999
 30
0.0
 11
122.3868515093997
 21
227.1103363036999
 31
0.0
  0
LINE
  5
1D7
330
2
100
AcDbEntity
  8
0
 62
     3
100
AcDbLine
 10
121.0868471617999
 20
227.1102663666999
 30
0.0
 11
121.9868497375
 21
224.6102588072
 31
0.0
  0
LINE
  5
1D8
330
2
100
AcDbEntity
  8
0
 62
     3
100
AcDbLine
 10
121.0868484576999
 20
227.1103363036999
 30
0.0
 11
121.5868484576999
 21
227.1103363036999
 31
0.0
  0
LINE
  5
1D9
330
2
100
AcDbEntity
  8
0
 62
     3
100
AcDbLine
 10
122.3868515093997
 20
227.1103363036999
 30
0.0
 11
122.8868515093999
 21
227.1103363036999
 31
0.0
  0
LINE
  5
1DA
330
2
100
AcDbEntity
  8
0
 62
     3
100
AcDbLine
 10
121.9868556269999
 20
224.6102739512998
 30
0.0
 11
122.8868519255998
 21
227.1102674706999
 31
0.0
  0
LINE
  5
1DB
330
2
100
AcDbEntity
  8
0
 62
     3
100
AcDbLine
 10
121.5868484576999
 20
231.6103363036999
 30
0.0
 11
122.3868515093997
 21
231.6103363036999
 31
0.0
  0
LINE
  5
1DC
330
2
100
AcDbEntity
  8
0
 62
     3
100
AcDbLine
 10
124.5295054159999
 20
233.8494999632999
 30
0.0
 11
124.9585607217999
 21
227.4994764302999
 31
0.0
  0
LINE
  5
1DD
330
2
100
AcDbEntity
  8
0
 62
     3
100
AcDbLine
 10
124.4920862246999
 20
225.4995667681999
 30
0.0
 11
125.0979592603999
 21
224.4501637088998
 31
0.0
  0
LINE
  5
1DE
330
2
100
AcDbEntity
  8
0
 62
     3
100
AcDbLine
 10
124.6552554070999
 20
223.5874295599999
 30
0.0
 11
125.0980665806999
 21
224.4500135642999
 31
0.0
  0
LINE
  5
1DF
330
2
100
AcDbEntity
  8
0
 62
     3
100
AcDbLine
 10
124.4922167124
 20
225.4993765670998
 30
0.0
 11
124.0737597310999
 21
224.7745876912998
 31
0.0
  0
LINE
  5
1E0
330
2
100
AcDbEntity
  8
0
 62
     3
100
AcDbLine
 10
124.0736793336999
 20
224.7748401736999
 30
0.0
 11
124.6550480306999
 21
223.5874597853998
 31
0.0
  0
LINE
  5
1E1
330
2
100
AcDbEntity
  8
0
 62
     3
100
AcDbLine
 10
134.1918433622
 20
232.4997828819999
 30
0.0
 11
135.0829988813998
 21
235.1287267485
 31
0.0
  0
LINE
  5
1E2
330
2
100
AcDbEntity
  8
0
 62
     3
100
AcDbLine
 10
133.1918319610999
 20
232.6646308526
 30
0.0
 11
134.1359365788999
 21
235.4497766443
 31
0.0
  0
LINE
  5
1E3
330
2
100
AcDbEntity
  8
0
 62
     3
100
AcDbLine
 10
128.192362984
 20
234.8790130615
 30
0.0
 11
128.192362984
 21
229.4998474120997
 31
0.0
  0
LINE
  5
1E4
330
2
100
AcDbEntity
  8
0
 62
     3
100
AcDbLine
 10
133.1923477251999
 20
222.5795593261
 30
0.0
 11
130.1923477251999
 21
222.5795593261
 31
0.0
  0
LINE
  5
1E5
330
2
100
AcDbEntity
  8
0
 62
     3
100
AcDbLine
 10
133.1923477251999
 20
223.6220092772999
 30
0.0
 11
130.1923477251999
 21
223.6220092772999
 31
0.0
  0
LINE
  5
1E6
330
2
100
AcDbEntity
  8
0
 62
     3
100
AcDbLine
 10
133.1923477251999
 20
225.8998260497997
 30
0.0
 11
130.1923477251999
 21
225.8998260497997
 31
0.0
  0
LINE
  5
1E7
330
2
100
AcDbEntity
  8
0
 62
     3
100
AcDbLine
 10
133.1923477251999
 20
224.8073730468
 30
0.0
 11
130.1923477251999
 21
224.8073730468
 31
0.0
  0
LINE
  5
1E8
330
2
100
AcDbEntity
  8
0
 62
     3
100
AcDbLine
 10
130.1923477251999
 20
233.8899383544999
 30
0.0
 11
133.1923477251999
 21
233.8899383544999
 31
0.0
  0
LINE
  5
1E9
330
2
100
AcDbEntity
  8
0
 62
     3
100
AcDbLine
 10
130.1923477251999
 20
233.2030487059999
 30
0.0
 11
133.1923477251999
 21
233.2030487059999
 31
0.0
  0
LINE
  5
1EA
330
2
100
AcDbEntity
  8
0
 62
     3
100
AcDbLine
 10
130.1923477251999
 20
232.3343505858999
 30
0.0
 11
133.1923477251999
 21
232.3343505858999
 31
0.0
  0
LINE
  5
1EB
330
2
100
AcDbEntity
  8
0
 62
     3
100
AcDbLine
 10
130.1923477251999
 20
231.4593353270999
 30
0.0
 11
133.1923477251999
 21
231.4593353270999
 31
0.0
  0
LINE
  5
1EC
330
2
100
AcDbEntity
  8
0
 62
     3
100
AcDbLine
 10
130.1923477251999
 20
230.4201202391999
 30
0.0
 11
133.1923477251999
 21
230.4201202391999
 31
0.0
  0
LINE
  5
1ED
330
2
100
AcDbEntity
  8
0
 62
     3
100
AcDbLine
 10
130.1923477251999
 20
229.3776702880999
 30
0.0
 11
133.1923477251999
 21
229.3776702880999
 31
0.0
  0
LINE
  5
1EE
330
2
100
AcDbEntity
  8
0
 62
     3
100
AcDbLine
 10
130.1923477251999
 20
227.0998535156
 30
0.0
 11
133.1923477251999
 21
227.0998535156
 31
0.0
  0
LINE
  5
1EF
330
2
100
AcDbEntity
  8
0
 62
     3
100
AcDbLine
 10
130.1923477251999
 20
228.1923065184999
 30
0.0
 11
133.1923477251999
 21
228.1923065184999
 31
0.0
  0
LINE
  5
1F0
330
2
100
AcDbEntity
  8
0
 62
     3
100
AcDbLine
 10
129.3923599323
 20
229.4998474120997
 30
0.0
 11
129.3923599323
 21
223.4998321532999
 31
0.0
  0
LINE
  5
1F1
330
2
100
AcDbEntity
  8
0
 62
     3
100
AcDbLine
 10
130.1923477251999
 20
228.1923065184999
 30
0.0
 11
130.1923477251999
 21
227.0998535156
 31
0.0
  0
LINE
  5
1F2
330
2
100
AcDbEntity
  8
0
 62
     3
100
AcDbLine
 10
129.3923599323
 20
223.4998474120998
 30
0.0
 11
128.192362984
 21
223.4998474120998
 31
0.0
  0
LINE
  5
1F3
330
2
100
AcDbEntity
  8
0
 62
     3
100
AcDbLine
 10
130.1923477251999
 20
223.6220092772999
 30
0.0
 11
130.1923477251999
 21
222.5795593261
 31
0.0
  0
LINE
  5
1F4
330
2
100
AcDbEntity
  8
0
 62
     3
100
AcDbLine
 10
130.1923477251999
 20
225.8998260497997
 30
0.0
 11
130.1923477251999
 21
224.8073730468
 31
0.0
  0
LINE
  5
1F5
330
2
100
AcDbEntity
  8
0
 62
     3
100
AcDbLine
 10
128.192362984
 20
229.4998474120997
 30
0.0
 11
129.3923599323
 21
229.4998474120997
 31
0.0
  0
LINE
  5
1F6
330
2
100
AcDbEntity
  8
0
 62
     3
100
AcDbLine
 10
130.1923477251999
 20
231.4593353270999
 30
0.0
 11
130.1923477251999
 21
232.3343505858999
 31
0.0
  0
LINE
  5
1F7
330
2
100
AcDbEntity
  8
0
 62
     3
100
AcDbLine
 10
130.1923477251999
 20
230.4201202391999
 30
0.0
 11
130.1923477251999
 21
229.3776702880999
 31
0.0
  0
LINE
  5
1F8
330
2
100
AcDbEntity
  8
0
 62
     3
100
AcDbLine
 10
130.1923477251999
 20
233.2030487059999
 30
0.0
 11
130.1923477251999
 21
233.8899383544999
 31
0.0
  0
LINE
  5
1F9
330
2
100
AcDbEntity
  8
0
 62
     3
100
AcDbLine
 10
129.3923599323
 20
235.3998413085999
 30
0.0
 11
133.1923477251999
 21
235.3998413085999
 31
0.0
  0
LINE
  5
1FA
330
2
100
AcDbEntity
  8
0
 62
     3
100
AcDbLine
 10
130.1923477251999
 20
234.9130554198999
 30
0.0
 11
133.1923477251999
 21
234.9130554198999
 31
0.0
  0
LINE
  5
1FB
330
2
100
AcDbEntity
  8
0
 62
     3
100
AcDbLine
 10
130.1923477251999
 20
234.4899291991999
 30
0.0
 11
133.1923477251999
 21
234.4899291991999
 31
0.0
  0
LINE
  5
1FC
330
2
100
AcDbEntity
  8
0
 62
     3
100
AcDbLine
 10
129.3923599323
 20
235.3998413085999
 30
0.0
 11
129.3923599323
 21
234.8790130615
 31
0.0
  0
LINE
  5
1FD
330
2
100
AcDbEntity
  8
0
 62
     3
100
AcDbLine
 10
129.3923599323
 20
234.8790130615
 30
0.0
 11
128.192362984
 21
234.8790130615
 31
0.0
  0
LINE
  5
1FE
330
2
100
AcDbEntity
  8
0
 62
     3
100
AcDbLine
 10
130.1924240191999
 20
234.9130706786999
 30
0.0
 11
130.1924240191999
 21
234.4899444579999
 31
0.0
  0
LINE
  5
1FF
330
2
100
AcDbEntity
  8
0
 62
     3
100
AcDbLine
 10
133.1918136676
 20
235.4499206542998
 30
0.0
 11
134.1359207232999
 21
235.4499206542998
 31
0.0
  0
LINE
  5
200
330
2
100
AcDbEntity
  8
0
 62
     3
100
AcDbLine
 10
134.1359386815997
 20
235.4497791669999
 30
0.0
 11
135.0830029620999
 21
235.1287352584
 31
0.0
  0
LINE
  5
201
330
2
100
AcDbEntity
  8
0
 62
     3
100
AcDbLine
 10
145.9923507769999
 20
222.9108886717999
 30
0.0
 11
145.9923507769999
 21
222.3657226561999
 31
0.0
  0
LINE
  5
202
330
2
100
AcDbEntity
  8
0
 62
     3
100
AcDbLine
 10
136.3923599322999
 20
216.4999694823998
 30
0.0
 11
136.3923599322999
 21
236.4998474120998
 31
0.0
  0
LINE
  5
203
330
2
100
AcDbEntity
  8
0
 62
     3
100
AcDbLine
 10
136.9923507769997
 20
238.399734497
 30
0.0
 11
136.9923507769997
 21
214.5998687744
 31
0.0
  0
LINE
  5
204
330
2
100
AcDbEntity
  8
0
 62
     3
100
AcDbLine
 10
141.9923507769999
 20
238.2997589110999
 30
0.0
 11
141.9923507769999
 21
214.6998596191
 31
0.0
  0
LINE
  5
205
330
2
100
AcDbEntity
  8
0
 62
     3
100
AcDbLine
 10
142.4923507769999
 20
237.7997589111
 30
0.0
 11
142.4923507769999
 21
215.1998596190999
 31
0.0
  0
LINE
  5
206
330
2
100
AcDbEntity
  8
0
 62
     3
100
AcDbLine
 10
144.9923507769999
 20
214.2997741698999
 30
0.0
 11
144.9923507769999
 21
238.6998138426999
 31
0.0
  0
LINE
  5
207
330
2
100
AcDbEntity
  8
0
 62
     3
100
AcDbLine
 10
145.2923538288
 20
213.9998168945
 30
0.0
 11
145.2923538288
 21
238.9998626708999
 31
0.0
  0
LINE
  5
208
330
2
100
AcDbEntity
  8
0
 62
     3
100
AcDbLine
 10
144.9923355181998
 20
215.1998596190999
 30
0.0
 11
142.4923507769999
 21
215.1998596190999
 31
0.0
  0
LINE
  5
209
330
2
100
AcDbEntity
  8
0
 62
     3
100
AcDbLine
 10
141.9923274968999
 20
214.6998270028
 30
0.0
 11
136.9923354436999
 21
214.5998287050999
 31
0.0
  0
LINE
  5
20A
330
2
100
AcDbEntity
  8
0
 62
     3
100
AcDbLine
 10
136.3923599322999
 20
216.4999694823998
 30
0.0
 11
136.9923660357999
 21
216.4999694823998
 31
0.0
  0
LINE
  5
20B
330
2
100
AcDbEntity
  8
0
 62
     3
100
AcDbLine
 10
142.4922569316999
 20
215.199771855
 30
0.0
 11
141.9923103488
 21
214.6998252721998
 31
0.0
  0
LINE
  5
20C
330
2
100
AcDbEntity
  8
0
 62
     3
100
AcDbLine
 10
145.9923507769999
 20
215.4953613281
 30
0.0
 11
145.9923507769999
 21
215.2352294921998
 31
0.0
  0
LINE
  5
20D
330
2
100
AcDbEntity
  8
0
 62
     3
100
AcDbLine
 10
145.9923507769999
 20
214.7031860350999
 30
0.0
 11
145.9923507769999
 21
214.5261840819999
 31
0.0
  0
LINE
  5
20E
330
2
100
AcDbEntity
  8
0
 62
     3
100
AcDbLine
 10
144.9921984604999
 20
214.2999082285999
 30
0.0
 11
145.2922366016998
 21
213.9998723384
 31
0.0
  0
LINE
  5
20F
330
2
100
AcDbEntity
  8
0
 62
     3
100
AcDbLine
 10
145.9923507769999
 20
221.0819091797
 30
0.0
 11
145.9923507769999
 21
220.5712890625
 31
0.0
  0
LINE
  5
210
330
2
100
AcDbEntity
  8
0
 62
     3
100
AcDbLine
 10
142.4923507769999
 20
237.7997589111
 30
0.0
 11
144.9923355181998
 21
237.7997589111
 31
0.0
  0
LINE
  5
211
330
2
100
AcDbEntity
  8
0
 62
     3
100
AcDbLine
 10
136.9923045303997
 20
238.3997004084999
 30
0.0
 11
141.9923118392
 21
238.2997018055998
 31
0.0
  0
LINE
  5
212
330
2
100
AcDbEntity
  8
0
 62
     3
100
AcDbLine
 10
136.3923599322999
 20
236.4998474120998
 30
0.0
 11
136.9923660357999
 21
236.4998474120998
 31
0.0
  0
LINE
  5
213
330
2
100
AcDbEntity
  8
0
 62
     3
100
AcDbLine
 10
141.9922671903998
 20
238.2997294822998
 30
0.0
 11
142.4922569316999
 21
237.7997397410999
 31
0.0
  0
LINE
  5
214
330
2
100
AcDbEntity
  8
0
 62
     3
100
AcDbLine
 10
145.9923507769999
 20
234.0771331786999
 30
0.0
 11
145.9923507769999
 21
233.6133880615
 31
0.0
  0
LINE
  5
215
330
2
100
AcDbEntity
  8
0
 62
     3
100
AcDbLine
 10
145.9923507769999
 20
226.7863616942999
 30
0.0
 11
145.9923507769999
 21
226.2135009764999
 31
0.0
  0
LINE
  5
216
330
2
100
AcDbEntity
  8
0
 62
     3
100
AcDbLine
 10
145.9923507769999
 20
224.8281249999998
 30
0.0
 11
145.9923507769999
 21
224.2620849609
 31
0.0
  0
LINE
  5
217
330
2
100
AcDbEntity
  8
0
 62
     3
100
AcDbLine
 10
145.9923507769999
 20
228.7377777099
 30
0.0
 11
145.9923507769999
 21
228.1717376708999
 31
0.0
  0
LINE
  5
218
330
2
100
AcDbEntity
  8
0
 62
     3
100
AcDbLine
 10
145.9923507769999
 20
230.6341400146
 30
0.0
 11
145.9923507769999
 21
230.088973999
 31
0.0
  0
LINE
  5
219
330
2
100
AcDbEntity
  8
0
 62
     3
100
AcDbLine
 10
145.9923507769999
 20
232.4285736083999
 30
0.0
 11
145.9923507769999
 21
231.9179534911997
 31
0.0
  0
LINE
  5
21A
330
2
100
AcDbEntity
  8
0
 62
     3
100
AcDbLine
 10
145.9923507769999
 20
235.5390472411999
 30
0.0
 11
145.9923507769999
 21
235.1337738036999
 31
0.0
  0
LINE
  5
21B
330
2
100
AcDbEntity
  8
0
 62
     3
100
AcDbLine
 10
145.9923507769999
 20
236.778427124
 30
0.0
 11
145.9923507769999
 21
236.4415130615
 31
0.0
  0
LINE
  5
21C
330
2
100
AcDbEntity
  8
0
 62
     3
100
AcDbLine
 10
145.9923507769999
 20
237.7646331786999
 30
0.0
 11
145.9923507769999
 21
237.5045013427
 31
0.0
  0
LINE
  5
21D
330
2
100
AcDbEntity
  8
0
 62
     3
100
AcDbLine
 10
145.9923507769999
 20
238.4734954833999
 30
0.0
 11
145.9923507769999
 21
238.2964935302
 31
0.0
  0
LINE
  5
21E
330
2
100
AcDbEntity
  8
0
 62
     3
100
AcDbLine
 10
145.2922399196999
 20
238.9997680460999
 30
0.0
 11
144.9922017784999
 21
238.6997321558
 31
0.0
  0
LINE
  5
21F
330
2
100
AcDbEntity
  8
0
 62
     3
100
AcDbLine
 10
181.1798198885998
 20
180.6443919671999
 30
0.0
 11
181.2732121118999
 21
180.9929364865999
 31
0.0
  0
LINE
  5
220
330
2
100
AcDbEntity
  8
0
 62
     3
100
AcDbLine
 10
181.2731539942998
 20
155.999608502
 30
0.0
 11
181.1797617710998
 21
156.3481530213999
 31
0.0
  0
CIRCLE
  5
221
330
2
100
AcDbEntity
  8
0
 62
     3
100
AcDbCircle
 10
180.9863693317
 20
168.4962768554
 30
0.0
 40
10.2999954224
  0
CIRCLE
  5
222
330
2
100
AcDbEntity
  8
0
 62
     3
100
AcDbCircle
 10
180.9863693317
 20
168.4962768554
 30
0.0
 40
10.5999984741
  0
ARC
  5
223
330
2
100
AcDbEntity
  8
0
 62
     3
100
AcDbCircle
 10
180.9865371784
 20
168.4962768554
 30
0.0
 40
12.5
100
AcDbArc
 50
45.0000183277
 51
126.0029473178
  0
ARC
  5
224
330
2
100
AcDbEntity
  8
0
 62
     3
100
AcDbCircle
 10
180.9865371784
 20
168.4962768554
 30
0.0
 40
12.5
100
AcDbArc
 50
143.9967255164
 51
44.99967317579996
  0
CIRCLE
  5
225
330
2
100
AcDbEntity
  8
0
 62
     3
100
AcDbCircle
 10
180.9863693317
 20
168.4962768554
 30
0.0
 40
8.1999969482
  0
CIRCLE
  5
226
330
2
100
AcDbEntity
  8
0
 62
     3
100
AcDbCircle
 10
180.9863693317
 20
168.4962768554
 30
0.0
 40
8.5
  0
CIRCLE
  5
227
330
2
100
AcDbEntity
  8
0
 62
     3
100
AcDbCircle
 10
180.9863693317
 20
168.4962768554
 30
0.0
 40
8.7999954224
  0
CIRCLE
  5
228
330
2
100
AcDbEntity
  8
0
 62
     3
100
AcDbCircle
 10
180.9863693317
 20
168.4962768554
 30
0.0
 40
10.0
  0
LINE
  5
229
330
2
100
AcDbEntity
  8
0
  6
CENTER
 62
     3
100
AcDbLine
 10
166.0923263628999
 20
168.5
 30
0.0
 11
195.8922683795
 21
168.5
 31
0.0
  0
LINE
  5
22A
330
2
100
AcDbEntity
  8
0
 62
     3
100
AcDbLine
 10
156.9923385681
 20
175.8438653402999
 30
0.0
 11
154.9063124171999
 21
177.6469634699999
 31
0.0
  0
LINE
  5
22B
330
2
100
AcDbEntity
  8
0
 62
     3
100
AcDbLine
 10
156.9923660358
 20
156.999923706
 30
0.0
 11
156.9923660358
 21
179.9997863768999
 31
0.0
  0
ARC
  5
22C
330
2
100
AcDbEntity
  8
0
 62
     3
100
AcDbCircle
 10
155.9923507769999
 20
156.9999542235999
 30
0.0
 40
1.0
100
AcDbArc
 50
270.0000179861
 51
359.9997088064
  0
ARC
  5
22D
330
2
100
AcDbEntity
  8
0
 62
     3
100
AcDbCircle
 10
155.9923507769999
 20
179.9999389647999
 30
0.0
 40
1.0
100
AcDbArc
 50
0.00029119350928
 51
89.99992737239997
  0
LINE
  5
22E
330
2
100
AcDbEntity
  8
0
 62
     3
100
AcDbLine
 10
154.9063078887999
 20
179.0917749253999
 30
0.0
 11
156.9923433546998
 21
178.6086496866999
 31
0.0
  0
LINE
  5
22F
330
2
100
AcDbEntity
  8
0
 62
     3
100
AcDbLine
 10
154.9063217242999
 20
179.091796875
 30
0.0
 11
154.9063217242999
 21
177.6469573973999
 31
0.0
  0
LINE
  5
230
330
2
100
AcDbEntity
  8
0
  6
CENTER
 62
     3
100
AcDbLine
 10
180.9923202593999
 20
153.5999755858999
 30
0.0
 11
180.9923202593999
 21
183.399810791
 31
0.0
  0
LINE
  5
231
330
2
100
AcDbEntity
  8
0
 62
     3
100
AcDbLine
 10
170.8744343903999
 20
175.8438959306999
 30
0.0
 11
170.3912971951999
 21
177.6469888906999
 31
0.0
  0
ARC
  5
232
330
2
100
AcDbEntity
  8
0
 62
     3
100
AcDbCircle
 10
180.9865371784
 20
168.4962768554
 30
0.0
 40
14.0
100
AcDbArc
 50
142.9796830281999
 51
157.4930700332999
  0
LINE
  5
233
330
2
100
AcDbEntity
  8
0
 62
     3
100
AcDbLine
 10
173.6896172354
 20
158.7816413041999
 30
0.0
 11
173.4091920437998
 21
158.5545573709999
 31
0.0
  0
ARC
  5
234
330
2
100
AcDbEntity
  8
0
 62
     3
100
AcDbCircle
 10
169.3836929400999
 20
164.726486206
 30
0.0
 40
0.1999999881
100
AcDbArc
 50
303.0000872063
 51
92.99974645589994
  0
LINE
  5
235
330
2
100
AcDbEntity
  8
0
 62
     3
100
AcDbLine
 10
170.0747161173
 20
163.1531960209999
 30
0.0
 11
169.7218809050999
 21
163.0781985433
 31
0.0
  0
LINE
  5
236
330
2
100
AcDbEntity
  8
0
 62
     3
100
AcDbLine
 10
169.1899289321999
 20
164.3621197157999
 30
0.0
 11
169.4924523062999
 21
164.5585807230999
 31
0.0
  0
ARC
  5
237
330
2
100
AcDbEntity
  8
0
 62
     3
100
AcDbCircle
 10
171.1165878374998
 20
161.3254241942999
 30
0.0
 40
0.1999999881
100
AcDbArc
 50
321.0000945373999
 51
110.9997537869999
  0
LINE
  5
238
330
2
100
AcDbEntity
  8
0
 62
     3
100
AcDbLine
 10
171.0447845793999
 20
161.5119537753999
 30
0.0
 11
170.7080255581999
 21
161.3826840327999
 31
0.0
  0
LINE
  5
239
330
2
100
AcDbEntity
  8
0
 62
     3
100
AcDbLine
 10
171.0450326688
 20
160.9190004999999
 30
0.0
 11
171.2721165374999
 21
161.1994257345999
 31
0.0
  0
ARC
  5
23A
330
2
100
AcDbEntity
  8
0
 62
     3
100
AcDbCircle
 10
170.1161758501999
 20
162.9578552246
 30
0.0
 40
0.1999999881
100
AcDbArc
 50
312.0000362303
 51
101.9997501213999
  0
LINE
  5
23B
330
2
100
AcDbEntity
  8
0
 62
     3
100
AcDbLine
 10
169.9818908998
 20
162.5675864666999
 30
0.0
 11
170.2499564410999
 21
162.8089537752999
 31
0.0
  0
ARC
  5
23C
330
2
100
AcDbEntity
  8
0
 62
     3
100
AcDbCircle
 10
172.3597976763999
 20
159.8697052001999
 30
0.0
 40
0.1999999881
100
AcDbArc
 50
330.0000982029
 51
119.9997574524999
  0
LINE
  5
23D
330
2
100
AcDbEntity
  8
0
 62
     3
100
AcDbLine
 10
172.3524233283999
 20
159.4571879340999
 30
0.0
 11
172.5328432287998
 21
159.7696844213999
 31
0.0
  0
LINE
  5
23E
330
2
100
AcDbEntity
  8
0
 62
     3
100
AcDbLine
 10
172.2597205053998
 20
160.0429123797999
 30
0.0
 11
171.9473303448999
 21
159.8625537779
 31
0.0
  0
LINE
  5
23F
330
2
100
AcDbEntity
  8
0
 62
     3
100
AcDbLine
 10
169.7217425015999
 20
173.9144050013999
 30
0.0
 11
170.0746971380999
 21
173.8393821867999
 31
0.0
  0
LINE
  5
240
330
2
100
AcDbEntity
  8
0
 62
     3
100
AcDbLine
 10
169.0179988034999
 20
170.5875405793999
 30
0.0
 11
168.6884666871999
 21
170.7342576185999
 31
0.0
  0
ARC
  5
241
330
2
100
AcDbEntity
  8
0
 62
     3
100
AcDbCircle
 10
168.9368240435999
 20
166.5879058837999
 30
0.0
 40
0.1999999881
100
AcDbArc
 50
294.0001552576999
 51
83.99979743179995
  0
ARC
  5
242
330
2
100
AcDbEntity
  8
0
 62
     3
100
AcDbCircle
 10
168.7865554888998
 20
168.4964447021
 30
0.0
 40
0.1999999881
100
AcDbArc
 50
285.0002062336999
 51
74.99979376629993
  0
LINE
  5
243
330
2
100
AcDbEntity
  8
0
 62
     3
100
AcDbLine
 10
169.373198987
 20
164.9259378724999
 30
0.0
 11
169.0129755734999
 21
164.9070592946999
 31
0.0
  0
LINE
  5
244
330
2
100
AcDbEntity
  8
0
 62
     3
100
AcDbLine
 10
168.9575313144
 20
166.7867552763999
 30
0.0
 11
168.5987895831999
 21
166.8244604734
 31
0.0
  0
LINE
  5
245
330
2
100
AcDbEntity
  8
0
 62
     3
100
AcDbLine
 10
168.6884364977998
 20
166.2583755861999
 30
0.0
 11
169.0179685711999
 21
166.4050927328999
 31
0.0
  0
LINE
  5
246
330
2
100
AcDbEntity
  8
0
 62
     3
100
AcDbLine
 10
168.8382448960999
 20
168.6894831683
 30
0.0
 11
168.4898182660999
 21
168.7828437113999
 31
0.0
  0
LINE
  5
247
330
2
100
AcDbEntity
  8
0
 62
     3
100
AcDbLine
 10
168.4898300544999
 20
168.2098786531
 30
0.0
 11
168.8383745737999
 21
168.3032708764
 31
0.0
  0
LINE
  5
248
330
2
100
AcDbEntity
  8
0
 62
     3
100
AcDbLine
 10
168.5989040249999
 20
170.1680836558999
 30
0.0
 11
168.9577671576999
 21
170.2058016771999
 31
0.0
  0
ARC
  5
249
330
2
100
AcDbEntity
  8
0
 62
     3
100
AcDbCircle
 10
168.9368240435999
 20
170.4048309325999
 30
0.0
 40
0.1999999881
100
AcDbArc
 50
276.0002572097
 51
65.99979010079998
  0
ARC
  5
24A
330
2
100
AcDbEntity
  8
0
 62
     3
100
AcDbCircle
 10
169.3836929400999
 20
172.2664184569999
 30
0.0
 40
0.1999999881
100
AcDbArc
 50
267.0001989026
 51
56.99972837860002
  0
LINE
  5
24B
330
2
100
AcDbEntity
  8
0
 62
     3
100
AcDbLine
 10
169.4926137336999
 20
172.433988816
 30
0.0
 11
169.1899879183999
 21
172.6305161999999
 31
0.0
  0
LINE
  5
24C
330
2
100
AcDbEntity
  8
0
 62
     3
100
AcDbLine
 10
169.0129819897999
 20
172.0854871209999
 30
0.0
 11
169.3732054032999
 21
172.0666086037
 31
0.0
  0
ARC
  5
24D
330
2
100
AcDbEntity
  8
0
 62
     3
100
AcDbCircle
 10
170.1164352496999
 20
174.0351409911999
 30
0.0
 40
0.1999999881
100
AcDbArc
 50
258.0002498786
 51
47.99972812819994
  0
LINE
  5
24E
330
2
100
AcDbEntity
  8
0
 62
     3
100
AcDbLine
 10
170.2501315152999
 20
174.1835943955999
 30
0.0
 11
169.9820659095999
 21
174.4249616181999
 31
0.0
  0
ARC
  5
24F
330
2
100
AcDbEntity
  8
0
 62
     3
100
AcDbCircle
 10
177.2163955767998
 20
156.8934173584
 30
0.0
 40
0.1999999881
100
AcDbArc
 50
357.0000364152999
 51
146.9997684491
  0
LINE
  5
250
330
2
100
AcDbEntity
  8
0
 62
     3
100
AcDbLine
 10
177.3973345529999
 20
156.5225725186
 30
0.0
 11
177.4162194589998
 21
156.8829178350999
 31
0.0
  0
ARC
  5
251
330
2
100
AcDbEntity
  8
0
 62
     3
100
AcDbCircle
 10
175.4476883013999
 20
157.6261596679
 30
0.0
 40
0.1999999881
100
AcDbArc
 50
348.0000338169999
 51
137.9997647836001
  0
LINE
  5
252
330
2
100
AcDbEntity
  8
0
 62
     3
100
AcDbLine
 10
175.2991985299999
 20
157.7598617154
 30
0.0
 11
175.0577496048999
 21
157.4917054151999
 31
0.0
  0
LINE
  5
253
330
2
100
AcDbEntity
  8
0
 62
     3
100
AcDbLine
 10
173.8729301135998
 20
158.2177408954999
 30
0.0
 11
174.0021997918
 21
158.5544999596999
 31
0.0
  0
ARC
  5
254
330
2
100
AcDbEntity
  8
0
 62
     3
100
AcDbCircle
 10
173.8154251177999
 20
158.6264038085999
 30
0.0
 40
0.1999999881
100
AcDbArc
 50
339.0001018685
 51
128.9997611179998
  0
LINE
  5
255
330
2
100
AcDbEntity
  8
0
 62
     3
100
AcDbLine
 10
177.0487704467998
 20
157.0023746554999
 30
0.0
 11
176.8522430197999
 21
156.6997488830999
 31
0.0
  0
LINE
  5
256
330
2
100
AcDbEntity
  8
0
 62
     3
100
AcDbLine
 10
175.5684321066999
 20
157.2314799217999
 30
0.0
 11
175.6434549213
 21
157.5844345583
 31
0.0
  0
ARC
  5
257
330
2
100
AcDbEntity
  8
0
 62
     3
100
AcDbCircle
 10
179.0778152544998
 20
156.4465484619
 30
0.0
 40
0.1999999881
100
AcDbArc
 50
6.0000923745
 51
155.9997174732
  0
LINE
  5
258
330
2
100
AcDbEntity
  8
0
 62
     3
100
AcDbLine
 10
178.8953059095999
 20
156.5277595636
 30
0.0
 11
178.7485888274
 21
156.1982274687999
 31
0.0
  0
LINE
  5
259
330
2
100
AcDbEntity
  8
0
 62
     3
100
AcDbLine
 10
179.3146924411999
 20
156.1087371278999
 30
0.0
 11
179.2769871796998
 21
156.4674788589999
 31
0.0
  0
ARC
  5
25A
330
2
100
AcDbEntity
  8
0
 62
     3
100
AcDbCircle
 10
180.9863693317
 20
156.2962799071999
 30
0.0
 40
0.1999999881
100
AcDbArc
 50
15.0000960401
 51
164.9997211387
  0
LINE
  5
25B
330
2
100
AcDbEntity
  8
0
 62
     3
100
AcDbLine
 10
180.7932331388999
 20
156.3481175629
 30
0.0
 11
180.6998409585998
 21
155.9995730219999
 31
0.0
  0
LINE
  5
25C
330
2
100
AcDbEntity
  8
0
 62
     3
100
AcDbLine
 10
171.8358121323998
 20
179.0918165057
 30
0.0
 11
173.6389050924
 21
178.6086793103999
 31
0.0
  0
LINE
  5
25D
330
2
100
AcDbEntity
  8
0
 62
     3
100
AcDbLine
 10
173.3459320975998
 20
180.5940742326
 30
0.0
 11
174.2093276692998
 21
181.0986018609999
 31
0.0
  0
LINE
  5
25E
330
2
100
AcDbEntity
  8
0
 62
     3
100
AcDbLine
 10
174.2590411899999
 20
179.0314752738
 30
0.0
 11
173.3459320975998
 21
180.5940742326
 31
0.0
  0
LINE
  5
25F
330
2
100
AcDbEntity
  8
0
 62
     3
100
AcDbLine
 10
172.4661046859999
 20
181.4698023285999
 30
0.0
 11
173.8787924782999
 21
182.2953104096
 31
0.0
  0
ARC
  5
260
330
2
100
AcDbEntity
  8
0
 62
     3
100
AcDbCircle
 10
180.9865371784
 20
168.4962768554
 30
0.0
 40
14.0
100
AcDbArc
 50
130.8154439654998
 51
139.1835185289999
  0
LINE
  5
261
330
2
100
AcDbEntity
  8
0
 62
     3
100
AcDbLine
 10
172.8819178567999
 20
178.8114959257999
 30
0.0
 11
172.1226244079
 21
180.1108709538999
 31
0.0
  0
ARC
  5
262
330
2
100
AcDbEntity
  8
0
 62
     3
100
AcDbCircle
 10
172.9859420855999
 20
180.6155548095
 30
0.0
 40
0.9999999404
100
AcDbArc
 50
120.2998486438998
 51
210.2999945822999
  0
ARC
  5
263
330
2
100
AcDbEntity
  8
0
 62
     3
100
AcDbCircle
 10
177.2167465289999
 20
180.0989685057999
 30
0.0
 40
0.1999999881
100
AcDbArc
 50
213.0004501169
 51
2.999674155400045
  0
LINE
  5
264
330
2
100
AcDbEntity
  8
0
 62
     3
100
AcDbLine
 10
177.4163350633999
 20
180.1095133608
 30
0.0
 11
177.3974564694999
 21
180.4697367742999
 31
0.0
  0
ARC
  5
265
330
2
100
AcDbEntity
  8
0
 62
     3
100
AcDbCircle
 10
174.3673660357998
 20
181.4228210449
 30
0.0
 40
0.9999999404
100
AcDbArc
 50
30.3000100639
 51
120.2997393607999
  0
ARC
  5
266
330
2
100
AcDbEntity
  8
0
 62
     3
100
AcDbCircle
 10
175.4481155474999
 20
179.3664855956999
 30
0.0
 40
0.1999999881
100
AcDbArc
 50
222.0003991409999
 51
11.99967589989999
  0
LINE
  5
267
330
2
100
AcDbEntity
  8
0
 62
     3
100
AcDbLine
 10
176.3061720382999
 20
180.0869564945999
 30
0.0
 11
175.2308405614998
 21
181.9271657970999
 31
0.0
  0
LINE
  5
268
330
2
100
AcDbEntity
  8
0
 62
     3
100
AcDbLine
 10
175.1227139070999
 20
179.5355286248
 30
0.0
 11
174.2093276692998
 21
181.0986018609999
 31
0.0
  0
LINE
  5
269
330
2
100
AcDbEntity
  8
0
 62
     3
100
AcDbLine
 10
175.0577985111999
 20
179.5007911142
 30
0.0
 11
175.2991658197999
 21
179.2327255729999
 31
0.0
  0
LINE
  5
26A
330
2
100
AcDbEntity
  8
0
 62
     3
100
AcDbLine
 10
176.8522818457999
 20
180.2927854883
 30
0.0
 11
177.0487428530999
 21
179.9902621141999
 31
0.0
  0
LINE
  5
26B
330
2
100
AcDbEntity
  8
0
 62
     3
100
AcDbLine
 10
175.6435909847999
 20
179.4080447079999
 30
0.0
 11
175.5685934639998
 21
179.7608799201999
 31
0.0
  0
ARC
  5
26C
330
2
100
AcDbEntity
  8
0
 62
     3
100
AcDbCircle
 10
179.0781662066999
 20
180.5460052489999
 30
0.0
 40
0.1999999881
100
AcDbArc
 50
204.0005010929
 51
353.999671984
  0
LINE
  5
26D
330
2
100
AcDbEntity
  8
0
 62
     3
100
AcDbLine
 10
179.2770130632
 20
180.5251564595
 30
0.0
 11
179.3147182386999
 21
180.8838981906999
 31
0.0
  0
LINE
  5
26E
330
2
100
AcDbEntity
  8
0
 62
     3
100
AcDbLine
 10
178.7485591580999
 20
180.7942684432999
 30
0.0
 11
178.8952763046999
 21
180.46473637
 31
0.0
  0
ARC
  5
26F
330
2
100
AcDbEntity
  8
0
 62
     3
100
AcDbCircle
 10
180.9866287310999
 20
180.6961822509
 30
0.0
 40
0.1999999881
100
AcDbArc
 50
194.9999510121998
 51
344.9997776014
  0
LINE
  5
270
330
2
100
AcDbEntity
  8
0
 62
     3
100
AcDbLine
 10
180.7001224555999
 20
180.9930900768999
 30
0.0
 11
180.7934830847999
 21
180.6446634683999
 31
0.0
  0
LINE
  5
271
330
2
100
AcDbEntity
  8
0
 62
     3
100
AcDbLine
 10
156.9923507769999
 20
215.0
 30
0.0
 11
156.9923507769999
 21
237.9998626708999
 31
0.0
  0
LINE
  5
272
330
2
100
AcDbEntity
  8
0
 62
     3
100
AcDbLine
 10
154.9063217242999
 20
217.3528289794999
 30
0.0
 11
154.9063217242999
 21
215.9079895018999
 31
0.0
  0
LINE
  5
273
330
2
100
AcDbEntity
  8
0
 62
     3
100
AcDbLine
 10
156.9923460693999
 20
216.3911038962999
 30
0.0
 11
154.9063106034999
 21
215.9079786577
 31
0.0
  0
ARC
  5
274
330
2
100
AcDbEntity
  8
0
 62
     3
100
AcDbCircle
 10
155.9923507769999
 20
214.9998474120998
 30
0.0
 40
1.0
100
AcDbArc
 50
270.0001272691
 51
359.9997088064997
  0
LINE
  5
275
330
2
100
AcDbEntity
  8
0
 62
     3
100
AcDbLine
 10
154.9063126882998
 20
217.3527959109
 30
0.0
 11
156.9923388391998
 21
219.1558940406
 31
0.0
  0
ARC
  5
276
330
2
100
AcDbEntity
  8
0
 62
     3
100
AcDbCircle
 10
155.9923507769999
 20
237.9998321533
 30
0.0
 40
1.0
100
AcDbArc
 50
0.00029119356139
 51
89.99998201389999
  0
LINE
  5
277
330
2
100
AcDbEntity
  8
0
 62
     3
100
AcDbLine
 10
185.1206786606999
 20
156.6996655374999
 30
0.0
 11
184.9241511690999
 21
157.0022912884
 31
0.0
  0
LINE
  5
278
330
2
100
AcDbEntity
  8
0
 62
     3
100
AcDbLine
 10
183.2243791039998
 20
156.1981404091999
 30
0.0
 11
183.0776123069
 21
156.5277839992999
 31
0.0
  0
ARC
  5
279
330
2
100
AcDbEntity
  8
0
 62
     3
100
AcDbCircle
 10
182.8948165972999
 20
156.4464569091999
 30
0.0
 40
0.1999999881
100
AcDbArc
 50
24.0000997056
 51
173.9997248041999
  0
LINE
  5
27A
330
2
100
AcDbEntity
  8
0
 62
     3
100
AcDbLine
 10
182.6961530663999
 20
156.4671253935999
 30
0.0
 11
182.6584478478999
 21
156.1083836624999
 31
0.0
  0
ARC
  5
27B
330
2
100
AcDbEntity
  8
0
 62
     3
100
AcDbCircle
 10
184.7564041216999
 20
156.8933258056
 30
0.0
 40
0.1999999881
100
AcDbArc
 50
33.0000316542
 51
182.9997284698
  0
LINE
  5
27C
330
2
100
AcDbEntity
  8
0
 62
     3
100
AcDbLine
 10
184.5566432877999
 20
156.8829011537
 30
0.0
 11
184.5755218050999
 21
156.5226777401999
 31
0.0
  0
ARC
  5
27D
330
2
100
AcDbEntity
  8
0
 62
     3
100
AcDbCircle
 10
186.5251266558999
 20
157.6259002685
 30
0.0
 40
0.1999999881
100
AcDbArc
 50
42.0000353197
 51
191.9997321352999
  0
LINE
  5
27E
330
2
100
AcDbEntity
  8
0
 62
     3
100
AcDbLine
 10
186.3295676406999
 20
157.5842988103999
 30
0.0
 11
186.4045650754999
 21
157.2314635766999
 31
0.0
  0
LINE
  5
27F
330
2
100
AcDbEntity
  8
0
 62
     3
100
AcDbLine
 10
186.9151771577999
 20
157.4915867924999
 30
0.0
 11
186.6737281682
 21
157.7597430496999
 31
0.0
  0
LINE
  5
280
330
2
100
AcDbEntity
  8
0
 62
     3
100
AcDbLine
 10
187.9707484563999
 20
158.5546096736999
 30
0.0
 11
188.1000619020999
 21
158.2177366685999
 31
0.0
  0
LINE
  5
281
330
2
100
AcDbEntity
  8
0
 62
     3
100
AcDbLine
 10
188.5637144141
 20
158.5545986729999
 30
0.0
 11
188.2832891794999
 21
158.7816825416999
 31
0.0
  0
ARC
  5
282
330
2
100
AcDbEntity
  8
0
 62
     3
100
AcDbCircle
 10
188.1574661333999
 20
158.6262207030999
 30
0.0
 40
0.1999999881
100
AcDbArc
 50
51.0000355702
 51
200.9997358009
  0
ARC
  5
283
330
2
100
AcDbEntity
  8
0
 62
     3
100
AcDbCircle
 10
192.5893966753998
 20
164.7261352539
 30
0.0
 40
0.1999999881
100
AcDbArc
 50
86.9999990059
 51
236.999750463
  0
LINE
  5
284
330
2
100
AcDbEntity
  8
0
 62
     3
100
AcDbLine
 10
192.4804848187999
 20
164.5584962631999
 30
0.0
 11
192.7831105910998
 21
164.3619688146999
 31
0.0
  0
ARC
  5
285
330
2
100
AcDbEntity
  8
0
 62
     3
100
AcDbCircle
 10
190.8565017779999
 20
161.3250732421999
 30
0.0
 40
0.1999999881
100
AcDbArc
 50
68.9999916748
 51
218.9997431318999
  0
LINE
  5
286
330
2
100
AcDbEntity
  8
0
 62
     3
100
AcDbLine
 10
190.7010634013999
 20
161.1992911383
 30
0.0
 11
190.9280704916999
 21
160.9189608131999
 31
0.0
  0
LINE
  5
287
330
2
100
AcDbEntity
  8
0
 62
     3
100
AcDbLine
 10
189.4400149053998
 20
159.7696901740999
 30
0.0
 11
189.6204348488
 21
159.4571937083
 31
0.0
  0
LINE
  5
288
330
2
100
AcDbEntity
  8
0
 62
     3
100
AcDbLine
 10
190.025567368
 20
159.8624060347999
 30
0.0
 11
189.7130708806999
 21
160.0428259351999
 31
0.0
  0
ARC
  5
289
330
2
100
AcDbEntity
  8
0
 62
     3
100
AcDbCircle
 10
189.6131851275999
 20
159.8694458008
 30
0.0
 40
0.1999999881
100
AcDbArc
 50
59.99998800930001
 51
209.9997394664
  0
ARC
  5
28A
330
2
100
AcDbEntity
  8
0
 62
     3
100
AcDbCircle
 10
191.8567306597999
 20
162.9575042724
 30
0.0
 40
0.1999999881
100
AcDbArc
 50
77.99999534040002
 51
227.9997467974999
  0
LINE
  5
28B
330
2
100
AcDbEntity
  8
0
 62
     3
100
AcDbLine
 10
191.7229420924
 20
162.808880154
 30
0.0
 11
191.9910076550999
 21
162.5675128883999
 31
0.0
  0
LINE
  5
28C
330
2
100
AcDbEntity
  8
0
 62
     3
100
AcDbLine
 10
192.2512495364999
 20
163.0781768089
 30
0.0
 11
191.8984143027
 21
163.1531742436
 31
0.0
  0
LINE
  5
28D
330
2
100
AcDbEntity
  8
0
 62
     3
100
AcDbLine
 10
191.2649409316999
 20
161.3825881368999
 30
0.0
 11
190.9281818674999
 21
161.5118578150999
 31
0.0
  0
LINE
  5
28E
330
2
100
AcDbEntity
  8
0
 62
     3
100
AcDbLine
 10
192.5997789685998
 20
172.0664760584999
 30
0.0
 11
192.9601242850999
 21
172.0853609645
 31
0.0
  0
LINE
  5
28F
330
2
100
AcDbEntity
  8
0
 62
     3
100
AcDbLine
 10
192.7829439823998
 20
172.6304381732999
 30
0.0
 11
192.4804206082999
 21
172.4339771659999
 31
0.0
  0
LINE
  5
290
330
2
100
AcDbEntity
  8
0
 62
     3
100
AcDbLine
 10
192.9601352381999
 20
164.9070838492999
 30
0.0
 11
192.5999118246998
 21
164.9259623665999
 31
0.0
  0
ARC
  5
291
330
2
100
AcDbEntity
  8
0
 62
     3
100
AcDbCircle
 10
190.8567611774
 20
175.6671905516999
 30
0.0
 40
0.1999999881
100
AcDbArc
 50
141.0000209991999
 51
290.9997724563
  0
LINE
  5
292
330
2
100
AcDbEntity
  8
0
 62
     3
100
AcDbLine
 10
190.9281258436999
 20
176.0732922766999
 30
0.0
 11
190.7011187963999
 21
175.7929619085
 31
0.0
  0
ARC
  5
293
330
2
100
AcDbEntity
  8
0
 62
     3
100
AcDbCircle
 10
191.8569900591999
 20
174.0347747801999
 30
0.0
 40
0.1999999881
100
AcDbArc
 50
131.9999626920999
 51
281.9997687907
  0
ARC
  5
294
330
2
100
AcDbEntity
  8
0
 62
     3
100
AcDbCircle
 10
192.5894729693999
 20
172.2661437987999
 30
0.0
 40
0.1999999881
100
AcDbArc
 50
122.9999590265999
 51
272.9997651251998
  0
LINE
  5
295
330
2
100
AcDbEntity
  8
0
 62
     3
100
AcDbLine
 10
191.8984276616999
 20
173.83928377
 30
0.0
 11
192.2513822981999
 21
173.9143065846
 31
0.0
  0
LINE
  5
296
330
2
100
AcDbEntity
  8
0
 62
     3
100
AcDbLine
 10
191.9910037968999
 20
174.4248827940999
 30
0.0
 11
191.7229382555998
 21
174.1835154855999
 31
0.0
  0
LINE
  5
297
330
2
100
AcDbEntity
  8
0
 62
     3
100
AcDbLine
 10
190.9282805044998
 20
175.4805301114999
 30
0.0
 11
191.2650395686999
 21
175.6097997896
 31
0.0
  0
LINE
  5
298
330
2
100
AcDbEntity
  8
0
 62
     3
100
AcDbLine
 10
193.2845647911
 20
170.7341949501999
 30
0.0
 11
192.954921201
 21
170.5874281531
 31
0.0
  0
ARC
  5
299
330
2
100
AcDbEntity
  8
0
 62
     3
100
AcDbCircle
 10
193.1867019732998
 20
168.49609375
 30
0.0
 40
0.1999999881
100
AcDbArc
 50
104.9999516954998
 51
254.9997577940999
  0
ARC
  5
29A
330
2
100
AcDbEntity
  8
0
 62
     3
100
AcDbCircle
 10
193.0362503130999
 20
166.5875549315999
 30
0.0
 40
0.1999999881
100
AcDbArc
 50
96.00005731300001
 51
245.9997541286
  0
ARC
  5
29B
330
2
100
AcDbEntity
  8
0
 62
     3
100
AcDbCircle
 10
193.0364334185999
 20
170.4046325682999
 30
0.0
 40
0.1999999881
100
AcDbArc
 50
113.999955361
 51
263.9997614597
  0
LINE
  5
29C
330
2
100
AcDbEntity
  8
0
 62
     3
100
AcDbLine
 10
193.0155379254
 20
170.2057884266999
 30
0.0
 11
193.3742796565
 21
170.1680831652999
 31
0.0
  0
LINE
  5
29D
330
2
100
AcDbEntity
  8
0
 62
     3
100
AcDbLine
 10
193.1347000286999
 20
168.3030732696999
 30
0.0
 11
193.4832445479996
 21
168.209681068
 31
0.0
  0
LINE
  5
29E
330
2
100
AcDbEntity
  8
0
 62
     3
100
AcDbLine
 10
193.483289521
 20
168.7829042678999
 30
0.0
 11
193.1347450016999
 21
168.6895120446
 31
0.0
  0
LINE
  5
29F
330
2
100
AcDbEntity
  8
0
 62
     3
100
AcDbLine
 10
192.9550286464998
 20
166.4050220493999
 30
0.0
 11
193.2845607412998
 21
166.2583049456999
 31
0.0
  0
LINE
  5
2A0
330
2
100
AcDbEntity
  8
0
 62
     3
100
AcDbLine
 10
193.3741528684999
 20
166.8244454584
 30
0.0
 11
193.0154111372999
 21
166.7867401968999
 31
0.0
  0
LINE
  5
2A1
330
2
100
AcDbEntity
  8
0
 62
     3
100
AcDbLine
 10
184.9244435833
 20
179.9901588164999
 30
0.0
 11
185.1209710318999
 21
180.2927845888999
 31
0.0
  0
LINE
  5
2A2
330
2
100
AcDbEntity
  8
0
 62
     3
100
AcDbLine
 10
183.0778831946998
 20
180.4647301895999
 30
0.0
 11
183.2246003198999
 21
180.7942622845
 31
0.0
  0
ARC
  5
2A3
330
2
100
AcDbEntity
  8
0
 62
     3
100
AcDbCircle
 10
182.8951675495
 20
180.5459136962999
 30
0.0
 40
0.1999999881
100
AcDbArc
 50
186.0000566297
 51
335.9997739359
  0
LINE
  5
2A4
330
2
100
AcDbEntity
  8
0
 62
     3
100
AcDbLine
 10
182.6584614107
 20
180.8839095769
 30
0.0
 11
182.6961794320999
 21
180.5250464442
 31
0.0
  0
ARC
  5
2A5
330
2
100
AcDbEntity
  8
0
 62
     3
100
AcDbCircle
 10
184.7565872271998
 20
180.0990447997999
 30
0.0
 40
0.1999999881
100
AcDbArc
 50
176.9999810198
 51
326.9997871184997
  0
LINE
  5
2A6
330
2
100
AcDbEntity
  8
0
 62
     3
100
AcDbLine
 10
184.5757602498999
 20
180.4698621093999
 30
0.0
 11
184.5568817325999
 21
180.1096386959
 31
0.0
  0
ARC
  5
2A7
330
2
100
AcDbEntity
  8
0
 62
     3
100
AcDbCircle
 10
186.5253097613999
 20
179.3664703369
 30
0.0
 40
0.1999999881
100
AcDbArc
 50
167.9999773543
 51
317.9997834529
  0
LINE
  5
2A8
330
2
100
AcDbEntity
  8
0
 62
     3
100
AcDbLine
 10
186.6738267106999
 20
179.2325928005
 30
0.0
 11
186.9152756787999
 21
179.5007490576999
 31
0.0
  0
LINE
  5
2A9
330
2
100
AcDbEntity
  8
0
 62
     3
100
AcDbLine
 10
186.4046571267999
 20
179.7609720312
 30
0.0
 11
186.3296596919999
 21
179.4081367975
 31
0.0
  0
ARC
  5
2AA
330
2
100
AcDbEntity
  8
0
 62
     3
100
AcDbCircle
 10
188.1576339800999
 20
178.3661499022999
 30
0.0
 40
0.1999999881
100
AcDbArc
 50
158.9999736887
 51
308.9997797874
  0
LINE
  5
2AB
330
2
100
AcDbEntity
  8
0
 62
     3
100
AcDbLine
 10
188.2834200743999
 20
178.2107142864999
 30
0.0
 11
188.5638452875999
 21
178.4377981551999
 31
0.0
  0
LINE
  5
2AC
330
2
100
AcDbEntity
  8
0
 62
     3
100
AcDbLine
 10
188.1001319679999
 20
178.7746986721999
 30
0.0
 11
187.9708185438
 21
178.4378256454999
 31
0.0
  0
LINE
  5
2AD
330
2
100
AcDbEntity
  8
0
 62
     3
100
AcDbLine
 10
189.7133153017998
 20
176.9498524748
 30
0.0
 11
190.0257060516
 21
177.130211383
 31
0.0
  0
LINE
  5
2AE
330
2
100
AcDbEntity
  8
0
 62
     3
100
AcDbLine
 10
189.6202882321999
 20
177.5354443584
 30
0.0
 11
189.439929367
 21
177.2230535871
 31
0.0
  0
ARC
  5
2AF
330
2
100
AcDbEntity
  8
0
 62
     3
100
AcDbCircle
 10
189.6132766802999
 20
177.1228485107
 30
0.0
 40
0.1999999881
100
AcDbArc
 50
149.9999700232
 51
299.9997761217997
  0
LINE
  5
2B4
330
2
100
AcDbEntity
  8
0
100
AcDbLine
 10
210.0
 20
297.0
 30
0.0
 11
0.0
 21
297.0
 31
0.0
  0
TEXT
  5
2CE
330
2
100
AcDbEntity
  8
0
 62
     7
100
AcDbText
 10
108.0
 20
115.00000295525
 30
0.0
 40
2.999994089499998
  1
HA1R-2C2*
 11
108.0
 21
116.5
 31
0.0
100
AcDbText
 73
     2
  0
TEXT
  5
2CF
330
2
100
AcDbEntity
  8
0
 62
     7
100
AcDbText
 10
146.0
 20
115.00000295525
 30
0.0
 40
2.999994089499998
  1
HA1R-3C2*
 11
146.0
 21
116.5
 31
0.0
100
AcDbText
 73
     2
  0
TEXT
  5
2E3
330
2
100
AcDbEntity
  8
0
 62
     7
100
AcDbText
 10
108.0
 20
110.00000295525
 30
0.0
 40
2.999994089499998
  1
HA1R-2C6*
 11
108.0
 21
111.5
 31
0.0
100
AcDbText
 73
     2
  0
TEXT
  5
2E4
330
2
100
AcDbEntity
  8
0
 62
     7
100
AcDbText
 10
146.0
 20
110.00000295525
 30
0.0
 40
2.999994089499998
  1
HA1R-3C6*
 11
146.0
 21
111.5
 31
0.0
100
AcDbText
 73
     2
  0
ENDSEC
  0
SECTION
  2
OBJECTS
  0
DICTIONARY
  5
7
330
0
100
AcDbDictionary
281
     1
  3
ACAD_COLOR
350
2D8
  3
ACAD_GROUP
350
1F
  3
ACAD_LAYOUT
350
B
  3
ACAD_MATERIAL
350
2D7
  3
ACAD_MLINESTYLE
350
20
  3
ACAD_PLOTSETTINGS
350
21
  3
ACAD_PLOTSTYLENAME
350
6
  3
ACAD_TABLESTYLE
350
2D9
  3
ACDBHEADERROUNDTRIPXREC
350
2E8
  3
AcDbVariableDictionary
350
2D0
  0
DICTIONARY
  5
2D8
102
{ACAD_REACTORS
330
7
102
}
330
7
100
AcDbDictionary
281
     1
  0
DICTIONARY
  5
1F
102
{ACAD_REACTORS
330
7
102
}
330
7
100
AcDbDictionary
281
     1
  0
DICTIONARY
  5
B
102
{ACAD_REACTORS
330
7
102
}
330
7
100
AcDbDictionary
281
     1
  3
Model
350
A
  3
ﾚｲｱｳﾄ1
350
F
  0
DICTIONARY
  5
2D7
102
{ACAD_REACTORS
330
7
102
}
330
7
100
AcDbDictionary
281
     1
  0
DICTIONARY
  5
20
102
{ACAD_REACTORS
330
7
102
}
330
7
100
AcDbDictionary
281
     1
  3
Standard
350
22
  0
DICTIONARY
  5
21
102
{ACAD_REACTORS
330
7
102
}
330
7
100
AcDbDictionary
281
     1
  0
ACDBDICTIONARYWDFLT
  5
6
102
{ACAD_REACTORS
330
7
102
}
330
7
100
AcDbDictionary
281
     1
  3
Normal
350
5
100
AcDbDictionaryWithDefault
340
5
  0
DICTIONARY
  5
2D9
102
{ACAD_REACTORS
330
7
102
}
330
7
100
AcDbDictionary
281
     1
  3
Standard
350
2DA
  0
DICTIONARY
  5
2E8
102
{ACAD_REACTORS
330
7
102
}
330
7
100
AcDbDictionary
281
     1
  0
DICTIONARY
  5
2D0
102
{ACAD_REACTORS
330
7
102
}
330
7
100
AcDbDictionary
281
     1
  3
CTABLESTYLE
350
2E5
  3
DIMASSOC
350
2D1
  3
PROJECTNAME
350
2E6
  0
LAYOUT
  5
A
102
{ACAD_XDICTIONARY
360
2E9
102
}
102
{ACAD_REACTORS
330
B
102
}
330
B
100
AcDbPlotSettings
  1

  2
C:\Program Files\AutoCAD 2000i\plotters\DWF Classic.pc3
  4

  6

 40
0.0
 41
0.0
 42
0.0
 43
0.0
 44
0.0
 45
0.0
 46
0.0
 47
0.0
 48
0.0
 49
0.0
140
0.0
141
0.0
142
1.0
143
1.0
 70
  1712
 72
     0
 73
     0
 74
     0
  7

 75
     0
147
1.0
148
0.0
149
0.0
100
AcDbLayout
  1
Model
 70
     1
 71
     0
 10
0.0
 20
0.0
 11
12.0
 21
9.0
 12
0.0
 22
0.0
 32
0.0
 14
0.0
 24
0.0
 34
0.0
 15
0.0
 25
0.0
 35
0.0
146
0.0
 13
0.0
 23
0.0
 33
0.0
 16
1.0
 26
0.0
 36
0.0
 17
0.0
 27
1.0
 37
0.0
 76
     0
330
2
  0
LAYOUT
  5
F
102
{ACAD_XDICTIONARY
360
2EB
102
}
102
{ACAD_REACTORS
330
B
102
}
330
B
100
AcDbPlotSettings
  1

  2
C:\Program Files\AutoCAD 2000i\plotters\DWF Classic.pc3
  4

  6

 40
0.0
 41
0.0
 42
0.0
 43
0.0
 44
0.0
 45
0.0
 46
0.0
 47
0.0
 48
0.0
 49
0.0
140
0.0
141
0.0
142
1.0
143
1.0
 70
   688
 72
     0
 73
     0
 74
     5
  7

 75
    16
147
1.0
148
0.0
149
0.0
100
AcDbLayout
  1
ﾚｲｱｳﾄ1
 70
     1
 71
     1
 10
0.0
 20
0.0
 11
12.0
 21
9.0
 12
0.0
 22
0.0
 32
0.0
 14
1.000000000000000E+20
 24
1.000000000000000E+20
 34
1.000000000000000E+20
 15
-1.000000000000000E+20
 25
-1.000000000000000E+20
 35
-1.000000000000000E+20
146
0.0
 13
0.0
 23
0.0
 33
0.0
 16
1.0
 26
0.0
 36
0.0
 17
0.0
 27
1.0
 37
0.0
 76
     0
330
C
  0
MLINESTYLE
  5
22
102
{ACAD_REACTORS
330
20
102
}
330
20
100
AcDbMlineStyle
  2
STANDARD
 70
     0
  3

 62
   256
 51
90.0
 52
90.0
 71
     2
 49
0.5
 62
   256
  6
BYLAYER
 49
-0.5
 62
   256
  6
BYLAYER
  0
ACDBPLACEHOLDER
  5
5
102
{ACAD_REACTORS
330
6
102
}
330
6
  0
TABLESTYLE
  5
2DA
102
{ACAD_REACTORS
330
2D9
102
}
330
2D9
100
AcDbTableStyle
  3
Standard
 70
     0
 71
     0
 40
0.06
 41
0.06
280
     0
281
     0
  7
STANDARD
140
0.18
170
     2
 62
     0
 63
     7
283
     0
274
    -2
284
     1
 64
     0
275
    -2
285
     1
 65
     0
276
    -2
286
     1
 66
     0
277
    -2
287
     1
 67
     0
278
    -2
288
     1
 68
     0
279
    -2
289
     1
 69
     0
  7
STANDARD
140
0.25
170
     5
 62
     0
 63
     7
283
     0
274
    -2
284
     1
 64
     0
275
    -2
285
     1
 65
     0
276
    -2
286
     1
 66
     0
277
    -2
287
     1
 67
     0
278
    -2
288
     1
 68
     0
279
    -2
289
     1
 69
     0
  7
STANDARD
140
0.18
170
     5
 62
     0
 63
     7
283
     0
274
    -2
284
     1
 64
     0
275
    -2
285
     1
 65
     0
276
    -2
286
     1
 66
     0
277
    -2
287
     1
 67
     0
278
    -2
288
     1
 68
     0
279
    -2
289
     1
 69
     0
  0
DICTIONARYVAR
  5
2E5
102
{ACAD_REACTORS
330
2D0
102
}
330
2D0
100
DictionaryVariables
280
     0
  1
STANDARD
  0
DICTIONARYVAR
  5
2D1
102
{ACAD_REACTORS
330
2D0
102
}
330
2D0
100
DictionaryVariables
280
     0
  1
1
  0
DICTIONARYVAR
  5
2E6
102
{ACAD_REACTORS
330
2D0
102
}
330
2D0
100
DictionaryVariables
280
     0
  1

  0
DICTIONARY
  5
2E9
330
A
100
AcDbDictionary
280
     1
281
     1
  3
ACAD_XREC_ROUNDTRIP
360
2EA
  0
DICTIONARY
  5
2EB
330
F
100
AcDbDictionary
280
     1
281
     1
  3
ACAD_XREC_ROUNDTRIP
360
2EC
  0
XRECORD
  5
2EA
102
{ACAD_REACTORS
330
2E9
102
}
330
2E9
100
AcDbXrecord
280
     1
102
SHADEPLOT
 70
     0
102
SHADEPLOTRESLEVEL
 70
     2
102
SHADEPLOTCUSTOMDPI
 70
   300
  0
XRECORD
  5
2EC
102
{ACAD_REACTORS
330
2EB
102
}
330
2EB
100
AcDbXrecord
280
     1
102
SHADEPLOT
 70
     0
102
SHADEPLOTRESLEVEL
 70
     2
102
SHADEPLOTCUSTOMDPI
 70
   300
  0
ENDSEC
  0
EOF
